  0
SECTION
  2
HEADER
  9
$ACADVER
  1
AC1009
  9
$EXTMIN
 10
0.61041443
 20
1.09251530
 30
0.0
  9
$EXTMAX
 10
19.25619609
 20
18.96417514
 30
0.0
  0
ENDSEC
  0
SECTION
  2
TABLES
  0
TABLE
  2
LAYER
 70
1
 0
LAYER
 2
Default_Layer
 70
0
 62
1
 6
CONTINUOUS
 0
ENDTAB
 0
ENDSEC
  0
SECTION
  2
ENTITIES
  0
POLYLINE
  8
Default_Layer
 66
   1
 39
0.000000
 70
    1
  0
VERTEX
  8
0
 10
17.43926763
 20
8.25535184
  0
VERTEX
  8
0
 10
17.43305268
 20
8.21514151
  0
VERTEX
  8
0
 10
17.41610292
 20
8.18579827
  0
VERTEX
  8
0
 10
17.36570655
 20
8.14394908
  0
VERTEX
  8
0
 10
17.31949372
 20
8.09827631
  0
VERTEX
  8
0
 10
17.30777338
 20
8.06415360
  0
VERTEX
  8
0
 10
17.30887963
 20
8.01725201
  0
VERTEX
  8
0
 10
17.36976946
 20
7.99180638
  0
VERTEX
  8
0
 10
17.42648181
 20
7.99534111
  0
VERTEX
  8
0
 10
17.47767097
 20
8.02191090
  0
VERTEX
  8
0
 10
17.52199127
 20
8.06557048
  0
VERTEX
  8
0
 10
17.58464248
 20
8.18037777
  0
VERTEX
  8
0
 10
17.60366989
 20
8.29220063
  0
VERTEX
  8
0
 10
17.56729158
 20
8.39647076
  0
VERTEX
  8
0
 10
17.48513051
 20
8.48310166
  0
VERTEX
  8
0
 10
17.37507760
 20
8.54301920
  0
VERTEX
  8
0
 10
17.25502371
 20
8.56714924
  0
VERTEX
  8
0
 10
17.15908994
 20
8.55820134
  0
VERTEX
  8
0
 10
17.07512572
 20
8.52862461
  0
VERTEX
  8
0
 10
17.00229692
 20
8.48211556
  0
VERTEX
  8
0
 10
16.93976941
 20
8.42237072
  0
VERTEX
  8
0
 10
16.84228170
 20
8.27795975
  0
VERTEX
  8
0
 10
16.77598953
 20
8.12496384
  0
VERTEX
  8
0
 10
16.81757735
 20
7.97377835
  0
VERTEX
  8
0
 10
16.83889819
 20
7.89871374
  0
VERTEX
  8
0
 10
16.84968710
 20
7.81316644
  0
VERTEX
  8
0
 10
16.94812137
 20
7.70299820
  0
VERTEX
  8
0
 10
17.06169505
 20
7.59856802
  0
VERTEX
  8
0
 10
17.19327508
 20
7.51427552
  0
VERTEX
  8
0
 10
17.34572841
 20
7.46452027
  0
VERTEX
  8
0
 10
17.48673004
 20
7.45616628
  0
VERTEX
  8
0
 10
17.62083436
 20
7.47559027
  0
VERTEX
  8
0
 10
17.74678495
 20
7.51829654
  0
VERTEX
  8
0
 10
17.86332541
 20
7.57978939
  0
VERTEX
  8
0
 10
17.96919932
 20
7.65557313
  0
VERTEX
  8
0
 10
18.06315025
 20
7.74115207
  0
VERTEX
  8
0
 10
18.21025756
 20
7.92371279
  0
VERTEX
  8
0
 10
18.22813277
 20
7.27184552
  0
VERTEX
  8
0
 10
18.23251351
 20
6.60156332
  0
VERTEX
  8
0
 10
18.22726469
 20
5.22524806
  0
VERTEX
  8
0
 10
18.22726469
 20
2.47009288
  0
VERTEX
  8
0
 10
17.53376221
 20
2.45059317
  0
VERTEX
  8
0
 10
16.87872656
 20
2.45099345
  0
VERTEX
  8
0
 10
15.58265586
 20
2.48710001
  0
VERTEX
  8
0
 10
15.60407103
 20
2.77284070
  0
VERTEX
  8
0
 10
15.64867946
 20
3.03002460
  0
VERTEX
  8
0
 10
15.71980105
 20
3.27723085
  0
VERTEX
  8
0
 10
15.82075569
 20
3.53303855
  0
VERTEX
  8
0
 10
15.89474972
 20
3.67481783
  0
VERTEX
  8
0
 10
15.98352768
 20
3.80882211
  0
VERTEX
  8
0
 10
16.18924352
 20
4.06592865
  0
VERTEX
  8
0
 10
16.27898402
 20
4.18133546
  0
VERTEX
  8
0
 10
16.31856494
 20
4.24771504
  0
VERTEX
  8
0
 10
16.33663866
 20
4.30686300
  0
VERTEX
  8
0
 10
16.32940962
 20
4.37680938
  0
VERTEX
  8
0
 10
16.30361080
 20
4.43977584
  0
VERTEX
  8
0
 10
16.21388576
 20
4.55155894
  0
VERTEX
  8
0
 10
16.10262741
 20
4.65579220
  0
VERTEX
  8
0
 10
16.00499961
 20
4.76605553
  0
VERTEX
  8
0
 10
15.87715616
 20
5.02011050
  0
VERTEX
  8
0
 10
15.74733035
 20
5.32047088
  0
VERTEX
  8
0
 10
15.64075323
 20
5.66463316
  0
VERTEX
  8
0
 10
15.60406763
 20
5.85235769
  0
VERTEX
  8
0
 10
15.58265586
 20
6.05009390
  0
VERTEX
  8
0
 10
15.58470125
 20
6.28657965
  0
VERTEX
  8
0
 10
15.60919666
 20
6.54553610
  0
VERTEX
  8
0
 10
15.67619508
 20
7.09886696
  0
VERTEX
  8
0
 10
15.73005100
 20
7.61191540
  0
VERTEX
  8
0
 10
15.77012474
 20
7.91893587
  0
VERTEX
  8
0
 10
15.81589282
 20
8.18883097
  0
VERTEX
  8
0
 10
15.88747714
 20
8.43175292
  0
VERTEX
  8
0
 10
16.00499961
 20
8.65785394
  0
VERTEX
  8
0
 10
16.12940847
 20
8.83664905
  0
VERTEX
  8
0
 10
16.24309944
 20
8.97248585
  0
VERTEX
  8
0
 10
16.27228194
 20
8.97109977
  0
VERTEX
  8
0
 10
16.29978987
 20
8.97248585
  0
VERTEX
  8
0
 10
16.37395241
 20
9.04418972
  0
VERTEX
  8
0
 10
16.48403379
 20
9.11704646
  0
VERTEX
  8
0
 10
16.61158727
 20
9.19074403
  0
VERTEX
  8
0
 10
16.69710408
 20
9.21496913
  0
VERTEX
  8
0
 10
16.81283832
 20
9.22759281
  0
VERTEX
  8
0
 10
17.13519746
 20
9.26464210
  0
VERTEX
  8
0
 10
17.32275077
 20
9.26132812
  0
VERTEX
  8
0
 10
17.51296520
 20
9.22759281
  0
VERTEX
  8
0
 10
17.51148913
 20
9.20595177
  0
VERTEX
  8
0
 10
17.52655723
 20
9.19196433
  0
VERTEX
  8
0
 10
17.56682111
 20
9.17373690
  0
VERTEX
  8
0
 10
17.67736746
 20
9.11704646
  0
VERTEX
  8
0
 10
17.77809354
 20
9.04770485
  0
VERTEX
  8
0
 10
17.87861851
 20
8.95264420
  0
VERTEX
  8
0
 10
17.98916486
 20
8.86193950
  0
VERTEX
  8
0
 10
18.03085858
 20
8.75891459
  0
VERTEX
  8
0
 10
18.05421669
 20
8.71174118
  0
VERTEX
  8
0
 10
18.09971121
 20
8.67769559
  0
VERTEX
  8
0
 10
18.12602265
 20
8.46694273
  0
VERTEX
  8
0
 10
18.13825149
 20
8.36967705
  0
VERTEX
  8
0
 10
18.13655999
 20
8.27235897
  0
VERTEX
  8
0
 10
18.08874497
 20
8.10303581
  0
VERTEX
  8
0
 10
18.00469967
 20
7.96082377
  0
VERTEX
  8
0
 10
17.80492094
 20
7.72246175
  0
VERTEX
  8
0
 10
17.64219082
 20
7.67924930
  0
VERTEX
  8
0
 10
17.48795614
 20
7.65332659
  0
VERTEX
  8
0
 10
17.33630516
 20
7.66197146
  0
VERTEX
  8
0
 10
17.18132615
 20
7.72246175
  0
VERTEX
  8
0
 10
17.09863388
 20
7.78358542
  0
VERTEX
  8
0
 10
17.02379537
 20
7.87079766
  0
VERTEX
  8
0
 10
16.97244907
 20
7.98021568
  0
VERTEX
  8
0
 10
16.96023345
 20
8.10795671
  0
VERTEX
  8
0
 10
16.97900209
 20
8.17592446
  0
VERTEX
  8
0
 10
17.01919400
 20
8.24415484
  0
VERTEX
  8
0
 10
17.07597049
 20
8.30543892
  0
VERTEX
  8
0
 10
17.14449288
 20
8.35256776
  0
VERTEX
  8
0
 10
17.21992248
 20
8.37833241
  0
VERTEX
  8
0
 10
17.29742060
 20
8.37552393
  0
VERTEX
  8
0
 10
17.37214854
 20
8.33693339
  0
VERTEX
  8
0
 10
17.43926763
 20
8.25535184
  0
SEQEND
  0
POLYLINE
  8
Default_Layer
 66
   1
 39
0.000000
 70
    1
  0
VERTEX
  8
0
 10
16.37348744
 20
10.09212196
  0
VERTEX
  8
0
 10
16.37362272
 20
9.79349577
  0
VERTEX
  8
0
 10
16.36389359
 20
9.66584050
  0
VERTEX
  8
0
 10
16.33663866
 20
9.53939021
  0
VERTEX
  8
0
 10
16.29657109
 20
9.43974295
  0
VERTEX
  8
0
 10
16.24698440
 20
9.36303342
  0
VERTEX
  8
0
 10
16.11554596
 20
9.22759281
  0
VERTEX
  8
0
 10
16.01565663
 20
9.12028434
  0
VERTEX
  8
0
 10
15.93130204
 20
9.04334890
  0
VERTEX
  8
0
 10
15.82075569
 20
9.02634177
  0
VERTEX
  8
0
 10
15.74989265
 20
8.97248585
  0
VERTEX
  8
0
 10
15.69249652
 20
8.97289349
  0
VERTEX
  8
0
 10
15.61950465
 20
8.97248585
  0
VERTEX
  8
0
 10
15.57715629
 20
8.95021243
  0
VERTEX
  8
0
 10
15.54580708
 20
8.93563707
  0
VERTEX
  8
0
 10
15.41488166
 20
8.93410818
  0
VERTEX
  8
0
 10
15.28932112
 20
8.95134252
  0
VERTEX
  8
0
 10
15.17014239
 20
8.98582304
  0
VERTEX
  8
0
 10
15.05836243
 20
9.03603270
  0
VERTEX
  8
0
 10
14.95499816
 20
9.10045444
  0
VERTEX
  8
0
 10
14.86106652
 20
9.17757122
  0
VERTEX
  8
0
 10
14.77758444
 20
9.26586598
  0
VERTEX
  8
0
 10
14.70556887
 20
9.36382167
  0
VERTEX
  8
0
 10
14.64603673
 20
9.46992124
  0
VERTEX
  8
0
 10
14.60000498
 20
9.58264764
  0
VERTEX
  8
0
 10
14.56849053
 20
9.70048382
  0
VERTEX
  8
0
 10
14.55251034
 20
9.82191273
  0
VERTEX
  8
0
 10
14.55308134
 20
9.94541732
  0
VERTEX
  8
0
 10
14.57122045
 20
10.06948054
  0
VERTEX
  8
0
 10
14.60794463
 20
10.19258533
  0
VERTEX
  8
0
 10
14.66427081
 20
10.31321466
  0
VERTEX
  8
0
 10
14.75888849
 20
10.45710544
  0
VERTEX
  8
0
 10
14.88536350
 20
10.58816327
  0
VERTEX
  8
0
 10
14.92998146
 20
10.60512973
  0
VERTEX
  8
0
 10
14.97606820
 20
10.62501205
  0
VERTEX
  8
0
 10
15.01315756
 20
10.66505382
  0
VERTEX
  8
0
 10
15.06960742
 20
10.69870962
  0
VERTEX
  8
0
 10
15.19716090
 20
10.77240719
  0
VERTEX
  8
0
 10
15.30770725
 20
10.77240719
  0
VERTEX
  8
0
 10
15.40463408
 20
10.79740909
  0
VERTEX
  8
0
 10
15.54580708
 20
10.80925597
  0
VERTEX
  8
0
 10
15.74989265
 20
10.77240719
  0
VERTEX
  8
0
 10
15.75371766
 20
10.75390382
  0
VERTEX
  8
0
 10
15.76689978
 20
10.73555840
  0
VERTEX
  8
0
 10
15.98799248
 20
10.66186084
  0
VERTEX
  8
0
 10
15.99247120
 20
10.64308450
  0
VERTEX
  8
0
 10
16.00499961
 20
10.62501205
  0
VERTEX
  8
0
 10
16.07246056
 20
10.58187508
  0
VERTEX
  8
0
 10
16.15433384
 20
10.50018538
  0
VERTEX
  8
0
 10
16.27994822
 20
10.33022179
  0
VERTEX
  8
0
 10
16.31906165
 20
10.20869893
  0
VERTEX
  8
0
 10
16.33961854
 20
10.14660158
  0
VERTEX
  8
0
 10
16.37348744
 20
10.09212196
  0
SEQEND
  0
POLYLINE
  8
Default_Layer
 66
   1
 39
0.000000
 70
    1
  0
VERTEX
  8
0
 10
12.66309843
 20
11.04735580
  0
VERTEX
  8
0
 10
12.69253951
 20
11.03977515
  0
VERTEX
  8
0
 10
12.71695434
 20
11.02751415
  0
VERTEX
  8
0
 10
12.80028310
 20
10.84699151
  0
VERTEX
  8
0
 10
12.91722850
 20
10.68426439
  0
VERTEX
  8
0
 10
13.06565177
 20
10.54311431
  0
VERTEX
  8
0
 10
13.24341411
 20
10.42732280
  0
VERTEX
  8
0
 10
13.44837672
 20
10.34067138
  0
VERTEX
  8
0
 10
13.67840082
 20
10.28694159
  0
VERTEX
  8
0
 10
13.93134760
 20
10.26991496
  0
VERTEX
  8
0
 10
14.20507828
 20
10.29337300
  0
VERTEX
  8
0
 10
14.29066921
 20
10.31787195
  0
VERTEX
  8
0
 10
14.37037951
 20
10.35650510
  0
VERTEX
  8
0
 10
14.53671733
 20
10.44076814
  0
VERTEX
  8
0
 10
14.45867242
 20
10.26026377
  0
VERTEX
  8
0
 10
14.40075421
 20
10.07035786
  0
VERTEX
  8
0
 10
14.37396877
 20
9.87290961
  0
VERTEX
  8
0
 10
14.38932219
 20
9.66977821
  0
VERTEX
  8
0
 10
14.41957199
 20
9.57840482
  0
VERTEX
  8
0
 10
14.46083112
 20
9.49050495
  0
VERTEX
  8
0
 10
14.49397237
 20
9.40011975
  0
VERTEX
  8
0
 10
14.49986854
 20
9.30129038
  0
VERTEX
  8
0
 10
14.36626216
 20
9.37438486
  0
VERTEX
  8
0
 10
14.22850479
 20
9.42804875
  0
VERTEX
  8
0
 10
14.08805369
 20
9.46327413
  0
VERTEX
  8
0
 10
13.94636611
 20
9.48105310
  0
VERTEX
  8
0
 10
13.80489927
 20
9.48237776
  0
VERTEX
  8
0
 10
13.66511044
 20
9.46824020
  0
VERTEX
  8
0
 10
13.39639573
 20
9.39754677
  0
VERTEX
  8
0
 10
13.15187994
 20
9.27690957
  0
VERTEX
  8
0
 10
12.94322102
 20
9.11426533
  0
VERTEX
  8
0
 10
12.85598099
 20
9.01967080
  0
VERTEX
  8
0
 10
12.78207690
 20
8.91755080
  0
VERTEX
  8
0
 10
12.72296601
 20
8.80889741
  0
VERTEX
  8
0
 10
12.68010556
 20
8.69470272
  0
VERTEX
  8
0
 10
12.64004565
 20
8.72899704
  0
VERTEX
  8
0
 10
12.61952843
 20
8.77656332
  0
VERTEX
  8
0
 10
12.58940086
 20
8.87894663
  0
VERTEX
  8
0
 10
12.50926215
 20
9.00497078
  0
VERTEX
  8
0
 10
12.40052938
 20
9.12689182
  0
VERTEX
  8
0
 10
12.26596808
 20
9.23958978
  0
VERTEX
  8
0
 10
12.10834382
 20
9.33794468
  0
VERTEX
  8
0
 10
11.93042213
 20
9.41683656
  0
VERTEX
  8
0
 10
11.73496857
 20
9.47114544
  0
VERTEX
  8
0
 10
11.52474866
 20
9.49575134
  0
VERTEX
  8
0
 10
11.30252797
 20
9.48553430
  0
VERTEX
  8
0
 10
11.18859038
 20
9.46119648
  0
VERTEX
  8
0
 10
11.07777176
 20
9.42214124
  0
VERTEX
  8
0
 10
10.86317709
 20
9.32113203
  0
VERTEX
  8
0
 10
10.88794766
 20
9.44351300
  0
VERTEX
  8
0
 10
10.93018944
 20
9.57489773
  0
VERTEX
  8
0
 10
10.97081342
 20
9.71687392
  0
VERTEX
  8
0
 10
10.99073057
 20
9.87102926
  0
VERTEX
  8
0
 10
10.97797783
 20
10.03807133
  0
VERTEX
  8
0
 10
10.94012752
 20
10.19318432
  0
VERTEX
  8
0
 10
10.84333544
 20
10.47761692
  0
VERTEX
  8
0
 10
10.97736187
 20
10.39201248
  0
VERTEX
  8
0
 10
11.13867359
 20
10.33191165
  0
VERTEX
  8
0
 10
11.31842290
 20
10.29613380
  0
VERTEX
  8
0
 10
11.50776212
 20
10.28349835
  0
VERTEX
  8
0
 10
11.69784356
 20
10.29282466
  0
VERTEX
  8
0
 10
11.87981952
 20
10.32293214
  0
VERTEX
  8
0
 10
12.04484231
 20
10.37264017
  0
VERTEX
  8
0
 10
12.18406425
 20
10.44076814
  0
VERTEX
  8
0
 10
12.24075468
 20
10.51446570
  0
VERTEX
  8
0
 10
12.28715807
 20
10.53229102
  0
VERTEX
  8
0
 10
12.33145938
 20
10.55131449
  0
VERTEX
  8
0
 10
12.36817884
 20
10.60667376
  0
VERTEX
  8
0
 10
12.38970229
 20
10.63627467
  0
VERTEX
  8
0
 10
12.42499860
 20
10.66186084
  0
VERTEX
  8
0
 10
12.48369378
 20
10.72448984
  0
VERTEX
  8
0
 10
12.55060869
 20
10.83661424
  0
VERTEX
  8
0
 10
12.66309843
 20
11.04735580
  0
SEQEND
  0
POLYLINE
  8
Default_Layer
 66
   1
 39
0.000000
 70
    1
  0
VERTEX
  8
0
 10
8.95270941
 20
10.44076814
  0
VERTEX
  8
0
 10
8.88327383
 20
10.26575143
  0
VERTEX
  8
0
 10
8.83408138
 20
10.05742833
  0
VERTEX
  8
0
 10
8.81656636
 20
9.83385505
  0
VERTEX
  8
0
 10
8.84216306
 20
9.61308778
  0
VERTEX
  8
0
 10
8.90470806
 20
9.46938727
  0
VERTEX
  8
0
 10
8.93605550
 20
9.40526780
  0
VERTEX
  8
0
 10
8.95270941
 20
9.33813916
  0
VERTEX
  8
0
 10
8.75997362
 20
9.41152724
  0
VERTEX
  8
0
 10
8.56028908
 20
9.47165506
  0
VERTEX
  8
0
 10
8.34989462
 20
9.50612550
  0
VERTEX
  8
0
 10
8.12502905
 20
9.50254143
  0
VERTEX
  8
0
 10
7.98629070
 20
9.47768474
  0
VERTEX
  8
0
 10
7.85648641
 20
9.43613077
  0
VERTEX
  8
0
 10
7.62354135
 20
9.31509783
  0
VERTEX
  8
0
 10
7.42591648
 20
9.16377636
  0
VERTEX
  8
0
 10
7.26333443
 20
9.00650012
  0
VERTEX
  8
0
 10
7.20180206
 20
8.85726283
  0
VERTEX
  8
0
 10
7.13294643
 20
8.71454437
  0
VERTEX
  8
0
 10
7.09734250
 20
8.75762886
  0
VERTEX
  8
0
 10
7.07257274
 20
8.80789212
  0
VERTEX
  8
0
 10
7.02523460
 20
8.91579542
  0
VERTEX
  8
0
 10
6.88304654
 20
9.09849590
  0
VERTEX
  8
0
 10
6.69173837
 20
9.26690742
  0
VERTEX
  8
0
 10
6.47372221
 20
9.40219766
  0
VERTEX
  8
0
 10
6.25141015
 20
9.48553430
  0
VERTEX
  8
0
 10
5.99729045
 20
9.51717346
  0
VERTEX
  8
0
 10
5.74915277
 20
9.49875160
  0
VERTEX
  8
0
 10
5.50908354
 20
9.44183272
  0
VERTEX
  8
0
 10
5.27916918
 20
9.35798082
  0
VERTEX
  8
0
 10
5.33375844
 20
9.48486866
  0
VERTEX
  8
0
 10
5.37420762
 20
9.62546843
  0
VERTEX
  8
0
 10
5.39943398
 20
9.77479084
  0
VERTEX
  8
0
 10
5.40835478
 20
9.92784657
  0
VERTEX
  8
0
 10
5.39988728
 20
10.07964635
  0
VERTEX
  8
0
 10
5.37294873
 20
10.22520086
  0
VERTEX
  8
0
 10
5.32645640
 20
10.35952082
  0
VERTEX
  8
0
 10
5.25932753
 20
10.47761692
  0
VERTEX
  8
0
 10
5.41515746
 20
10.41166525
  0
VERTEX
  8
0
 10
5.55411780
 20
10.33022179
  0
VERTEX
  8
0
 10
5.60872720
 20
10.34361583
  0
VERTEX
  8
0
 10
5.66383392
 20
10.34116434
  0
VERTEX
  8
0
 10
5.77613876
 20
10.31013006
  0
VERTEX
  8
0
 10
5.89223126
 20
10.27992944
  0
VERTEX
  8
0
 10
5.95207254
 20
10.27852005
  0
VERTEX
  8
0
 10
6.01331032
 20
10.29337300
  0
VERTEX
  8
0
 10
6.03315198
 20
10.33022179
  0
VERTEX
  8
0
 10
6.06815729
 20
10.31104270
  0
VERTEX
  8
0
 10
6.10684954
 20
10.29337300
  0
VERTEX
  8
0
 10
6.28141385
 20
10.32473285
  0
VERTEX
  8
0
 10
6.44116741
 20
10.37913164
  0
VERTEX
  8
0
 10
6.58624298
 20
10.45433760
  0
VERTEX
  8
0
 10
6.71677333
 20
10.54811895
  0
VERTEX
  8
0
 10
6.83289121
 20
10.65824393
  0
VERTEX
  8
0
 10
6.93472939
 20
10.78248077
  0
VERTEX
  8
0
 10
7.02242061
 20
10.91859769
  0
VERTEX
  8
0
 10
7.09609765
 20
11.06436293
  0
VERTEX
  8
0
 10
7.15278808
 20
11.06436293
  0
VERTEX
  8
0
 10
7.23776114
 20
10.89455349
  0
VERTEX
  8
0
 10
7.35064946
 20
10.73451739
  0
VERTEX
  8
0
 10
7.49025971
 20
10.58985878
  0
VERTEX
  8
0
 10
7.65539854
 20
10.46618179
  0
VERTEX
  8
0
 10
7.84487260
 20
10.36909057
  0
VERTEX
  8
0
 10
8.05748856
 20
10.30418927
  0
VERTEX
  8
0
 10
8.29205308
 20
10.27708203
  0
VERTEX
  8
0
 10
8.54737280
 20
10.29337300
  0
VERTEX
  8
0
 10
8.57964656
 20
10.31070692
  0
VERTEX
  8
0
 10
8.60406323
 20
10.33022179
  0
VERTEX
  8
0
 10
8.69476793
 20
10.33022179
  0
VERTEX
  8
0
 10
8.81770040
 20
10.39414149
  0
VERTEX
  8
0
 10
8.88131517
 20
10.42487081
  0
VERTEX
  8
0
 10
8.95270941
 20
10.44076814
  0
SEQEND
  0
POLYLINE
  8
Default_Layer
 66
   1
 39
0.000000
 70
    1
  0
VERTEX
  8
0
 10
0.63055346
 20
18.90748470
  0
VERTEX
  8
0
 10
0.61832002
 20
18.73765107
  0
VERTEX
  8
0
 10
0.61354633
 20
18.55883852
  0
VERTEX
  8
0
 10
0.64693190
 20
18.53490163
  0
VERTEX
  8
0
 10
0.69360715
 20
18.52423199
  0
VERTEX
  8
0
 10
0.80870521
 20
18.52457408
  0
VERTEX
  8
0
 10
0.92259757
 20
18.52362400
  0
VERTEX
  8
0
 10
0.96776569
 20
18.51133915
  0
VERTEX
  8
0
 10
0.99904129
 20
18.48514096
  0
VERTEX
  8
0
 10
0.99904129
 20
1.14637121
  0
VERTEX
  8
0
 10
9.95869466
 20
1.10473262
  0
VERTEX
  8
0
 10
14.39561325
 20
1.09121681
  0
VERTEX
  8
0
 10
18.81684522
 20
1.09251530
  0
VERTEX
  8
0
 10
18.81684522
 20
18.41144339
  0
VERTEX
  8
0
 10
18.85819633
 20
18.43428065
  0
VERTEX
  8
0
 10
18.91148772
 20
18.44518941
  0
VERTEX
  8
0
 10
19.03776377
 20
18.44729269
  0
VERTEX
  8
0
 10
19.16341827
 20
18.44989570
  0
VERTEX
  8
0
 10
19.21593271
 20
18.46142914
  0
VERTEX
  8
0
 10
19.25619609
 20
18.48514096
  0
VERTEX
  8
0
 10
19.23994237
 20
18.56524065
  0
VERTEX
  8
0
 10
19.23699898
 20
18.65868845
  0
VERTEX
  8
0
 10
19.23918896
 20
18.85362879
  0
VERTEX
  8
0
 10
17.23910272
 20
18.88164055
  0
VERTEX
  8
0
 10
15.18584503
 20
18.89162913
  0
VERTEX
  8
0
 10
11.04742101
 20
18.89047757
  0
VERTEX
  8
0
 10
10.66807391
 20
18.87856493
  0
VERTEX
  8
0
 10
10.48118385
 20
18.87730704
  0
VERTEX
  8
0
 10
10.31044535
 20
18.89047757
  0
VERTEX
  8
0
 10
10.20273352
 20
18.92732636
  0
VERTEX
  8
0
 10
10.14439842
 20
18.90957173
  0
VERTEX
  8
0
 10
10.09218717
 20
18.89047757
  0
VERTEX
  8
0
 10
10.00516644
 20
18.88802737
  0
VERTEX
  8
0
 10
9.93278362
 20
18.89903613
  0
VERTEX
  8
0
 10
9.81440403
 20
18.92732636
  0
VERTEX
  8
0
 10
9.66984342
 20
18.92732636
  0
VERTEX
  8
0
 10
8.55268723
 20
18.94912341
  0
VERTEX
  8
0
 10
7.43263298
 20
18.94646767
  0
VERTEX
  8
0
 10
5.20547162
 20
18.92732636
  0
VERTEX
  8
0
 10
3.41605403
 20
18.90406124
  0
VERTEX
  8
0
 10
2.51438943
 20
18.90141618
  0
VERTEX
  8
0
 10
1.64247774
 20
18.92732636
  0
VERTEX
  8
0
 10
1.49508260
 20
18.92732636
  0
VERTEX
  8
0
 10
1.44156775
 20
18.94797422
  0
VERTEX
  8
0
 10
1.38453625
 20
18.96417514
  0
VERTEX
  8
0
 10
1.27398990
 20
18.92732636
  0
VERTEX
  8
0
 10
1.12659477
 20
18.92732636
  0
VERTEX
  8
0
 10
0.89227031
 20
18.94741458
  0
VERTEX
  8
0
 10
0.66740224
 20
18.96417514
  0
VERTEX
  8
0
 10
0.64616912
 20
18.93939823
  0
VERTEX
  8
0
 10
0.63055346
 20
18.90748470
  0
SEQEND
  0
POLYLINE
  8
Default_Layer
 66
   1
 39
0.000000
 70
    1
  0
VERTEX
  8
0
 10
1.64247774
 20
18.33774582
  0
VERTEX
  8
0
 10
2.70710704
 20
18.33716290
  0
VERTEX
  8
0
 10
3.75419646
 20
18.32073869
  0
VERTEX
  8
0
 10
5.24232040
 20
18.32073869
  0
VERTEX
  8
0
 10
5.71852006
 20
18.33774582
  0
VERTEX
  8
0
 10
7.75156221
 20
18.32001150
  0
VERTEX
  8
0
 10
9.81440403
 20
18.30089704
  0
VERTEX
  8
0
 10
13.99509974
 20
18.28427232
  0
VERTEX
  8
0
 10
18.24710634
 20
18.26404826
  0
VERTEX
  8
0
 10
18.26526324
 20
18.08574598
  0
VERTEX
  8
0
 10
18.26692103
 20
17.89046541
  0
VERTEX
  8
0
 10
18.26411347
 20
17.49305833
  0
VERTEX
  8
0
 10
13.60757643
 20
17.51920162
  0
VERTEX
  8
0
 10
8.86200472
 20
17.52990712
  0
VERTEX
  8
0
 10
8.18072595
 20
17.51866476
  0
VERTEX
  8
0
 10
7.83968259
 20
17.51710370
  0
VERTEX
  8
0
 10
7.50143426
 20
17.52990712
  0
VERTEX
  8
0
 10
7.17612551
 20
17.55435246
  0
VERTEX
  8
0
 10
6.84099068
 20
17.56675590
  0
VERTEX
  8
0
 10
1.60562895
 20
17.56675590
  0
VERTEX
  8
0
 10
1.58399907
 20
17.92533555
  0
VERTEX
  8
0
 10
1.60562895
 20
18.28388991
  0
VERTEX
  8
0
 10
1.62006847
 20
18.31476023
  0
VERTEX
  8
0
 10
1.64247774
 20
18.33774582
  0
SEQEND
  0
POLYLINE
  8
Default_Layer
 66
   1
 39
0.000000
 70
    1
  0
VERTEX
  8
0
 10
3.86474281
 20
17.22922759
  0
VERTEX
  8
0
 10
4.21338899
 20
17.22922759
  0
VERTEX
  8
0
 10
4.17433464
 20
16.87140833
  0
VERTEX
  8
0
 10
4.10993483
 20
16.54385441
  0
VERTEX
  8
0
 10
4.01010055
 20
16.24370158
  0
VERTEX
  8
0
 10
3.86474281
 20
15.96808561
  0
VERTEX
  8
0
 10
3.76636177
 20
15.85111429
  0
VERTEX
  8
0
 10
3.64365011
 20
15.71297865
  0
VERTEX
  8
0
 10
3.52087153
 20
15.56858209
  0
VERTEX
  8
0
 10
3.46846163
 20
15.49757957
  0
VERTEX
  8
0
 10
3.44239907
 20
15.43519552
  0
VERTEX
  8
0
 10
3.44931608
 20
15.39082225
  0
VERTEX
  8
0
 10
3.47729203
 20
15.33232355
  0
VERTEX
  8
0
 10
3.57525356
 20
15.18991057
  0
VERTEX
  8
0
 10
3.79104525
 20
14.92214708
  0
VERTEX
  8
0
 10
3.90566502
 20
14.74401740
  0
VERTEX
  8
0
 10
4.01213795
 20
14.51681046
  0
VERTEX
  8
0
 10
4.10020683
 20
14.24778701
  0
VERTEX
  8
0
 10
4.16074395
 20
13.95958578
  0
VERTEX
  8
0
 10
4.18807864
 20
13.64245128
  0
VERTEX
  8
0
 10
4.17654021
 20
13.28662801
  0
VERTEX
  8
0
 10
4.12706126
 20
12.86780282
  0
VERTEX
  8
0
 10
4.06599386
 20
12.44194052
  0
VERTEX
  8
0
 10
4.04376619
 20
12.18639718
  0
VERTEX
  8
0
 10
4.03455207
 20
11.93346696
  0
VERTEX
  8
0
 10
4.02263445
 20
11.70092547
  0
VERTEX
  8
0
 10
3.99229629
 20
11.50654833
  0
VERTEX
  8
0
 10
3.91752079
 20
11.30373875
  0
VERTEX
  8
0
 10
3.81088690
 20
11.10121171
  0
VERTEX
  8
0
 10
3.74814979
 20
11.04642696
  0
VERTEX
  8
0
 10
3.68049890
 20
10.99066536
  0
VERTEX
  8
0
 10
3.59482052
 20
10.88185526
  0
VERTEX
  8
0
 10
3.49625498
 20
10.77240719
  0
VERTEX
  8
0
 10
3.40559036
 20
10.70810850
  0
VERTEX
  8
0
 10
3.35853641
 20
10.67329108
  0
VERTEX
  8
0
 10
3.31484559
 20
10.62501205
  0
VERTEX
  8
0
 10
3.15032275
 20
10.58318907
  0
VERTEX
  8
0
 10
2.99095120
 20
10.53326663
  0
VERTEX
  8
0
 10
2.83266772
 20
10.49236811
  0
VERTEX
  8
0
 10
2.67140914
 20
10.47761692
  0
VERTEX
  8
0
 10
2.55152104
 20
10.49469495
  0
VERTEX
  8
0
 10
2.43684102
 20
10.52981138
  0
VERTEX
  8
0
 10
2.31968652
 20
10.56646717
  0
VERTEX
  8
0
 10
2.19237496
 20
10.58816327
  0
VERTEX
  8
0
 10
2.11048688
 20
10.66631208
  0
VERTEX
  8
0
 10
2.01821705
 20
10.73465104
  0
VERTEX
  8
0
 10
1.92586464
 20
10.80273505
  0
VERTEX
  8
0
 10
1.84372878
 20
10.88011901
  0
VERTEX
  8
0
 10
1.80392338
 20
10.96950162
  0
VERTEX
  8
0
 10
1.77930431
 20
11.00818940
  0
VERTEX
  8
0
 10
1.73318243
 20
11.02751415
  0
VERTEX
  8
0
 10
1.67834142
 20
11.25224584
  0
VERTEX
  8
0
 10
1.66735348
 20
11.35338335
  0
VERTEX
  8
0
 10
1.67932652
 20
11.48670668
  0
VERTEX
  8
0
 10
1.72141999
 20
11.65730201
  0
VERTEX
  8
0
 10
1.79302046
 20
11.81710378
  0
VERTEX
  8
0
 10
1.89493551
 20
11.95414171
  0
VERTEX
  8
0
 10
2.02797270
 20
12.05644555
  0
VERTEX
  8
0
 10
2.15128792
 20
12.10500952
  0
VERTEX
  8
0
 10
2.28647010
 20
12.12538212
  0
VERTEX
  8
0
 10
2.42439499
 20
12.11753378
  0
VERTEX
  8
0
 10
2.55593834
 20
12.08143495
  0
VERTEX
  8
0
 10
2.67197591
 20
12.01705606
  0
VERTEX
  8
0
 10
2.76338344
 20
11.92436755
  0
VERTEX
  8
0
 10
2.82103669
 20
11.80333987
  0
VERTEX
  8
0
 10
2.83581141
 20
11.65394346
  0
VERTEX
  8
0
 10
2.81604729
 20
11.54858750
  0
VERTEX
  8
0
 10
2.77066410
 20
11.45213578
  0
VERTEX
  8
0
 10
2.70258140
 20
11.37792993
  0
VERTEX
  8
0
 10
2.61471871
 20
11.33931154
  0
VERTEX
  8
0
 10
2.51473408
 20
11.34104208
  0
VERTEX
  8
0
 10
2.43611152
 20
11.37296252
  0
VERTEX
  8
0
 10
2.38301582
 20
11.42490627
  0
VERTEX
  8
0
 10
2.35961175
 20
11.48670668
  0
VERTEX
  8
0
 10
2.36791105
 20
11.54728343
  0
VERTEX
  8
0
 10
2.40221578
 20
11.59634988
  0
VERTEX
  8
0
 10
2.44710686
 20
11.65082830
  0
VERTEX
  8
0
 10
2.48716523
 20
11.72764103
  0
VERTEX
  8
0
 10
2.45028657
 20
11.77237687
  0
VERTEX
  8
0
 10
2.41346766
 20
11.81834572
  0
VERTEX
  8
0
 10
2.29923835
 20
11.73974105
  0
VERTEX
  8
0
 10
2.22967007
 20
11.63387851
  0
VERTEX
  8
0
 10
2.20335688
 20
11.51412634
  0
VERTEX
  8
0
 10
2.21889283
 20
11.39385277
  0
VERTEX
  8
0
 10
2.27487198
 20
11.28642605
  0
VERTEX
  8
0
 10
2.36988838
 20
11.20521440
  0
VERTEX
  8
0
 10
2.50253608
 20
11.16358607
  0
VERTEX
  8
0
 10
2.67140914
 20
11.17490928
  0
VERTEX
  8
0
 10
2.79228993
 20
11.22969554
  0
VERTEX
  8
0
 10
2.88507625
 20
11.32508168
  0
VERTEX
  8
0
 10
2.94882438
 20
11.44999889
  0
VERTEX
  8
0
 10
2.98259063
 20
11.59337838
  0
VERTEX
  8
0
 10
2.98543129
 20
11.74415134
  0
VERTEX
  8
0
 10
2.95640264
 20
11.89124899
  0
VERTEX
  8
0
 10
2.89456099
 20
12.02360251
  0
VERTEX
  8
0
 10
2.79896262
 20
12.13014312
  0
VERTEX
  8
0
 10
2.64478487
 20
12.22321641
  0
VERTEX
  8
0
 10
2.47241840
 20
12.27581869
  0
VERTEX
  8
0
 10
2.29131910
 20
12.28866347
  0
VERTEX
  8
0
 10
2.11094291
 20
12.26246423
  0
VERTEX
  8
0
 10
1.94074572
 20
12.19793446
  0
VERTEX
  8
0
 10
1.79018344
 20
12.09578767
  0
VERTEX
  8
0
 10
1.66871200
 20
11.95673733
  0
VERTEX
  8
0
 10
1.58578730
 20
11.78149694
  0
VERTEX
  8
0
 10
1.55964137
 20
11.80492420
  0
VERTEX
  8
0
 10
1.54928029
 20
11.84623366
  0
VERTEX
  8
0
 10
1.54893852
 20
11.92889207
  0
VERTEX
  8
0
 10
1.57762969
 20
12.63883565
  0
VERTEX
  8
0
 10
1.58578730
 20
13.36032557
  0
VERTEX
  8
0
 10
1.57842753
 20
13.42013306
  0
VERTEX
  8
0
 10
1.54893852
 20
13.47087192
  0
VERTEX
  8
0
 10
1.58275834
 20
13.81703217
  0
VERTEX
  8
0
 10
1.59260797
 20
14.21596034
  0
VERTEX
  8
0
 10
1.58578730
 20
15.04970056
  0
VERTEX
  8
0
 10
1.58578730
 20
15.74982744
  0
VERTEX
  8
0
 10
1.58989913
 20
16.47465884
  0
VERTEX
  8
0
 10
1.60562895
 20
17.18126094
  0
VERTEX
  8
0
 10
1.60562895
 20
17.23795137
  0
VERTEX
  8
0
 10
2.34361796
 20
17.23808006
  0
VERTEX
  8
0
 10
2.70802417
 20
17.23424299
  0
VERTEX
  8
0
 10
3.05690410
 20
17.21810972
  0
VERTEX
  8
0
 10
3.86474281
 20
17.22922759
  0
SEQEND
  0
POLYLINE
  8
Default_Layer
 66
   1
 39
0.000000
 70
    1
  0
VERTEX
  8
0
 10
4.48833760
 20
17.21047759
  0
VERTEX
  8
0
 10
4.99719564
 20
17.23187236
  0
VERTEX
  8
0
 10
5.76332782
 20
17.22931134
  0
VERTEX
  8
0
 10
6.96854416
 20
17.20110259
  0
VERTEX
  8
0
 10
6.96854416
 20
14.22485472
  0
VERTEX
  8
0
 10
6.85538690
 20
14.21389526
  0
VERTEX
  8
0
 10
6.75798383
 20
14.18721895
  0
VERTEX
  8
0
 10
6.59641861
 20
14.10072350
  0
VERTEX
  8
0
 10
6.45580528
 20
13.99338390
  0
VERTEX
  8
0
 10
6.30810059
 20
13.89321567
  0
VERTEX
  8
0
 10
6.16195934
 20
13.64719820
  0
VERTEX
  8
0
 10
6.09543358
 20
13.51237609
  0
VERTEX
  8
0
 10
6.05015911
 20
13.36032557
  0
VERTEX
  8
0
 10
6.03274267
 20
13.20543060
  0
VERTEX
  8
0
 10
6.03687571
 20
13.05170790
  0
VERTEX
  8
0
 10
6.06085168
 20
12.90202171
  0
VERTEX
  8
0
 10
6.10296405
 20
12.75923628
  0
VERTEX
  8
0
 10
6.16150630
 20
12.62621586
  0
VERTEX
  8
0
 10
6.23477188
 20
12.50582468
  0
VERTEX
  8
0
 10
6.32105427
 20
12.40092699
  0
VERTEX
  8
0
 10
6.41864694
 20
12.31438704
  0
VERTEX
  8
0
 10
6.33974334
 20
12.28511390
  0
VERTEX
  8
0
 10
6.26280936
 20
12.27593129
  0
VERTEX
  8
0
 10
6.10684954
 20
12.25769660
  0
VERTEX
  8
0
 10
6.00660302
 20
12.22001408
  0
VERTEX
  8
0
 10
5.91464670
 20
12.16607330
  0
VERTEX
  8
0
 10
5.83295655
 20
12.09794728
  0
VERTEX
  8
0
 10
5.76350853
 20
12.01770905
  0
VERTEX
  8
0
 10
5.70827860
 20
11.92743165
  0
VERTEX
  8
0
 10
5.66924273
 20
11.82918810
  0
VERTEX
  8
0
 10
5.64837688
 20
11.72505143
  0
VERTEX
  8
0
 10
5.64765701
 20
11.61709468
  0
VERTEX
  8
0
 10
5.67525247
 20
11.49604659
  0
VERTEX
  8
0
 10
5.72859891
 20
11.39864131
  0
VERTEX
  8
0
 10
5.86591519
 20
11.21175806
  0
VERTEX
  8
0
 10
6.08217857
 20
11.16686887
  0
VERTEX
  8
0
 10
6.17915361
 20
11.15945237
  0
VERTEX
  8
0
 10
6.27125181
 20
11.17490928
  0
VERTEX
  8
0
 10
6.36070014
 20
11.22582938
  0
VERTEX
  8
0
 10
6.41969351
 20
11.30150808
  0
VERTEX
  8
0
 10
6.45002304
 20
11.39342740
  0
VERTEX
  8
0
 10
6.45347988
 20
11.49306936
  0
VERTEX
  8
0
 10
6.43185516
 20
11.59191599
  0
VERTEX
  8
0
 10
6.38694002
 20
11.68144930
  0
VERTEX
  8
0
 10
6.32052560
 20
11.75315132
  0
VERTEX
  8
0
 10
6.23440302
 20
11.79850407
  0
VERTEX
  8
0
 10
6.18666365
 20
11.76210659
  0
VERTEX
  8
0
 10
6.17306563
 20
11.72265701
  0
VERTEX
  8
0
 10
6.18431990
 20
11.68035151
  0
VERTEX
  8
0
 10
6.21113741
 20
11.63538624
  0
VERTEX
  8
0
 10
6.27430598
 20
11.53826105
  0
VERTEX
  8
0
 10
6.29207893
 20
11.48649346
  0
VERTEX
  8
0
 10
6.28825894
 20
11.43285076
  0
VERTEX
  8
0
 10
6.25406119
 20
11.37863245
  0
VERTEX
  8
0
 10
6.19383627
 20
11.34935808
  0
VERTEX
  8
0
 10
6.10783374
 20
11.33844524
  0
VERTEX
  8
0
 10
5.99630319
 20
11.33931154
  0
VERTEX
  8
0
 10
5.88725699
 20
11.44272555
  0
VERTEX
  8
0
 10
5.83319004
 20
11.56335249
  0
VERTEX
  8
0
 10
5.82775856
 20
11.69193446
  0
VERTEX
  8
0
 10
5.86461875
 20
11.81921355
  0
VERTEX
  8
0
 10
5.93742684
 20
11.93593186
  0
VERTEX
  8
0
 10
6.03983903
 20
12.03283149
  0
VERTEX
  8
0
 10
6.16551154
 20
12.10065455
  0
VERTEX
  8
0
 10
6.30810059
 20
12.13014312
  0
VERTEX
  8
0
 10
6.45965376
 20
12.11872894
  0
VERTEX
  8
0
 10
6.59798311
 20
12.07172342
  0
VERTEX
  8
0
 10
6.72050174
 20
11.99346912
  0
VERTEX
  8
0
 10
6.82462277
 20
11.88830860
  0
VERTEX
  8
0
 10
6.90775930
 20
11.76058442
  0
VERTEX
  8
0
 10
6.96732444
 20
11.61463916
  0
VERTEX
  8
0
 10
7.00073129
 20
11.45481537
  0
VERTEX
  8
0
 10
7.00539295
 20
11.28545563
  0
VERTEX
  8
0
 10
6.97726634
 20
11.14080525
  0
VERTEX
  8
0
 10
6.91738271
 20
11.02317017
  0
VERTEX
  8
0
 10
6.83276705
 20
10.91762790
  0
VERTEX
  8
0
 10
6.73044434
 20
10.80925597
  0
VERTEX
  8
0
 10
6.70274911
 20
10.76904838
  0
VERTEX
  8
0
 10
6.67375390
 20
10.73555840
  0
VERTEX
  8
0
 10
6.52919329
 20
10.64201918
  0
VERTEX
  8
0
 10
6.47250285
 20
10.58816327
  0
VERTEX
  8
0
 10
6.41864694
 20
10.58816327
  0
VERTEX
  8
0
 10
6.41864694
 20
10.55131449
  0
VERTEX
  8
0
 10
6.34390397
 20
10.53401613
  0
VERTEX
  8
0
 10
6.26542601
 20
10.52698465
  0
VERTEX
  8
0
 10
6.18986096
 20
10.51369370
  0
VERTEX
  8
0
 10
6.12385667
 20
10.47761692
  0
VERTEX
  8
0
 10
5.93950926
 20
10.47604047
  0
VERTEX
  8
0
 10
5.77521049
 20
10.47761692
  0
VERTEX
  8
0
 10
5.70151293
 20
10.51446570
  0
VERTEX
  8
0
 10
5.59495022
 20
10.53787807
  0
VERTEX
  8
0
 10
5.50026188
 20
10.56832162
  0
VERTEX
  8
0
 10
5.44357145
 20
10.58816327
  0
VERTEX
  8
0
 10
5.41962580
 20
10.60707555
  0
VERTEX
  8
0
 10
5.40672266
 20
10.62501205
  0
VERTEX
  8
0
 10
5.29405280
 20
10.66520880
  0
VERTEX
  8
0
 10
5.20547162
 20
10.69870962
  0
VERTEX
  8
0
 10
5.16862283
 20
10.73555840
  0
VERTEX
  8
0
 10
5.08831188
 20
10.81929710
  0
VERTEX
  8
0
 10
5.02075129
 20
10.91283623
  0
VERTEX
  8
0
 10
4.94917711
 20
10.99993758
  0
VERTEX
  8
0
 10
4.85682544
 20
11.06436293
  0
VERTEX
  8
0
 10
4.72927196
 20
11.35915319
  0
VERTEX
  8
0
 10
4.67795411
 20
11.50597514
  0
VERTEX
  8
0
 10
4.64894834
 20
11.66430892
  0
VERTEX
  8
0
 10
4.61872561
 20
12.01959677
  0
VERTEX
  8
0
 10
4.56203517
 20
12.42493339
  0
VERTEX
  8
0
 10
4.56372483
 20
12.53739665
  0
VERTEX
  8
0
 10
4.56203517
 20
12.64602608
  0
VERTEX
  8
0
 10
4.52518639
 20
12.99467226
  0
VERTEX
  8
0
 10
4.48833760
 20
13.36032557
  0
VERTEX
  8
0
 10
4.45148882
 20
13.49071358
  0
VERTEX
  8
0
 10
4.44660860
 20
13.67602790
  0
VERTEX
  8
0
 10
4.46348782
 20
13.85538478
  0
VERTEX
  8
0
 10
4.49786605
 20
14.02887673
  0
VERTEX
  8
0
 10
4.54548288
 20
14.19659627
  0
VERTEX
  8
0
 10
4.66339067
 20
14.51508820
  0
VERTEX
  8
0
 10
4.78312787
 20
14.81160073
  0
VERTEX
  8
0
 10
4.88637689
 20
14.93546631
  0
VERTEX
  8
0
 10
5.01236259
 20
15.06824340
  0
VERTEX
  8
0
 10
5.12931686
 20
15.20592167
  0
VERTEX
  8
0
 10
5.20547162
 20
15.34449082
  0
VERTEX
  8
0
 10
5.21185664
 20
15.41222005
  0
VERTEX
  8
0
 10
5.19195884
 20
15.48225647
  0
VERTEX
  8
0
 10
5.09854332
 20
15.62399766
  0
VERTEX
  8
0
 10
4.87383257
 20
15.87738092
  0
VERTEX
  8
0
 10
4.76328622
 20
16.11548075
  0
VERTEX
  8
0
 10
4.69700348
 20
16.21842959
  0
VERTEX
  8
0
 10
4.63573274
 20
16.31956631
  0
VERTEX
  8
0
 10
4.61594310
 20
16.41901154
  0
VERTEX
  8
0
 10
4.59888395
 20
16.52081736
  0
VERTEX
  8
0
 10
4.51415230
 20
16.81013850
  0
VERTEX
  8
0
 10
4.48720642
 20
16.99343677
  0
VERTEX
  8
0
 10
4.48833760
 20
17.21047759
  0
SEQEND
  0
POLYLINE
  8
Default_Layer
 66
   1
 39
0.000000
 70
    1
  0
VERTEX
  8
0
 10
9.78038977
 20
17.20110259
  0
VERTEX
  8
0
 10
9.76746178
 20
16.93055896
  0
VERTEX
  8
0
 10
9.72540242
 20
16.67755801
  0
VERTEX
  8
0
 10
9.65781828
 20
16.44145577
  0
VERTEX
  8
0
 10
9.56831592
 20
16.22160825
  0
VERTEX
  8
0
 10
9.46050192
 20
16.01737149
  0
VERTEX
  8
0
 10
9.33798284
 20
15.82810150
  0
VERTEX
  8
0
 10
9.20436527
 20
15.65315432
  0
VERTEX
  8
0
 10
9.06325576
 20
15.49188595
  0
VERTEX
  8
0
 10
9.05097546
 20
15.40628606
  0
VERTEX
  8
0
 10
9.05694448
 20
15.33677493
  0
VERTEX
  8
0
 10
9.07774058
 20
15.27964058
  0
VERTEX
  8
0
 10
9.10994151
 20
15.23117100
  0
VERTEX
  8
0
 10
9.19486883
 20
15.14537820
  0
VERTEX
  8
0
 10
9.28434846
 20
15.04970056
  0
VERTEX
  8
0
 10
9.38843956
 20
14.88988374
  0
VERTEX
  8
0
 10
9.49459203
 20
14.69190319
  0
VERTEX
  8
0
 10
9.59199645
 20
14.47582206
  0
VERTEX
  8
0
 10
9.66984342
 20
14.26170350
  0
VERTEX
  8
0
 10
9.72175957
 20
14.10995848
  0
VERTEX
  8
0
 10
9.76054812
 20
13.96691324
  0
VERTEX
  8
0
 10
9.77911473
 20
13.65539410
  0
VERTEX
  8
0
 10
9.75998373
 20
13.34352667
  0
VERTEX
  8
0
 10
9.68685055
 20
12.73673078
  0
VERTEX
  8
0
 10
9.61619280
 20
11.88059147
  0
VERTEX
  8
0
 10
9.54548439
 20
11.47427946
  0
VERTEX
  8
0
 10
9.48839403
 20
11.28271165
  0
VERTEX
  8
0
 10
9.41190194
 20
11.10121171
  0
VERTEX
  8
0
 10
9.38373566
 20
11.07903543
  0
VERTEX
  8
0
 10
9.36390420
 20
11.04849602
  0
VERTEX
  8
0
 10
9.33618325
 20
11.02589007
  0
VERTEX
  8
0
 10
9.28434846
 20
11.02751415
  0
VERTEX
  8
0
 10
9.26523074
 20
10.95704382
  0
VERTEX
  8
0
 10
9.21796637
 20
10.90108647
  0
VERTEX
  8
0
 10
9.10010455
 20
10.80925597
  0
VERTEX
  8
0
 10
9.00190888
 20
10.71069702
  0
VERTEX
  8
0
 10
8.89601898
 20
10.62501205
  0
VERTEX
  8
0
 10
8.80841974
 20
10.58635535
  0
VERTEX
  8
0
 10
8.71304861
 20
10.55709298
  0
VERTEX
  8
0
 10
8.61774934
 20
10.52494137
  0
VERTEX
  8
0
 10
8.53036567
 20
10.47761692
  0
VERTEX
  8
0
 10
8.32319079
 20
10.47063364
  0
VERTEX
  8
0
 10
8.14822890
 20
10.48298253
  0
VERTEX
  8
0
 10
7.81323166
 20
10.55131449
  0
VERTEX
  8
0
 10
7.69273036
 20
10.65966135
  0
VERTEX
  8
0
 10
7.62310598
 20
10.70502213
  0
VERTEX
  8
0
 10
7.53828304
 20
10.73555840
  0
VERTEX
  8
0
 10
7.36248823
 20
11.00881984
  0
VERTEX
  8
0
 10
7.28882459
 20
11.15992038
  0
VERTEX
  8
0
 10
7.24349278
 20
11.33931154
  0
VERTEX
  8
0
 10
7.29760122
 20
11.58062186
  0
VERTEX
  8
0
 10
7.37502097
 20
11.77973557
  0
VERTEX
  8
0
 10
7.47879858
 20
11.93366899
  0
VERTEX
  8
0
 10
7.61198061
 20
12.03943842
  0
VERTEX
  8
0
 10
7.71743866
 20
12.08132739
  0
VERTEX
  8
0
 10
7.83205820
 20
12.10167711
  0
VERTEX
  8
0
 10
7.95031502
 20
12.10162867
  0
VERTEX
  8
0
 10
8.06668496
 20
12.08232318
  0
VERTEX
  8
0
 10
8.17564382
 20
12.04490175
  0
VERTEX
  8
0
 10
8.27166744
 20
11.99050548
  0
VERTEX
  8
0
 10
8.34923162
 20
11.92027548
  0
VERTEX
  8
0
 10
8.40281219
 20
11.83535285
  0
VERTEX
  8
0
 10
8.42863088
 20
11.74859256
  0
VERTEX
  8
0
 10
8.43508424
 20
11.66064181
  0
VERTEX
  8
0
 10
8.42386414
 20
11.57532858
  0
VERTEX
  8
0
 10
8.39666248
 20
11.49648085
  0
VERTEX
  8
0
 10
8.35517113
 20
11.42792659
  0
VERTEX
  8
0
 10
8.30108199
 20
11.37349378
  0
VERTEX
  8
0
 10
8.23608693
 20
11.33701040
  0
VERTEX
  8
0
 10
8.16187784
 20
11.32230441
  0
VERTEX
  8
0
 10
8.06472494
 20
11.33031374
  0
VERTEX
  8
0
 10
7.99960677
 20
11.35902077
  0
VERTEX
  8
0
 10
7.96306892
 20
11.40381629
  0
VERTEX
  8
0
 10
7.95165698
 20
11.46009112
  0
VERTEX
  8
0
 10
7.96191655
 20
11.52323604
  0
VERTEX
  8
0
 10
7.99039322
 20
11.58864186
  0
VERTEX
  8
0
 10
8.08818027
 20
11.70779937
  0
VERTEX
  8
0
 10
8.04301404
 20
11.73548323
  0
VERTEX
  8
0
 10
8.02241884
 20
11.75193065
  0
VERTEX
  8
0
 10
8.01448270
 20
11.78149694
  0
VERTEX
  8
0
 10
7.96785319
 20
11.77766415
  0
VERTEX
  8
0
 10
7.92373827
 20
11.75640047
  0
VERTEX
  8
0
 10
7.84766135
 20
11.67636113
  0
VERTEX
  8
0
 10
7.79547015
 20
11.57094034
  0
VERTEX
  8
0
 10
7.77638287
 20
11.46969954
  0
VERTEX
  8
0
 10
7.80929709
 20
11.34453822
  0
VERTEX
  8
0
 10
7.84415734
 20
11.28060179
  0
VERTEX
  8
0
 10
7.88692922
 20
11.23159971
  0
VERTEX
  8
0
 10
7.96019735
 20
11.18410962
  0
VERTEX
  8
0
 10
8.04016450
 20
11.15731084
  0
VERTEX
  8
0
 10
8.12414990
 20
11.14926173
  0
VERTEX
  8
0
 10
8.20947279
 20
11.15802067
  0
VERTEX
  8
0
 10
8.37340799
 20
11.21819620
  0
VERTEX
  8
0
 10
8.51052401
 20
11.32230441
  0
VERTEX
  8
0
 10
8.56940951
 20
11.51172060
  0
VERTEX
  8
0
 10
8.58011458
 20
11.69051600
  0
VERTEX
  8
0
 10
8.54718161
 20
11.85430300
  0
VERTEX
  8
0
 10
8.47515297
 20
11.99869398
  0
VERTEX
  8
0
 10
8.36857104
 20
12.11930133
  0
VERTEX
  8
0
 10
8.23197819
 20
12.21173742
  0
VERTEX
  8
0
 10
8.06991679
 20
12.27161465
  0
VERTEX
  8
0
 10
7.88692922
 20
12.29454538
  0
VERTEX
  8
0
 10
7.86389542
 20
12.31136336
  0
VERTEX
  8
0
 10
7.88001834
 20
12.34209966
  0
VERTEX
  8
0
 10
7.94361966
 20
12.40509173
  0
VERTEX
  8
0
 10
8.04446463
 20
12.53859346
  0
VERTEX
  8
0
 10
8.13361156
 20
12.70400400
  0
VERTEX
  8
0
 10
8.19649969
 20
12.90349368
  0
VERTEX
  8
0
 10
8.21856827
 20
13.13923287
  0
VERTEX
  8
0
 10
8.19118956
 20
13.35972364
  0
VERTEX
  8
0
 10
8.12676959
 20
13.55558749
  0
VERTEX
  8
0
 10
8.03951180
 20
13.73176973
  0
VERTEX
  8
0
 10
7.94361966
 20
13.89321567
  0
VERTEX
  8
0
 10
7.65676021
 20
14.09465642
  0
VERTEX
  8
0
 10
7.49418374
 20
14.17558057
  0
VERTEX
  8
0
 10
7.30018321
 20
14.22485472
  0
VERTEX
  8
0
 10
7.27414409
 20
15.03230194
  0
VERTEX
  8
0
 10
7.26792701
 20
15.42441759
  0
VERTEX
  8
0
 10
7.28034156
 20
15.82352500
  0
VERTEX
  8
0
 10
7.31719034
 20
15.95107848
  0
VERTEX
  8
0
 10
7.31221385
 20
16.12866464
  0
VERTEX
  8
0
 10
7.30018321
 20
16.31956631
  0
VERTEX
  8
0
 10
7.31663070
 20
16.72589707
  0
VERTEX
  8
0
 10
7.31719034
 20
17.14441215
  0
VERTEX
  8
0
 10
7.31719034
 20
17.20110259
  0
VERTEX
  8
0
 10
9.78038977
 20
17.20110259
  0
SEQEND
  0
POLYLINE
  8
Default_Layer
 66
   1
 39
0.000000
 70
    1
  0
VERTEX
  8
0
 10
12.55255208
 20
17.14441215
  0
VERTEX
  8
0
 10
12.52178232
 20
15.71331869
  0
VERTEX
  8
0
 10
12.51570329
 20
14.18800593
  0
VERTEX
  8
0
 10
12.38969144
 20
14.16695885
  0
VERTEX
  8
0
 10
12.27781610
 20
14.13179797
  0
VERTEX
  8
0
 10
12.08777005
 20
14.02780461
  0
VERTEX
  8
0
 10
11.92815533
 20
13.89336557
  0
VERTEX
  8
0
 10
11.78156215
 20
13.74582054
  0
VERTEX
  8
0
 10
11.65948979
 20
13.45434847
  0
VERTEX
  8
0
 10
11.61535303
 20
13.29354440
  0
VERTEX
  8
0
 10
11.59731824
 20
13.12222574
  0
VERTEX
  8
0
 10
11.60443201
 20
12.98803132
  0
VERTEX
  8
0
 10
11.62650583
 20
12.85918786
  0
VERTEX
  8
0
 10
11.70908382
 20
12.62319961
  0
VERTEX
  8
0
 10
11.83215276
 20
12.42555255
  0
VERTEX
  8
0
 10
11.98281320
 20
12.27753825
  0
VERTEX
  8
0
 10
11.80144389
 20
12.27371624
  0
VERTEX
  8
0
 10
11.63309408
 20
12.22761530
  0
VERTEX
  8
0
 10
11.48435794
 20
12.14548288
  0
VERTEX
  8
0
 10
11.36182967
 20
12.03356643
  0
VERTEX
  8
0
 10
11.27210347
 20
11.89811338
  0
VERTEX
  8
0
 10
11.22177353
 20
11.74537118
  0
VERTEX
  8
0
 10
11.21743404
 20
11.58158728
  0
VERTEX
  8
0
 10
11.26567919
 20
11.41300911
  0
VERTEX
  8
0
 10
11.33577474
 20
11.29894003
  0
VERTEX
  8
0
 10
11.44379143
 20
11.19649969
  0
VERTEX
  8
0
 10
11.51264317
 20
11.15835555
  0
VERTEX
  8
0
 10
11.59172274
 20
11.13357690
  0
VERTEX
  8
0
 10
11.68127934
 20
11.12564985
  0
VERTEX
  8
0
 10
11.78156215
 20
11.13806050
  0
VERTEX
  8
0
 10
11.85381173
 20
11.16751491
  0
VERTEX
  8
0
 10
11.92688351
 20
11.22249647
  0
VERTEX
  8
0
 10
11.98681958
 20
11.29974541
  0
VERTEX
  8
0
 10
12.01966198
 20
11.39600198
  0
VERTEX
  8
0
 10
12.02112000
 20
11.47206815
  0
VERTEX
  8
0
 10
12.00491896
 20
11.53204946
  0
VERTEX
  8
0
 10
11.94596442
 20
11.63410181
  0
VERTEX
  8
0
 10
11.89289140
 20
11.72586350
  0
VERTEX
  8
0
 10
11.85302361
 20
11.76466683
  0
VERTEX
  8
0
 10
11.79856928
 20
11.78149694
  0
VERTEX
  8
0
 10
11.75951499
 20
11.73857991
  0
VERTEX
  8
0
 10
11.73948488
 20
11.71741379
  0
VERTEX
  8
0
 10
11.70786459
 20
11.70779937
  0
VERTEX
  8
0
 10
11.74468851
 20
11.62039809
  0
VERTEX
  8
0
 10
11.79717778
 20
11.57799613
  0
VERTEX
  8
0
 10
11.84185924
 20
11.53601043
  0
VERTEX
  8
0
 10
11.85525972
 20
11.44985789
  0
VERTEX
  8
0
 10
11.83077547
 20
11.36909021
  0
VERTEX
  8
0
 10
11.78064340
 20
11.32382807
  0
VERTEX
  8
0
 10
11.71298532
 20
11.30917298
  0
VERTEX
  8
0
 10
11.63592301
 20
11.32022642
  0
VERTEX
  8
0
 10
11.55757825
 20
11.35208990
  0
VERTEX
  8
0
 10
11.48607283
 20
11.39986490
  0
VERTEX
  8
0
 10
11.42952855
 20
11.45865292
  0
VERTEX
  8
0
 10
11.39606719
 20
11.52355546
  0
VERTEX
  8
0
 10
11.37937787
 20
11.60832179
  0
VERTEX
  8
0
 10
11.37955473
 20
11.68754968
  0
VERTEX
  8
0
 10
11.39496881
 20
11.76085946
  0
VERTEX
  8
0
 10
11.42399112
 20
11.82787147
  0
VERTEX
  8
0
 10
11.51634457
 20
11.94148346
  0
VERTEX
  8
0
 10
11.64358327
 20
12.02534833
  0
VERTEX
  8
0
 10
11.79267542
 20
12.07642873
  0
VERTEX
  8
0
 10
11.95058924
 20
12.09168731
  0
VERTEX
  8
0
 10
12.10429293
 20
12.06808673
  0
VERTEX
  8
0
 10
12.24075468
 20
12.00258964
  0
VERTEX
  8
0
 10
12.32451882
 20
11.91819227
  0
VERTEX
  8
0
 10
12.42107477
 20
11.78619587
  0
VERTEX
  8
0
 10
12.50542002
 20
11.63838603
  0
VERTEX
  8
0
 10
12.55255208
 20
11.50654833
  0
VERTEX
  8
0
 10
12.56145936
 20
11.32404724
  0
VERTEX
  8
0
 10
12.52747471
 20
11.16928807
  0
VERTEX
  8
0
 10
12.46492818
 20
11.03576390
  0
VERTEX
  8
0
 10
12.38814981
 20
10.91696780
  0
VERTEX
  8
0
 10
12.30732219
 20
10.79681065
  0
VERTEX
  8
0
 10
12.22091303
 20
10.69870962
  0
VERTEX
  8
0
 10
12.13020833
 20
10.62501205
  0
VERTEX
  8
0
 10
12.09262155
 20
10.60423143
  0
VERTEX
  8
0
 10
12.03950363
 20
10.58816327
  0
VERTEX
  8
0
 10
11.91228480
 20
10.53457837
  0
VERTEX
  8
0
 10
11.74471337
 20
10.47761692
  0
VERTEX
  8
0
 10
11.53001572
 20
10.44507204
  0
VERTEX
  8
0
 10
11.37128479
 20
10.45700084
  0
VERTEX
  8
0
 10
11.01057223
 20
10.55131449
  0
VERTEX
  8
0
 10
10.93269536
 20
10.61596888
  0
VERTEX
  8
0
 10
10.84247421
 20
10.66820198
  0
VERTEX
  8
0
 10
10.75835272
 20
10.72647671
  0
VERTEX
  8
0
 10
10.69877483
 20
10.80925597
  0
VERTEX
  8
0
 10
10.64089522
 20
10.82586314
  0
VERTEX
  8
0
 10
10.60460961
 20
10.86473025
  0
VERTEX
  8
0
 10
10.55137970
 20
10.95381658
  0
VERTEX
  8
0
 10
10.47081667
 20
11.02182951
  0
VERTEX
  8
0
 10
10.40398457
 20
11.08420458
  0
VERTEX
  8
0
 10
10.33349055
 20
11.22216977
  0
VERTEX
  8
0
 10
10.26833750
 20
11.41012307
  0
VERTEX
  8
0
 10
10.21573480
 20
11.61369199
  0
VERTEX
  8
0
 10
10.18289187
 20
11.79850407
  0
VERTEX
  8
0
 10
10.16496015
 20
12.10890522
  0
VERTEX
  8
0
 10
10.14604308
 20
12.42493339
  0
VERTEX
  8
0
 10
10.10919430
 20
12.57232852
  0
VERTEX
  8
0
 10
10.09382046
 20
12.87759854
  0
VERTEX
  8
0
 10
10.07234552
 20
13.17608166
  0
VERTEX
  8
0
 10
10.04945690
 20
13.54685156
  0
VERTEX
  8
0
 10
10.05368094
 20
13.75573872
  0
VERTEX
  8
0
 10
10.07234552
 20
13.94990610
  0
VERTEX
  8
0
 10
10.11321681
 20
14.14687823
  0
VERTEX
  8
0
 10
10.16737860
 20
14.31590168
  0
VERTEX
  8
0
 10
10.31044535
 20
14.64719846
  0
VERTEX
  8
0
 10
10.43508823
 20
14.85483367
  0
VERTEX
  8
0
 10
10.58822848
 20
15.04970056
  0
VERTEX
  8
0
 10
10.72300769
 20
15.22538765
  0
VERTEX
  8
0
 10
10.76539138
 20
15.32252322
  0
VERTEX
  8
0
 10
10.76963788
 20
15.43519552
  0
VERTEX
  8
0
 10
10.75153738
 20
15.49044783
  0
VERTEX
  8
0
 10
10.71607851
 20
15.54820427
  0
VERTEX
  8
0
 10
10.61202748
 20
15.66886524
  0
VERTEX
  8
0
 10
10.49536832
 20
15.79244990
  0
VERTEX
  8
0
 10
10.40398457
 20
15.91422970
  0
VERTEX
  8
0
 10
10.27359656
 20
16.20901997
  0
VERTEX
  8
0
 10
10.19143752
 20
16.41510460
  0
VERTEX
  8
0
 10
10.13056032
 20
16.63005838
  0
VERTEX
  8
0
 10
10.03549673
 20
17.14441215
  0
VERTEX
  8
0
 10
10.05533839
 20
17.20110259
  0
VERTEX
  8
0
 10
11.33377234
 20
17.19439703
  0
VERTEX
  8
0
 10
12.55255208
 20
17.14441215
  0
SEQEND
  0
POLYLINE
  8
Default_Layer
 66
   1
 39
0.000000
 70
    1
  0
VERTEX
  8
0
 10
12.86434947
 20
17.16425381
  0
VERTEX
  8
0
 10
15.34455603
 20
17.16425381
  0
VERTEX
  8
0
 10
15.33148953
 20
16.89292296
  0
VERTEX
  8
0
 10
15.29600294
 20
16.65910557
  0
VERTEX
  8
0
 10
15.23873193
 20
16.44826603
  0
VERTEX
  8
0
 10
15.16031212
 20
16.24586875
  0
VERTEX
  8
0
 10
15.06044848
 20
16.03041342
  0
VERTEX
  8
0
 10
14.99548484
 20
15.91868012
  0
VERTEX
  8
0
 10
14.92221229
 20
15.82352500
  0
VERTEX
  8
0
 10
14.81166594
 20
15.65628822
  0
VERTEX
  8
0
 10
14.65583548
 20
15.51387323
  0
VERTEX
  8
0
 10
14.60838882
 20
15.42063272
  0
VERTEX
  8
0
 10
14.60185087
 20
15.35475240
  0
VERTEX
  8
0
 10
14.61041489
 20
15.27079326
  0
VERTEX
  8
0
 10
14.61303938
 20
15.24076027
  0
VERTEX
  8
0
 10
14.63170906
 20
15.23207596
  0
VERTEX
  8
0
 10
14.65815605
 20
15.22928632
  0
VERTEX
  8
0
 10
14.68411246
 20
15.21693734
  0
VERTEX
  8
0
 10
14.70188750
 20
15.17039276
  0
VERTEX
  8
0
 10
14.72096124
 20
15.12339812
  0
VERTEX
  8
0
 10
14.79412560
 20
15.07119888
  0
VERTEX
  8
0
 10
14.86552185
 20
15.01285177
  0
VERTEX
  8
0
 10
14.90657143
 20
14.93005157
  0
VERTEX
  8
0
 10
14.95906107
 20
14.83144238
  0
VERTEX
  8
0
 10
15.01291698
 20
14.79459360
  0
VERTEX
  8
0
 10
15.03260362
 20
14.72245101
  0
VERTEX
  8
0
 10
15.04976577
 20
14.64719846
  0
VERTEX
  8
0
 10
15.06855517
 20
14.64141515
  0
VERTEX
  8
0
 10
15.08661455
 20
14.62735681
  0
VERTEX
  8
0
 10
15.21700255
 20
14.26170350
  0
VERTEX
  8
0
 10
15.26703707
 20
14.11850863
  0
VERTEX
  8
0
 10
15.30770725
 20
13.98675489
  0
VERTEX
  8
0
 10
15.30770725
 20
13.81951810
  0
VERTEX
  8
0
 10
15.32902977
 20
13.61971811
  0
VERTEX
  8
0
 10
15.33476400
 20
13.40171406
  0
VERTEX
  8
0
 10
15.30770725
 20
12.93798183
  0
VERTEX
  8
0
 10
15.23400968
 20
12.49863095
  0
VERTEX
  8
0
 10
15.23503383
 20
12.38492319
  0
VERTEX
  8
0
 10
15.23400968
 20
12.27753825
  0
VERTEX
  8
0
 10
15.16031212
 20
11.59725302
  0
VERTEX
  8
0
 10
15.12346333
 20
11.50654833
  0
VERTEX
  8
0
 10
15.07022566
 20
11.28040965
  0
VERTEX
  8
0
 10
15.03069285
 20
11.17679615
  0
VERTEX
  8
0
 10
14.97606820
 20
11.08420458
  0
VERTEX
  8
0
 10
14.84851472
 20
10.95381658
  0
VERTEX
  8
0
 10
14.73796837
 20
10.80925597
  0
VERTEX
  8
0
 10
14.67784551
 20
10.77388426
  0
VERTEX
  8
0
 10
14.61041489
 20
10.73555840
  0
VERTEX
  8
0
 10
14.56049418
 20
10.67368072
  0
VERTEX
  8
0
 10
14.51687567
 20
10.62501205
  0
VERTEX
  8
0
 10
14.46301976
 20
10.62501205
  0
VERTEX
  8
0
 10
14.44234805
 20
10.60104004
  0
VERTEX
  8
0
 10
14.40632932
 20
10.58816327
  0
VERTEX
  8
0
 10
14.38932219
 20
10.55131449
  0
VERTEX
  8
0
 10
14.28249381
 20
10.53266985
  0
VERTEX
  8
0
 10
14.16822949
 20
10.51446570
  0
VERTEX
  8
0
 10
14.15849298
 20
10.49658054
  0
VERTEX
  8
0
 10
14.13138071
 20
10.47761692
  0
VERTEX
  8
0
 10
13.84449858
 20
10.44637376
  0
VERTEX
  8
0
 10
13.69036539
 20
10.45002168
  0
VERTEX
  8
0
 10
13.54463470
 20
10.47761692
  0
VERTEX
  8
0
 10
13.38023244
 20
10.55131449
  0
VERTEX
  8
0
 10
13.26529178
 20
10.60959307
  0
VERTEX
  8
0
 10
13.14590429
 20
10.69196927
  0
VERTEX
  8
0
 10
13.03809494
 20
10.78621921
  0
VERTEX
  8
0
 10
12.95788869
 20
10.88011901
  0
VERTEX
  8
0
 10
12.90587260
 20
10.97783740
  0
VERTEX
  8
0
 10
12.86850605
 20
11.08395911
  0
VERTEX
  8
0
 10
12.79065191
 20
11.30246276
  0
VERTEX
  8
0
 10
12.87531766
 20
11.64728450
  0
VERTEX
  8
0
 10
12.93802696
 20
11.79048369
  0
VERTEX
  8
0
 10
13.02875174
 20
11.90905042
  0
VERTEX
  8
0
 10
13.10851136
 20
11.96812822
  0
VERTEX
  8
0
 10
13.22787870
 20
12.03059673
  0
VERTEX
  8
0
 10
13.36744110
 20
12.07835307
  0
VERTEX
  8
0
 10
13.50778592
 20
12.09329434
  0
VERTEX
  8
0
 10
13.58213393
 20
12.07585727
  0
VERTEX
  8
0
 10
13.66861927
 20
12.03779727
  0
VERTEX
  8
0
 10
13.83942497
 20
11.94589920
  0
VERTEX
  8
0
 10
13.86439636
 20
11.90877746
  0
VERTEX
  8
0
 10
13.89328088
 20
11.85519451
  0
VERTEX
  8
0
 10
13.92713170
 20
11.81805125
  0
VERTEX
  8
0
 10
13.94713679
 20
11.74464816
  0
VERTEX
  8
0
 10
13.97414617
 20
11.67213563
  0
VERTEX
  8
0
 10
13.98398558
 20
11.56040424
  0
VERTEX
  8
0
 10
13.96173041
 20
11.49710307
  0
VERTEX
  8
0
 10
13.91346246
 20
11.41660860
  0
VERTEX
  8
0
 10
13.85014331
 20
11.34352657
  0
VERTEX
  8
0
 10
13.78273453
 20
11.30246276
  0
VERTEX
  8
0
 10
13.70353837
 20
11.29323272
  0
VERTEX
  8
0
 10
13.63708731
 20
11.30331324
  0
VERTEX
  8
0
 10
13.58371642
 20
11.32867002
  0
VERTEX
  8
0
 10
13.54376082
 20
11.36526875
  0
VERTEX
  8
0
 10
13.50543582
 20
11.45605485
  0
VERTEX
  8
0
 10
13.50773661
 20
11.50217361
  0
VERTEX
  8
0
 10
13.52479305
 20
11.54339711
  0
VERTEX
  8
0
 10
13.56361030
 20
11.56335725
  0
VERTEX
  8
0
 10
13.58420423
 20
11.57434685
  0
VERTEX
  8
0
 10
13.59849062
 20
11.59725302
  0
VERTEX
  8
0
 10
13.62115843
 20
11.68149076
  0
VERTEX
  8
0
 10
13.60786683
 20
11.72079232
  0
VERTEX
  8
0
 10
13.56164183
 20
11.76165529
  0
VERTEX
  8
0
 10
13.51609676
 20
11.75870904
  0
VERTEX
  8
0
 10
13.47578027
 20
11.72454849
  0
VERTEX
  8
0
 10
13.41708122
 20
11.63410181
  0
VERTEX
  8
0
 10
13.35951223
 20
11.53755041
  0
VERTEX
  8
0
 10
13.34427888
 20
11.48308303
  0
VERTEX
  8
0
 10
13.34338365
 20
11.41300911
  0
VERTEX
  8
0
 10
13.36050543
 20
11.33326449
  0
VERTEX
  8
0
 10
13.39607223
 20
11.26574257
  0
VERTEX
  8
0
 10
13.44727345
 20
11.21081427
  0
VERTEX
  8
0
 10
13.51129849
 20
11.16885056
  0
VERTEX
  8
0
 10
13.58533676
 20
11.14022238
  0
VERTEX
  8
0
 10
13.66657767
 20
11.12530067
  0
VERTEX
  8
0
 10
13.83942497
 20
11.13806050
  0
VERTEX
  8
0
 10
13.91063696
 20
11.16584433
  0
VERTEX
  8
0
 10
13.97523619
 20
11.21091694
  0
VERTEX
  8
0
 10
14.03192370
 20
11.27083874
  0
VERTEX
  8
0
 10
14.07940054
 20
11.34317011
  0
VERTEX
  8
0
 10
14.14152646
 20
11.51530318
  0
VERTEX
  8
0
 10
14.15122236
 20
11.70779937
  0
VERTEX
  8
0
 10
14.12486734
 20
11.82829014
  0
VERTEX
  8
0
 10
14.07459051
 20
11.93517607
  0
VERTEX
  8
0
 10
14.00300813
 20
12.02786621
  0
VERTEX
  8
0
 10
13.91273644
 20
12.10576960
  0
VERTEX
  8
0
 10
13.80639166
 20
12.16829529
  0
VERTEX
  8
0
 10
13.68659004
 20
12.21485232
  0
VERTEX
  8
0
 10
13.55594781
 20
12.24484974
  0
VERTEX
  8
0
 10
13.41708122
 20
12.25769660
  0
VERTEX
  8
0
 10
13.55795474
 20
12.45017367
  0
VERTEX
  8
0
 10
13.68142071
 20
12.68919865
  0
VERTEX
  8
0
 10
13.72800067
 20
12.82325477
  0
VERTEX
  8
0
 10
13.75987849
 20
12.96545367
  0
VERTEX
  8
0
 10
13.77360409
 20
13.11463062
  0
VERTEX
  8
0
 10
13.76572740
 20
13.26962088
  0
VERTEX
  8
0
 10
13.73759374
 20
13.39099280
  0
VERTEX
  8
0
 10
13.69355842
 20
13.50617412
  0
VERTEX
  8
0
 10
13.59849062
 20
13.72881341
  0
VERTEX
  8
0
 10
13.52904550
 20
13.80497499
  0
VERTEX
  8
0
 10
13.47093713
 20
13.89321567
  0
VERTEX
  8
0
 10
13.37420795
 20
13.95213616
  0
VERTEX
  8
0
 10
13.28669322
 20
14.02360367
  0
VERTEX
  8
0
 10
13.18916374
 20
14.07952928
  0
VERTEX
  8
0
 10
13.10244930
 20
14.15115715
  0
VERTEX
  8
0
 10
13.03097669
 20
14.14770286
  0
VERTEX
  8
0
 10
12.97950486
 20
14.16476831
  0
VERTEX
  8
0
 10
12.92998030
 20
14.18424038
  0
VERTEX
  8
0
 10
12.86434947
 20
14.18800593
  0
VERTEX
  8
0
 10
12.86434947
 20
17.16425381
  0
SEQEND
  0
POLYLINE
  8
Default_Layer
 66
   1
 39
0.000000
 70
    1
  0
VERTEX
  8
0
 10
18.24710634
 20
17.16425381
  0
VERTEX
  8
0
 10
18.24710634
 20
11.69079224
  0
VERTEX
  8
0
 10
18.18493829
 20
11.81095979
  0
VERTEX
  8
0
 10
18.10612481
 20
11.92388247
  0
VERTEX
  8
0
 10
18.01081202
 20
12.02548119
  0
VERTEX
  8
0
 10
17.89914604
 20
12.11167688
  0
VERTEX
  8
0
 10
17.77127299
 20
12.17839047
  0
VERTEX
  8
0
 10
17.62733897
 20
12.22154287
  0
VERTEX
  8
0
 10
17.46749010
 20
12.23705501
  0
VERTEX
  8
0
 10
17.29187250
 20
12.22084782
  0
VERTEX
  8
0
 10
17.18710593
 20
12.19201756
  0
VERTEX
  8
0
 10
17.09607507
 20
12.14594835
  0
VERTEX
  8
0
 10
17.01766652
 20
12.08459696
  0
VERTEX
  8
0
 10
16.95076689
 20
12.00992017
  0
VERTEX
  8
0
 10
16.84704078
 20
11.82841754
  0
VERTEX
  8
0
 10
16.77598953
 20
11.61709468
  0
VERTEX
  8
0
 10
16.80134219
 20
11.51242877
  0
VERTEX
  8
0
 10
16.84497638
 20
11.40226373
  0
VERTEX
  8
0
 10
16.90627749
 20
11.29574723
  0
VERTEX
  8
0
 10
16.98463089
 20
11.20202690
  0
VERTEX
  8
0
 10
17.07942194
 20
11.13025041
  0
VERTEX
  8
0
 10
17.19003602
 20
11.08956541
  0
VERTEX
  8
0
 10
17.31585851
 20
11.08911955
  0
VERTEX
  8
0
 10
17.45627476
 20
11.13806050
  0
VERTEX
  8
0
 10
17.52943289
 20
11.19672049
  0
VERTEX
  8
0
 10
17.58024200
 20
11.27999489
  0
VERTEX
  8
0
 10
17.60591628
 20
11.37946363
  0
VERTEX
  8
0
 10
17.60366989
 20
11.48670668
  0
VERTEX
  8
0
 10
17.56431144
 20
11.59131742
  0
VERTEX
  8
0
 10
17.49179132
 20
11.68210064
  0
VERTEX
  8
0
 10
17.40647333
 20
11.73046006
  0
VERTEX
  8
0
 10
17.36537883
 20
11.72979450
  0
VERTEX
  8
0
 10
17.32872128
 20
11.70779937
  0
VERTEX
  8
0
 10
17.30616454
 20
11.67237810
  0
VERTEX
  8
0
 10
17.30851483
 20
11.63932375
  0
VERTEX
  8
0
 10
17.35890819
 20
11.57355150
  0
VERTEX
  8
0
 10
17.42184469
 20
11.49695383
  0
VERTEX
  8
0
 10
17.43987390
 20
11.45036773
  0
VERTEX
  8
0
 10
17.43926763
 20
11.39600198
  0
VERTEX
  8
0
 10
17.41651879
 20
11.34616683
  0
VERTEX
  8
0
 10
17.37689716
 20
11.31115971
  0
VERTEX
  8
0
 10
17.32520515
 20
11.29033159
  0
VERTEX
  8
0
 10
17.26624513
 20
11.28303346
  0
VERTEX
  8
0
 10
17.14573060
 20
11.30643105
  0
VERTEX
  8
0
 10
17.09378087
 20
11.33582874
  0
VERTEX
  8
0
 10
17.05377267
 20
11.37616033
  0
VERTEX
  8
0
 10
16.99644335
 20
11.48900585
  0
VERTEX
  8
0
 10
16.97779957
 20
11.60610427
  0
VERTEX
  8
0
 10
16.99423031
 20
11.72171063
  0
VERTEX
  8
0
 10
17.04212456
 20
11.83007994
  0
VERTEX
  8
0
 10
17.11787130
 20
11.92546722
  0
VERTEX
  8
0
 10
17.21785954
 20
12.00212752
  0
VERTEX
  8
0
 10
17.33847825
 20
12.05431583
  0
VERTEX
  8
0
 10
17.47611641
 20
12.07628721
  0
VERTEX
  8
0
 10
17.59274499
 20
12.06312259
  0
VERTEX
  8
0
 10
17.70123764
 20
12.02414008
  0
VERTEX
  8
0
 10
17.91546729
 20
11.90905042
  0
VERTEX
  8
0
 10
18.00502718
 20
11.75548491
  0
VERTEX
  8
0
 10
18.10749243
 20
11.55176908
  0
VERTEX
  8
0
 10
18.14392177
 20
11.43816091
  0
VERTEX
  8
0
 10
18.16000609
 20
11.32048247
  0
VERTEX
  8
0
 10
18.14788827
 20
11.20155622
  0
VERTEX
  8
0
 10
18.09971121
 20
11.08420458
  0
VERTEX
  8
0
 10
18.09971121
 20
11.02751415
  0
VERTEX
  8
0
 10
18.04585529
 20
10.95381658
  0
VERTEX
  8
0
 10
17.97215773
 20
10.84327023
  0
VERTEX
  8
0
 10
17.91546729
 20
10.80925597
  0
VERTEX
  8
0
 10
17.86161138
 20
10.69870962
  0
VERTEX
  8
0
 10
17.80492094
 20
10.69870962
  0
VERTEX
  8
0
 10
17.78462555
 20
10.66331463
  0
VERTEX
  8
0
 10
17.75106503
 20
10.62501205
  0
VERTEX
  8
0
 10
17.69437459
 20
10.62501205
  0
VERTEX
  8
0
 10
17.67641216
 20
10.58942552
  0
VERTEX
  8
0
 10
17.64051868
 20
10.55131449
  0
VERTEX
  8
0
 10
17.58666276
 20
10.55131449
  0
VERTEX
  8
0
 10
17.55483488
 20
10.52810376
  0
VERTEX
  8
0
 10
17.49312354
 20
10.51446570
  0
VERTEX
  8
0
 10
17.47603740
 20
10.49565642
  0
VERTEX
  8
0
 10
17.45627476
 20
10.47761692
  0
VERTEX
  8
0
 10
17.38257720
 20
10.47761692
  0
VERTEX
  8
0
 10
17.36600158
 20
10.45837321
  0
VERTEX
  8
0
 10
17.34572841
 20
10.44076814
  0
VERTEX
  8
0
 10
17.26637853
 20
10.43979618
  0
VERTEX
  8
0
 10
17.18132615
 20
10.44076814
  0
VERTEX
  8
0
 10
17.11194620
 20
10.41827745
  0
VERTEX
  8
0
 10
17.05377267
 20
10.40391935
  0
VERTEX
  8
0
 10
16.86952875
 20
10.44076814
  0
VERTEX
  8
0
 10
16.68528484
 20
10.47761692
  0
VERTEX
  8
0
 10
16.68039688
 20
10.49485857
  0
VERTEX
  8
0
 10
16.66827771
 20
10.51446570
  0
VERTEX
  8
0
 10
16.56834997
 20
10.55529639
  0
VERTEX
  8
0
 10
16.44718501
 20
10.58816327
  0
VERTEX
  8
0
 10
16.41302108
 20
10.64589149
  0
VERTEX
  8
0
 10
16.38151577
 20
10.66047589
  0
VERTEX
  8
0
 10
16.33663866
 20
10.66186084
  0
VERTEX
  8
0
 10
16.00732480
 20
11.06137159
  0
VERTEX
  8
0
 10
15.87244854
 20
11.27627622
  0
VERTEX
  8
0
 10
15.82114461
 20
11.40133541
  0
VERTEX
  8
0
 10
15.78390691
 20
11.54339711
  0
VERTEX
  8
0
 10
15.75368252
 20
11.77900011
  0
VERTEX
  8
0
 10
15.74061288
 20
12.02133004
  0
VERTEX
  8
0
 10
15.71304387
 20
12.51563808
  0
VERTEX
  8
0
 10
15.65979645
 20
12.95806436
  0
VERTEX
  8
0
 10
15.62356850
 20
13.40367767
  0
VERTEX
  8
0
 10
15.62182745
 20
13.62433869
  0
VERTEX
  8
0
 10
15.63633001
 20
13.84178754
  0
VERTEX
  8
0
 10
15.67107245
 20
14.05468791
  0
VERTEX
  8
0
 10
15.73005100
 20
14.26170350
  0
VERTEX
  8
0
 10
15.81935583
 20
14.49458304
  0
VERTEX
  8
0
 10
15.90844811
 20
14.68113013
  0
VERTEX
  8
0
 10
16.01392776
 20
14.85071139
  0
VERTEX
  8
0
 10
16.15239474
 20
15.03269343
  0
VERTEX
  8
0
 10
16.28177305
 20
15.17969771
  0
VERTEX
  8
0
 10
16.33182809
 20
15.25314805
  0
VERTEX
  8
0
 10
16.35364579
 20
15.32748369
  0
VERTEX
  8
0
 10
16.34594382
 20
15.40200647
  0
VERTEX
  8
0
 10
16.31764881
 20
15.47345972
  0
VERTEX
  8
0
 10
16.21996358
 20
15.60735860
  0
VERTEX
  8
0
 10
16.10195790
 20
15.72958213
  0
VERTEX
  8
0
 10
16.00499961
 20
15.84053213
  0
VERTEX
  8
0
 10
15.85016315
 20
16.11843851
  0
VERTEX
  8
0
 10
15.73654776
 20
16.42815911
  0
VERTEX
  8
0
 10
15.66078454
 20
16.76082404
  0
VERTEX
  8
0
 10
15.61950465
 20
17.10756337
  0
VERTEX
  8
0
 10
15.61950465
 20
17.16425381
  0
VERTEX
  8
0
 10
18.24710634
 20
17.16425381
  0
SEQEND
  0
POLYLINE
  8
Default_Layer
 66
   1
 39
0.000000
 70
    1
  0
VERTEX
  8
0
 10
9.88810160
 20
16.79576597
  0
VERTEX
  8
0
 10
9.92578703
 20
16.75692109
  0
VERTEX
  8
0
 10
9.94479204
 20
16.70506128
  0
VERTEX
  8
0
 10
9.98957160
 20
16.48951067
  0
VERTEX
  8
0
 10
10.05533839
 20
16.26287588
  0
VERTEX
  8
0
 10
10.13660902
 20
16.08831542
  0
VERTEX
  8
0
 10
10.22991223
 20
15.92334077
  0
VERTEX
  8
0
 10
10.42099170
 20
15.61943943
  0
VERTEX
  8
0
 10
10.52499399
 20
15.51214230
  0
VERTEX
  8
0
 10
10.57238692
 20
15.45398232
  0
VERTEX
  8
0
 10
10.60523561
 20
15.38133960
  0
VERTEX
  8
0
 10
10.38840006
 20
15.08413209
  0
VERTEX
  8
0
 10
10.18964660
 20
14.76889851
  0
VERTEX
  8
0
 10
10.02436456
 20
14.42045150
  0
VERTEX
  8
0
 10
9.95908448
 20
14.22902689
  0
VERTEX
  8
0
 10
9.90794325
 20
14.02360367
  0
VERTEX
  8
0
 10
9.85793039
 20
14.23040335
  0
VERTEX
  8
0
 10
9.79540049
 20
14.42475320
  0
VERTEX
  8
0
 10
9.63659587
 20
14.77981295
  0
VERTEX
  8
0
 10
9.43914184
 20
15.09620204
  0
VERTEX
  8
0
 10
9.21065090
 20
15.38133960
  0
VERTEX
  8
0
 10
9.22830617
 20
15.43200579
  0
VERTEX
  8
0
 10
9.25729476
 20
15.47165409
  0
VERTEX
  8
0
 10
9.33820438
 20
15.52873474
  0
VERTEX
  8
0
 10
9.42212262
 20
15.66636051
  0
VERTEX
  8
0
 10
9.52244829
 20
15.80368335
  0
VERTEX
  8
0
 10
9.58455955
 20
15.89395600
  0
VERTEX
  8
0
 10
9.64564107
 20
16.00517678
  0
VERTEX
  8
0
 10
9.70961158
 20
16.12123679
  0
VERTEX
  8
0
 10
9.78038977
 20
16.22602710
  0
VERTEX
  8
0
 10
9.80456503
 20
16.37111353
  0
VERTEX
  8
0
 10
9.84737275
 20
16.49776948
  0
VERTEX
  8
0
 10
9.88361693
 20
16.63098895
  0
VERTEX
  8
0
 10
9.88810160
 20
16.79576597
  0
SEQEND
  0
POLYLINE
  8
Default_Layer
 66
   1
 39
0.000000
 70
    1
  0
VERTEX
  8
0
 10
4.34094247
 20
16.74191006
  0
VERTEX
  8
0
 10
4.46630802
 20
16.35614123
  0
VERTEX
  8
0
 10
4.62169303
 20
16.00112732
  0
VERTEX
  8
0
 10
4.71342058
 20
15.83787409
  0
VERTEX
  8
0
 10
4.81598627
 20
15.68557436
  0
VERTEX
  8
0
 10
4.93050121
 20
15.54531637
  0
VERTEX
  8
0
 10
5.05807648
 20
15.41818839
  0
VERTEX
  8
0
 10
4.87900553
 20
15.19197537
  0
VERTEX
  8
0
 10
4.70943030
 20
14.94198873
  0
VERTEX
  8
0
 10
4.59484338
 20
14.76832342
  0
VERTEX
  8
0
 10
4.48833760
 20
14.55365924
  0
VERTEX
  8
0
 10
4.39763291
 20
14.33540107
  0
VERTEX
  8
0
 10
4.38147688
 20
14.19537888
  0
VERTEX
  8
0
 10
4.36012593
 20
14.12874721
  0
VERTEX
  8
0
 10
4.30409369
 20
14.07745958
  0
VERTEX
  8
0
 10
4.27809705
 20
14.28896179
  0
VERTEX
  8
0
 10
4.24958367
 20
14.37971450
  0
VERTEX
  8
0
 10
4.19638186
 20
14.44594742
  0
VERTEX
  8
0
 10
4.16444269
 20
14.57469190
  0
VERTEX
  8
0
 10
4.12058263
 20
14.69153690
  0
VERTEX
  8
0
 10
4.00760792
 20
14.90009396
  0
VERTEX
  8
0
 10
3.87847383
 20
15.09274963
  0
VERTEX
  8
0
 10
3.75419646
 20
15.29063491
  0
VERTEX
  8
0
 10
3.69408327
 20
15.33953760
  0
VERTEX
  8
0
 10
3.62664298
 20
15.38133960
  0
VERTEX
  8
0
 10
3.64230240
 20
15.43412920
  0
VERTEX
  8
0
 10
3.67115808
 20
15.47395293
  0
VERTEX
  8
0
 10
3.75419646
 20
15.52873474
  0
VERTEX
  8
0
 10
3.93503712
 20
15.79780962
  0
VERTEX
  8
0
 10
4.09739813
 20
16.08542018
  0
VERTEX
  8
0
 10
4.23484480
 20
16.39798185
  0
VERTEX
  8
0
 10
4.34094247
 20
16.74191006
  0
SEQEND
  0
POLYLINE
  8
Default_Layer
 66
   1
 39
0.000000
 70
    1
  0
VERTEX
  8
0
 10
15.47210951
 20
16.72206841
  0
VERTEX
  8
0
 10
15.48991826
 20
16.71193870
  0
VERTEX
  8
0
 10
15.49763994
 20
16.69195161
  0
VERTEX
  8
0
 10
15.50676902
 20
16.67355894
  0
VERTEX
  8
0
 10
15.52879995
 20
16.66821249
  0
VERTEX
  8
0
 10
15.55801055
 20
16.49526005
  0
VERTEX
  8
0
 10
15.60010495
 20
16.33519878
  0
VERTEX
  8
0
 10
15.71591733
 20
16.04662089
  0
VERTEX
  8
0
 10
15.86218134
 20
15.78822115
  0
VERTEX
  8
0
 10
16.02484126
 20
15.54574187
  0
VERTEX
  8
0
 10
16.07949795
 20
15.50959951
  0
VERTEX
  8
0
 10
16.12125929
 20
15.46005318
  0
VERTEX
  8
0
 10
16.18924352
 20
15.34449082
  0
VERTEX
  8
0
 10
15.95706034
 20
15.06257255
  0
VERTEX
  8
0
 10
15.75666652
 20
14.74896704
  0
VERTEX
  8
0
 10
15.67157063
 20
14.57716131
  0
VERTEX
  8
0
 10
15.59823811
 20
14.39368944
  0
VERTEX
  8
0
 10
15.53794095
 20
14.19730334
  0
VERTEX
  8
0
 10
15.49195117
 20
13.98675489
  0
VERTEX
  8
0
 10
15.36303192
 20
14.38552198
  0
VERTEX
  8
0
 10
15.20052215
 20
14.75089909
  0
VERTEX
  8
0
 10
15.00019160
 20
15.07859849
  0
VERTEX
  8
0
 10
14.88452158
 20
15.22697914
  0
VERTEX
  8
0
 10
14.75781002
 20
15.36433247
  0
VERTEX
  8
0
 10
14.99752893
 20
15.64207070
  0
VERTEX
  8
0
 10
15.20101521
 20
15.95662904
  0
VERTEX
  8
0
 10
15.28704765
 20
16.12973625
  0
VERTEX
  8
0
 10
15.36147377
 20
16.31447309
  0
VERTEX
  8
0
 10
15.42344419
 20
16.51164774
  0
VERTEX
  8
0
 10
15.47210951
 20
16.72206841
  0
SEQEND
  0
POLYLINE
  8
Default_Layer
 66
   1
 39
0.000000
 70
    1
  0
VERTEX
  8
0
 10
7.00539295
 20
14.05761793
  0
VERTEX
  8
0
 10
7.14013831
 20
14.06823327
  0
VERTEX
  8
0
 10
7.29014925
 20
14.05730663
  0
VERTEX
  8
0
 10
7.43525635
 20
14.02385947
  0
VERTEX
  8
0
 10
7.55529017
 20
13.96691324
  0
VERTEX
  8
0
 10
7.71762341
 20
13.85787574
  0
VERTEX
  8
0
 10
7.85008044
 20
13.74582054
  0
VERTEX
  8
0
 10
7.86712056
 20
13.69559869
  0
VERTEX
  8
0
 10
7.88692922
 20
13.63527419
  0
VERTEX
  8
0
 10
7.92724268
 20
13.60660576
  0
VERTEX
  8
0
 10
7.96062679
 20
13.58141827
  0
VERTEX
  8
0
 10
8.00317257
 20
13.45593561
  0
VERTEX
  8
0
 10
8.03301123
 20
13.29274661
  0
VERTEX
  8
0
 10
8.04508206
 20
13.11303432
  0
VERTEX
  8
0
 10
8.03432436
 20
12.93798183
  0
VERTEX
  8
0
 10
8.00604802
 20
12.81069702
  0
VERTEX
  8
0
 10
7.96062679
 20
12.68004035
  0
VERTEX
  8
0
 10
7.90677088
 20
12.64602608
  0
VERTEX
  8
0
 10
7.84224369
 20
12.54919450
  0
VERTEX
  8
0
 10
7.76486036
 20
12.45967598
  0
VERTEX
  8
0
 10
7.67056212
 20
12.38042275
  0
VERTEX
  8
0
 10
7.55529017
 20
12.31438704
  0
VERTEX
  8
0
 10
7.32337361
 20
12.22662928
  0
VERTEX
  8
0
 10
7.21135214
 20
12.20627849
  0
VERTEX
  8
0
 10
7.09609765
 20
12.20384069
  0
VERTEX
  8
0
 10
6.96913873
 20
12.21907886
  0
VERTEX
  8
0
 10
6.85094009
 20
12.24834166
  0
VERTEX
  8
0
 10
6.64078033
 20
12.34498382
  0
VERTEX
  8
0
 10
6.46553175
 20
12.48585254
  0
VERTEX
  8
0
 10
6.32510772
 20
12.66303321
  0
VERTEX
  8
0
 10
6.27441293
 20
12.77272148
  0
VERTEX
  8
0
 10
6.23197253
 20
12.92761216
  0
VERTEX
  8
0
 10
6.20846313
 20
13.11107247
  0
VERTEX
  8
0
 10
6.21456137
 20
13.30646966
  0
VERTEX
  8
0
 10
6.25585341
 20
13.46806723
  0
VERTEX
  8
0
 10
6.32510772
 20
13.61826706
  0
VERTEX
  8
0
 10
6.43988312
 20
13.77114537
  0
VERTEX
  8
0
 10
6.59304837
 20
13.89984898
  0
VERTEX
  8
0
 10
6.78231460
 20
13.99759935
  0
VERTEX
  8
0
 10
7.00539295
 20
14.05761793
  0
SEQEND
  0
POLYLINE
  8
Default_Layer
 66
   1
 39
0.000000
 70
    1
  0
VERTEX
  8
0
 10
12.56955921
 20
14.02360367
  0
VERTEX
  8
0
 10
12.69291811
 20
14.03460818
  0
VERTEX
  8
0
 10
12.79947808
 20
14.02864303
  0
VERTEX
  8
0
 10
13.01174461
 20
13.96691324
  0
VERTEX
  8
0
 10
13.12674908
 20
13.91320716
  0
VERTEX
  8
0
 10
13.23708915
 20
13.84452443
  0
VERTEX
  8
0
 10
13.33949973
 20
13.76094197
  0
VERTEX
  8
0
 10
13.43071573
 20
13.66253669
  0
VERTEX
  8
0
 10
13.50747207
 20
13.54938551
  0
VERTEX
  8
0
 10
13.56650367
 20
13.42156535
  0
VERTEX
  8
0
 10
13.60454543
 20
13.27915312
  0
VERTEX
  8
0
 10
13.61833227
 20
13.12222574
  0
VERTEX
  8
0
 10
13.59785859
 20
12.91288352
  0
VERTEX
  8
0
 10
13.54463470
 20
12.71688913
  0
VERTEX
  8
0
 10
13.51581307
 20
12.69284781
  0
VERTEX
  8
0
 10
13.47093713
 20
12.64602608
  0
VERTEX
  8
0
 10
13.39080202
 20
12.51141801
  0
VERTEX
  8
0
 10
13.28669322
 20
12.38808460
  0
VERTEX
  8
0
 10
13.15068439
 20
12.29699990
  0
VERTEX
  8
0
 10
12.97701215
 20
12.22396062
  0
VERTEX
  8
0
 10
12.77464516
 20
12.18267056
  0
VERTEX
  8
0
 10
12.55255208
 20
12.18683356
  0
VERTEX
  8
0
 10
12.40189797
 20
12.22161770
  0
VERTEX
  8
0
 10
12.26141473
 20
12.28336449
  0
VERTEX
  8
0
 10
12.13341695
 20
12.36835282
  0
VERTEX
  8
0
 10
12.02021921
 20
12.47286161
  0
VERTEX
  8
0
 10
11.92413611
 20
12.59316975
  0
VERTEX
  8
0
 10
11.84748224
 20
12.72555616
  0
VERTEX
  8
0
 10
11.79257217
 20
12.86629974
  0
VERTEX
  8
0
 10
11.76172050
 20
13.01167939
  0
VERTEX
  8
0
 10
11.76172050
 20
13.21293044
  0
VERTEX
  8
0
 10
11.79041028
 20
13.36139678
  0
VERTEX
  8
0
 10
11.84005399
 20
13.50046890
  0
VERTEX
  8
0
 10
11.91050182
 20
13.62811074
  0
VERTEX
  8
0
 10
12.00160395
 20
13.74228624
  0
VERTEX
  8
0
 10
12.11321057
 20
13.84095934
  0
VERTEX
  8
0
 10
12.24517187
 20
13.92209399
  0
VERTEX
  8
0
 10
12.39733802
 20
13.98365412
  0
VERTEX
  8
0
 10
12.56955921
 20
14.02360367
  0
SEQEND
  0
POLYLINE
  8
Default_Layer
 66
   1
 39
0.000000
 70
    1
  0
VERTEX
  8
0
 10
9.88810160
 20
12.95782348
  0
VERTEX
  8
0
 10
9.92682210
 20
12.91495196
  0
VERTEX
  8
0
 10
9.94030325
 20
12.85022833
  0
VERTEX
  8
0
 10
9.94479204
 20
12.68004035
  0
VERTEX
  8
0
 10
9.98954233
 20
12.32617751
  0
VERTEX
  8
0
 10
10.03549673
 20
11.94589920
  0
VERTEX
  8
0
 10
10.05126858
 20
11.65859502
  0
VERTEX
  8
0
 10
10.06449793
 20
11.52400040
  0
VERTEX
  8
0
 10
10.09218717
 20
11.39600198
  0
VERTEX
  8
0
 10
10.14488469
 20
11.25915974
  0
VERTEX
  8
0
 10
10.21078703
 20
11.13975965
  0
VERTEX
  8
0
 10
10.34729413
 20
10.91696780
  0
VERTEX
  8
0
 10
10.14250907
 20
10.97010546
  0
VERTEX
  8
0
 10
9.90525482
 20
10.99187613
  0
VERTEX
  8
0
 10
9.66863615
 20
10.97619263
  0
VERTEX
  8
0
 10
9.56091041
 20
10.95240333
  0
VERTEX
  8
0
 10
9.46575786
 20
10.91696780
  0
VERTEX
  8
0
 10
9.48489566
 20
11.00067774
  0
VERTEX
  8
0
 10
9.50739319
 20
11.02890363
  0
VERTEX
  8
0
 10
9.55929707
 20
11.02751415
  0
VERTEX
  8
0
 10
9.64219558
 20
11.22600815
  0
VERTEX
  8
0
 10
9.70418949
 20
11.44198817
  0
VERTEX
  8
0
 10
9.74975998
 20
11.67282472
  0
VERTEX
  8
0
 10
9.78338820
 20
11.91588831
  0
VERTEX
  8
0
 10
9.83274248
 20
12.42817871
  0
VERTEX
  8
0
 10
9.88810160
 20
12.95782348
  0
SEQEND
  0
POLYLINE
  8
Default_Layer
 66
   1
 39
0.000000
 70
    1
  0
VERTEX
  8
0
 10
6.91468825
 20
12.05644555
  0
VERTEX
  8
0
 10
7.13482150
 20
12.03675225
  0
VERTEX
  8
0
 10
7.35403913
 20
12.05644555
  0
VERTEX
  8
0
 10
7.29654077
 20
11.96293344
  0
VERTEX
  8
0
 10
7.23248994
 20
11.87587167
  0
VERTEX
  8
0
 10
7.17890094
 20
11.77847132
  0
VERTEX
  8
0
 10
7.15278808
 20
11.65394346
  0
VERTEX
  8
0
 10
6.91468825
 20
12.05644555
  0
SEQEND
  0
POLYLINE
  8
Default_Layer
 66
   1
 39
0.000000
 70
    1
  0
VERTEX
  8
0
 10
12.46184738
 20
12.00258964
  0
VERTEX
  8
0
 10
12.55815963
 20
12.01168196
  0
VERTEX
  8
0
 10
12.67158098
 20
12.00628306
  0
VERTEX
  8
0
 10
12.78997325
 20
12.00328923
  0
VERTEX
  8
0
 10
12.90119826
 20
12.01959677
  0
VERTEX
  8
0
 10
12.78623668
 20
11.84146054
  0
VERTEX
  8
0
 10
12.73767450
 20
11.74321851
  0
VERTEX
  8
0
 10
12.69994721
 20
11.63410181
  0
VERTEX
  8
0
 10
12.58910876
 20
11.82697376
  0
VERTEX
  8
0
 10
12.53305887
 20
11.92244645
  0
VERTEX
  8
0
 10
12.46184738
 20
12.00258964
  0
SEQEND
  0
POLYLINE
  8
Default_Layer
 66
   1
 39
0.000000
 70
    1
  0
VERTEX
  8
0
 10
1.56878017
 20
11.02751415
  0
VERTEX
  8
0
 10
1.58578730
 20
11.02751415
  0
VERTEX
  8
0
 10
1.64559833
 20
10.90107834
  0
VERTEX
  8
0
 10
1.72075815
 20
10.78718986
  0
VERTEX
  8
0
 10
1.80982794
 20
10.68518567
  0
VERTEX
  8
0
 10
1.91136887
 20
10.59440269
  0
VERTEX
  8
0
 10
2.14610889
 20
10.44384816
  0
VERTEX
  8
0
 10
2.41346766
 20
10.33022179
  0
VERTEX
  8
0
 10
2.57807951
 20
10.33541616
  0
VERTEX
  8
0
 10
2.74034018
 20
10.32732377
  0
VERTEX
  8
0
 10
2.89506328
 20
10.32068039
  0
VERTEX
  8
0
 10
3.03706245
 20
10.33022179
  0
VERTEX
  8
0
 10
3.13787557
 20
10.36184296
  0
VERTEX
  8
0
 10
3.22281285
 20
10.40806346
  0
VERTEX
  8
0
 10
3.30203647
 20
10.45221190
  0
VERTEX
  8
0
 10
3.38570863
 20
10.47761692
  0
VERTEX
  8
0
 10
3.32484501
 20
10.36591587
  0
VERTEX
  8
0
 10
3.28130158
 20
10.23390749
  0
VERTEX
  8
0
 10
3.25480934
 20
10.08801294
  0
VERTEX
  8
0
 10
3.24509931
 20
9.93465336
  0
VERTEX
  8
0
 10
3.25190250
 20
9.78024992
  0
VERTEX
  8
0
 10
3.27494992
 20
9.63122376
  0
VERTEX
  8
0
 10
3.31397258
 20
9.49399606
  0
VERTEX
  8
0
 10
3.36870150
 20
9.37498795
  0
VERTEX
  8
0
 10
3.34942221
 20
9.35255794
  0
VERTEX
  8
0
 10
3.32067563
 20
9.36095115
  0
VERTEX
  8
0
 10
3.27799680
 20
9.39482960
  0
VERTEX
  8
0
 10
3.12914419
 20
9.45160537
  0
VERTEX
  8
0
 10
2.94597648
 20
9.50106730
  0
VERTEX
  8
0
 10
2.73536281
 20
9.52929875
  0
VERTEX
  8
0
 10
2.50417236
 20
9.52238308
  0
VERTEX
  8
0
 10
2.34578725
 20
9.48929398
  0
VERTEX
  8
0
 10
2.19888479
 20
9.43339708
  0
VERTEX
  8
0
 10
2.06364668
 20
9.35867534
  0
VERTEX
  8
0
 10
1.94025459
 20
9.26911172
  0
VERTEX
  8
0
 10
1.72973523
 20
9.06139073
  0
VERTEX
  8
0
 10
1.56878017
 20
8.84209785
  0
VERTEX
  8
0
 10
1.56878017
 20
11.02751415
  0
SEQEND
  0
POLYLINE
  8
Default_Layer
 66
   1
 39
0.000000
 70
    1
  0
VERTEX
  8
0
 10
18.22726469
 20
10.99066536
  0
VERTEX
  8
0
 10
18.24700852
 20
10.45478225
  0
VERTEX
  8
0
 10
18.24877736
 20
9.90094611
  0
VERTEX
  8
0
 10
18.24710634
 20
8.78824194
  0
VERTEX
  8
0
 10
18.20125878
 20
8.81075596
  0
VERTEX
  8
0
 10
18.17591895
 20
8.84825822
  0
VERTEX
  8
0
 10
18.13655999
 20
8.93563707
  0
VERTEX
  8
0
 10
18.03418015
 20
9.04845094
  0
VERTEX
  8
0
 10
17.91745436
 20
9.14673227
  0
VERTEX
  8
0
 10
17.67736746
 20
9.33813916
  0
VERTEX
  8
0
 10
17.32326352
 20
9.43692306
  0
VERTEX
  8
0
 10
17.12727717
 20
9.46784882
  0
VERTEX
  8
0
 10
16.92338467
 20
9.46569264
  0
VERTEX
  8
0
 10
16.78920232
 20
9.44031558
  0
VERTEX
  8
0
 10
16.66540063
 20
9.39888201
  0
VERTEX
  8
0
 10
16.44718501
 20
9.30129038
  0
VERTEX
  8
0
 10
16.42469240
 20
9.34007793
  0
VERTEX
  8
0
 10
16.43503292
 20
9.38746016
  0
VERTEX
  8
0
 10
16.48403379
 20
9.48553430
  0
VERTEX
  8
0
 10
16.55002567
 20
9.72171590
  0
VERTEX
  8
0
 10
16.56638092
 20
9.86979071
  0
VERTEX
  8
0
 10
16.55773136
 20
10.03543152
  0
VERTEX
  8
0
 10
16.52932188
 20
10.13781063
  0
VERTEX
  8
0
 10
16.48795393
 20
10.22799288
  0
VERTEX
  8
0
 10
16.44887769
 20
10.31401641
  0
VERTEX
  8
0
 10
16.42734335
 20
10.40391935
  0
VERTEX
  8
0
 10
16.66830132
 20
10.31608693
  0
VERTEX
  8
0
 10
16.93898357
 20
10.25882068
  0
VERTEX
  8
0
 10
17.22029076
 20
10.24646718
  0
VERTEX
  8
0
 10
17.35896017
 20
10.26161601
  0
VERTEX
  8
0
 10
17.49312354
 20
10.29337300
  0
VERTEX
  8
0
 10
17.61475516
 20
10.33985487
  0
VERTEX
  8
0
 10
17.73383306
 20
10.40215338
  0
VERTEX
  8
0
 10
17.95237000
 20
10.56581257
  0
VERTEX
  8
0
 10
18.04585020
 20
10.66297938
  0
VERTEX
  8
0
 10
18.12481900
 20
10.76757507
  0
VERTEX
  8
0
 10
18.18628697
 20
10.87750271
  0
VERTEX
  8
0
 10
18.22726469
 20
10.99066536
  0
SEQEND
  0
POLYLINE
  8
Default_Layer
 66
   1
 39
0.000000
 70
    1
  0
VERTEX
  8
0
 10
3.79104525
 20
9.13688812
  0
VERTEX
  8
0
 10
3.62362645
 20
9.31645288
  0
VERTEX
  8
0
 10
3.54675040
 20
9.42744259
  0
VERTEX
  8
0
 10
3.47924785
 20
9.55923186
  0
VERTEX
  8
0
 10
3.44716683
 20
9.66597369
  0
VERTEX
  8
0
 10
3.42293813
 20
9.81345955
  0
VERTEX
  8
0
 10
3.41269168
 20
9.97626629
  0
VERTEX
  8
0
 10
3.42255741
 20
10.12897074
  0
VERTEX
  8
0
 10
3.47036362
 20
10.27415050
  0
VERTEX
  8
0
 10
3.54607815
 20
10.39929954
  0
VERTEX
  8
0
 10
3.62947810
 20
10.51329452
  0
VERTEX
  8
0
 10
3.70034055
 20
10.62501205
  0
VERTEX
  8
0
 10
3.73743590
 20
10.62713043
  0
VERTEX
  8
0
 10
3.76587806
 20
10.64862908
  0
VERTEX
  8
0
 10
3.81088690
 20
10.69870962
  0
VERTEX
  8
0
 10
3.86474281
 20
10.69870962
  0
VERTEX
  8
0
 10
3.86474281
 20
10.73555840
  0
VERTEX
  8
0
 10
3.91859873
 20
10.73555840
  0
VERTEX
  8
0
 10
3.93990246
 20
10.75803942
  0
VERTEX
  8
0
 10
3.97528916
 20
10.77240719
  0
VERTEX
  8
0
 10
3.99229629
 20
10.80925597
  0
VERTEX
  8
0
 10
4.05778473
 20
10.80623827
  0
VERTEX
  8
0
 10
4.08763367
 20
10.81131094
  0
VERTEX
  8
0
 10
4.12268429
 20
10.84327023
  0
VERTEX
  8
0
 10
4.27886010
 20
10.85139262
  0
VERTEX
  8
0
 10
4.45148882
 20
10.84327023
  0
VERTEX
  8
0
 10
4.52518639
 20
10.80925597
  0
VERTEX
  8
0
 10
4.70943030
 20
10.75256553
  0
VERTEX
  8
0
 10
4.80103196
 20
10.70455150
  0
VERTEX
  8
0
 10
4.88558421
 20
10.64164627
  0
VERTEX
  8
0
 10
5.04106935
 20
10.47761692
  0
VERTEX
  8
0
 10
5.11476692
 20
10.36707057
  0
VERTEX
  8
0
 10
5.15892951
 20
10.30052525
  0
VERTEX
  8
0
 10
5.20547162
 20
10.20266831
  0
VERTEX
  8
0
 10
5.24232040
 20
10.09212196
  0
VERTEX
  8
0
 10
5.25471731
 20
9.95253005
  0
VERTEX
  8
0
 10
5.24795708
 20
9.81687279
  0
VERTEX
  8
0
 10
5.22319905
 20
9.68658958
  0
VERTEX
  8
0
 10
5.18160256
 20
9.56311987
  0
VERTEX
  8
0
 10
5.12432694
 20
9.44790308
  0
VERTEX
  8
0
 10
5.05253156
 20
9.34237864
  0
VERTEX
  8
0
 10
4.96737574
 20
9.24798599
  0
VERTEX
  8
0
 10
4.87001882
 20
9.16616455
  0
VERTEX
  8
0
 10
4.76162016
 20
9.09835374
  0
VERTEX
  8
0
 10
4.64333909
 20
9.04599301
  0
VERTEX
  8
0
 10
4.51633495
 20
9.01052177
  0
VERTEX
  8
0
 10
4.38176709
 20
8.99337947
  0
VERTEX
  8
0
 10
4.24079485
 20
8.99600552
  0
VERTEX
  8
0
 10
4.09457757
 20
9.01983936
  0
VERTEX
  8
0
 10
3.94427458
 20
9.06632042
  0
VERTEX
  8
0
 10
3.79104525
 20
9.13688812
  0
SEQEND
  0
POLYLINE
  8
Default_Layer
 66
   1
 39
0.000000
 70
    1
  0
VERTEX
  8
0
 10
9.66984342
 20
10.80925597
  0
VERTEX
  8
0
 10
9.82598621
 20
10.83149785
  0
VERTEX
  8
0
 10
9.97417697
 20
10.82968731
  0
VERTEX
  8
0
 10
10.11346043
 20
10.80581718
  0
VERTEX
  8
0
 10
10.24288132
 20
10.76188032
  0
VERTEX
  8
0
 10
10.36148437
 20
10.69986957
  0
VERTEX
  8
0
 10
10.46831431
 20
10.62177779
  0
VERTEX
  8
0
 10
10.56241587
 20
10.52959782
  0
VERTEX
  8
0
 10
10.64283377
 20
10.42532251
  0
VERTEX
  8
0
 10
10.70861276
 20
10.31094471
  0
VERTEX
  8
0
 10
10.75879755
 20
10.18845726
  0
VERTEX
  8
0
 10
10.79243288
 20
10.05985302
  0
VERTEX
  8
0
 10
10.80856349
 20
9.92712484
  0
VERTEX
  8
0
 10
10.80623409
 20
9.79226556
  0
VERTEX
  8
0
 10
10.78448942
 20
9.65726802
  0
VERTEX
  8
0
 10
10.74237420
 20
9.52412509
  0
VERTEX
  8
0
 10
10.67893318
 20
9.39482960
  0
VERTEX
  8
0
 10
10.61602188
 20
9.30576340
  0
VERTEX
  8
0
 10
10.53578570
 20
9.22233814
  0
VERTEX
  8
0
 10
10.33623503
 20
9.08043886
  0
VERTEX
  8
0
 10
10.10607376
 20
8.98518861
  0
VERTEX
  8
0
 10
9.98757433
 20
8.96007462
  0
VERTEX
  8
0
 10
9.87109447
 20
8.95264420
  0
VERTEX
  8
0
 10
9.74007388
 20
8.97157442
  0
VERTEX
  8
0
 10
9.59532409
 20
9.01630239
  0
VERTEX
  8
0
 10
9.45948876
 20
9.07526224
  0
VERTEX
  8
0
 10
9.35521151
 20
9.13688812
  0
VERTEX
  8
0
 10
9.23801363
 20
9.24391908
  0
VERTEX
  8
0
 10
9.14200831
 20
9.37654824
  0
VERTEX
  8
0
 10
9.06544304
 20
9.53603385
  0
VERTEX
  8
0
 10
9.00656533
 20
9.72363413
  0
VERTEX
  8
0
 10
8.97864143
 20
9.89531721
  0
VERTEX
  8
0
 10
8.98364106
 20
9.98944482
  0
VERTEX
  8
0
 10
9.00656533
 20
10.10912909
  0
VERTEX
  8
0
 10
9.07266669
 20
10.28745204
  0
VERTEX
  8
0
 10
9.17380211
 20
10.44076814
  0
VERTEX
  8
0
 10
9.26450681
 20
10.58816327
  0
VERTEX
  8
0
 10
9.29275859
 20
10.58736489
  0
VERTEX
  8
0
 10
9.32119724
 20
10.58816327
  0
VERTEX
  8
0
 10
9.46859294
 20
10.70933971
  0
VERTEX
  8
0
 10
9.66984342
 20
10.80925597
  0
SEQEND
  0
POLYLINE
  8
Default_Layer
 66
   1
 39
0.000000
 70
    1
  0
VERTEX
  8
0
 10
4.17654021
 20
2.52394880
  0
VERTEX
  8
0
 10
3.95638304
 20
2.50159304
  0
VERTEX
  8
0
 10
3.63624978
 20
2.48935055
  0
VERTEX
  8
0
 10
2.83412540
 20
2.48775358
  0
VERTEX
  8
0
 10
1.54893852
 20
2.52394880
  0
VERTEX
  8
0
 10
1.55171132
 20
5.31645131
  0
VERTEX
  8
0
 10
1.54893852
 20
8.03425914
  0
VERTEX
  8
0
 10
1.61972251
 20
7.97559114
  0
VERTEX
  8
0
 10
1.67015323
 20
7.89753949
  0
VERTEX
  8
0
 10
1.71524976
 20
7.81415011
  0
VERTEX
  8
0
 10
1.77003122
 20
7.73946888
  0
VERTEX
  8
0
 10
1.81529726
 20
7.71057491
  0
VERTEX
  8
0
 10
1.86541503
 20
7.68967434
  0
VERTEX
  8
0
 10
1.90965010
 20
7.66178267
  0
VERTEX
  8
0
 10
1.93726800
 20
7.61191540
  0
VERTEX
  8
0
 10
2.14583604
 20
7.54686212
  0
VERTEX
  8
0
 10
2.35211959
 20
7.53435849
  0
VERTEX
  8
0
 10
2.54614294
 20
7.56921665
  0
VERTEX
  8
0
 10
2.71793038
 20
7.64624872
  0
VERTEX
  8
0
 10
2.85750617
 20
7.76026685
  0
VERTEX
  8
0
 10
2.95489461
 20
7.90608318
  0
VERTEX
  8
0
 10
2.98465116
 20
7.98929446
  0
VERTEX
  8
0
 10
3.00011997
 20
8.07850984
  0
VERTEX
  8
0
 10
3.00005409
 20
8.17308084
  0
VERTEX
  8
0
 10
2.98320654
 20
8.27235897
  0
VERTEX
  8
0
 10
2.95152592
 20
8.35633114
  0
VERTEX
  8
0
 10
2.90205016
 20
8.43411975
  0
VERTEX
  8
0
 10
2.83772502
 20
8.50274268
  0
VERTEX
  8
0
 10
2.76149627
 20
8.55921782
  0
VERTEX
  8
0
 10
2.67630968
 20
8.60056305
  0
VERTEX
  8
0
 10
2.58511101
 20
8.62379624
  0
VERTEX
  8
0
 10
2.49084604
 20
8.62593527
  0
VERTEX
  8
0
 10
2.39646053
 20
8.60399802
  0
VERTEX
  8
0
 10
2.35360102
 20
8.57828331
  0
VERTEX
  8
0
 10
2.31880452
 20
8.54489856
  0
VERTEX
  8
0
 10
2.28102682
 20
8.51342696
  0
VERTEX
  8
0
 10
2.22922374
 20
8.49345167
  0
VERTEX
  8
0
 10
2.20034177
 20
8.36680612
  0
VERTEX
  8
0
 10
2.18995342
 20
8.29912678
  0
VERTEX
  8
0
 10
2.19237496
 20
8.21850306
  0
VERTEX
  8
0
 10
2.21360042
 20
8.17930152
  0
VERTEX
  8
0
 10
2.25445783
 20
8.15998833
  0
VERTEX
  8
0
 10
2.29687080
 20
8.14229591
  0
VERTEX
  8
0
 10
2.32276296
 20
8.10795671
  0
VERTEX
  8
0
 10
2.34187752
 20
8.06655623
  0
VERTEX
  8
0
 10
2.37633989
 20
8.04308223
  0
VERTEX
  8
0
 10
2.42015395
 20
8.03858149
  0
VERTEX
  8
0
 10
2.46732357
 20
8.05410080
  0
VERTEX
  8
0
 10
2.48310382
 20
8.10223933
  0
VERTEX
  8
0
 10
2.47656788
 20
8.13765923
  0
VERTEX
  8
0
 10
2.42446883
 20
8.18912661
  0
VERTEX
  8
0
 10
2.36686919
 20
8.24607002
  0
VERTEX
  8
0
 10
2.35345752
 20
8.28833495
  0
VERTEX
  8
0
 10
2.35961175
 20
8.34605654
  0
VERTEX
  8
0
 10
2.45893431
 20
8.41558849
  0
VERTEX
  8
0
 10
2.50488535
 20
8.44448318
  0
VERTEX
  8
0
 10
2.56086279
 20
8.45660289
  0
VERTEX
  8
0
 10
2.66048660
 20
8.42955604
  0
VERTEX
  8
0
 10
2.74760782
 20
8.35733007
  0
VERTEX
  8
0
 10
2.81009368
 20
8.25679116
  0
VERTEX
  8
0
 10
2.83581141
 20
8.14480549
  0
VERTEX
  8
0
 10
2.81389922
 20
8.01940607
  0
VERTEX
  8
0
 10
2.75303759
 20
7.92078902
  0
VERTEX
  8
0
 10
2.59771158
 20
7.75931053
  0
VERTEX
  8
0
 10
2.43556594
 20
7.72620360
  0
VERTEX
  8
0
 10
2.26186500
 20
7.72372889
  0
VERTEX
  8
0
 10
2.09522823
 20
7.74825718
  0
VERTEX
  8
0
 10
1.95427513
 20
7.79615931
  0
VERTEX
  8
0
 10
1.83536716
 20
7.95224571
  0
VERTEX
  8
0
 10
1.73900773
 20
8.10108289
  0
VERTEX
  8
0
 10
1.67658443
 20
8.26256918
  0
VERTEX
  8
0
 10
1.65948487
 20
8.45660289
  0
VERTEX
  8
0
 10
1.69554114
 20
8.64984386
  0
VERTEX
  8
0
 10
1.77652914
 20
8.83166642
  0
VERTEX
  8
0
 10
1.89111696
 20
8.99106811
  0
VERTEX
  8
0
 10
2.02797270
 20
9.11704646
  0
VERTEX
  8
0
 10
2.11867739
 20
9.15389525
  0
VERTEX
  8
0
 10
2.17536783
 20
9.22759281
  0
VERTEX
  8
0
 10
2.30340073
 20
9.27119098
  0
VERTEX
  8
0
 10
2.46732357
 20
9.30129038
  0
VERTEX
  8
0
 10
2.66764748
 20
9.33304943
  0
VERTEX
  8
0
 10
2.79257032
 20
9.34238165
  0
VERTEX
  8
0
 10
2.90950897
 20
9.33813916
  0
VERTEX
  8
0
 10
3.03190089
 20
9.30204263
  0
VERTEX
  8
0
 10
3.14760880
 20
9.26444160
  0
VERTEX
  8
0
 10
3.18983513
 20
9.24929342
  0
VERTEX
  8
0
 10
3.22130637
 20
9.22759281
  0
VERTEX
  8
0
 10
3.27698899
 20
9.20721239
  0
VERTEX
  8
0
 10
3.33185272
 20
9.17373690
  0
VERTEX
  8
0
 10
3.43282529
 20
9.11116742
  0
VERTEX
  8
0
 10
3.53310376
 20
9.04334890
  0
VERTEX
  8
0
 10
3.58568545
 20
8.96882489
  0
VERTEX
  8
0
 10
3.64365011
 20
8.87894663
  0
VERTEX
  8
0
 10
3.71284398
 20
8.81391902
  0
VERTEX
  8
0
 10
3.77403812
 20
8.75139315
  0
VERTEX
  8
0
 10
3.88939844
 20
8.53556361
  0
VERTEX
  8
0
 10
3.96249009
 20
8.30891144
  0
VERTEX
  8
0
 10
4.00513250
 20
8.05973126
  0
VERTEX
  8
0
 10
4.02914508
 20
7.77631766
  0
VERTEX
  8
0
 10
4.08583551
 20
7.35397392
  0
VERTEX
  8
0
 10
4.13969143
 20
6.84092547
  0
VERTEX
  8
0
 10
4.16655783
 20
6.30570804
  0
VERTEX
  8
0
 10
4.15646473
 20
6.05999523
  0
VERTEX
  8
0
 10
4.12982626
 20
5.82733854
  0
VERTEX
  8
0
 10
4.08599655
 20
5.60658207
  0
VERTEX
  8
0
 10
4.02432971
 20
5.39656997
  0
VERTEX
  8
0
 10
3.94417987
 20
5.19614636
  0
VERTEX
  8
0
 10
3.84490116
 20
5.00415536
  0
VERTEX
  8
0
 10
3.71932493
 20
4.81961763
  0
VERTEX
  8
0
 10
3.58583990
 20
4.65021659
  0
VERTEX
  8
0
 10
3.48125998
 20
4.49692583
  0
VERTEX
  8
0
 10
3.45131378
 20
4.42662604
  0
VERTEX
  8
0
 10
3.44239907
 20
4.36071891
  0
VERTEX
  8
0
 10
3.46213670
 20
4.28073299
  0
VERTEX
  8
0
 10
3.50662295
 20
4.20401939
  0
VERTEX
  8
0
 10
3.62664298
 20
4.04892152
  0
VERTEX
  8
0
 10
3.74588196
 20
3.90396705
  0
VERTEX
  8
0
 10
3.84490116
 20
3.77397290
  0
VERTEX
  8
0
 10
3.90395034
 20
3.63008794
  0
VERTEX
  8
0
 10
3.95544751
 20
3.47918264
  0
VERTEX
  8
0
 10
4.03590600
 20
3.27491680
  0
VERTEX
  8
0
 10
4.10768099
 20
3.04502085
  0
VERTEX
  8
0
 10
4.15861242
 20
2.79339733
  0
VERTEX
  8
0
 10
4.17654021
 20
2.52394880
  0
SEQEND
  0
POLYLINE
  8
Default_Layer
 66
   1
 39
0.000000
 70
    1
  0
VERTEX
  8
0
 10
6.12385667
 20
8.45660289
  0
VERTEX
  8
0
 10
6.22838923
 20
8.39167335
  0
VERTEX
  8
0
 10
6.26764524
 20
8.36106565
  0
VERTEX
  8
0
 10
6.28825894
 20
8.30920776
  0
VERTEX
  8
0
 10
6.28755476
 20
8.26735846
  0
VERTEX
  8
0
 10
6.27436727
 20
8.23473242
  0
VERTEX
  8
0
 10
6.22801522
 20
8.18561035
  0
VERTEX
  8
0
 10
6.18414843
 20
8.13876203
  0
VERTEX
  8
0
 10
6.17406754
 20
8.10897817
  0
VERTEX
  8
0
 10
6.17771259
 20
8.07110793
  0
VERTEX
  8
0
 10
6.21795894
 20
8.03885003
  0
VERTEX
  8
0
 10
6.25681671
 20
8.03137031
  0
VERTEX
  8
0
 10
6.29419111
 20
8.04352000
  0
VERTEX
  8
0
 10
6.32998738
 20
8.07015035
  0
VERTEX
  8
0
 10
6.45549572
 20
8.21850306
  0
VERTEX
  8
0
 10
6.44997992
 20
8.32263037
  0
VERTEX
  8
0
 10
6.42664640
 20
8.40933187
  0
VERTEX
  8
0
 10
6.38802827
 20
8.47916920
  0
VERTEX
  8
0
 10
6.33665862
 20
8.53270398
  0
VERTEX
  8
0
 10
6.27507058
 20
8.57049785
  0
VERTEX
  8
0
 10
6.20579725
 20
8.59311243
  0
VERTEX
  8
0
 10
6.05432717
 20
8.59505029
  0
VERTEX
  8
0
 10
5.90251323
 20
8.54301059
  0
VERTEX
  8
0
 10
5.77062031
 20
8.44148639
  0
VERTEX
  8
0
 10
5.71847701
 20
8.37357169
  0
VERTEX
  8
0
 10
5.67891328
 20
8.29497075
  0
VERTEX
  8
0
 10
5.65446225
 20
8.20624521
  0
VERTEX
  8
0
 10
5.64765701
 20
8.10795671
  0
VERTEX
  8
0
 10
5.66483176
 20
7.97289825
  0
VERTEX
  8
0
 10
5.70857115
 20
7.85576144
  0
VERTEX
  8
0
 10
5.77655270
 20
7.75640190
  0
VERTEX
  8
0
 10
5.86645389
 20
7.67467529
  0
VERTEX
  8
0
 10
5.97595225
 20
7.61043723
  0
VERTEX
  8
0
 10
6.10272526
 20
7.56354335
  0
VERTEX
  8
0
 10
6.24445044
 20
7.53384930
  0
VERTEX
  8
0
 10
6.39880529
 20
7.52121070
  0
VERTEX
  8
0
 10
6.28937918
 20
7.38675595
  0
VERTEX
  8
0
 10
6.17807952
 20
7.23000132
  0
VERTEX
  8
0
 10
6.08572941
 20
7.04878007
  0
VERTEX
  8
0
 10
6.03315198
 20
6.84092547
  0
VERTEX
  8
0
 10
6.02828990
 20
6.58320524
  0
VERTEX
  8
0
 10
6.07179150
 20
6.35220690
  0
VERTEX
  8
0
 10
6.15053789
 20
6.14518378
  0
VERTEX
  8
0
 10
6.25141015
 20
5.95938920
  0
VERTEX
  8
0
 10
6.55016910
 20
5.72423763
  0
VERTEX
  8
0
 10
6.72099534
 20
5.62889303
  0
VERTEX
  8
0
 10
6.82016226
 20
5.59515392
  0
VERTEX
  8
0
 10
6.93169538
 20
5.57389424
  0
VERTEX
  8
0
 10
6.93169538
 20
2.50694167
  0
VERTEX
  8
0
 10
5.02122770
 20
2.50694167
  0
VERTEX
  8
0
 10
4.72740167
 20
2.49950105
  0
VERTEX
  8
0
 10
4.58648590
 20
2.50370436
  0
VERTEX
  8
0
 10
4.45148882
 20
2.52394880
  0
VERTEX
  8
0
 10
4.45371260
 20
2.73528625
  0
VERTEX
  8
0
 10
4.47475451
 20
2.93225822
  0
VERTEX
  8
0
 10
4.51676057
 20
3.12703516
  0
VERTEX
  8
0
 10
4.58187682
 20
3.33178751
  0
VERTEX
  8
0
 10
4.66590554
 20
3.54463481
  0
VERTEX
  8
0
 10
4.75306500
 20
3.71553665
  0
VERTEX
  8
0
 10
4.98437892
 20
4.04892152
  0
VERTEX
  8
0
 10
5.11271823
 20
4.20217189
  0
VERTEX
  8
0
 10
5.16448830
 20
4.27614214
  0
VERTEX
  8
0
 10
5.18846449
 20
4.34371178
  0
VERTEX
  8
0
 10
5.17859672
 20
4.41364157
  0
VERTEX
  8
0
 10
5.14492367
 20
4.48632857
  0
VERTEX
  8
0
 10
5.03045839
 20
4.63641035
  0
VERTEX
  8
0
 10
4.89366200
 20
4.78682934
  0
VERTEX
  8
0
 10
4.78312787
 20
4.93045779
  0
VERTEX
  8
0
 10
4.70703740
 20
5.10245328
  0
VERTEX
  8
0
 10
4.63573274
 20
5.29894562
  0
VERTEX
  8
0
 10
4.54536861
 20
5.54541066
  0
VERTEX
  8
0
 10
4.48833760
 20
5.81199407
  0
VERTEX
  8
0
 10
4.46354030
 20
6.04696367
  0
VERTEX
  8
0
 10
4.45692016
 20
6.28678208
  0
VERTEX
  8
0
 10
4.48392309
 20
6.77204408
  0
VERTEX
  8
0
 10
4.59888395
 20
7.70262010
  0
VERTEX
  8
0
 10
4.63010614
 20
8.02181797
  0
VERTEX
  8
0
 10
4.67258152
 20
8.34605654
  0
VERTEX
  8
0
 10
4.86927909
 20
8.72676764
  0
VERTEX
  8
0
 10
4.98622226
 20
8.89713258
  0
VERTEX
  8
0
 10
5.13177405
 20
9.04334890
  0
VERTEX
  8
0
 10
5.24471022
 20
9.10721836
  0
VERTEX
  8
0
 10
5.36987388
 20
9.17373690
  0
VERTEX
  8
0
 10
5.62781536
 20
9.30129038
  0
VERTEX
  8
0
 10
5.72718937
 20
9.30019151
  0
VERTEX
  8
0
 10
5.82906641
 20
9.30129038
  0
VERTEX
  8
0
 10
6.02488013
 20
9.32479849
  0
VERTEX
  8
0
 10
6.15021052
 20
9.32277868
  0
VERTEX
  8
0
 10
6.27125181
 20
9.30129038
  0
VERTEX
  8
0
 10
6.44559647
 20
9.21480342
  0
VERTEX
  8
0
 10
6.61989799
 20
9.10003933
  0
VERTEX
  8
0
 10
6.75289545
 20
8.99204625
  0
VERTEX
  8
0
 10
6.85799782
 20
8.84209785
  0
VERTEX
  8
0
 10
6.94665209
 20
8.67357186
  0
VERTEX
  8
0
 10
6.98593738
 20
8.57234974
  0
VERTEX
  8
0
 10
7.00539295
 20
8.47644454
  0
VERTEX
  8
0
 10
7.00309192
 20
8.36574058
  0
VERTEX
  8
0
 10
6.98391212
 20
8.26203945
  0
VERTEX
  8
0
 10
6.90508532
 20
8.07367558
  0
VERTEX
  8
0
 10
6.78925079
 20
7.90741268
  0
VERTEX
  8
0
 10
6.65674677
 20
7.75931053
  0
VERTEX
  8
0
 10
6.39070628
 20
7.71684422
  0
VERTEX
  8
0
 10
6.25525585
 20
7.70685679
  0
VERTEX
  8
0
 10
6.12385667
 20
7.72246175
  0
VERTEX
  8
0
 10
6.10879704
 20
7.73985551
  0
VERTEX
  8
0
 10
6.08700789
 20
7.75931053
  0
VERTEX
  8
0
 10
5.98011268
 20
7.80799343
  0
VERTEX
  8
0
 10
5.89895071
 20
7.89080311
  0
VERTEX
  8
0
 10
5.84658413
 20
7.99617313
  0
VERTEX
  8
0
 10
5.82607507
 20
8.11253705
  0
VERTEX
  8
0
 10
5.84048566
 20
8.22832842
  0
VERTEX
  8
0
 10
5.89287803
 20
8.33198081
  0
VERTEX
  8
0
 10
5.98631433
 20
8.41192778
  0
VERTEX
  8
0
 10
6.12385667
 20
8.45660289
  0
SEQEND
  0
POLYLINE
  8
Default_Layer
 66
   1
 39
0.000000
 70
    1
  0
VERTEX
  8
0
 10
9.76054812
 20
2.50694167
  0
VERTEX
  8
0
 10
8.94308185
 20
2.48191702
  0
VERTEX
  8
0
 10
8.52131556
 20
2.47791089
  0
VERTEX
  8
0
 10
8.10802192
 20
2.48710001
  0
VERTEX
  8
0
 10
7.66826170
 20
2.49817169
  0
VERTEX
  8
0
 10
7.26333443
 20
2.52394880
  0
VERTEX
  8
0
 10
7.24737352
 20
2.77066766
  0
VERTEX
  8
0
 10
7.24349278
 20
3.01999011
  0
VERTEX
  8
0
 10
7.26128631
 20
3.06343320
  0
VERTEX
  8
0
 10
7.28034156
 20
3.11069481
  0
VERTEX
  8
0
 10
7.28202884
 20
3.23951175
  0
VERTEX
  8
0
 10
7.26806801
 20
3.37140431
  0
VERTEX
  8
0
 10
7.24349278
 20
3.62657777
  0
VERTEX
  8
0
 10
7.26333443
 20
3.75413125
  0
VERTEX
  8
0
 10
7.27751761
 20
4.11167847
  0
VERTEX
  8
0
 10
7.27883090
 20
4.53483260
  0
VERTEX
  8
0
 10
7.28034156
 20
5.55405258
  0
VERTEX
  8
0
 10
7.41695042
 20
5.59286080
  0
VERTEX
  8
0
 10
7.48138235
 20
5.61532856
  0
VERTEX
  8
0
 10
7.55529017
 20
5.62775015
  0
VERTEX
  8
0
 10
7.76662198
 20
5.77785191
  0
VERTEX
  8
0
 10
7.96348710
 20
5.98150453
  0
VERTEX
  8
0
 10
8.04750320
 20
6.10182379
  0
VERTEX
  8
0
 10
8.11711287
 20
6.23362444
  0
VERTEX
  8
0
 10
8.16871954
 20
6.37627101
  0
VERTEX
  8
0
 10
8.19872662
 20
6.52912808
  0
VERTEX
  8
0
 10
8.20727959
 20
6.68401494
  0
VERTEX
  8
0
 10
8.19657964
 20
6.82932843
  0
VERTEX
  8
0
 10
8.16850185
 20
6.96508998
  0
VERTEX
  8
0
 10
8.12492131
 20
7.09132103
  0
VERTEX
  8
0
 10
8.06771309
 20
7.20804303
  0
VERTEX
  8
0
 10
7.99875230
 20
7.31527741
  0
VERTEX
  8
0
 10
7.83307331
 20
7.50136905
  0
VERTEX
  8
0
 10
8.00347590
 20
7.50608514
  0
VERTEX
  8
0
 10
8.16568437
 20
7.55368407
  0
VERTEX
  8
0
 10
8.31190419
 20
7.63748872
  0
VERTEX
  8
0
 10
8.43434086
 20
7.75082195
  0
VERTEX
  8
0
 10
8.52519985
 20
7.88700665
  0
VERTEX
  8
0
 10
8.57668666
 20
8.03936567
  0
VERTEX
  8
0
 10
8.58100677
 20
8.20122190
  0
VERTEX
  8
0
 10
8.53036567
 20
8.36589819
  0
VERTEX
  8
0
 10
8.44128597
 20
8.46789917
  0
VERTEX
  8
0
 10
8.32911462
 20
8.56714924
  0
VERTEX
  8
0
 10
8.21098081
 20
8.60224297
  0
VERTEX
  8
0
 10
8.09037554
 20
8.60274534
  0
VERTEX
  8
0
 10
7.97434168
 20
8.57623746
  0
VERTEX
  8
0
 10
7.86992209
 20
8.53030046
  0
VERTEX
  8
0
 10
7.81757899
 20
8.43064823
  0
VERTEX
  8
0
 10
7.78285929
 20
8.30725420
  0
VERTEX
  8
0
 10
7.78153315
 20
8.24725738
  0
VERTEX
  8
0
 10
7.79592278
 20
8.19404915
  0
VERTEX
  8
0
 10
7.82979814
 20
8.15187086
  0
VERTEX
  8
0
 10
7.88692922
 20
8.12496384
  0
VERTEX
  8
0
 10
7.92030008
 20
8.04914874
  0
VERTEX
  8
0
 10
7.94934429
 20
8.02354272
  0
VERTEX
  8
0
 10
7.99747557
 20
8.01725201
  0
VERTEX
  8
0
 10
8.04528779
 20
8.04154716
  0
VERTEX
  8
0
 10
8.08818027
 20
8.07110793
  0
VERTEX
  8
0
 10
8.06057464
 20
8.13932920
  0
VERTEX
  8
0
 10
8.00842703
 20
8.18308766
  0
VERTEX
  8
0
 10
7.96001589
 20
8.23038121
  0
VERTEX
  8
0
 10
7.94604851
 20
8.26410299
  0
VERTEX
  8
0
 10
7.94361966
 20
8.30920776
  0
VERTEX
  8
0
 10
7.97570626
 20
8.35934153
  0
VERTEX
  8
0
 10
8.02407671
 20
8.39329774
  0
VERTEX
  8
0
 10
8.12502905
 20
8.45660289
  0
VERTEX
  8
0
 10
8.22829336
 20
8.42056920
  0
VERTEX
  8
0
 10
8.30877774
 20
8.35910606
  0
VERTEX
  8
0
 10
8.36544845
 20
8.27858594
  0
VERTEX
  8
0
 10
8.39727180
 20
8.18538128
  0
VERTEX
  8
0
 10
8.40321404
 20
8.08586455
  0
VERTEX
  8
0
 10
8.38224148
 20
7.98640820
  0
VERTEX
  8
0
 10
8.33332039
 20
7.89338467
  0
VERTEX
  8
0
 10
8.25541705
 20
7.81316644
  0
VERTEX
  8
0
 10
8.14896684
 20
7.74540238
  0
VERTEX
  8
0
 10
8.01448270
 20
7.68561296
  0
VERTEX
  8
0
 10
7.88142534
 20
7.67728788
  0
VERTEX
  8
0
 10
7.75155990
 20
7.69809482
  0
VERTEX
  8
0
 10
7.63410595
 20
7.74029741
  0
VERTEX
  8
0
 10
7.53828304
 20
7.79615931
  0
VERTEX
  8
0
 10
7.44165899
 20
7.89531637
  0
VERTEX
  8
0
 10
7.37501558
 20
8.01117118
  0
VERTEX
  8
0
 10
7.31630834
 20
8.12935778
  0
VERTEX
  8
0
 10
7.24349278
 20
8.23551019
  0
VERTEX
  8
0
 10
7.24898853
 20
8.45555486
  0
VERTEX
  8
0
 10
7.28717752
 20
8.64275066
  0
VERTEX
  8
0
 10
7.35403770
 20
8.80111884
  0
VERTEX
  8
0
 10
7.44554699
 20
8.93468070
  0
VERTEX
  8
0
 10
7.55768332
 20
9.04745751
  0
VERTEX
  8
0
 10
7.68642463
 20
9.14347054
  0
VERTEX
  8
0
 10
7.97763392
 20
9.30129038
  0
VERTEX
  8
0
 10
8.16587818
 20
9.32178235
  0
VERTEX
  8
0
 10
8.34047439
 20
9.32401133
  0
VERTEX
  8
0
 10
8.50236036
 20
9.30830988
  0
VERTEX
  8
0
 10
8.65247392
 20
9.27501057
  0
VERTEX
  8
0
 10
8.79175290
 20
9.22444596
  0
VERTEX
  8
0
 10
8.92113509
 20
9.15694859
  0
VERTEX
  8
0
 10
9.04155834
 20
9.07285104
  0
VERTEX
  8
0
 10
9.15396046
 20
8.97248585
  0
VERTEX
  8
0
 10
9.20044456
 20
8.90088420
  0
VERTEX
  8
0
 10
9.24749968
 20
8.82509072
  0
VERTEX
  8
0
 10
9.31489437
 20
8.76726903
  0
VERTEX
  8
0
 10
9.37505316
 20
8.71454437
  0
VERTEX
  8
0
 10
9.45046554
 20
8.56630675
  0
VERTEX
  8
0
 10
9.52011591
 20
8.37165709
  0
VERTEX
  8
0
 10
9.61315299
 20
7.98040323
  0
VERTEX
  8
0
 10
9.63558968
 20
7.75937231
  0
VERTEX
  8
0
 10
9.64804765
 20
7.51501855
  0
VERTEX
  8
0
 10
9.66148268
 20
7.25533647
  0
VERTEX
  8
0
 10
9.68685055
 20
6.98832061
  0
VERTEX
  8
0
 10
9.74609908
 20
6.38378517
  0
VERTEX
  8
0
 10
9.75126028
 20
6.06281292
  0
VERTEX
  8
0
 10
9.72369934
 20
5.77514528
  0
VERTEX
  8
0
 10
9.66611652
 20
5.58848699
  0
VERTEX
  8
0
 10
9.64498457
 20
5.49866626
  0
VERTEX
  8
0
 10
9.65000177
 20
5.40665745
  0
VERTEX
  8
0
 10
9.53893596
 20
5.20054052
  0
VERTEX
  8
0
 10
9.42890907
 20
4.96730657
  0
VERTEX
  8
0
 10
9.35521151
 20
4.81991144
  0
VERTEX
  8
0
 10
9.25082409
 20
4.69786225
  0
VERTEX
  8
0
 10
9.13657031
 20
4.58522544
  0
VERTEX
  8
0
 10
9.04943600
 20
4.46166952
  0
VERTEX
  8
0
 10
9.02759671
 20
4.38944330
  0
VERTEX
  8
0
 10
9.02640698
 20
4.30686300
  0
VERTEX
  8
0
 10
9.04821688
 20
4.23169324
  0
VERTEX
  8
0
 10
9.08977201
 20
4.17798679
  0
VERTEX
  8
0
 10
9.21065090
 20
4.08577030
  0
VERTEX
  8
0
 10
9.40657083
 20
3.74937590
  0
VERTEX
  8
0
 10
9.57439321
 20
3.38486354
  0
VERTEX
  8
0
 10
9.64267428
 20
3.18702068
  0
VERTEX
  8
0
 10
9.69781873
 20
2.97609739
  0
VERTEX
  8
0
 10
9.73778915
 20
2.75007672
  0
VERTEX
  8
0
 10
9.76054812
 20
2.50694167
  0
SEQEND
  0
POLYLINE
  8
Default_Layer
 66
   1
 39
0.000000
 70
    1
  0
VERTEX
  8
0
 10
11.85525972
 20
8.29220063
  0
VERTEX
  8
0
 10
11.84171179
 20
8.21764857
  0
VERTEX
  8
0
 10
11.79516020
 20
8.17641502
  0
VERTEX
  8
0
 10
11.74180959
 20
8.14205288
  0
VERTEX
  8
0
 10
11.70786459
 20
8.08811506
  0
VERTEX
  8
0
 10
11.75360077
 20
8.02467919
  0
VERTEX
  8
0
 10
11.79828254
 20
8.00836958
  0
VERTEX
  8
0
 10
11.84381631
 20
8.02342914
  0
VERTEX
  8
0
 10
11.89210850
 20
8.05410080
  0
VERTEX
  8
0
 10
11.96979739
 20
8.14005094
  0
VERTEX
  8
0
 10
12.01966198
 20
8.23551019
  0
VERTEX
  8
0
 10
12.01959447
 20
8.30881844
  0
VERTEX
  8
0
 10
12.00159622
 20
8.37372971
  0
VERTEX
  8
0
 10
11.96872014
 20
8.43055002
  0
VERTEX
  8
0
 10
11.92401909
 20
8.47958540
  0
VERTEX
  8
0
 10
11.81135364
 20
8.55552545
  0
VERTEX
  8
0
 10
11.68802293
 20
8.60399802
  0
VERTEX
  8
0
 10
11.55409738
 20
8.57361430
  0
VERTEX
  8
0
 10
11.44444364
 20
8.52265357
  0
VERTEX
  8
0
 10
11.35818310
 20
8.45442433
  0
VERTEX
  8
0
 10
11.29443713
 20
8.37223505
  0
VERTEX
  8
0
 10
11.25232713
 20
8.27939422
  0
VERTEX
  8
0
 10
11.23097447
 20
8.17921033
  0
VERTEX
  8
0
 10
11.22950054
 20
8.07499185
  0
VERTEX
  8
0
 10
11.24702672
 20
7.97004727
  0
VERTEX
  8
0
 10
11.28267440
 20
7.86768507
  0
VERTEX
  8
0
 10
11.33556495
 20
7.77121374
  0
VERTEX
  8
0
 10
11.40481975
 20
7.68394176
  0
VERTEX
  8
0
 10
11.48956020
 20
7.60917762
  0
VERTEX
  8
0
 10
11.58890767
 20
7.55022979
  0
VERTEX
  8
0
 10
11.70198355
 20
7.51040676
  0
VERTEX
  8
0
 10
11.82790923
 20
7.49301702
  0
VERTEX
  8
0
 10
11.96580607
 20
7.50136905
  0
VERTEX
  8
0
 10
11.83677025
 20
7.34575945
  0
VERTEX
  8
0
 10
11.71332710
 20
7.16397893
  0
VERTEX
  8
0
 10
11.66128811
 20
7.05972912
  0
VERTEX
  8
0
 10
11.61974969
 20
6.94468201
  0
VERTEX
  8
0
 10
11.59174598
 20
6.81741944
  0
VERTEX
  8
0
 10
11.58031111
 20
6.67652321
  0
VERTEX
  8
0
 10
11.59366518
 20
6.50951714
  0
VERTEX
  8
0
 10
11.63352911
 20
6.34963865
  0
VERTEX
  8
0
 10
11.74471337
 20
6.05009390
  0
VERTEX
  8
0
 10
11.88685560
 20
5.88046226
  0
VERTEX
  8
0
 10
12.04995360
 20
5.73135631
  0
VERTEX
  8
0
 10
12.14402345
 20
5.66913572
  0
VERTEX
  8
0
 10
12.24892717
 20
5.61760883
  0
VERTEX
  8
0
 10
12.36652975
 20
5.57862976
  0
VERTEX
  8
0
 10
12.49869616
 20
5.55405258
  0
VERTEX
  8
0
 10
12.51713660
 20
4.80217503
  0
VERTEX
  8
0
 10
12.51821588
 20
4.03236926
  0
VERTEX
  8
0
 10
12.51570329
 20
2.48710001
  0
VERTEX
  8
0
 10
9.99864795
 20
2.48710001
  0
VERTEX
  8
0
 10
10.02214465
 20
2.68012227
  0
VERTEX
  8
0
 10
10.05533839
 20
2.85558785
  0
VERTEX
  8
0
 10
10.10466353
 20
3.12333220
  0
VERTEX
  8
0
 10
10.18289187
 20
3.36863629
  0
VERTEX
  8
0
 10
10.34273172
 20
3.71708625
  0
VERTEX
  8
0
 10
10.43816469
 20
3.88763394
  0
VERTEX
  8
0
 10
10.55137970
 20
4.04892152
  0
VERTEX
  8
0
 10
10.62727761
 20
4.12578843
  0
VERTEX
  8
0
 10
10.69128932
 20
4.18357441
  0
VERTEX
  8
0
 10
10.73069857
 20
4.25694370
  0
VERTEX
  8
0
 10
10.73278909
 20
4.38056057
  0
VERTEX
  8
0
 10
10.71041374
 20
4.44894414
  0
VERTEX
  8
0
 10
10.66645848
 20
4.50943911
  0
VERTEX
  8
0
 10
10.55137970
 20
4.63566753
  0
VERTEX
  8
0
 10
10.46174992
 20
4.76300431
  0
VERTEX
  8
0
 10
10.38414291
 20
4.89360901
  0
VERTEX
  8
0
 10
10.31980058
 20
5.03999158
  0
VERTEX
  8
0
 10
10.25658943
 20
5.20540640
  0
VERTEX
  8
0
 10
10.14924142
 20
5.41680929
  0
VERTEX
  8
0
 10
10.10450375
 20
5.51816204
  0
VERTEX
  8
0
 10
10.07234552
 20
5.64759180
  0
VERTEX
  8
0
 10
10.03549673
 20
5.95938920
  0
VERTEX
  8
0
 10
9.99864795
 20
6.25134494
  0
VERTEX
  8
0
 10
10.03549673
 20
6.63967443
  0
VERTEX
  8
0
 10
10.10941274
 20
7.20733712
  0
VERTEX
  8
0
 10
10.18289187
 20
7.75931053
  0
VERTEX
  8
0
 10
10.18289187
 20
7.98040323
  0
VERTEX
  8
0
 10
10.21574918
 20
8.08360236
  0
VERTEX
  8
0
 10
10.25658943
 20
8.19866141
  0
VERTEX
  8
0
 10
10.27334287
 20
8.33295464
  0
VERTEX
  8
0
 10
10.29343822
 20
8.45660289
  0
VERTEX
  8
0
 10
10.35440325
 20
8.59732651
  0
VERTEX
  8
0
 10
10.42099170
 20
8.71454437
  0
VERTEX
  8
0
 10
10.47851888
 20
8.76317647
  0
VERTEX
  8
0
 10
10.55137970
 20
8.82509072
  0
VERTEX
  8
0
 10
10.66328109
 20
8.95801165
  0
VERTEX
  8
0
 10
10.80648666
 20
9.08019768
  0
VERTEX
  8
0
 10
10.90002588
 20
9.11704646
  0
VERTEX
  8
0
 10
10.95388179
 20
9.19074403
  0
VERTEX
  8
0
 10
11.01057223
 20
9.19074403
  0
VERTEX
  8
0
 10
11.07290775
 20
9.22422742
  0
VERTEX
  8
0
 10
11.17497449
 20
9.26444160
  0
VERTEX
  8
0
 10
11.26567919
 20
9.26444160
  0
VERTEX
  8
0
 10
11.46030475
 20
9.29920155
  0
VERTEX
  8
0
 10
11.59317865
 20
9.30840346
  0
VERTEX
  8
0
 10
11.72487172
 20
9.30129038
  0
VERTEX
  8
0
 10
11.83186159
 20
9.27640931
  0
VERTEX
  8
0
 10
11.92603826
 20
9.23551226
  0
VERTEX
  8
0
 10
12.11036668
 20
9.11704646
  0
VERTEX
  8
0
 10
12.22505872
 20
9.03850712
  0
VERTEX
  8
0
 10
12.32644986
 20
8.95552301
  0
VERTEX
  8
0
 10
12.41192136
 20
8.85692689
  0
VERTEX
  8
0
 10
12.47885451
 20
8.73155150
  0
VERTEX
  8
0
 10
12.53887019
 20
8.50334199
  0
VERTEX
  8
0
 10
12.55255208
 20
8.29220063
  0
VERTEX
  8
0
 10
12.52537333
 20
8.19502755
  0
VERTEX
  8
0
 10
12.46759062
 20
8.07028382
  0
VERTEX
  8
0
 10
12.31445225
 20
7.83300810
  0
VERTEX
  8
0
 10
12.24797800
 20
7.78600326
  0
VERTEX
  8
0
 10
12.14721546
 20
7.73946888
  0
VERTEX
  8
0
 10
12.06004863
 20
7.70742796
  0
VERTEX
  8
0
 10
11.96593118
 20
7.68815291
  0
VERTEX
  8
0
 10
11.70786459
 20
7.68561296
  0
VERTEX
  8
0
 10
11.59263011
 20
7.76323971
  0
VERTEX
  8
0
 10
11.46976476
 20
7.83300810
  0
VERTEX
  8
0
 10
11.41533788
 20
7.92122752
  0
VERTEX
  8
0
 10
11.38881692
 20
8.01814607
  0
VERTEX
  8
0
 10
11.38761795
 20
8.11728903
  0
VERTEX
  8
0
 10
11.40915705
 20
8.21218165
  0
VERTEX
  8
0
 10
11.45085030
 20
8.29634920
  0
VERTEX
  8
0
 10
11.51011379
 20
8.36331695
  0
VERTEX
  8
0
 10
11.58436360
 20
8.40661017
  0
VERTEX
  8
0
 10
11.67101580
 20
8.41975411
  0
VERTEX
  8
0
 10
11.73070024
 20
8.40778222
  0
VERTEX
  8
0
 10
11.77530891
 20
8.38000791
  0
VERTEX
  8
0
 10
11.85525972
 20
8.29220063
  0
SEQEND
  0
POLYLINE
  8
Default_Layer
 66
   1
 39
0.000000
 70
    1
  0
VERTEX
  8
0
 10
15.30770725
 20
2.47009288
  0
VERTEX
  8
0
 10
14.03553129
 20
2.46691308
  0
VERTEX
  8
0
 10
13.41034700
 20
2.46860150
  0
VERTEX
  8
0
 10
12.82750069
 20
2.48710001
  0
VERTEX
  8
0
 10
12.82582733
 20
4.03236926
  0
VERTEX
  8
0
 10
12.82762689
 20
4.80217503
  0
VERTEX
  8
0
 10
12.84734234
 20
5.55405258
  0
VERTEX
  8
0
 10
12.95845878
 20
5.56214874
  0
VERTEX
  8
0
 10
13.04433445
 20
5.59544932
  0
VERTEX
  8
0
 10
13.12312740
 20
5.63568813
  0
VERTEX
  8
0
 10
13.21299565
 20
5.66459893
  0
VERTEX
  8
0
 10
13.41334171
 20
5.84170336
  0
VERTEX
  8
0
 10
13.59849062
 20
6.03308676
  0
VERTEX
  8
0
 10
13.66267974
 20
6.20978454
  0
VERTEX
  8
0
 10
13.71714313
 20
6.39910750
  0
VERTEX
  8
0
 10
13.74912904
 20
6.59816758
  0
VERTEX
  8
0
 10
13.74588575
 20
6.80407669
  0
VERTEX
  8
0
 10
13.71888808
 20
6.92915759
  0
VERTEX
  8
0
 10
13.67533152
 20
7.04530976
  0
VERTEX
  8
0
 10
13.58148348
 20
7.26326922
  0
VERTEX
  8
0
 10
13.48641688
 20
7.36106670
  0
VERTEX
  8
0
 10
13.44457268
 20
7.41557449
  0
VERTEX
  8
0
 10
13.41708122
 20
7.48436192
  0
VERTEX
  8
0
 10
13.55114324
 20
7.48609812
  0
VERTEX
  8
0
 10
13.68437085
 20
7.51834754
  0
VERTEX
  8
0
 10
13.81113919
 20
7.57739918
  0
VERTEX
  8
0
 10
13.92582342
 20
7.65954203
  0
VERTEX
  8
0
 10
14.02279870
 20
7.76106508
  0
VERTEX
  8
0
 10
14.09644018
 20
7.87825735
  0
VERTEX
  8
0
 10
14.14112302
 20
8.00740782
  0
VERTEX
  8
0
 10
14.15122236
 20
8.14480549
  0
VERTEX
  8
0
 10
14.12134356
 20
8.27178324
  0
VERTEX
  8
0
 10
14.05544644
 20
8.38247361
  0
VERTEX
  8
0
 10
13.96168656
 20
8.47179041
  0
VERTEX
  8
0
 10
13.84821950
 20
8.53464744
  0
VERTEX
  8
0
 10
13.72320082
 20
8.56595852
  0
VERTEX
  8
0
 10
13.59478609
 20
8.56063745
  0
VERTEX
  8
0
 10
13.47113089
 20
8.51359804
  0
VERTEX
  8
0
 10
13.36039079
 20
8.41975411
  0
VERTEX
  8
0
 10
13.34645642
 20
8.31486837
  0
VERTEX
  8
0
 10
13.34338365
 20
8.19866141
  0
VERTEX
  8
0
 10
13.39312781
 20
8.13961052
  0
VERTEX
  8
0
 10
13.45393000
 20
8.08811506
  0
VERTEX
  8
0
 10
13.48593686
 20
8.02160254
  0
VERTEX
  8
0
 10
13.51740867
 20
8.00311824
  0
VERTEX
  8
0
 10
13.56164183
 20
7.99741036
  0
VERTEX
  8
0
 10
13.60480495
 20
8.03392165
  0
VERTEX
  8
0
 10
13.61879934
 20
8.06826578
  0
VERTEX
  8
0
 10
13.61108149
 20
8.10157454
  0
VERTEX
  8
0
 10
13.58910789
 20
8.13497973
  0
VERTEX
  8
0
 10
13.53221943
 20
8.20660656
  0
VERTEX
  8
0
 10
13.51221756
 20
8.24709179
  0
VERTEX
  8
0
 10
13.50778592
 20
8.29220063
  0
VERTEX
  8
0
 10
13.56510452
 20
8.36688215
  0
VERTEX
  8
0
 10
13.63054262
 20
8.40469029
  0
VERTEX
  8
0
 10
13.70035565
 20
8.41076089
  0
VERTEX
  8
0
 10
13.77079907
 20
8.39022980
  0
VERTEX
  8
0
 10
13.83812832
 20
8.34823287
  0
VERTEX
  8
0
 10
13.89859886
 20
8.28990594
  0
VERTEX
  8
0
 10
13.94846613
 20
8.22038487
  0
VERTEX
  8
0
 10
13.98398558
 20
8.14480549
  0
VERTEX
  8
0
 10
13.96509668
 20
8.09780842
  0
VERTEX
  8
0
 10
13.96013219
 20
8.04370536
  0
VERTEX
  8
0
 10
13.94713679
 20
7.94355445
  0
VERTEX
  8
0
 10
13.89328088
 20
7.90670566
  0
VERTEX
  8
0
 10
13.85348210
 20
7.83029259
  0
VERTEX
  8
0
 10
13.80257618
 20
7.75931053
  0
VERTEX
  8
0
 10
13.73499968
 20
7.72441612
  0
VERTEX
  8
0
 10
13.64957923
 20
7.70047952
  0
VERTEX
  8
0
 10
13.44950046
 20
7.68350380
  0
VERTEX
  8
0
 10
13.25092783
 20
7.70443144
  0
VERTEX
  8
0
 10
13.10244930
 20
7.75931053
  0
VERTEX
  8
0
 10
12.99008636
 20
7.87441326
  0
VERTEX
  8
0
 10
12.88590456
 20
8.05082519
  0
VERTEX
  8
0
 10
12.81204578
 20
8.25155109
  0
VERTEX
  8
0
 10
12.79340687
 20
8.34947078
  0
VERTEX
  8
0
 10
12.79065191
 20
8.43959576
  0
VERTEX
  8
0
 10
12.82845080
 20
8.59775463
  0
VERTEX
  8
0
 10
12.90560679
 20
8.75947115
  0
VERTEX
  8
0
 10
13.00323469
 20
8.90297607
  0
VERTEX
  8
0
 10
13.10244930
 20
9.00650012
  0
VERTEX
  8
0
 10
13.15913974
 20
9.08019768
  0
VERTEX
  8
0
 10
13.21203266
 20
9.09826067
  0
VERTEX
  8
0
 10
13.26968609
 20
9.11704646
  0
VERTEX
  8
0
 10
13.29892478
 20
9.15790351
  0
VERTEX
  8
0
 10
13.32354200
 20
9.19074403
  0
VERTEX
  8
0
 10
13.43408835
 20
9.22759281
  0
VERTEX
  8
0
 10
13.55395347
 20
9.24845252
  0
VERTEX
  8
0
 10
13.70903696
 20
9.26444160
  0
VERTEX
  8
0
 10
13.88556630
 20
9.28437623
  0
VERTEX
  8
0
 10
14.05749522
 20
9.27047459
  0
VERTEX
  8
0
 10
14.22526631
 20
9.23088028
  0
VERTEX
  8
0
 10
14.38932219
 20
9.17373690
  0
VERTEX
  8
0
 10
14.46301976
 20
9.15389525
  0
VERTEX
  8
0
 10
14.49986854
 20
9.08019768
  0
VERTEX
  8
0
 10
14.55372446
 20
9.08019768
  0
VERTEX
  8
0
 10
14.70111959
 20
8.97248585
  0
VERTEX
  8
0
 10
14.81166594
 20
8.80524907
  0
VERTEX
  8
0
 10
14.90030937
 20
8.69675729
  0
VERTEX
  8
0
 10
14.97606820
 20
8.56714924
  0
VERTEX
  8
0
 10
15.01291698
 20
8.53030046
  0
VERTEX
  8
0
 10
15.05282603
 20
8.45408972
  0
VERTEX
  8
0
 10
15.08302530
 20
8.34972721
  0
VERTEX
  8
0
 10
15.11501920
 20
8.23927758
  0
VERTEX
  8
0
 10
15.16031212
 20
8.14480549
  0
VERTEX
  8
0
 10
15.16156289
 20
7.94779925
  0
VERTEX
  8
0
 10
15.17747727
 20
7.75012402
  0
VERTEX
  8
0
 10
15.23400968
 20
7.37381557
  0
VERTEX
  8
0
 10
15.23497930
 20
7.27307999
  0
VERTEX
  8
0
 10
15.23400968
 20
7.16973000
  0
VERTEX
  8
0
 10
15.27085847
 20
7.06201817
  0
VERTEX
  8
0
 10
15.28374789
 20
6.80069503
  0
VERTEX
  8
0
 10
15.30770725
 20
6.54613521
  0
VERTEX
  8
0
 10
15.33640257
 20
6.41897792
  0
VERTEX
  8
0
 10
15.34455603
 20
6.25134494
  0
VERTEX
  8
0
 10
15.31804016
 20
5.99308553
  0
VERTEX
  8
0
 10
15.27724360
 20
5.73999102
  0
VERTEX
  8
0
 10
15.21998501
 20
5.49458604
  0
VERTEX
  8
0
 10
15.14408306
 20
5.25939519
  0
VERTEX
  8
0
 10
15.04735641
 20
5.03694307
  0
VERTEX
  8
0
 10
14.92762373
 20
4.82975431
  0
VERTEX
  8
0
 10
14.78270366
 20
4.64035350
  0
VERTEX
  8
0
 10
14.61041489
 20
4.47126526
  0
VERTEX
  8
0
 10
14.57650452
 20
4.39655223
  0
VERTEX
  8
0
 10
14.56706582
 20
4.33292954
  0
VERTEX
  8
0
 10
14.57764304
 20
4.27798347
  0
VERTEX
  8
0
 10
14.60378045
 20
4.22930028
  0
VERTEX
  8
0
 10
14.68491286
 20
4.14106757
  0
VERTEX
  8
0
 10
14.77481715
 20
4.04892152
  0
VERTEX
  8
0
 10
14.92891746
 20
3.81364724
  0
VERTEX
  8
0
 10
15.06960742
 20
3.53303855
  0
VERTEX
  8
0
 10
15.15577004
 20
3.32626564
  0
VERTEX
  8
0
 10
15.23400968
 20
3.07384602
  0
VERTEX
  8
0
 10
15.29654806
 20
2.80508414
  0
VERTEX
  8
0
 10
15.31105458
 20
2.65538678
  0
VERTEX
  8
0
 10
15.30770725
 20
2.47009288
  0
SEQEND
  0
POLYLINE
  8
Default_Layer
 66
   1
 39
0.000000
 70
    1
  0
VERTEX
  8
0
 10
3.86474281
 20
8.93563707
  0
VERTEX
  8
0
 10
3.95336046
 20
8.88398696
  0
VERTEX
  8
0
 10
4.05883402
 20
8.84691500
  0
VERTEX
  8
0
 10
4.30018006
 20
8.81423153
  0
VERTEX
  8
0
 10
4.54844334
 20
8.83303863
  0
VERTEX
  8
0
 10
4.76328622
 20
8.89878829
  0
VERTEX
  8
0
 10
4.64715846
 20
8.70501484
  0
VERTEX
  8
0
 10
4.55961212
 20
8.48263605
  0
VERTEX
  8
0
 10
4.49510062
 20
8.23719265
  0
VERTEX
  8
0
 10
4.44807737
 20
7.97422539
  0
VERTEX
  8
0
 10
4.38430932
 20
7.41788226
  0
VERTEX
  8
0
 10
4.32393534
 20
6.85793260
  0
VERTEX
  8
0
 10
4.32151690
 20
6.80100877
  0
VERTEX
  8
0
 10
4.31136427
 20
6.80141337
  0
VERTEX
  8
0
 10
4.30409369
 20
6.89478139
  0
VERTEX
  8
0
 10
4.26396906
 20
7.18144805
  0
VERTEX
  8
0
 10
4.24186102
 20
7.47562500
  0
VERTEX
  8
0
 10
4.22394135
 20
7.76921000
  0
VERTEX
  8
0
 10
4.19638186
 20
8.05410080
  0
VERTEX
  8
0
 10
4.16289071
 20
8.16088375
  0
VERTEX
  8
0
 10
4.12268429
 20
8.27235897
  0
VERTEX
  8
0
 10
4.10477756
 20
8.39714979
  0
VERTEX
  8
0
 10
4.08583551
 20
8.51329332
  0
VERTEX
  8
0
 10
4.03051124
 20
8.62545694
  0
VERTEX
  8
0
 10
3.96416544
 20
8.72605186
  0
VERTEX
  8
0
 10
3.90338150
 20
8.82585344
  0
VERTEX
  8
0
 10
3.86474281
 20
8.93563707
  0
SEQEND
  0
POLYLINE
  8
Default_Layer
 66
   1
 39
0.000000
 70
    1
  0
VERTEX
  8
0
 10
9.42890907
 20
8.87894663
  0
VERTEX
  8
0
 10
9.57729930
 20
8.84162835
  0
VERTEX
  8
0
 10
9.77295217
 20
8.80639939
  0
VERTEX
  8
0
 10
9.99003959
 20
8.79398007
  0
VERTEX
  8
0
 10
10.20273352
 20
8.82509072
  0
VERTEX
  8
0
 10
10.27677034
 20
8.85187150
  0
VERTEX
  8
0
 10
10.31064556
 20
8.87278504
  0
VERTEX
  8
0
 10
10.33028700
 20
8.89878829
  0
VERTEX
  8
0
 10
10.34195412
 20
8.85550718
  0
VERTEX
  8
0
 10
10.32108437
 20
8.81010772
  0
VERTEX
  8
0
 10
10.25658943
 20
8.73155150
  0
VERTEX
  8
0
 10
10.16198310
 20
8.53480433
  0
VERTEX
  8
0
 10
10.09232348
 20
8.31304173
  0
VERTEX
  8
0
 10
10.04242659
 20
8.07144662
  0
VERTEX
  8
0
 10
10.00710843
 20
7.81520195
  0
VERTEX
  8
0
 10
9.95947234
 20
7.27949564
  0
VERTEX
  8
0
 10
9.90794325
 20
6.74738625
  0
VERTEX
  8
0
 10
9.85877510
 20
7.02477249
  0
VERTEX
  8
0
 10
9.82483946
 20
7.31726916
  0
VERTEX
  8
0
 10
9.76608004
 20
7.91112082
  0
VERTEX
  8
0
 10
9.72296344
 20
8.19423933
  0
VERTEX
  8
0
 10
9.65849369
 20
8.45599530
  0
VERTEX
  8
0
 10
9.56352437
 20
8.68727048
  0
VERTEX
  8
0
 10
9.50174412
 20
8.78862833
  0
VERTEX
  8
0
 10
9.42890907
 20
8.87894663
  0
SEQEND
  0
POLYLINE
  8
Default_Layer
 66
   1
 39
0.000000
 70
    1
  0
VERTEX
  8
0
 10
15.01291698
 20
8.86193950
  0
VERTEX
  8
0
 10
15.23090423
 20
8.79443582
  0
VERTEX
  8
0
 10
15.47445625
 20
8.76550829
  0
VERTEX
  8
0
 10
15.70762270
 20
8.77983596
  0
VERTEX
  8
0
 10
15.80907687
 20
8.80468269
  0
VERTEX
  8
0
 10
15.89445326
 20
8.84209785
  0
VERTEX
  8
0
 10
15.72421684
 20
8.46665665
  0
VERTEX
  8
0
 10
15.65321583
 20
8.26833392
  0
VERTEX
  8
0
 10
15.60249752
 20
8.05410080
  0
VERTEX
  8
0
 10
15.56586806
 20
7.76905612
  0
VERTEX
  8
0
 10
15.54191149
 20
7.47158141
  0
VERTEX
  8
0
 10
15.51565093
 20
7.16632435
  0
VERTEX
  8
0
 10
15.47210951
 20
6.85793260
  0
VERTEX
  8
0
 10
15.42421541
 20
6.93050940
  0
VERTEX
  8
0
 10
15.41254923
 20
7.02082488
  0
VERTEX
  8
0
 10
15.41825360
 20
7.20657878
  0
VERTEX
  8
0
 10
15.38140482
 20
7.31712513
  0
VERTEX
  8
0
 10
15.36206566
 20
7.48925118
  0
VERTEX
  8
0
 10
15.35710606
 20
7.65763223
  0
VERTEX
  8
0
 10
15.34455603
 20
7.98040323
  0
VERTEX
  8
0
 10
15.31195361
 20
8.08578926
  0
VERTEX
  8
0
 10
15.27085847
 20
8.19866141
  0
VERTEX
  8
0
 10
15.25424512
 20
8.32286749
  0
VERTEX
  8
0
 10
15.23400968
 20
8.43959576
  0
VERTEX
  8
0
 10
15.18343834
 20
8.52975400
  0
VERTEX
  8
0
 10
15.12346333
 20
8.62100515
  0
VERTEX
  8
0
 10
15.07143948
 20
8.75182829
  0
VERTEX
  8
0
 10
15.01291698
 20
8.86193950
  0
SEQEND
  0
POLYLINE
  8
Default_Layer
 66
   1
 39
0.000000
 70
    1
  0
VERTEX
  8
0
 10
7.09609765
 20
8.14480549
  0
VERTEX
  8
0
 10
7.33703200
 20
7.75931053
  0
VERTEX
  8
0
 10
6.91468825
 20
7.75931053
  0
VERTEX
  8
0
 10
6.95713012
 20
7.85829794
  0
VERTEX
  8
0
 10
7.01479555
 20
7.94242273
  0
VERTEX
  8
0
 10
7.06775968
 20
8.03136516
  0
VERTEX
  8
0
 10
7.09609765
 20
8.14480549
  0
SEQEND
  0
POLYLINE
  8
Default_Layer
 66
   1
 39
0.000000
 70
    1
  0
VERTEX
  8
0
 10
12.68010556
 20
8.12496384
  0
VERTEX
  8
0
 10
12.72220506
 20
8.02020372
  0
VERTEX
  8
0
 10
12.77787381
 20
7.92877497
  0
VERTEX
  8
0
 10
12.83567983
 20
7.83906691
  0
VERTEX
  8
0
 10
12.88419113
 20
7.73946888
  0
VERTEX
  8
0
 10
12.79494140
 20
7.75703039
  0
VERTEX
  8
0
 10
12.69192895
 20
7.76031179
  0
VERTEX
  8
0
 10
12.47885451
 20
7.75931053
  0
VERTEX
  8
0
 10
12.58172019
 20
7.94061696
  0
VERTEX
  8
0
 10
12.68010556
 20
8.12496384
  0
SEQEND
  0
POLYLINE
  8
Default_Layer
 66
   1
 39
0.000000
 70
    1
  0
VERTEX
  8
0
 10
7.48442713
 20
5.77514528
  0
VERTEX
  8
0
 10
7.17983332
 20
5.73622198
  0
VERTEX
  8
0
 10
7.03197357
 20
5.72776602
  0
VERTEX
  8
0
 10
6.89484660
 20
5.73829650
  0
VERTEX
  8
0
 10
6.73306809
 20
5.79899513
  0
VERTEX
  8
0
 10
6.56701343
 20
5.91290566
  0
VERTEX
  8
0
 10
6.41818885
 20
6.05927016
  0
VERTEX
  8
0
 10
6.30810059
 20
6.21733068
  0
VERTEX
  8
0
 10
6.23737470
 20
6.40587255
  0
VERTEX
  8
0
 10
6.17771259
 20
6.63967443
  0
VERTEX
  8
0
 10
6.21182694
 20
6.86018015
  0
VERTEX
  8
0
 10
6.27350940
 20
7.04890904
  0
VERTEX
  8
0
 10
6.36595143
 20
7.21159549
  0
VERTEX
  8
0
 10
6.49234451
 20
7.35397392
  0
VERTEX
  8
0
 10
6.64860049
 20
7.47942425
  0
VERTEX
  8
0
 10
6.74356435
 20
7.53555227
  0
VERTEX
  8
0
 10
6.84099068
 20
7.57506661
  0
VERTEX
  8
0
 10
6.96854416
 20
7.57506661
  0
VERTEX
  8
0
 10
7.07623019
 20
7.59211787
  0
VERTEX
  8
0
 10
7.21060673
 20
7.59836284
  0
VERTEX
  8
0
 10
7.35717451
 20
7.58374751
  0
VERTEX
  8
0
 10
7.50143426
 20
7.53821783
  0
VERTEX
  8
0
 10
7.59000470
 20
7.47362121
  0
VERTEX
  8
0
 10
7.68567818
 20
7.39082270
  0
VERTEX
  8
0
 10
7.83237256
 20
7.25730029
  0
VERTEX
  8
0
 10
7.95543837
 20
7.08387024
  0
VERTEX
  8
0
 10
8.00058245
 20
6.97950992
  0
VERTEX
  8
0
 10
8.03078564
 20
6.86195675
  0
VERTEX
  8
0
 10
8.04303669
 20
6.73013877
  0
VERTEX
  8
0
 10
8.03432436
 20
6.58298399
  0
VERTEX
  8
0
 10
7.99747557
 20
6.43558886
  0
VERTEX
  8
0
 10
7.95810654
 20
6.30350181
  0
VERTEX
  8
0
 10
7.90677088
 20
6.18048190
  0
VERTEX
  8
0
 10
7.80322824
 20
6.04027061
  0
VERTEX
  8
0
 10
7.66583652
 20
5.92254042
  0
VERTEX
  8
0
 10
7.56512239
 20
5.85218730
  0
VERTEX
  8
0
 10
7.48442713
 20
5.77514528
  0
SEQEND
  0
POLYLINE
  8
Default_Layer
 66
   1
 39
0.000000
 70
    1
  0
VERTEX
  8
0
 10
12.47885451
 20
7.55805948
  0
VERTEX
  8
0
 10
12.61772428
 20
7.57337503
  0
VERTEX
  8
0
 10
12.75218639
 20
7.57045707
  0
VERTEX
  8
0
 10
12.88100587
 20
7.55061599
  0
VERTEX
  8
0
 10
13.00294774
 20
7.51516219
  0
VERTEX
  8
0
 10
13.11677702
 20
7.46540605
  0
VERTEX
  8
0
 10
13.22125874
 20
7.40265797
  0
VERTEX
  8
0
 10
13.31515791
 20
7.32822835
  0
VERTEX
  8
0
 10
13.39723957
 20
7.24342757
  0
VERTEX
  8
0
 10
13.49993954
 20
7.06534703
  0
VERTEX
  8
0
 10
13.58148348
 20
6.84092547
  0
VERTEX
  8
0
 10
13.61833227
 20
6.69353034
  0
VERTEX
  8
0
 10
13.60039614
 20
6.50447156
  0
VERTEX
  8
0
 10
13.53274059
 20
6.28943330
  0
VERTEX
  8
0
 10
13.42497112
 20
6.08369608
  0
VERTEX
  8
0
 10
13.35904538
 20
5.99534052
  0
VERTEX
  8
0
 10
13.28669322
 20
5.92254042
  0
VERTEX
  8
0
 10
13.19598852
 20
5.88569163
  0
VERTEX
  8
0
 10
13.16340109
 20
5.84509565
  0
VERTEX
  8
0
 10
13.13929809
 20
5.81199407
  0
VERTEX
  8
0
 10
13.06233388
 20
5.79285442
  0
VERTEX
  8
0
 10
12.97489582
 20
5.77514528
  0
VERTEX
  8
0
 10
12.95788869
 20
5.73829650
  0
VERTEX
  8
0
 10
12.83426688
 20
5.70984892
  0
VERTEX
  8
0
 10
12.67403497
 20
5.69994595
  0
VERTEX
  8
0
 10
12.50833478
 20
5.70921825
  0
VERTEX
  8
0
 10
12.36830816
 20
5.73829650
  0
VERTEX
  8
0
 10
12.35119980
 20
5.75623130
  0
VERTEX
  8
0
 10
12.33145938
 20
5.77514528
  0
VERTEX
  8
0
 10
12.20390590
 20
5.82900120
  0
VERTEX
  8
0
 10
12.08967336
 20
5.91659908
  0
VERTEX
  8
0
 10
11.98281320
 20
6.03308676
  0
VERTEX
  8
0
 10
11.91786856
 20
6.11915770
  0
VERTEX
  8
0
 10
11.86128830
 20
6.22330619
  0
VERTEX
  8
0
 10
11.81553598
 20
6.34191337
  0
VERTEX
  8
0
 10
11.78307515
 20
6.47136038
  0
VERTEX
  8
0
 10
11.76636938
 20
6.60802835
  0
VERTEX
  8
0
 10
11.76788224
 20
6.74829842
  0
VERTEX
  8
0
 10
11.79007728
 20
6.88855172
  0
VERTEX
  8
0
 10
11.83541807
 20
7.02516939
  0
VERTEX
  8
0
 10
11.87142415
 20
7.12213983
  0
VERTEX
  8
0
 10
11.90911563
 20
7.20657878
  0
VERTEX
  8
0
 10
12.05651077
 20
7.35397392
  0
VERTEX
  8
0
 10
12.14909273
 20
7.42456396
  0
VERTEX
  8
0
 10
12.24880706
 20
7.48242697
  0
VERTEX
  8
0
 10
12.35795918
 20
7.52708484
  0
VERTEX
  8
0
 10
12.47885451
 20
7.55805948
  0
SEQEND
  0
POLYLINE
  8
Default_Layer
 66
   1
 39
0.000000
 70
    1
  0
VERTEX
  8
0
 10
4.30409369
 20
5.73829650
  0
VERTEX
  8
0
 10
4.43235135
 20
5.34699291
  0
VERTEX
  8
0
 10
4.58809771
 20
4.98370375
  0
VERTEX
  8
0
 10
4.67933941
 20
4.81564207
  0
VERTEX
  8
0
 10
4.78112557
 20
4.65827699
  0
VERTEX
  8
0
 10
4.89468030
 20
4.51283949
  0
VERTEX
  8
0
 10
5.02122770
 20
4.38056057
  0
VERTEX
  8
0
 10
4.79398554
 20
4.08845716
  0
VERTEX
  8
0
 10
4.59366312
 20
3.76981739
  0
VERTEX
  8
0
 10
4.50751539
 20
3.59664435
  0
VERTEX
  8
0
 10
4.43279990
 20
3.41215481
  0
VERTEX
  8
0
 10
4.37108407
 20
3.21478796
  0
VERTEX
  8
0
 10
4.32393534
 20
3.00298298
  0
VERTEX
  8
0
 10
4.27650260
 20
3.06176555
  0
VERTEX
  8
0
 10
4.25576920
 20
3.13134263
  0
VERTEX
  8
0
 10
4.23323064
 20
3.27793159
  0
VERTEX
  8
0
 10
4.11746975
 20
3.57547816
  0
VERTEX
  8
0
 10
3.96321676
 20
3.86535271
  0
VERTEX
  8
0
 10
3.78311159
 20
4.13221353
  0
VERTEX
  8
0
 10
3.58979420
 20
4.36071891
  0
VERTEX
  8
0
 10
3.71359829
 20
4.49844848
  0
VERTEX
  8
0
 10
3.82683763
 20
4.64677230
  0
VERTEX
  8
0
 10
4.02302779
 20
4.97371001
  0
VERTEX
  8
0
 10
4.18117602
 20
5.33854656
  0
VERTEX
  8
0
 10
4.30409369
 20
5.73829650
  0
SEQEND
  0
POLYLINE
  8
Default_Layer
 66
   1
 39
0.000000
 70
    1
  0
VERTEX
  8
0
 10
9.88810160
 20
5.73829650
  0
VERTEX
  8
0
 10
10.00434697
 20
5.33505634
  0
VERTEX
  8
0
 10
10.16197469
 20
4.97337422
  0
VERTEX
  8
0
 10
10.35769759
 20
4.64975885
  0
VERTEX
  8
0
 10
10.58822848
 20
4.36071891
  0
VERTEX
  8
0
 10
10.37099559
 20
4.05635385
  0
VERTEX
  8
0
 10
10.26193986
 20
3.90306611
  0
VERTEX
  8
0
 10
10.16588474
 20
3.73712412
  0
VERTEX
  8
0
 10
10.00580313
 20
3.37482965
  0
VERTEX
  8
0
 10
9.94008223
 20
3.17772877
  0
VERTEX
  8
0
 10
9.88810160
 20
2.96613420
  0
VERTEX
  8
0
 10
9.85395145
 20
2.98374909
  0
VERTEX
  8
0
 10
9.84664785
 20
3.02013014
  0
VERTEX
  8
0
 10
9.85125282
 20
3.09368768
  0
VERTEX
  8
0
 10
9.78532755
 20
3.31330049
  0
VERTEX
  8
0
 10
9.69738484
 20
3.53515668
  0
VERTEX
  8
0
 10
9.59496280
 20
3.74745024
  0
VERTEX
  8
0
 10
9.48559951
 20
3.93837517
  0
VERTEX
  8
0
 10
9.32807227
 20
4.14423954
  0
VERTEX
  8
0
 10
9.25223958
 20
4.24156070
  0
VERTEX
  8
0
 10
9.19080924
 20
4.34371178
  0
VERTEX
  8
0
 10
9.22688359
 20
4.42653760
  0
VERTEX
  8
0
 10
9.27799768
 20
4.49450997
  0
VERTEX
  8
0
 10
9.41190194
 20
4.59881874
  0
VERTEX
  8
0
 10
9.68518198
 20
5.13402092
  0
VERTEX
  8
0
 10
9.80129828
 20
5.42170144
  0
VERTEX
  8
0
 10
9.88810160
 20
5.73829650
  0
SEQEND
  0
POLYLINE
  8
Default_Layer
 66
   1
 39
0.000000
 70
    1
  0
VERTEX
  8
0
 10
15.45510238
 20
5.70144772
  0
VERTEX
  8
0
 10
15.47961182
 20
5.69908606
  0
VERTEX
  8
0
 10
15.49195117
 20
5.68444059
  0
VERTEX
  8
0
 10
15.53629020
 20
5.47374749
  0
VERTEX
  8
0
 10
15.59431641
 20
5.27676319
  0
VERTEX
  8
0
 10
15.66500001
 20
5.09243638
  0
VERTEX
  8
0
 10
15.74731121
 20
4.91971580
  0
VERTEX
  8
0
 10
15.94269730
 20
4.60488820
  0
VERTEX
  8
0
 10
16.17223639
 20
4.32387013
  0
VERTEX
  8
0
 10
15.93978925
 20
4.03681062
  0
VERTEX
  8
0
 10
15.74087621
 20
3.71640391
  0
VERTEX
  8
0
 10
15.58261154
 20
3.35533591
  0
VERTEX
  8
0
 10
15.52094556
 20
3.15726828
  0
VERTEX
  8
0
 10
15.47210951
 20
2.94629254
  0
VERTEX
  8
0
 10
15.42236862
 20
3.00408674
  0
VERTEX
  8
0
 10
15.40158045
 20
3.07501615
  0
VERTEX
  8
0
 10
15.38140482
 20
3.22124116
  0
VERTEX
  8
0
 10
15.29770447
 20
3.44190113
  0
VERTEX
  8
0
 10
15.19716090
 20
3.66342655
  0
VERTEX
  8
0
 10
15.10495177
 20
3.84517580
  0
VERTEX
  8
0
 10
14.99760008
 20
4.01384250
  0
VERTEX
  8
0
 10
14.87523066
 20
4.16816034
  0
VERTEX
  8
0
 10
14.73796837
 20
4.30686300
  0
VERTEX
  8
0
 10
14.97259188
 20
4.59981726
  0
VERTEX
  8
0
 10
15.17104447
 20
4.92921535
  0
VERTEX
  8
0
 10
15.33224251
 20
5.29608345
  0
VERTEX
  8
0
 10
15.45510238
 20
5.70144772
  0
SEQEND
  0
POLYLINE
  8
Default_Layer
 66
   1
 39
0.000000
 70
    1
  0
VERTEX
  8
0
 10
18.21025756
 20
2.17530262
  0
VERTEX
  8
0
 10
18.23128305
 20
1.78832697
  0
VERTEX
  8
0
 10
18.22837071
 20
1.58725397
  0
VERTEX
  8
0
 10
18.21025756
 20
1.40431269
  0
VERTEX
  8
0
 10
9.85509756
 20
1.44222676
  0
VERTEX
  8
0
 10
1.54893852
 20
1.47801026
  0
VERTEX
  8
0
 10
1.53385867
 20
1.67140875
  0
VERTEX
  8
0
 10
1.53747061
 20
1.84951098
  0
VERTEX
  8
0
 10
1.54893852
 20
2.21215140
  0
VERTEX
  8
0
 10
1.58055761
 20
2.24034997
  0
VERTEX
  8
0
 10
1.59950478
 20
2.24465047
  0
VERTEX
  8
0
 10
1.60562895
 20
2.22915853
  0
VERTEX
  8
0
 10
5.77955195
 20
2.23818880
  0
VERTEX
  8
0
 10
9.95514740
 20
2.22604630
  0
VERTEX
  8
0
 10
18.21025756
 20
2.17530262
  0
SEQEND
  0
POLYLINE
  8
Default_Layer
 66
   1
 39
0.000000
 70
    1
  0
VERTEX
  8
0
 10
15.47210951
 20
13.01167939
  0
VERTEX
  8
0
 10
15.54059705
 20
12.39115977
  0
VERTEX
  8
0
 10
15.60249752
 20
11.72764103
  0
VERTEX
  8
0
 10
15.66597741
 20
11.38736314
  0
VERTEX
  8
0
 10
15.71870288
 20
11.22344747
  0
VERTEX
  8
0
 10
15.78390691
 20
11.08420458
  0
VERTEX
  8
0
 10
15.87829652
 20
10.97429501
  0
VERTEX
  8
0
 10
15.91754601
 20
10.91615726
  0
VERTEX
  8
0
 10
15.93130204
 20
10.84327023
  0
VERTEX
  8
0
 10
15.84103993
 20
10.89545782
  0
VERTEX
  8
0
 10
15.73503373
 20
10.93503441
  0
VERTEX
  8
0
 10
15.49588871
 20
10.97438717
  0
VERTEX
  8
0
 10
15.37279971
 20
10.97317962
  0
VERTEX
  8
0
 10
15.25406629
 20
10.95739364
  0
VERTEX
  8
0
 10
15.14471333
 20
10.92653740
  0
VERTEX
  8
0
 10
15.04976577
 20
10.88011901
  0
VERTEX
  8
0
 10
15.06025572
 20
10.94265877
  0
VERTEX
  8
0
 10
15.09703032
 20
11.01364384
  0
VERTEX
  8
0
 10
15.19716090
 20
11.13806050
  0
VERTEX
  8
0
 10
15.25797067
 20
11.35582072
  0
VERTEX
  8
0
 10
15.30422960
 20
11.58265200
  0
VERTEX
  8
0
 10
15.36708736
 20
12.05478112
  0
VERTEX
  8
0
 10
15.41371905
 20
12.53695466
  0
VERTEX
  8
0
 10
15.47210951
 20
13.01167939
  0
SEQEND
  0
POLYLINE
  8
Default_Layer
 66
   1
 39
0.000000
 70
    1
  0
VERTEX
  8
0
 10
3.90159160
 20
10.95381658
  0
VERTEX
  8
0
 10
3.99910418
 20
11.12465117
  0
VERTEX
  8
0
 10
4.08427514
 20
11.31637619
  0
VERTEX
  8
0
 10
4.15180190
 20
11.52878107
  0
VERTEX
  8
0
 10
4.19638186
 20
11.76165529
  0
VERTEX
  8
0
 10
4.24600580
 20
12.38556549
  0
VERTEX
  8
0
 10
4.27442335
 20
12.69792119
  0
VERTEX
  8
0
 10
4.32393534
 20
12.99467226
  0
VERTEX
  8
0
 10
4.36747423
 20
12.72566227
  0
VERTEX
  8
0
 10
4.39789999
 20
12.44363510
  0
VERTEX
  8
0
 10
4.45214122
 20
11.87329339
  0
VERTEX
  8
0
 10
4.49232125
 20
11.60136091
  0
VERTEX
  8
0
 10
4.55211724
 20
11.34917541
  0
VERTEX
  8
0
 10
4.63971147
 20
11.12492791
  0
VERTEX
  8
0
 10
4.76328622
 20
10.93680945
  0
VERTEX
  8
0
 10
4.75393995
 20
10.92489255
  0
VERTEX
  8
0
 10
4.74627909
 20
10.93680945
  0
VERTEX
  8
0
 10
4.53020799
 20
10.99819164
  0
VERTEX
  8
0
 10
4.31479443
 20
11.01645193
  0
VERTEX
  8
0
 10
4.10395133
 20
10.99914276
  0
VERTEX
  8
0
 10
3.90159160
 20
10.95381658
  0
SEQEND
  0
ENDSEC
  0
EOF
