0
SECTION
2
HEADER
9
$ACADVER
1
AC1009
9
$ANGDIR
70
0
9
$EXTMIN
10
0
20
0
9
$EXTMAX
10
24.0000
20
18.0000
0
ENDSEC
0
SECTION
2
ENTITIES
0
POLYLINE
8
Layer 1
66
1
0
VERTEX
8
0
10
11.2439
20
9.4269
42
0.4124
0
VERTEX
8
0
10
11.2936
20
9.4766
42
0.4126
0
VERTEX
8
0
10
11.2439
20
9.5263
42
0.4125
0
VERTEX
8
0
10
11.1942
20
9.4766
42
0.4124
0
VERTEX
8
0
10
11.2439
20
9.4269
0
SEQEND
8
0
0
POLYLINE
8
Layer 1
66
1
0
VERTEX
8
0
10
9.5042
20
4.5309
42
0.4124
0
VERTEX
8
0
10
9.5291
20
4.5060
42
0.2004
0
VERTEX
8
0
10
9.5466
20
4.5133
42
0.1988
0
VERTEX
8
0
10
9.5539
20
4.5309
42
0.4127
0
VERTEX
8
0
10
9.5291
20
4.5557
42
0.2008
0
VERTEX
8
0
10
9.5115
20
4.5484
42
0.1976
0
VERTEX
8
0
10
9.5042
20
4.5309
0
SEQEND
8
0
0
POLYLINE
8
Layer 1
66
1
0
VERTEX
8
0
10
7.5249
20
4.3775
0
VERTEX
8
0
10
7.5271
20
4.3727
0
VERTEX
8
0
10
7.5313
20
4.3693
42
0.0740
0
VERTEX
8
0
10
7.5413
20
4.3652
42
0.0326
0
VERTEX
8
0
10
7.5518
20
4.3628
42
0.0353
0
VERTEX
8
0
10
7.5734
20
4.3608
42
0.0205
0
VERTEX
8
0
10
7.5947
20
4.3609
42
0.0144
0
VERTEX
8
0
10
7.6162
20
4.3624
42
0.0369
0
VERTEX
8
0
10
7.6374
20
4.3663
42
0.0967
0
VERTEX
8
0
10
7.6468
20
4.3713
42
0.2807
0
VERTEX
8
0
10
7.6475
20
4.3764
0
VERTEX
8
0
10
7.6441
20
4.3805
42
0.0717
0
VERTEX
8
0
10
7.6350
20
4.3863
0
VERTEX
8
0
10
7.6301
20
4.3886
42
0.0109
0
VERTEX
8
0
10
7.6247
20
4.3909
42
0.0920
0
VERTEX
8
0
10
7.5762
20
4.4006
42
0.0574
0
VERTEX
8
0
10
7.5515
20
4.3980
42
0.1139
0
VERTEX
8
0
10
7.5295
20
4.3870
42
0.1717
0
VERTEX
8
0
10
7.5249
20
4.3775
0
SEQEND
8
0
0
POLYLINE
8
Layer 1
66
1
0
VERTEX
8
0
10
6.9444
20
4.4563
42
0.2007
0
VERTEX
8
0
10
6.9620
20
4.4636
42
0.1982
0
VERTEX
8
0
10
6.9693
20
4.4812
42
0.2008
0
VERTEX
8
0
10
6.9620
20
4.4987
42
0.1981
0
VERTEX
8
0
10
6.9444
20
4.5060
42
0.2006
0
VERTEX
8
0
10
6.9269
20
4.4987
42
0.1981
0
VERTEX
8
0
10
6.9195
20
4.4812
42
0.4129
0
VERTEX
8
0
10
6.9444
20
4.4563
0
SEQEND
8
0
0
POLYLINE
8
Layer 1
66
1
0
VERTEX
8
0
10
6.8698
20
4.2049
42
0.1020
0
VERTEX
8
0
10
6.8733
20
4.1877
42
0.1890
0
VERTEX
8
0
10
6.8860
20
4.1761
42
0.1646
0
VERTEX
8
0
10
6.9034
20
4.1758
42
0.0848
0
VERTEX
8
0
10
6.9195
20
4.1829
42
0.0484
0
VERTEX
8
0
10
6.9490
20
4.2054
42
0.0362
0
VERTEX
8
0
10
6.9615
20
4.2191
42
0.0360
0
VERTEX
8
0
10
6.9666
20
4.2268
42
0.0939
0
VERTEX
8
0
10
6.9693
20
4.2356
42
0.1707
0
VERTEX
8
0
10
6.9668
20
4.2424
42
0.0907
0
VERTEX
8
0
10
6.9615
20
4.2473
42
0.0846
0
VERTEX
8
0
10
6.9483
20
4.2534
42
0.0826
0
VERTEX
8
0
10
6.9195
20
4.2575
42
0.2144
0
VERTEX
8
0
10
6.8839
20
4.2415
42
0.1894
0
VERTEX
8
0
10
6.8698
20
4.2049
0
SEQEND
8
0
0
POLYLINE
8
Layer 1
66
1
0
VERTEX
8
0
10
5.3290
20
4.1333
42
-0.0556
0
VERTEX
8
0
10
5.3550
20
4.1456
42
-0.0744
0
VERTEX
8
0
10
5.3692
20
4.1478
42
-0.1299
0
VERTEX
8
0
10
5.3760
20
4.1455
42
-0.2427
0
VERTEX
8
0
10
5.3787
20
4.1391
42
-0.1252
0
VERTEX
8
0
10
5.3762
20
4.1299
42
-0.0483
0
VERTEX
8
0
10
5.3714
20
4.1217
42
-0.0485
0
VERTEX
8
0
10
5.3590
20
4.1072
42
-0.0593
0
VERTEX
8
0
10
5.3290
20
4.0835
42
-0.0539
0
VERTEX
8
0
10
5.3029
20
4.0712
42
-0.0744
0
VERTEX
8
0
10
5.2887
20
4.0690
42
-0.1293
0
VERTEX
8
0
10
5.2820
20
4.0713
42
-0.2436
0
VERTEX
8
0
10
5.2793
20
4.0777
42
-0.1250
0
VERTEX
8
0
10
5.2817
20
4.0869
42
-0.0486
0
VERTEX
8
0
10
5.2866
20
4.0951
42
-0.0486
0
VERTEX
8
0
10
5.2990
20
4.1096
42
-0.0593
0
VERTEX
8
0
10
5.3290
20
4.1333
0
SEQEND
8
0
0
POLYLINE
8
Layer 1
66
1
0
VERTEX
8
0
10
5.1302
20
4.4066
42
-0.0210
0
VERTEX
8
0
10
5.1809
20
4.4044
42
-0.0296
0
VERTEX
8
0
10
5.2060
20
4.4003
42
-0.0448
0
VERTEX
8
0
10
5.2180
20
4.3961
42
-0.0665
0
VERTEX
8
0
10
5.2232
20
4.3925
42
-0.1824
0
VERTEX
8
0
10
5.2257
20
4.3869
42
-0.1866
0
VERTEX
8
0
10
5.2233
20
4.3811
0
VERTEX
8
0
10
5.2188
20
4.3767
42
-0.0545
0
VERTEX
8
0
10
5.2082
20
4.3698
42
-0.0384
0
VERTEX
8
0
10
5.1849
20
4.3595
42
-0.0170
0
VERTEX
8
0
10
5.1609
20
4.3512
42
-0.0053
0
VERTEX
8
0
10
5.1487
20
4.3476
42
-0.0026
0
VERTEX
8
0
10
5.1426
20
4.3459
0
VERTEX
8
0
10
5.1411
20
4.3454
0
VERTEX
8
0
10
5.1385
20
4.3448
0
VERTEX
8
0
10
5.1348
20
4.3438
0
VERTEX
8
0
10
5.1302
20
4.3425
42
-0.0666
0
VERTEX
8
0
10
5.0747
20
4.3357
42
-0.0737
0
VERTEX
8
0
10
5.0473
20
4.3411
42
-0.0959
0
VERTEX
8
0
10
5.0357
20
4.3488
42
-0.1831
0
VERTEX
8
0
10
5.0307
20
4.3616
42
-0.1678
0
VERTEX
8
0
10
5.0354
20
4.3752
42
-0.0919
0
VERTEX
8
0
10
5.0459
20
4.3854
42
-0.0881
0
VERTEX
8
0
10
5.0723
20
4.3981
42
-0.0854
0
VERTEX
8
0
10
5.1302
20
4.4066
0
SEQEND
8
0
0
POLYLINE
8
Layer 1
66
1
0
VERTEX
8
0
10
5.0731
20
5.1946
42
0.1976
0
VERTEX
8
0
10
5.0556
20
5.2019
42
0.2005
0
VERTEX
8
0
10
5.0380
20
5.1946
42
0.1969
0
VERTEX
8
0
10
5.0307
20
5.1771
42
0.4124
0
VERTEX
8
0
10
5.0556
20
5.1522
42
0.4127
0
VERTEX
8
0
10
5.0805
20
5.1771
42
0.2008
0
VERTEX
8
0
10
5.0731
20
5.1946
0
SEQEND
8
0
0
POLYLINE
8
Layer 1
66
1
0
VERTEX
8
0
10
5.4781
20
5.3759
42
-0.1980
0
VERTEX
8
0
10
5.4708
20
5.3583
42
-0.2007
0
VERTEX
8
0
10
5.4532
20
5.3510
42
-0.4125
0
VERTEX
8
0
10
5.4284
20
5.3759
42
-0.4125
0
VERTEX
8
0
10
5.4532
20
5.4007
42
-0.1981
0
VERTEX
8
0
10
5.4708
20
5.3934
42
-0.2007
0
VERTEX
8
0
10
5.4781
20
5.3759
0
SEQEND
8
0
0
POLYLINE
8
Layer 1
66
1
0
VERTEX
8
0
10
5.7587
20
5.3074
42
0.0929
0
VERTEX
8
0
10
5.7651
20
5.3126
42
0.1719
0
VERTEX
8
0
10
5.7675
20
5.3203
42
0.1390
0
VERTEX
8
0
10
5.7649
20
5.3281
42
0.0668
0
VERTEX
8
0
10
5.7598
20
5.3345
42
0.4125
0
VERTEX
8
0
10
5.6935
20
5.3345
42
0.0551
0
VERTEX
8
0
10
5.6883
20
5.3280
42
0.1098
0
VERTEX
8
0
10
5.6857
20
5.3203
42
0.1806
0
VERTEX
8
0
10
5.6882
20
5.3126
42
0.1184
0
VERTEX
8
0
10
5.6945
20
5.3074
42
0.1006
0
VERTEX
8
0
10
5.7102
20
5.3025
42
0.0445
0
VERTEX
8
0
10
5.7266
20
5.3013
42
0.0364
0
VERTEX
8
0
10
5.7431
20
5.3025
42
0.0713
0
VERTEX
8
0
10
5.7587
20
5.3074
0
SEQEND
8
0
0
POLYLINE
8
Layer 1
66
1
0
VERTEX
8
0
10
6.1064
20
4.5902
42
-0.0153
0
VERTEX
8
0
10
6.1954
20
4.5646
42
-0.0181
0
VERTEX
8
0
10
6.2389
20
4.5485
42
-0.0218
0
VERTEX
8
0
10
6.2598
20
4.5385
42
-0.0228
0
VERTEX
8
0
10
6.2696
20
4.5325
42
-0.0495
0
VERTEX
8
0
10
6.2786
20
4.5246
42
-0.0139
0
VERTEX
8
0
10
6.3119
20
4.4822
42
-0.0583
0
VERTEX
8
0
10
6.3179
20
4.4702
0
VERTEX
8
0
10
6.3179
20
4.4669
0
VERTEX
8
0
10
6.3157
20
4.4645
42
-0.1622
0
VERTEX
8
0
10
6.3090
20
4.4639
42
-0.0563
0
VERTEX
8
0
10
6.2959
20
4.4666
42
-0.0156
0
VERTEX
8
0
10
6.2830
20
4.4705
42
-0.0175
0
VERTEX
8
0
10
6.2325
20
4.4891
0
VERTEX
8
0
10
6.2074
20
4.4990
0
VERTEX
8
0
10
6.1949
20
4.5040
0
VERTEX
8
0
10
6.1886
20
4.5065
0
VERTEX
8
0
10
6.1853
20
4.5078
0
VERTEX
8
0
10
6.1824
20
4.5090
0
VERTEX
8
0
10
6.1786
20
4.5105
42
0.0306
0
VERTEX
8
0
10
6.1494
20
4.5201
42
0.0119
0
VERTEX
8
0
10
6.1196
20
4.5278
42
0.0115
0
VERTEX
8
0
10
6.0595
20
4.5405
42
0.0121
0
VERTEX
8
0
10
5.9382
20
4.5609
42
0.0151
0
VERTEX
8
0
10
5.6939
20
4.5892
42
-0.0091
0
VERTEX
8
0
10
5.5052
20
4.6083
42
-0.0103
0
VERTEX
8
0
10
5.4583
20
4.6154
42
-0.0237
0
VERTEX
8
0
10
5.4121
20
4.6259
42
-0.0371
0
VERTEX
8
0
10
5.3900
20
4.6344
42
-0.0463
0
VERTEX
8
0
10
5.3800
20
4.6407
42
-0.0991
0
VERTEX
8
0
10
5.3725
20
4.6498
42
-0.1534
0
VERTEX
8
0
10
5.3710
20
4.6614
42
-0.0929
0
VERTEX
8
0
10
5.3749
20
4.6725
42
-0.0425
0
VERTEX
8
0
10
5.3812
20
4.6826
0
VERTEX
8
0
10
5.3847
20
4.6872
0
VERTEX
8
0
10
5.3858
20
4.6886
0
VERTEX
8
0
10
5.3864
20
4.6893
0
VERTEX
8
0
10
5.3866
20
4.6896
0
VERTEX
8
0
10
5.3859
20
4.6887
0
VERTEX
8
0
10
5.3859
20
4.6888
0
VERTEX
8
0
10
5.3861
20
4.6889
0
VERTEX
8
0
10
5.3867
20
4.6897
42
-0.0301
0
VERTEX
8
0
10
5.4066
20
4.7109
42
-0.0742
0
VERTEX
8
0
10
5.4306
20
4.7271
42
-0.0960
0
VERTEX
8
0
10
5.4447
20
4.7298
42
-0.1274
0
VERTEX
8
0
10
5.4586
20
4.7257
42
-0.0883
0
VERTEX
8
0
10
5.4696
20
4.7164
42
-0.0472
0
VERTEX
8
0
10
5.4783
20
4.7046
42
0.1185
0
VERTEX
8
0
10
5.5118
20
4.6712
42
0.0680
0
VERTEX
8
0
10
5.5336
20
4.6615
42
0.1109
0
VERTEX
8
0
10
5.5572
20
4.6605
42
-0.0360
0
VERTEX
8
0
10
5.5801
20
4.6639
42
-0.0180
0
VERTEX
8
0
10
5.6032
20
4.6651
42
-0.0192
0
VERTEX
8
0
10
5.6495
20
4.6643
42
-0.0183
0
VERTEX
8
0
10
5.7419
20
4.6566
42
-0.0185
0
VERTEX
8
0
10
5.9252
20
4.6291
42
-0.0159
0
VERTEX
8
0
10
6.1064
20
4.5902
0
SEQEND
8
0
0
POLYLINE
8
Layer 1
66
1
0
VERTEX
8
0
10
6.2128
20
5.0162
0
VERTEX
8
0
10
6.2126
20
5.0207
0
VERTEX
8
0
10
6.2090
20
5.0240
42
0.0617
0
VERTEX
8
0
10
6.1918
20
5.0339
42
0.0103
0
VERTEX
8
0
10
6.1739
20
5.0424
0
VERTEX
8
0
10
6.1649
20
5.0465
0
VERTEX
8
0
10
6.1603
20
5.0485
0
VERTEX
8
0
10
6.1585
20
5.0493
0
VERTEX
8
0
10
6.1560
20
5.0504
0
VERTEX
8
0
10
6.1528
20
5.0518
0
VERTEX
8
0
10
6.1491
20
5.0534
42
-0.0055
0
VERTEX
8
0
10
6.1101
20
5.0709
42
-0.0191
0
VERTEX
8
0
10
6.0912
20
5.0808
42
-0.0404
0
VERTEX
8
0
10
6.0825
20
5.0871
0
VERTEX
8
0
10
6.0791
20
5.0912
42
-0.1917
0
VERTEX
8
0
10
6.0786
20
5.0964
0
VERTEX
8
0
10
6.0817
20
5.1007
0
VERTEX
8
0
10
6.0861
20
5.1038
42
-0.0410
0
VERTEX
8
0
10
6.0956
20
5.1086
42
-0.0245
0
VERTEX
8
0
10
6.1157
20
5.1160
42
-0.0070
0
VERTEX
8
0
10
6.1361
20
5.1225
0
VERTEX
8
0
10
6.1463
20
5.1257
0
VERTEX
8
0
10
6.1513
20
5.1272
0
VERTEX
8
0
10
6.1528
20
5.1276
0
VERTEX
8
0
10
6.1550
20
5.1283
0
VERTEX
8
0
10
6.1580
20
5.1292
0
VERTEX
8
0
10
6.1615
20
5.1303
42
0.0581
0
VERTEX
8
0
10
6.2268
20
5.1584
42
0.0460
0
VERTEX
8
0
10
6.2555
20
5.1792
42
0.0496
0
VERTEX
8
0
10
6.2673
20
5.1925
42
0.1229
0
VERTEX
8
0
10
6.2734
20
5.2090
42
0.2269
0
VERTEX
8
0
10
6.2694
20
5.2176
42
0.1478
0
VERTEX
8
0
10
6.2603
20
5.2211
42
0.0898
0
VERTEX
8
0
10
6.2408
20
5.2208
42
0.0541
0
VERTEX
8
0
10
6.2027
20
5.2114
42
0.0435
0
VERTEX
8
0
10
6.1306
20
5.1803
42
-0.0343
0
VERTEX
8
0
10
6.0475
20
5.1444
42
-0.0290
0
VERTEX
8
0
10
6.0040
20
5.1322
42
-0.0348
0
VERTEX
8
0
10
5.9815
20
5.1293
42
-0.0423
0
VERTEX
8
0
10
5.9702
20
5.1299
42
-0.1212
0
VERTEX
8
0
10
5.9599
20
5.1343
42
0.1174
0
VERTEX
8
0
10
5.9498
20
5.1405
42
0.0697
0
VERTEX
8
0
10
5.9381
20
5.1430
42
0.0793
0
VERTEX
8
0
10
5.9142
20
5.1415
42
0.0944
0
VERTEX
8
0
10
5.8699
20
5.1238
42
0.0811
0
VERTEX
8
0
10
5.8539
20
5.1099
42
0.2155
0
VERTEX
8
0
10
5.8498
20
5.0898
42
0.0932
0
VERTEX
8
0
10
5.8545
20
5.0803
42
0.0546
0
VERTEX
8
0
10
5.8615
20
5.0723
42
0.0604
0
VERTEX
8
0
10
5.8786
20
5.0597
42
0.0546
0
VERTEX
8
0
10
5.9171
20
5.0418
42
0.0282
0
VERTEX
8
0
10
5.9578
20
5.0294
42
0.0361
0
VERTEX
8
0
10
6.0416
20
5.0146
42
0.0149
0
VERTEX
8
0
10
6.0840
20
5.0111
42
0.0066
0
VERTEX
8
0
10
6.1053
20
5.0103
42
0.0029
0
VERTEX
8
0
10
6.1159
20
5.0101
0
VERTEX
8
0
10
6.1186
20
5.0101
0
VERTEX
8
0
10
6.1216
20
5.0101
0
VERTEX
8
0
10
6.1223
20
5.0101
0
VERTEX
8
0
10
6.1223
20
5.0101
0
VERTEX
8
0
10
6.1211
20
5.0101
0
VERTEX
8
0
10
6.1210
20
5.0101
0
VERTEX
8
0
10
6.1216
20
5.0101
0
VERTEX
8
0
10
6.1243
20
5.0101
42
0.0035
0
VERTEX
8
0
10
6.1640
20
5.0104
42
0.0215
0
VERTEX
8
0
10
6.2035
20
5.0129
42
0.0855
0
VERTEX
8
0
10
6.2128
20
5.0162
0
SEQEND
8
0
0
POLYLINE
8
Layer 1
66
1
0
VERTEX
8
0
10
6.5716
20
4.8291
42
-0.4127
0
VERTEX
8
0
10
6.5468
20
4.8043
42
-0.4126
0
VERTEX
8
0
10
6.5219
20
4.8291
42
-0.1982
0
VERTEX
8
0
10
6.5292
20
4.8467
42
-0.2007
0
VERTEX
8
0
10
6.5468
20
4.8540
42
-0.4125
0
VERTEX
8
0
10
6.5716
20
4.8291
0
SEQEND
8
0
0
POLYLINE
8
Layer 1
66
1
0
VERTEX
8
0
10
6.7704
20
4.8788
42
-0.0444
0
VERTEX
8
0
10
6.7687
20
4.8572
42
-0.0659
0
VERTEX
8
0
10
6.7626
20
4.8365
42
-0.0961
0
VERTEX
8
0
10
6.7508
20
4.8186
42
-0.1204
0
VERTEX
8
0
10
6.7327
20
4.8071
42
-0.1045
0
VERTEX
8
0
10
6.7114
20
4.8051
42
-0.0729
0
VERTEX
8
0
10
6.6907
20
4.8110
42
-0.0804
0
VERTEX
8
0
10
6.6558
20
4.8361
42
-0.1996
0
VERTEX
8
0
10
6.6408
20
4.8740
42
-0.1305
0
VERTEX
8
0
10
6.6537
20
4.9134
42
-0.1176
0
VERTEX
8
0
10
6.6837
20
4.9423
42
-0.1361
0
VERTEX
8
0
10
6.7237
20
4.9534
42
-0.1644
0
VERTEX
8
0
10
6.7456
20
4.9446
42
-0.0898
0
VERTEX
8
0
10
6.7601
20
4.9255
42
-0.1102
0
VERTEX
8
0
10
6.7704
20
4.8788
0
SEQEND
8
0
0
POLYLINE
8
Layer 1
66
1
0
VERTEX
8
0
10
7.0935
20
4.8540
42
0.2009
0
VERTEX
8
0
10
7.0760
20
4.8467
42
0.1975
0
VERTEX
8
0
10
7.0687
20
4.8291
42
0.2004
0
VERTEX
8
0
10
7.0760
20
4.8116
42
0.1988
0
VERTEX
8
0
10
7.0935
20
4.8043
42
0.4127
0
VERTEX
8
0
10
7.1184
20
4.8291
42
0.4124
0
VERTEX
8
0
10
7.0935
20
4.8540
0
SEQEND
8
0
0
POLYLINE
8
Layer 1
66
1
0
VERTEX
8
0
10
7.0852
20
5.1356
42
0.0551
0
VERTEX
8
0
10
7.0801
20
5.1292
42
0.1096
0
VERTEX
8
0
10
7.0775
20
5.1215
42
0.1805
0
VERTEX
8
0
10
7.0799
20
5.1138
42
0.1181
0
VERTEX
8
0
10
7.0863
20
5.1086
42
0.1005
0
VERTEX
8
0
10
7.1020
20
5.1037
42
0.0433
0
VERTEX
8
0
10
7.1184
20
5.1025
42
0.0365
0
VERTEX
8
0
10
7.1348
20
5.1037
42
0.0727
0
VERTEX
8
0
10
7.1505
20
5.1086
42
0.0923
0
VERTEX
8
0
10
7.1568
20
5.1138
42
0.1722
0
VERTEX
8
0
10
7.1593
20
5.1215
42
0.1388
0
VERTEX
8
0
10
7.1567
20
5.1293
42
0.0666
0
VERTEX
8
0
10
7.1515
20
5.1356
42
0.4125
0
VERTEX
8
0
10
7.0852
20
5.1356
0
SEQEND
8
0
0
POLYLINE
8
Layer 1
66
1
0
VERTEX
8
0
10
6.7503
20
5.8978
42
0.1280
0
VERTEX
8
0
10
6.7355
20
5.8862
42
0.0144
0
VERTEX
8
0
10
6.7235
20
5.8714
42
0.0162
0
VERTEX
8
0
10
6.7014
20
5.8403
42
0.0129
0
VERTEX
8
0
10
6.6605
20
5.7760
42
0.0117
0
VERTEX
8
0
10
6.5843
20
5.6439
42
0.0098
0
VERTEX
8
0
10
6.5133
20
5.5089
42
0.0084
0
VERTEX
8
0
10
6.4805
20
5.4401
42
0.0083
0
VERTEX
8
0
10
6.4653
20
5.4051
42
0.0177
0
VERTEX
8
0
10
6.4521
20
5.3690
42
0.0038
0
VERTEX
8
0
10
6.4433
20
5.3397
42
0.0259
0
VERTEX
8
0
10
6.4364
20
5.3099
42
0.0822
0
VERTEX
8
0
10
6.4370
20
5.2948
42
0.3378
0
VERTEX
8
0
10
6.4488
20
5.2868
42
0.0918
0
VERTEX
8
0
10
6.4639
20
5.2888
42
0.0263
0
VERTEX
8
0
10
6.4785
20
5.2933
42
0.0285
0
VERTEX
8
0
10
6.5348
20
5.3170
42
0.0024
0
VERTEX
8
0
10
6.5626
20
5.3298
0
VERTEX
8
0
10
6.5764
20
5.3362
0
VERTEX
8
0
10
6.5834
20
5.3395
0
VERTEX
8
0
10
6.5868
20
5.3411
0
VERTEX
8
0
10
6.5895
20
5.3423
0
VERTEX
8
0
10
6.5932
20
5.3441
42
0.0063
0
VERTEX
8
0
10
6.6383
20
5.3659
42
0.0200
0
VERTEX
8
0
10
6.6820
20
5.3903
42
0.0533
0
VERTEX
8
0
10
6.7212
20
5.4213
42
0.0924
0
VERTEX
8
0
10
6.7483
20
5.4630
42
0.0658
0
VERTEX
8
0
10
6.7611
20
5.5113
42
0.0277
0
VERTEX
8
0
10
6.7662
20
5.5611
42
0.0110
0
VERTEX
8
0
10
6.7682
20
5.6111
42
0.0022
0
VERTEX
8
0
10
6.7686
20
5.6361
0
VERTEX
8
0
10
6.7687
20
5.6486
0
VERTEX
8
0
10
6.7688
20
5.6548
0
VERTEX
8
0
10
6.7688
20
5.6580
0
VERTEX
8
0
10
6.7688
20
5.6617
42
0.0111
0
VERTEX
8
0
10
6.7669
20
5.7809
42
0.0104
0
VERTEX
8
0
10
6.7630
20
5.8404
42
0.0122
0
VERTEX
8
0
10
6.7595
20
5.8700
42
0.0169
0
VERTEX
8
0
10
6.7568
20
5.8847
42
0.0233
0
VERTEX
8
0
10
6.7547
20
5.8919
0
VERTEX
8
0
10
6.7532
20
5.8953
0
VERTEX
8
0
10
6.7503
20
5.8978
0
SEQEND
8
0
0
POLYLINE
8
Layer 1
66
1
0
VERTEX
8
0
10
7.9882
20
8.5819
42
0.2008
0
VERTEX
8
0
10
8.0058
20
8.5892
42
0.1980
0
VERTEX
8
0
10
8.0131
20
8.6067
42
0.2008
0
VERTEX
8
0
10
8.0058
20
8.6243
42
0.1972
0
VERTEX
8
0
10
7.9882
20
8.6316
42
0.4124
0
VERTEX
8
0
10
7.9634
20
8.6067
42
0.2007
0
VERTEX
8
0
10
7.9707
20
8.5892
42
0.1973
0
VERTEX
8
0
10
7.9882
20
8.5819
0
SEQEND
8
0
0
POLYLINE
8
Layer 1
66
1
0
VERTEX
8
0
10
7.8142
20
8.1594
42
-0.4130
0
VERTEX
8
0
10
7.7894
20
8.1345
42
-0.1982
0
VERTEX
8
0
10
7.7718
20
8.1418
42
-0.2004
0
VERTEX
8
0
10
7.7645
20
8.1594
42
-0.1975
0
VERTEX
8
0
10
7.7718
20
8.1769
42
-0.2009
0
VERTEX
8
0
10
7.7894
20
8.1842
42
-0.4125
0
VERTEX
8
0
10
7.8142
20
8.1594
0
SEQEND
8
0
0
POLYLINE
8
Layer 1
66
1
0
VERTEX
8
0
10
9.0185
20
7.1020
42
0.1719
0
VERTEX
8
0
10
9.0262
20
7.0995
42
0.1390
0
VERTEX
8
0
10
9.0339
20
7.1021
42
0.0673
0
VERTEX
8
0
10
9.0403
20
7.1073
42
0.4125
0
VERTEX
8
0
10
9.0403
20
7.1736
42
0.0551
0
VERTEX
8
0
10
9.0339
20
7.1787
42
0.1099
0
VERTEX
8
0
10
9.0262
20
7.1813
42
0.1804
0
VERTEX
8
0
10
9.0185
20
7.1789
42
0.1178
0
VERTEX
8
0
10
9.0133
20
7.1725
42
0.1001
0
VERTEX
8
0
10
9.0084
20
7.1568
42
0.0435
0
VERTEX
8
0
10
9.0072
20
7.1404
42
0.0364
0
VERTEX
8
0
10
9.0084
20
7.1240
42
0.0713
0
VERTEX
8
0
10
9.0133
20
7.1083
42
0.0930
0
VERTEX
8
0
10
9.0185
20
7.1020
0
SEQEND
8
0
0
POLYLINE
8
Layer 1
66
1
0
VERTEX
8
0
10
8.9078
20
6.9665
42
0.4126
0
VERTEX
8
0
10
8.9326
20
6.9416
42
0.2009
0
VERTEX
8
0
10
8.9502
20
6.9489
42
0.1975
0
VERTEX
8
0
10
8.9575
20
6.9665
42
0.2006
0
VERTEX
8
0
10
8.9502
20
6.9840
42
0.1979
0
VERTEX
8
0
10
8.9326
20
6.9913
42
0.2006
0
VERTEX
8
0
10
8.9151
20
6.9840
42
0.1981
0
VERTEX
8
0
10
8.9078
20
6.9665
0
SEQEND
8
0
0
POLYLINE
8
Layer 1
66
1
0
VERTEX
8
0
10
8.2119
20
6.5688
42
0.4129
0
VERTEX
8
0
10
8.2368
20
6.5440
42
0.2008
0
VERTEX
8
0
10
8.2543
20
6.5513
42
0.1976
0
VERTEX
8
0
10
8.2616
20
6.5688
42
0.4125
0
VERTEX
8
0
10
8.2368
20
6.5937
42
0.2004
0
VERTEX
8
0
10
8.2192
20
6.5864
42
0.1989
0
VERTEX
8
0
10
8.2119
20
6.5688
0
SEQEND
8
0
0
POLYLINE
8
Layer 1
66
1
0
VERTEX
8
0
10
7.7397
20
6.6931
42
0.2005
0
VERTEX
8
0
10
7.7572
20
6.7004
42
0.1979
0
VERTEX
8
0
10
7.7645
20
6.7179
42
0.4126
0
VERTEX
8
0
10
7.7397
20
6.7428
42
0.2007
0
VERTEX
8
0
10
7.7221
20
6.7355
42
0.1973
0
VERTEX
8
0
10
7.7148
20
6.7179
42
0.2009
0
VERTEX
8
0
10
7.7221
20
6.7004
42
0.1984
0
VERTEX
8
0
10
7.7397
20
6.6931
0
SEQEND
8
0
0
POLYLINE
8
Layer 1
66
1
0
VERTEX
8
0
10
7.8439
20
6.1428
42
0.1899
0
VERTEX
8
0
10
7.8322
20
6.1301
42
0.1646
0
VERTEX
8
0
10
7.8320
20
6.1127
42
0.0843
0
VERTEX
8
0
10
7.8391
20
6.0966
42
0.0373
0
VERTEX
8
0
10
7.8582
20
6.0702
42
0.0360
0
VERTEX
8
0
10
7.8698
20
6.0587
42
0.0737
0
VERTEX
8
0
10
7.8836
20
6.0503
42
0.2024
0
VERTEX
8
0
10
7.8994
20
6.0511
42
0.1945
0
VERTEX
8
0
10
7.9089
20
6.0640
42
0.0696
0
VERTEX
8
0
10
7.9127
20
6.0798
42
0.0185
0
VERTEX
8
0
10
7.9134
20
6.0879
0
VERTEX
8
0
10
7.9136
20
6.0920
0
VERTEX
8
0
10
7.9136
20
6.0966
42
0.2144
0
VERTEX
8
0
10
7.8977
20
6.1322
42
0.1899
0
VERTEX
8
0
10
7.8610
20
6.1463
42
0.1021
0
VERTEX
8
0
10
7.8439
20
6.1428
0
SEQEND
8
0
0
POLYLINE
8
Layer 1
66
1
0
VERTEX
8
0
10
7.6827
20
6.3015
42
0.1001
0
VERTEX
8
0
10
7.6984
20
6.2966
42
0.0435
0
VERTEX
8
0
10
7.7148
20
6.2954
42
0.0364
0
VERTEX
8
0
10
7.7313
20
6.2966
42
0.0712
0
VERTEX
8
0
10
7.7470
20
6.3015
42
0.0920
0
VERTEX
8
0
10
7.7533
20
6.3067
42
0.1713
0
VERTEX
8
0
10
7.7557
20
6.3144
42
0.1395
0
VERTEX
8
0
10
7.7531
20
6.3222
42
0.0676
0
VERTEX
8
0
10
7.7480
20
6.3286
42
0.4125
0
VERTEX
8
0
10
7.6817
20
6.3286
42
0.0551
0
VERTEX
8
0
10
7.6765
20
6.3221
42
0.1099
0
VERTEX
8
0
10
7.6739
20
6.3144
42
0.1804
0
VERTEX
8
0
10
7.6764
20
6.3067
42
0.1178
0
VERTEX
8
0
10
7.6827
20
6.3015
0
SEQEND
8
0
0
POLYLINE
8
Layer 1
66
1
0
VERTEX
8
0
10
7.5657
20
6.0718
42
0.2008
0
VERTEX
8
0
10
7.5730
20
6.0542
42
0.1980
0
VERTEX
8
0
10
7.5906
20
6.0469
42
0.2007
0
VERTEX
8
0
10
7.6081
20
6.0542
42
0.1982
0
VERTEX
8
0
10
7.6154
20
6.0718
42
0.2008
0
VERTEX
8
0
10
7.6081
20
6.0893
42
0.1973
0
VERTEX
8
0
10
7.5906
20
6.0966
42
0.2008
0
VERTEX
8
0
10
7.5730
20
6.0893
42
0.1981
0
VERTEX
8
0
10
7.5657
20
6.0718
0
SEQEND
8
0
0
POLYLINE
8
Layer 1
66
1
0
VERTEX
8
0
10
7.1978
20
5.9172
42
0.1807
0
VERTEX
8
0
10
7.2186
20
5.9231
42
0.1788
0
VERTEX
8
0
10
7.2455
20
5.9576
42
0.2094
0
VERTEX
8
0
10
7.2405
20
6.0006
42
0.0426
0
VERTEX
8
0
10
7.2181
20
6.0308
42
0.0695
0
VERTEX
8
0
10
7.2033
20
6.0423
42
0.0977
0
VERTEX
8
0
10
7.1943
20
6.0448
42
0.1623
0
VERTEX
8
0
10
7.1855
20
6.0420
42
0.1129
0
VERTEX
8
0
10
7.1793
20
6.0351
42
0.0550
0
VERTEX
8
0
10
7.1753
20
6.0266
42
0.0549
0
VERTEX
8
0
10
7.1707
20
6.0083
42
0.0259
0
VERTEX
8
0
10
7.1687
20
5.9896
42
0.0080
0
VERTEX
8
0
10
7.1682
20
5.9802
0
VERTEX
8
0
10
7.1681
20
5.9756
0
VERTEX
8
0
10
7.1681
20
5.9730
0
VERTEX
8
0
10
7.1681
20
5.9694
42
0.0543
0
VERTEX
8
0
10
7.1704
20
5.9476
42
0.0950
0
VERTEX
8
0
10
7.1793
20
5.9277
42
0.1965
0
VERTEX
8
0
10
7.1978
20
5.9172
0
SEQEND
8
0
0
POLYLINE
8
Layer 1
66
1
0
VERTEX
8
0
10
7.1681
20
5.6493
42
0.4128
0
VERTEX
8
0
10
7.2178
20
5.6990
42
0.4126
0
VERTEX
8
0
10
7.1681
20
5.7487
42
0.4125
0
VERTEX
8
0
10
7.1184
20
5.6990
42
0.4127
0
VERTEX
8
0
10
7.1681
20
5.6493
0
SEQEND
8
0
0
POLYLINE
8
Layer 1
66
1
0
VERTEX
8
0
10
7.1681
20
5.4007
42
-0.4125
0
VERTEX
8
0
10
7.1184
20
5.3510
42
-0.4124
0
VERTEX
8
0
10
7.0687
20
5.4007
42
-0.4124
0
VERTEX
8
0
10
7.1184
20
5.4504
42
-0.4125
0
VERTEX
8
0
10
7.1681
20
5.4007
0
SEQEND
8
0
0
POLYLINE
8
Layer 1
66
1
0
VERTEX
8
0
10
7.3975
20
5.4711
42
0.2249
0
VERTEX
8
0
10
7.3865
20
5.4893
42
0.1181
0
VERTEX
8
0
10
7.3666
20
5.4979
42
0.0618
0
VERTEX
8
0
10
7.3450
20
5.5001
42
0.1134
0
VERTEX
8
0
10
7.2962
20
5.4890
42
0.0918
0
VERTEX
8
0
10
7.2764
20
5.4735
42
0.1616
0
VERTEX
8
0
10
7.2675
20
5.4504
42
0.0871
0
VERTEX
8
0
10
7.2711
20
5.4295
42
0.1273
0
VERTEX
8
0
10
7.2835
20
5.4123
42
0.1248
0
VERTEX
8
0
10
7.3028
20
5.4034
42
0.0909
0
VERTEX
8
0
10
7.3240
20
5.4029
42
0.1300
0
VERTEX
8
0
10
7.3631
20
5.4192
42
0.1001
0
VERTEX
8
0
10
7.3918
20
5.4504
42
0.1437
0
VERTEX
8
0
10
7.3975
20
5.4711
0
SEQEND
8
0
0
POLYLINE
8
Layer 1
66
1
0
VERTEX
8
0
10
7.7480
20
5.5333
42
-0.4130
0
VERTEX
8
0
10
7.7480
20
5.4670
42
-0.0670
0
VERTEX
8
0
10
7.7416
20
5.4619
42
-0.1398
0
VERTEX
8
0
10
7.7338
20
5.4592
42
-0.1724
0
VERTEX
8
0
10
7.7261
20
5.4617
42
-0.0931
0
VERTEX
8
0
10
7.7209
20
5.4680
42
-0.0716
0
VERTEX
8
0
10
7.7160
20
5.4837
42
-0.0364
0
VERTEX
8
0
10
7.7148
20
5.5001
42
-0.0437
0
VERTEX
8
0
10
7.7160
20
5.5166
42
-0.1013
0
VERTEX
8
0
10
7.7209
20
5.5322
42
-0.1178
0
VERTEX
8
0
10
7.7261
20
5.5386
42
-0.1797
0
VERTEX
8
0
10
7.7338
20
5.5410
42
-0.1103
0
VERTEX
8
0
10
7.7415
20
5.5384
42
-0.0553
0
VERTEX
8
0
10
7.7480
20
5.5333
0
SEQEND
8
0
0
POLYLINE
8
Layer 1
66
1
0
VERTEX
8
0
10
7.8888
20
5.5498
0
VERTEX
8
0
10
7.9136
20
5.5747
0
VERTEX
8
0
10
7.8888
20
5.5996
0
VERTEX
8
0
10
7.8640
20
5.5747
0
VERTEX
8
0
10
7.8888
20
5.5498
0
SEQEND
8
0
0
POLYLINE
8
Layer 1
66
1
0
VERTEX
8
0
10
8.0520
20
5.2243
42
0.0767
0
VERTEX
8
0
10
8.0226
20
5.2677
42
0.0220
0
VERTEX
8
0
10
8.0044
20
5.2867
42
0.0093
0
VERTEX
8
0
10
7.9948
20
5.2956
0
VERTEX
8
0
10
7.9899
20
5.2999
0
VERTEX
8
0
10
7.9874
20
5.3020
0
VERTEX
8
0
10
7.9852
20
5.3039
42
0.0541
0
VERTEX
8
0
10
7.9489
20
5.3279
42
0.0759
0
VERTEX
8
0
10
7.9073
20
5.3408
42
0.0518
0
VERTEX
8
0
10
7.8638
20
5.3432
42
0.0283
0
VERTEX
8
0
10
7.8204
20
5.3395
42
0.0248
0
VERTEX
8
0
10
7.7346
20
5.3238
42
0.0089
0
VERTEX
8
0
10
7.6497
20
5.3036
42
0.0080
0
VERTEX
8
0
10
7.5216
20
5.2694
42
0.0144
0
VERTEX
8
0
10
7.3954
20
5.2291
42
0.0231
0
VERTEX
8
0
10
7.3343
20
5.2036
42
0.0253
0
VERTEX
8
0
10
7.3200
20
5.1954
42
0.0112
0
VERTEX
8
0
10
7.3130
20
5.1904
0
VERTEX
8
0
10
7.3099
20
5.1874
0
VERTEX
8
0
10
7.3086
20
5.1839
42
0.2671
0
VERTEX
8
0
10
7.3125
20
5.1770
42
0.1644
0
VERTEX
8
0
10
7.3203
20
5.1745
42
0.0135
0
VERTEX
8
0
10
7.3369
20
5.1730
42
0.0278
0
VERTEX
8
0
10
7.3700
20
5.1737
42
0.0113
0
VERTEX
8
0
10
7.4030
20
5.1765
42
0.0065
0
VERTEX
8
0
10
7.4359
20
5.1803
42
0.0024
0
VERTEX
8
0
10
7.4523
20
5.1824
0
VERTEX
8
0
10
7.4609
20
5.1836
0
VERTEX
8
0
10
7.4641
20
5.1840
0
VERTEX
8
0
10
7.4663
20
5.1844
42
0.0176
0
VERTEX
8
0
10
7.6372
20
5.2149
42
0.0083
0
VERTEX
8
0
10
7.7218
20
5.2344
42
0.0190
0
VERTEX
8
0
10
7.8051
20
5.2588
42
-0.0035
0
VERTEX
8
0
10
7.8569
20
5.2776
42
-0.0181
0
VERTEX
8
0
10
7.9095
20
5.2939
42
-0.0558
0
VERTEX
8
0
10
7.9367
20
5.2971
42
-0.1133
0
VERTEX
8
0
10
7.9497
20
5.2930
42
-0.1624
0
VERTEX
8
0
10
7.9580
20
5.2823
42
-0.0711
0
VERTEX
8
0
10
7.9615
20
5.2690
42
-0.0274
0
VERTEX
8
0
10
7.9628
20
5.2553
42
-0.0115
0
VERTEX
8
0
10
7.9633
20
5.2415
42
-0.0036
0
VERTEX
8
0
10
7.9633
20
5.2347
0
VERTEX
8
0
10
7.9634
20
5.2313
0
VERTEX
8
0
10
7.9634
20
5.2268
42
0.1177
0
VERTEX
8
0
10
7.9748
20
5.1794
42
0.0938
0
VERTEX
8
0
10
7.9904
20
5.1605
42
0.1563
0
VERTEX
8
0
10
8.0131
20
5.1522
42
0.0825
0
VERTEX
8
0
10
8.0388
20
5.1565
42
0.1805
0
VERTEX
8
0
10
8.0578
20
5.1737
42
0.0930
0
VERTEX
8
0
10
8.0609
20
5.1864
42
0.0638
0
VERTEX
8
0
10
8.0602
20
5.1995
42
0.0777
0
VERTEX
8
0
10
8.0520
20
5.2243
0
SEQEND
8
0
0
POLYLINE
8
Layer 1
66
1
0
VERTEX
8
0
10
8.3749
20
5.3818
0
VERTEX
8
0
10
8.3757
20
5.3573
0
VERTEX
8
0
10
8.2878
20
5.3515
0
VERTEX
8
0
10
8.2480
20
5.3510
0
VERTEX
8
0
10
8.1527
20
5.3583
0
VERTEX
8
0
10
8.0604
20
5.3846
0
VERTEX
8
0
10
8.0360
20
5.4039
0
VERTEX
8
0
10
8.0717
20
5.4362
0
VERTEX
8
0
10
8.1652
20
5.4272
0
VERTEX
8
0
10
8.1946
20
5.4222
0
VERTEX
8
0
10
8.2859
20
5.4040
0
VERTEX
8
0
10
8.3749
20
5.3818
0
SEQEND
8
0
0
POLYLINE
8
Layer 1
66
1
0
VERTEX
8
0
10
8.5981
20
5.3778
42
0.0667
0
VERTEX
8
0
10
8.5930
20
5.3842
42
0.4124
0
VERTEX
8
0
10
8.5267
20
5.3842
42
0.0545
0
VERTEX
8
0
10
8.5215
20
5.3778
42
0.1096
0
VERTEX
8
0
10
8.5189
20
5.3700
42
0.1799
0
VERTEX
8
0
10
8.5214
20
5.3623
42
0.1182
0
VERTEX
8
0
10
8.5277
20
5.3571
42
0.1000
0
VERTEX
8
0
10
8.5434
20
5.3522
42
0.0434
0
VERTEX
8
0
10
8.5598
20
5.3510
42
0.0364
0
VERTEX
8
0
10
8.5763
20
5.3522
42
0.0716
0
VERTEX
8
0
10
8.5920
20
5.3571
42
0.0912
0
VERTEX
8
0
10
8.5983
20
5.3623
42
0.1721
0
VERTEX
8
0
10
8.6007
20
5.3701
42
0.1385
0
VERTEX
8
0
10
8.5981
20
5.3778
0
SEQEND
8
0
0
POLYLINE
8
Layer 1
66
1
0
VERTEX
8
0
10
9.0817
20
5.6493
42
0.1129
0
VERTEX
8
0
10
9.1288
20
5.6601
42
0.0919
0
VERTEX
8
0
10
9.1478
20
5.6751
42
0.1609
0
VERTEX
8
0
10
9.1563
20
5.6974
42
0.2260
0
VERTEX
8
0
10
9.1469
20
5.7171
42
0.1625
0
VERTEX
8
0
10
9.1259
20
5.7245
42
0.0765
0
VERTEX
8
0
10
9.1034
20
5.7232
42
0.0481
0
VERTEX
8
0
10
9.0817
20
5.7169
42
0.0252
0
VERTEX
8
0
10
9.0441
20
5.7003
42
0.0287
0
VERTEX
8
0
10
9.0264
20
5.6898
42
0.0839
0
VERTEX
8
0
10
9.0119
20
5.6755
42
0.2042
0
VERTEX
8
0
10
9.0109
20
5.6656
42
0.1956
0
VERTEX
8
0
10
9.0182
20
5.6586
42
0.1013
0
VERTEX
8
0
10
9.0378
20
5.6524
42
0.0307
0
VERTEX
8
0
10
9.0582
20
5.6500
42
0.0082
0
VERTEX
8
0
10
9.0684
20
5.6495
42
0.0045
0
VERTEX
8
0
10
9.0735
20
5.6494
0
VERTEX
8
0
10
9.0766
20
5.6493
0
VERTEX
8
0
10
9.0817
20
5.6493
0
SEQEND
8
0
0
POLYLINE
8
Layer 1
66
1
0
VERTEX
8
0
10
9.1676
20
5.1635
42
0.1168
0
VERTEX
8
0
10
9.1739
20
5.1583
42
0.1000
0
VERTEX
8
0
10
9.1896
20
5.1534
42
0.0437
0
VERTEX
8
0
10
9.2060
20
5.1522
42
0.0364
0
VERTEX
8
0
10
9.2224
20
5.1534
42
0.0717
0
VERTEX
8
0
10
9.2381
20
5.1583
42
0.0915
0
VERTEX
8
0
10
9.2444
20
5.1635
42
0.1731
0
VERTEX
8
0
10
9.2469
20
5.1712
42
0.1402
0
VERTEX
8
0
10
9.2443
20
5.1790
42
0.0672
0
VERTEX
8
0
10
9.2391
20
5.1853
42
0.4125
0
VERTEX
8
0
10
9.1729
20
5.1853
42
0.0553
0
VERTEX
8
0
10
9.1677
20
5.1789
42
0.1101
0
VERTEX
8
0
10
9.1651
20
5.1712
42
0.1798
0
VERTEX
8
0
10
9.1676
20
5.1635
0
SEQEND
8
0
0
POLYLINE
8
Layer 1
66
1
0
VERTEX
8
0
10
8.7819
20
4.7106
42
0.0359
0
VERTEX
8
0
10
8.7705
20
4.6991
42
0.0741
0
VERTEX
8
0
10
8.7620
20
4.6852
42
0.2030
0
VERTEX
8
0
10
8.7629
20
4.6695
42
0.1939
0
VERTEX
8
0
10
8.7757
20
4.6599
42
0.0691
0
VERTEX
8
0
10
8.7915
20
4.6561
42
0.0185
0
VERTEX
8
0
10
8.7997
20
4.6554
0
VERTEX
8
0
10
8.8037
20
4.6552
0
VERTEX
8
0
10
8.8084
20
4.6551
42
0.2144
0
VERTEX
8
0
10
8.8440
20
4.6712
42
0.1903
0
VERTEX
8
0
10
8.8581
20
4.7078
42
0.1020
0
VERTEX
8
0
10
8.8546
20
4.7249
42
0.1902
0
VERTEX
8
0
10
8.8419
20
4.7366
42
0.1644
0
VERTEX
8
0
10
8.8245
20
4.7368
42
0.0848
0
VERTEX
8
0
10
8.8084
20
4.7297
42
0.0374
0
VERTEX
8
0
10
8.7819
20
4.7106
0
SEQEND
8
0
0
POLYLINE
8
Layer 1
66
1
0
VERTEX
8
0
10
8.6095
20
4.9593
42
-0.0781
0
VERTEX
8
0
10
8.6048
20
4.9353
42
-0.0521
0
VERTEX
8
0
10
8.5939
20
4.9135
42
-0.1204
0
VERTEX
8
0
10
8.5598
20
4.8788
42
-0.0755
0
VERTEX
8
0
10
8.5442
20
4.8717
42
-0.1491
0
VERTEX
8
0
10
8.5272
20
4.8710
42
-0.2045
0
VERTEX
8
0
10
8.5139
20
4.8812
42
-0.1123
0
VERTEX
8
0
10
8.5101
20
4.8978
42
-0.0786
0
VERTEX
8
0
10
8.5148
20
4.9217
42
-0.0530
0
VERTEX
8
0
10
8.5258
20
4.9436
42
-0.1205
0
VERTEX
8
0
10
8.5598
20
4.9782
42
-0.0762
0
VERTEX
8
0
10
8.5755
20
4.9854
42
-0.1492
0
VERTEX
8
0
10
8.5925
20
4.9861
42
-0.2046
0
VERTEX
8
0
10
8.6057
20
4.9759
42
-0.1123
0
VERTEX
8
0
10
8.6095
20
4.9593
0
SEQEND
8
0
0
POLYLINE
8
Layer 1
66
1
0
VERTEX
8
0
10
8.8494
20
5.0189
42
0.1018
0
VERTEX
8
0
10
8.8826
20
5.0522
42
0.0416
0
VERTEX
8
0
10
8.8870
20
5.0610
42
0.0964
0
VERTEX
8
0
10
8.8888
20
5.0706
42
0.2510
0
VERTEX
8
0
10
8.8835
20
5.0784
42
0.1365
0
VERTEX
8
0
10
8.8739
20
5.0805
42
0.0836
0
VERTEX
8
0
10
8.8545
20
5.0778
42
0.0317
0
VERTEX
8
0
10
8.8358
20
5.0718
42
0.0239
0
VERTEX
8
0
10
8.8022
20
5.0570
42
0.0499
0
VERTEX
8
0
10
8.7715
20
5.0373
42
0.0386
0
VERTEX
8
0
10
8.7651
20
5.0307
42
0.0848
0
VERTEX
8
0
10
8.7607
20
5.0228
42
0.2135
0
VERTEX
8
0
10
8.7620
20
5.0140
42
0.1547
0
VERTEX
8
0
10
8.7692
20
5.0085
42
0.0964
0
VERTEX
8
0
10
8.7869
20
5.0041
42
0.0345
0
VERTEX
8
0
10
8.8054
20
5.0031
42
0.1029
0
VERTEX
8
0
10
8.8285
20
5.0079
42
0.0585
0
VERTEX
8
0
10
8.8494
20
5.0189
0
SEQEND
8
0
0
POLYLINE
8
Layer 1
66
1
0
VERTEX
8
0
10
8.9575
20
4.8788
42
-0.4125
0
VERTEX
8
0
10
8.9326
20
4.8540
42
-0.1976
0
VERTEX
8
0
10
8.9151
20
4.8613
42
-0.2008
0
VERTEX
8
0
10
8.9078
20
4.8788
42
-0.4127
0
VERTEX
8
0
10
8.9326
20
4.9037
42
-0.1988
0
VERTEX
8
0
10
8.9502
20
4.8964
42
-0.2004
0
VERTEX
8
0
10
8.9575
20
4.8788
0
SEQEND
8
0
0
POLYLINE
8
Layer 1
66
1
0
VERTEX
8
0
10
9.1896
20
4.8055
42
0.0437
0
VERTEX
8
0
10
9.2060
20
4.8043
42
0.0364
0
VERTEX
8
0
10
9.2224
20
4.8055
42
0.0717
0
VERTEX
8
0
10
9.2381
20
4.8104
42
0.0912
0
VERTEX
8
0
10
9.2444
20
4.8156
42
0.1721
0
VERTEX
8
0
10
9.2469
20
4.8233
42
0.1402
0
VERTEX
8
0
10
9.2443
20
4.8310
42
0.0671
0
VERTEX
8
0
10
9.2391
20
4.8374
42
0.4125
0
VERTEX
8
0
10
9.1729
20
4.8374
42
0.0553
0
VERTEX
8
0
10
9.1677
20
4.8310
42
0.1103
0
VERTEX
8
0
10
9.1651
20
4.8232
42
0.1797
0
VERTEX
8
0
10
9.1676
20
4.8155
42
0.1178
0
VERTEX
8
0
10
9.1739
20
4.8104
42
0.1013
0
VERTEX
8
0
10
9.1896
20
4.8055
0
SEQEND
8
0
0
POLYLINE
8
Layer 1
66
1
0
VERTEX
8
0
10
9.1223
20
4.5661
42
0.0930
0
VERTEX
8
0
10
9.1496
20
4.6328
42
0.0143
0
VERTEX
8
0
10
9.1553
20
4.6675
42
0.0319
0
VERTEX
8
0
10
9.1563
20
4.6850
42
0.0651
0
VERTEX
8
0
10
9.1547
20
4.6936
42
0.2486
0
VERTEX
8
0
10
9.1484
20
4.6990
42
0.1580
0
VERTEX
8
0
10
9.1398
20
4.6973
42
0.0423
0
VERTEX
8
0
10
9.1320
20
4.6934
42
0.0306
0
VERTEX
8
0
10
9.1174
20
4.6837
42
0.0114
0
VERTEX
8
0
10
9.1035
20
4.6730
42
0.0034
0
VERTEX
8
0
10
9.0967
20
4.6675
0
VERTEX
8
0
10
9.0933
20
4.6647
0
VERTEX
8
0
10
9.0910
20
4.6628
0
VERTEX
8
0
10
9.0875
20
4.6599
42
0.0428
0
VERTEX
8
0
10
9.0474
20
4.6205
42
0.0631
0
VERTEX
8
0
10
9.0169
20
4.5734
42
0.0688
0
VERTEX
8
0
10
9.0093
20
4.5465
42
0.0758
0
VERTEX
8
0
10
9.0101
20
4.5325
42
0.1329
0
VERTEX
8
0
10
9.0169
20
4.5204
42
0.1425
0
VERTEX
8
0
10
9.0292
20
4.5139
42
0.0820
0
VERTEX
8
0
10
9.0432
20
4.5129
42
0.0447
0
VERTEX
8
0
10
9.0571
20
4.5150
42
0.0158
0
VERTEX
8
0
10
9.0639
20
4.5168
0
VERTEX
8
0
10
9.0675
20
4.5178
0
VERTEX
8
0
10
9.0674
20
4.5178
0
VERTEX
8
0
10
9.0672
20
4.5178
0
VERTEX
8
0
10
9.0670
20
4.5177
0
VERTEX
8
0
10
9.0678
20
4.5179
0
VERTEX
8
0
10
9.0693
20
4.5184
42
0.0728
0
VERTEX
8
0
10
9.0854
20
4.5266
42
0.0460
0
VERTEX
8
0
10
9.0995
20
4.5381
42
0.0616
0
VERTEX
8
0
10
9.1223
20
4.5661
0
SEQEND
8
0
0
POLYLINE
8
Layer 1
66
1
0
VERTEX
8
0
10
9.2805
20
4.4384
42
0.0334
0
VERTEX
8
0
10
9.3217
20
4.4574
42
0.0281
0
VERTEX
8
0
10
9.3408
20
4.4696
42
0.0327
0
VERTEX
8
0
10
9.3495
20
4.4769
0
VERTEX
8
0
10
9.3531
20
4.4812
42
0.1142
0
VERTEX
8
0
10
9.3551
20
4.4865
0
VERTEX
8
0
10
9.3531
20
4.4910
0
VERTEX
8
0
10
9.3492
20
4.4941
42
0.0633
0
VERTEX
8
0
10
9.3401
20
4.4982
42
0.0483
0
VERTEX
8
0
10
9.3206
20
4.5030
42
0.0450
0
VERTEX
8
0
10
9.2805
20
4.5060
42
0.1130
0
VERTEX
8
0
10
9.2335
20
4.4952
42
0.0915
0
VERTEX
8
0
10
9.2145
20
4.4802
42
0.1609
0
VERTEX
8
0
10
9.2060
20
4.4579
42
0.2260
0
VERTEX
8
0
10
9.2153
20
4.4382
42
0.1627
0
VERTEX
8
0
10
9.2364
20
4.4308
42
0.0764
0
VERTEX
8
0
10
9.2589
20
4.4321
42
0.0482
0
VERTEX
8
0
10
9.2805
20
4.4384
0
SEQEND
8
0
0
POLYLINE
8
Layer 1
66
1
0
VERTEX
8
0
10
9.4545
20
4.0835
42
0.2007
0
VERTEX
8
0
10
9.4618
20
4.0660
42
0.1982
0
VERTEX
8
0
10
9.4794
20
4.0587
42
0.2008
0
VERTEX
8
0
10
9.4969
20
4.0660
42
0.1981
0
VERTEX
8
0
10
9.5042
20
4.0835
42
0.2006
0
VERTEX
8
0
10
9.4969
20
4.1011
42
0.1981
0
VERTEX
8
0
10
9.4794
20
4.1084
42
0.4129
0
VERTEX
8
0
10
9.4545
20
4.0835
0
SEQEND
8
0
0
POLYLINE
8
Layer 1
66
1
0
VERTEX
8
0
10
9.1382
20
4.0043
42
0.0574
0
VERTEX
8
0
10
9.1164
20
3.9933
42
0.1042
0
VERTEX
8
0
10
9.0817
20
3.9593
42
0.0632
0
VERTEX
8
0
10
9.0746
20
3.9436
42
0.1177
0
VERTEX
8
0
10
9.0739
20
3.9266
42
0.2055
0
VERTEX
8
0
10
9.0841
20
3.9134
42
0.1451
0
VERTEX
8
0
10
9.1007
20
3.9096
42
0.0971
0
VERTEX
8
0
10
9.1246
20
3.9143
42
0.0574
0
VERTEX
8
0
10
9.1465
20
3.9252
42
0.1036
0
VERTEX
8
0
10
9.1811
20
3.9593
42
0.0633
0
VERTEX
8
0
10
9.1883
20
3.9749
42
0.1172
0
VERTEX
8
0
10
9.1890
20
3.9919
42
0.2049
0
VERTEX
8
0
10
9.1788
20
4.0052
42
0.1448
0
VERTEX
8
0
10
9.1622
20
4.0090
42
0.0971
0
VERTEX
8
0
10
9.1382
20
4.0043
0
SEQEND
8
0
0
POLYLINE
8
Layer 1
66
1
0
VERTEX
8
0
10
9.0602
20
4.2378
42
0.2018
0
VERTEX
8
0
10
9.0611
20
4.2221
42
0.1120
0
VERTEX
8
0
10
9.0667
20
4.2163
42
0.0659
0
VERTEX
8
0
10
9.0739
20
4.2125
42
0.0693
0
VERTEX
8
0
10
9.0898
20
4.2088
42
0.0186
0
VERTEX
8
0
10
9.0979
20
4.2080
0
VERTEX
8
0
10
9.1020
20
4.2079
0
VERTEX
8
0
10
9.1066
20
4.2078
42
0.2144
0
VERTEX
8
0
10
9.1422
20
4.2238
42
0.1894
0
VERTEX
8
0
10
9.1563
20
4.2604
42
0.1020
0
VERTEX
8
0
10
9.1528
20
4.2776
42
0.1895
0
VERTEX
8
0
10
9.1401
20
4.2892
42
0.1644
0
VERTEX
8
0
10
9.1227
20
4.2895
42
0.0844
0
VERTEX
8
0
10
9.1066
20
4.2824
42
0.0359
0
VERTEX
8
0
10
9.0802
20
4.2633
42
0.0358
0
VERTEX
8
0
10
9.0687
20
4.2517
42
0.0741
0
VERTEX
8
0
10
9.0602
20
4.2378
0
SEQEND
8
0
0
POLYLINE
8
Layer 1
66
1
0
VERTEX
8
0
10
8.9239
20
4.3252
42
0.1636
0
VERTEX
8
0
10
8.9413
20
4.3250
42
0.0849
0
VERTEX
8
0
10
8.9575
20
4.3321
42
0.0484
0
VERTEX
8
0
10
8.9869
20
4.3545
42
0.0351
0
VERTEX
8
0
10
8.9994
20
4.3682
42
0.0366
0
VERTEX
8
0
10
9.0045
20
4.3759
42
0.0937
0
VERTEX
8
0
10
9.0072
20
4.3847
42
0.1717
0
VERTEX
8
0
10
9.0048
20
4.3915
42
0.0921
0
VERTEX
8
0
10
8.9994
20
4.3964
42
0.0845
0
VERTEX
8
0
10
8.9863
20
4.4025
42
0.0815
0
VERTEX
8
0
10
8.9575
20
4.4066
42
0.2143
0
VERTEX
8
0
10
8.9219
20
4.3906
42
0.1904
0
VERTEX
8
0
10
8.9078
20
4.3540
42
0.1020
0
VERTEX
8
0
10
8.9113
20
4.3368
42
0.1899
0
VERTEX
8
0
10
8.9239
20
4.3252
0
SEQEND
8
0
0
POLYLINE
8
Layer 1
66
1
0
VERTEX
8
0
10
8.8581
20
4.1581
42
0.0364
0
VERTEX
8
0
10
8.8593
20
4.1417
42
0.0716
0
VERTEX
8
0
10
8.8642
20
4.1260
42
0.0922
0
VERTEX
8
0
10
8.8694
20
4.1196
42
0.1727
0
VERTEX
8
0
10
8.8771
20
4.1172
42
0.1392
0
VERTEX
8
0
10
8.8848
20
4.1198
42
0.0669
0
VERTEX
8
0
10
8.8912
20
4.1250
42
0.4125
0
VERTEX
8
0
10
8.8912
20
4.1912
42
0.0539
0
VERTEX
8
0
10
8.8848
20
4.1964
42
0.1097
0
VERTEX
8
0
10
8.8770
20
4.1990
42
0.1806
0
VERTEX
8
0
10
8.8693
20
4.1965
42
0.1179
0
VERTEX
8
0
10
8.8642
20
4.1902
42
0.1001
0
VERTEX
8
0
10
8.8593
20
4.1745
42
0.0435
0
VERTEX
8
0
10
8.8581
20
4.1581
0
SEQEND
8
0
0
POLYLINE
8
Layer 1
66
1
0
VERTEX
8
0
10
8.5280
20
4.1694
42
0.1166
0
VERTEX
8
0
10
8.5436
20
4.1764
42
0.1383
0
VERTEX
8
0
10
8.5531
20
4.1905
42
0.0632
0
VERTEX
8
0
10
8.5573
20
4.2072
42
0.0255
0
VERTEX
8
0
10
8.5590
20
4.2243
42
0.0114
0
VERTEX
8
0
10
8.5597
20
4.2416
42
0.0035
0
VERTEX
8
0
10
8.5598
20
4.2502
0
VERTEX
8
0
10
8.5598
20
4.2545
0
VERTEX
8
0
10
8.5598
20
4.2568
0
VERTEX
8
0
10
8.5598
20
4.2600
42
-0.0419
0
VERTEX
8
0
10
8.5625
20
4.2920
42
-0.0197
0
VERTEX
8
0
10
8.5683
20
4.3235
42
-0.0239
0
VERTEX
8
0
10
8.5851
20
4.3855
42
-0.0398
0
VERTEX
8
0
10
8.6335
20
4.5043
0
VERTEX
8
0
10
8.7072
20
4.6468
0
VERTEX
8
0
10
8.3698
20
4.6239
42
-0.0048
0
VERTEX
8
0
10
8.2562
20
4.6172
42
-0.0163
0
VERTEX
8
0
10
8.1424
20
4.6159
42
-0.0249
0
VERTEX
8
0
10
8.0857
20
4.6208
42
-0.0504
0
VERTEX
8
0
10
8.0306
20
4.6349
42
-0.0756
0
VERTEX
8
0
10
7.9815
20
4.6632
42
-0.0487
0
VERTEX
8
0
10
7.9405
20
4.7026
0
VERTEX
8
0
10
7.9183
20
4.7274
42
-0.0122
0
VERTEX
8
0
10
7.8970
20
4.7528
42
-0.0255
0
VERTEX
8
0
10
7.8876
20
4.7665
42
-0.0867
0
VERTEX
8
0
10
7.8818
20
4.7819
42
-0.3033
0
VERTEX
8
0
10
7.8896
20
4.7955
42
-0.0958
0
VERTEX
8
0
10
7.9051
20
4.8013
42
-0.0452
0
VERTEX
8
0
10
7.9380
20
4.8062
42
-0.0109
0
VERTEX
8
0
10
7.9711
20
4.8086
42
-0.0044
0
VERTEX
8
0
10
8.0043
20
4.8101
0
VERTEX
8
0
10
8.0209
20
4.8108
0
VERTEX
8
0
10
8.0292
20
4.8111
0
VERTEX
8
0
10
8.0334
20
4.8113
0
VERTEX
8
0
10
8.0372
20
4.8114
0
VERTEX
8
0
10
8.0426
20
4.8116
42
0.0032
0
VERTEX
8
0
10
8.3318
20
4.8241
42
0.1184
0
VERTEX
8
0
10
8.4008
20
4.8446
42
0.0648
0
VERTEX
8
0
10
8.4298
20
4.8664
42
0.1023
0
VERTEX
8
0
10
8.4495
20
4.8965
42
0.0578
0
VERTEX
8
0
10
8.4539
20
4.9173
42
0.0813
0
VERTEX
8
0
10
8.4527
20
4.9278
42
0.1347
0
VERTEX
8
0
10
8.4468
20
4.9366
42
0.1071
0
VERTEX
8
0
10
8.4375
20
4.9416
42
0.0549
0
VERTEX
8
0
10
8.4271
20
4.9438
42
0.0513
0
VERTEX
8
0
10
8.4058
20
4.9444
42
0.0359
0
VERTEX
8
0
10
8.3635
20
4.9391
42
0.0127
0
VERTEX
8
0
10
8.3219
20
4.9309
42
-0.0535
0
VERTEX
8
0
10
8.2268
20
4.9205
42
-0.0514
0
VERTEX
8
0
10
8.1793
20
4.9263
42
-0.0541
0
VERTEX
8
0
10
8.1569
20
4.9348
42
-0.1139
0
VERTEX
8
0
10
8.1391
20
4.9505
42
0.0916
0
VERTEX
8
0
10
8.1303
20
4.9602
42
0.0455
0
VERTEX
8
0
10
8.1194
20
4.9676
42
0.0464
0
VERTEX
8
0
10
8.0955
20
4.9787
42
0.0438
0
VERTEX
8
0
10
8.0447
20
4.9929
42
0.0519
0
VERTEX
8
0
10
7.9397
20
5.0031
42
-0.0404
0
VERTEX
8
0
10
7.8430
20
5.0110
42
-0.0344
0
VERTEX
8
0
10
7.7959
20
5.0226
42
-0.0388
0
VERTEX
8
0
10
7.7736
20
5.0322
42
-0.0451
0
VERTEX
8
0
10
7.7636
20
5.0390
42
-0.1070
0
VERTEX
8
0
10
7.7563
20
5.0486
42
0.2514
0
VERTEX
8
0
10
7.7470
20
5.0569
42
0.0895
0
VERTEX
8
0
10
7.7344
20
5.0591
42
0.0646
0
VERTEX
8
0
10
7.7089
20
5.0569
42
0.0459
0
VERTEX
8
0
10
7.6595
20
5.0433
42
0.0419
0
VERTEX
8
0
10
7.5657
20
5.0015
0
VERTEX
8
0
10
7.3918
20
4.9089
0
VERTEX
8
0
10
7.6527
20
4.9380
42
-0.0228
0
VERTEX
8
0
10
7.7871
20
4.9470
42
-0.0241
0
VERTEX
8
0
10
7.8544
20
4.9445
42
-0.0314
0
VERTEX
8
0
10
7.8875
20
4.9389
42
-0.0476
0
VERTEX
8
0
10
7.9033
20
4.9331
42
-0.0669
0
VERTEX
8
0
10
7.9101
20
4.9282
0
VERTEX
8
0
10
7.9126
20
4.9248
0
VERTEX
8
0
10
7.9136
20
4.9204
42
-0.1739
0
VERTEX
8
0
10
7.9110
20
4.9139
42
-0.0478
0
VERTEX
8
0
10
7.9063
20
4.9085
42
-0.0359
0
VERTEX
8
0
10
7.8956
20
4.8991
42
-0.0263
0
VERTEX
8
0
10
7.8723
20
4.8828
42
-0.0198
0
VERTEX
8
0
10
7.8232
20
4.8538
42
-0.0154
0
VERTEX
8
0
10
7.7216
20
4.8019
42
-0.0159
0
VERTEX
8
0
10
7.5128
20
4.7096
42
0.0085
0
VERTEX
8
0
10
7.3176
20
4.6259
42
0.0083
0
VERTEX
8
0
10
7.2215
20
4.5806
42
0.0101
0
VERTEX
8
0
10
7.1745
20
4.5561
42
0.0128
0
VERTEX
8
0
10
7.1516
20
4.5426
42
0.0182
0
VERTEX
8
0
10
7.1406
20
4.5351
42
0.0268
0
VERTEX
8
0
10
7.1356
20
4.5308
0
VERTEX
8
0
10
7.1334
20
4.5283
0
VERTEX
8
0
10
7.1331
20
4.5245
42
0.1918
0
VERTEX
8
0
10
7.1423
20
4.5209
42
0.0459
0
VERTEX
8
0
10
7.1523
20
4.5203
42
0.0370
0
VERTEX
8
0
10
7.1724
20
4.5220
42
0.0305
0
VERTEX
8
0
10
7.2119
20
4.5299
42
0.0315
0
VERTEX
8
0
10
7.2887
20
4.5544
42
-0.0368
0
VERTEX
8
0
10
7.3624
20
4.5762
42
-0.0192
0
VERTEX
8
0
10
7.4378
20
4.5913
42
-0.0159
0
VERTEX
8
0
10
7.5141
20
4.6013
42
-0.0208
0
VERTEX
8
0
10
7.5909
20
4.6055
42
0.0491
0
VERTEX
8
0
10
7.6965
20
4.6159
42
0.0363
0
VERTEX
8
0
10
7.7477
20
4.6302
42
0.0363
0
VERTEX
8
0
10
7.7718
20
4.6415
42
0.0367
0
VERTEX
8
0
10
7.7827
20
4.6490
42
0.0708
0
VERTEX
8
0
10
7.7917
20
4.6588
42
-0.0837
0
VERTEX
8
0
10
7.8022
20
4.6709
42
-0.1423
0
VERTEX
8
0
10
7.8171
20
4.6766
42
-0.1239
0
VERTEX
8
0
10
7.8328
20
4.6738
42
-0.0660
0
VERTEX
8
0
10
7.8468
20
4.6659
42
-0.0648
0
VERTEX
8
0
10
7.8704
20
4.6439
42
-0.0307
0
VERTEX
8
0
10
7.8902
20
4.6186
42
0.1197
0
VERTEX
8
0
10
7.9523
20
4.5638
42
0.0405
0
VERTEX
8
0
10
7.9903
20
4.5466
42
0.0284
0
VERTEX
8
0
10
8.0302
20
4.5343
42
0.0354
0
VERTEX
8
0
10
8.1124
20
4.5196
42
0.0189
0
VERTEX
8
0
10
8.1956
20
4.5127
42
-0.0259
0
VERTEX
8
0
10
8.3417
20
4.4974
42
-0.0198
0
VERTEX
8
0
10
8.4137
20
4.4828
42
-0.0210
0
VERTEX
8
0
10
8.4488
20
4.4722
42
-0.0235
0
VERTEX
8
0
10
8.4658
20
4.4652
42
-0.0618
0
VERTEX
8
0
10
8.4812
20
4.4552
42
-0.0514
0
VERTEX
8
0
10
8.4915
20
4.4430
42
-0.0870
0
VERTEX
8
0
10
8.4980
20
4.4285
42
-0.1553
0
VERTEX
8
0
10
8.4963
20
4.4128
42
-0.1245
0
VERTEX
8
0
10
8.4864
20
4.4004
42
-0.0606
0
VERTEX
8
0
10
8.4730
20
4.3916
42
-0.0329
0
VERTEX
8
0
10
8.4584
20
4.3851
42
-0.0372
0
VERTEX
8
0
10
8.4278
20
4.3760
42
-0.0354
0
VERTEX
8
0
10
8.3647
20
4.3659
42
-0.0177
0
VERTEX
8
0
10
8.3009
20
4.3615
42
-0.0209
0
VERTEX
8
0
10
8.1730
20
4.3617
42
-0.0067
0
VERTEX
8
0
10
8.1092
20
4.3649
42
-0.0029
0
VERTEX
8
0
10
8.0773
20
4.3671
0
VERTEX
8
0
10
8.0613
20
4.3683
0
VERTEX
8
0
10
8.0534
20
4.3690
0
VERTEX
8
0
10
8.0467
20
4.3695
42
0.0058
0
VERTEX
8
0
10
7.9233
20
4.3785
42
0.0077
0
VERTEX
8
0
10
7.8615
20
4.3811
42
0.0118
0
VERTEX
8
0
10
7.8306
20
4.3810
42
0.0123
0
VERTEX
8
0
10
7.8229
20
4.3804
42
0.0540
0
VERTEX
8
0
10
7.8152
20
4.3788
0
VERTEX
8
0
10
7.8150
20
4.3773
0
VERTEX
8
0
10
7.8165
20
4.3760
0
VERTEX
8
0
10
7.8201
20
4.3746
0
VERTEX
8
0
10
7.8238
20
4.3734
0
VERTEX
8
0
10
7.8267
20
4.3726
42
-0.0799
0
VERTEX
8
0
10
7.8799
20
4.3489
42
-0.0602
0
VERTEX
8
0
10
7.9019
20
4.3297
42
-0.0573
0
VERTEX
8
0
10
7.9100
20
4.3176
42
-0.1023
0
VERTEX
8
0
10
7.9136
20
4.3036
42
0.1836
0
VERTEX
8
0
10
7.9175
20
4.2934
42
0.0819
0
VERTEX
8
0
10
7.9256
20
4.2859
42
0.0673
0
VERTEX
8
0
10
7.9450
20
4.2754
42
0.0524
0
VERTEX
8
0
10
7.9873
20
4.2627
42
0.0494
0
VERTEX
8
0
10
8.0752
20
4.2526
42
-0.0200
0
VERTEX
8
0
10
8.1475
20
4.2475
42
-0.0130
0
VERTEX
8
0
10
8.2194
20
4.2384
42
-0.0129
0
VERTEX
8
0
10
8.2908
20
4.2256
42
-0.0216
0
VERTEX
8
0
10
8.3610
20
4.2078
42
0.0041
0
VERTEX
8
0
10
8.4269
20
4.1873
42
0.0078
0
VERTEX
8
0
10
8.4600
20
4.1779
42
0.0187
0
VERTEX
8
0
10
8.4937
20
4.1705
42
0.0251
0
VERTEX
8
0
10
8.5108
20
4.1686
42
0.0516
0
VERTEX
8
0
10
8.5280
20
4.1694
0
SEQEND
8
0
0
POLYLINE
8
Layer 1
66
1
0
VERTEX
8
0
10
8.5505
20
4.0303
42
0.1510
0
VERTEX
8
0
10
8.5598
20
4.0571
42
0.2020
0
VERTEX
8
0
10
8.5566
20
4.0648
42
0.1044
0
VERTEX
8
0
10
8.5496
20
4.0697
42
0.0803
0
VERTEX
8
0
10
8.5333
20
4.0748
42
0.0565
0
VERTEX
8
0
10
8.4992
20
4.0773
42
0.0497
0
VERTEX
8
0
10
8.4310
20
4.0700
42
0.0135
0
VERTEX
8
0
10
8.3986
20
4.0628
42
0.0324
0
VERTEX
8
0
10
8.3671
20
4.0525
42
0.0480
0
VERTEX
8
0
10
8.3527
20
4.0444
42
0.0649
0
VERTEX
8
0
10
8.3467
20
4.0387
42
0.1368
0
VERTEX
8
0
10
8.3439
20
4.0310
42
0.1546
0
VERTEX
8
0
10
8.3461
20
4.0231
42
0.0761
0
VERTEX
8
0
10
8.3513
20
4.0167
42
0.0641
0
VERTEX
8
0
10
8.3644
20
4.0069
42
0.0641
0
VERTEX
8
0
10
8.3905
20
3.9951
42
0.0489
0
VERTEX
8
0
10
8.4185
20
3.9891
42
0.0778
0
VERTEX
8
0
10
8.4758
20
3.9912
42
0.0858
0
VERTEX
8
0
10
8.5293
20
4.0112
42
0.0831
0
VERTEX
8
0
10
8.5505
20
4.0303
0
SEQEND
8
0
0
POLYLINE
8
Layer 1
66
1
0
VERTEX
8
0
10
8.7296
20
3.8172
0
VERTEX
8
0
10
8.5826
20
3.7842
42
0.0093
0
VERTEX
8
0
10
8.3486
20
3.7276
42
-0.0436
0
VERTEX
8
0
10
8.3087
20
3.7205
42
-0.0323
0
VERTEX
8
0
10
8.2682
20
3.7192
42
-0.0536
0
VERTEX
8
0
10
8.1879
20
3.7300
42
-0.0619
0
VERTEX
8
0
10
8.1122
20
3.7587
42
-0.0635
0
VERTEX
8
0
10
8.0798
20
3.7828
42
-0.0659
0
VERTEX
8
0
10
8.0678
20
3.7991
42
-0.1122
0
VERTEX
8
0
10
8.0628
20
3.8188
42
-0.2529
0
VERTEX
8
0
10
8.0744
20
3.8403
42
-0.0891
0
VERTEX
8
0
10
8.0861
20
3.8453
42
-0.0540
0
VERTEX
8
0
10
8.0988
20
3.8471
42
-0.0685
0
VERTEX
8
0
10
8.1242
20
3.8448
42
-0.0426
0
VERTEX
8
0
10
8.1486
20
3.8376
42
0.0225
0
VERTEX
8
0
10
8.1685
20
3.8310
42
0.0387
0
VERTEX
8
0
10
8.1788
20
3.8292
42
0.0611
0
VERTEX
8
0
10
8.1841
20
3.8295
0
VERTEX
8
0
10
8.1882
20
3.8325
42
0.1980
0
VERTEX
8
0
10
8.1887
20
3.8376
42
0.0623
0
VERTEX
8
0
10
8.1871
20
3.8426
42
0.0468
0
VERTEX
8
0
10
8.1822
20
3.8519
42
0.0312
0
VERTEX
8
0
10
8.1701
20
3.8690
42
0.0205
0
VERTEX
8
0
10
8.1431
20
3.9011
42
0.0048
0
VERTEX
8
0
10
8.1290
20
3.9167
0
VERTEX
8
0
10
8.1219
20
3.9244
0
VERTEX
8
0
10
8.1183
20
3.9282
0
VERTEX
8
0
10
8.1165
20
3.9302
0
VERTEX
8
0
10
8.1151
20
3.9317
42
-0.0294
0
VERTEX
8
0
10
8.0610
20
3.9962
42
-0.0220
0
VERTEX
8
0
10
8.0498
20
4.0139
42
-0.0500
0
VERTEX
8
0
10
8.0414
20
4.0332
42
-0.0731
0
VERTEX
8
0
10
8.0402
20
4.0436
42
-0.1688
0
VERTEX
8
0
10
8.0443
20
4.0531
42
-0.1573
0
VERTEX
8
0
10
8.0536
20
4.0577
42
-0.0368
0
VERTEX
8
0
10
8.0589
20
4.0585
0
VERTEX
8
0
10
8.0615
20
4.0586
0
VERTEX
8
0
10
8.0636
20
4.0587
42
0.0419
0
VERTEX
8
0
10
8.0779
20
4.0599
42
0.0573
0
VERTEX
8
0
10
8.0847
20
4.0622
42
0.1433
0
VERTEX
8
0
10
8.0898
20
4.0670
42
0.1928
0
VERTEX
8
0
10
8.0902
20
4.0740
42
0.0814
0
VERTEX
8
0
10
8.0874
20
4.0806
42
0.0626
0
VERTEX
8
0
10
8.0788
20
4.0920
42
0.0417
0
VERTEX
8
0
10
8.0578
20
4.1116
42
0.0174
0
VERTEX
8
0
10
8.0353
20
4.1290
42
0.0602
0
VERTEX
8
0
10
7.9769
20
4.1618
42
0.0586
0
VERTEX
8
0
10
7.9445
20
4.1701
42
0.0702
0
VERTEX
8
0
10
7.9278
20
4.1694
42
0.1706
0
VERTEX
8
0
10
7.9140
20
4.1606
42
-0.0965
0
VERTEX
8
0
10
7.9003
20
4.1465
42
-0.0293
0
VERTEX
8
0
10
7.8843
20
4.1352
42
-0.0296
0
VERTEX
8
0
10
7.8499
20
4.1160
42
-0.0389
0
VERTEX
8
0
10
7.7770
20
4.0869
42
-0.0212
0
VERTEX
8
0
10
7.7397
20
4.0770
42
-0.0244
0
VERTEX
8
0
10
7.7206
20
4.0740
42
-0.0482
0
VERTEX
8
0
10
7.7013
20
4.0741
42
-0.1053
0
VERTEX
8
0
10
7.6832
20
4.0804
42
-0.1479
0
VERTEX
8
0
10
7.6712
20
4.0952
42
-0.0819
0
VERTEX
8
0
10
7.6663
20
4.1138
42
-0.0378
0
VERTEX
8
0
10
7.6651
20
4.1333
42
0.0533
0
VERTEX
8
0
10
7.6622
20
4.1608
42
0.0696
0
VERTEX
8
0
10
7.6567
20
4.1735
42
0.1052
0
VERTEX
8
0
10
7.6470
20
4.1832
42
0.0928
0
VERTEX
8
0
10
7.6342
20
4.1884
42
0.0540
0
VERTEX
8
0
10
7.6204
20
4.1901
42
0.0539
0
VERTEX
8
0
10
7.5928
20
4.1879
42
0.0408
0
VERTEX
8
0
10
7.5389
20
4.1747
42
0.0141
0
VERTEX
8
0
10
7.4862
20
4.1571
42
0.0118
0
VERTEX
8
0
10
7.3825
20
4.1174
42
0.0026
0
VERTEX
8
0
10
7.3311
20
4.0964
0
VERTEX
8
0
10
7.3054
20
4.0858
0
VERTEX
8
0
10
7.2926
20
4.0805
0
VERTEX
8
0
10
7.2894
20
4.0791
0
VERTEX
8
0
10
7.2879
20
4.0785
0
VERTEX
8
0
10
7.2859
20
4.0776
0
VERTEX
8
0
10
7.2852
20
4.0773
0
VERTEX
8
0
10
7.2852
20
4.0773
0
VERTEX
8
0
10
7.2852
20
4.0774
0
VERTEX
8
0
10
7.2856
20
4.0775
0
VERTEX
8
0
10
7.2883
20
4.0786
0
VERTEX
8
0
10
7.2887
20
4.0788
0
VERTEX
8
0
10
7.2880
20
4.0785
0
VERTEX
8
0
10
7.2865
20
4.0779
0
VERTEX
8
0
10
7.2842
20
4.0770
42
0.0116
0
VERTEX
8
0
10
7.2310
20
4.0531
42
0.0211
0
VERTEX
8
0
10
7.1795
20
4.0256
42
0.0207
0
VERTEX
8
0
10
7.1552
20
4.0095
42
0.0402
0
VERTEX
8
0
10
7.1332
20
3.9904
42
0.0496
0
VERTEX
8
0
10
7.1245
20
3.9787
42
0.1095
0
VERTEX
8
0
10
7.1203
20
3.9649
42
0.1900
0
VERTEX
8
0
10
7.1253
20
3.9516
42
0.1082
0
VERTEX
8
0
10
7.1369
20
3.9429
42
0.0813
0
VERTEX
8
0
10
7.1644
20
3.9336
42
0.0315
0
VERTEX
8
0
10
7.1933
20
3.9292
42
0.0312
0
VERTEX
8
0
10
7.2516
20
3.9270
42
0.0161
0
VERTEX
8
0
10
7.3099
20
3.9293
42
0.0059
0
VERTEX
8
0
10
7.3389
20
3.9316
0
VERTEX
8
0
10
7.3535
20
3.9330
0
VERTEX
8
0
10
7.3607
20
3.9337
0
VERTEX
8
0
10
7.3628
20
3.9339
0
VERTEX
8
0
10
7.3666
20
3.9343
0
VERTEX
8
0
10
7.3722
20
3.9349
0
VERTEX
8
0
10
7.3793
20
3.9357
42
0.0059
0
VERTEX
8
0
10
7.5623
20
3.9584
42
0.0025
0
VERTEX
8
0
10
7.6536
20
3.9712
42
0.0080
0
VERTEX
8
0
10
7.7446
20
3.9862
42
-0.0330
0
VERTEX
8
0
10
7.7709
20
3.9897
42
-0.0486
0
VERTEX
8
0
10
7.7974
20
3.9885
42
-0.1297
0
VERTEX
8
0
10
7.8457
20
3.9677
42
-0.0513
0
VERTEX
8
0
10
7.8649
20
3.9494
42
-0.0359
0
VERTEX
8
0
10
7.8808
20
3.9282
42
-0.0431
0
VERTEX
8
0
10
7.9061
20
3.8814
42
-0.0101
0
VERTEX
8
0
10
7.9377
20
3.8081
42
-0.0080
0
VERTEX
8
0
10
7.9522
20
3.7709
42
-0.0081
0
VERTEX
8
0
10
7.9587
20
3.7521
42
-0.0368
0
VERTEX
8
0
10
7.9634
20
3.7327
0
VERTEX
8
0
10
7.9612
20
3.7304
0
VERTEX
8
0
10
7.9580
20
3.7292
42
-0.0318
0
VERTEX
8
0
10
7.9516
20
3.7277
42
-0.0208
0
VERTEX
8
0
10
7.9384
20
3.7257
42
-0.0147
0
VERTEX
8
0
10
7.9119
20
3.7233
42
-0.0103
0
VERTEX
8
0
10
7.8587
20
3.7208
42
-0.0088
0
VERTEX
8
0
10
7.7523
20
3.7192
42
-0.0042
0
VERTEX
8
0
10
7.6458
20
3.7201
0
VERTEX
8
0
10
7.5926
20
3.7212
0
VERTEX
8
0
10
7.5660
20
3.7218
0
VERTEX
8
0
10
7.5527
20
3.7222
0
VERTEX
8
0
10
7.5391
20
3.7226
42
0.0051
0
VERTEX
8
0
10
7.4189
20
3.7252
42
0.0088
0
VERTEX
8
0
10
7.2986
20
3.7245
42
0.0091
0
VERTEX
8
0
10
7.2386
20
3.7215
42
0.0177
0
VERTEX
8
0
10
7.1789
20
3.7151
42
0.0402
0
VERTEX
8
0
10
7.1205
20
3.7013
42
0.0522
0
VERTEX
8
0
10
7.0935
20
3.6882
42
0.1005
0
VERTEX
8
0
10
7.0724
20
3.6671
42
-0.1521
0
VERTEX
8
0
10
7.0299
20
3.6301
42
-0.0997
0
VERTEX
8
0
10
7.0020
20
3.6248
42
-0.1282
0
VERTEX
8
0
10
6.9748
20
3.6328
42
0.1066
0
VERTEX
8
0
10
6.9534
20
3.6404
42
0.2159
0
VERTEX
8
0
10
6.9326
20
3.6325
42
0.1488
0
VERTEX
8
0
10
6.9221
20
3.6123
42
0.0691
0
VERTEX
8
0
10
6.9195
20
3.5894
42
0.0734
0
VERTEX
8
0
10
6.9227
20
3.5677
42
0.0905
0
VERTEX
8
0
10
6.9330
20
3.5483
42
0.0831
0
VERTEX
8
0
10
6.9493
20
3.5336
42
0.0601
0
VERTEX
8
0
10
6.9689
20
3.5237
42
0.0749
0
VERTEX
8
0
10
7.0120
20
3.5146
42
0.0408
0
VERTEX
8
0
10
7.0560
20
3.5143
42
0.0489
0
VERTEX
8
0
10
7.1430
20
3.5284
42
0.0296
0
VERTEX
8
0
10
7.2270
20
3.5544
42
-0.0229
0
VERTEX
8
0
10
7.2683
20
3.5676
42
-0.0094
0
VERTEX
8
0
10
7.3102
20
3.5788
42
-0.0097
0
VERTEX
8
0
10
7.3948
20
3.5982
42
-0.0155
0
VERTEX
8
0
10
7.5657
20
3.6286
42
-0.0024
0
VERTEX
8
0
10
7.6242
20
3.6365
42
-0.0183
0
VERTEX
8
0
10
7.6830
20
3.6416
42
-0.0597
0
VERTEX
8
0
10
7.6976
20
3.6398
0
VERTEX
8
0
10
7.7000
20
3.6373
0
VERTEX
8
0
10
7.6987
20
3.6339
42
-0.0847
0
VERTEX
8
0
10
7.6933
20
3.6289
42
-0.0367
0
VERTEX
8
0
10
7.6809
20
3.6210
42
-0.0118
0
VERTEX
8
0
10
7.6680
20
3.6139
42
-0.0165
0
VERTEX
8
0
10
7.6148
20
3.5883
42
-0.0077
0
VERTEX
8
0
10
7.5067
20
3.5409
0
VERTEX
8
0
10
7.4524
20
3.5177
0
VERTEX
8
0
10
7.4252
20
3.5062
0
VERTEX
8
0
10
7.4116
20
3.5004
0
VERTEX
8
0
10
7.4048
20
3.4975
0
VERTEX
8
0
10
7.4013
20
3.4960
0
VERTEX
8
0
10
7.3981
20
3.4947
0
VERTEX
8
0
10
7.3938
20
3.4929
42
0.0135
0
VERTEX
8
0
10
7.1800
20
3.3955
42
0.0110
0
VERTEX
8
0
10
7.0759
20
3.3412
42
0.0138
0
VERTEX
8
0
10
7.0254
20
3.3112
42
0.0175
0
VERTEX
8
0
10
7.0012
20
3.2945
42
0.0214
0
VERTEX
8
0
10
6.9899
20
3.2851
42
0.0255
0
VERTEX
8
0
10
6.9848
20
3.2798
42
0.0718
0
VERTEX
8
0
10
6.9809
20
3.2735
42
0.0274
0
VERTEX
8
0
10
6.9767
20
3.2602
42
0.1224
0
VERTEX
8
0
10
6.9764
20
3.2464
0
VERTEX
8
0
10
6.9809
20
3.2414
42
0.0872
0
VERTEX
8
0
10
6.9876
20
3.2388
42
0.0702
0
VERTEX
8
0
10
7.0014
20
3.2376
42
0.0383
0
VERTEX
8
0
10
7.0292
20
3.2395
42
0.0124
0
VERTEX
8
0
10
7.0567
20
3.2435
42
0.0165
0
VERTEX
8
0
10
7.1660
20
3.2651
42
0.0059
0
VERTEX
8
0
10
7.3831
20
3.3150
0
VERTEX
8
0
10
7.5998
20
3.3668
0
VERTEX
8
0
10
7.7082
20
3.3928
0
VERTEX
8
0
10
7.7624
20
3.4059
0
VERTEX
8
0
10
7.7894
20
3.4124
0
VERTEX
8
0
10
7.8030
20
3.4157
0
VERTEX
8
0
10
7.8104
20
3.4174
0
VERTEX
8
0
10
7.8130
20
3.4181
0
VERTEX
8
0
10
7.8142
20
3.4184
42
0.0038
0
VERTEX
8
0
10
8.0199
20
3.4695
42
0.0076
0
VERTEX
8
0
10
8.2242
20
3.5258
42
0.0076
0
VERTEX
8
0
10
8.3253
20
3.5574
42
0.0129
0
VERTEX
8
0
10
8.4249
20
3.5936
42
0.0254
0
VERTEX
8
0
10
8.5211
20
3.6378
42
0.0249
0
VERTEX
8
0
10
8.5663
20
3.6653
42
0.0388
0
VERTEX
8
0
10
8.6074
20
3.6986
0
VERTEX
8
0
10
8.7296
20
3.8172
0
SEQEND
8
0
0
POLYLINE
8
Layer 1
66
1
0
VERTEX
8
0
10
8.9005
20
3.6186
42
0.1981
0
VERTEX
8
0
10
8.9078
20
3.6362
42
0.2008
0
VERTEX
8
0
10
8.9005
20
3.6537
42
0.1980
0
VERTEX
8
0
10
8.8829
20
3.6611
42
0.2007
0
VERTEX
8
0
10
8.8654
20
3.6537
42
0.1982
0
VERTEX
8
0
10
8.8581
20
3.6362
42
0.2008
0
VERTEX
8
0
10
8.8654
20
3.6186
42
0.1981
0
VERTEX
8
0
10
8.8829
20
3.6113
42
0.2008
0
VERTEX
8
0
10
8.9005
20
3.6186
0
SEQEND
8
0
0
POLYLINE
8
Layer 1
66
1
0
VERTEX
8
0
10
9.0184
20
3.4238
42
0.1178
0
VERTEX
8
0
10
9.0248
20
3.4186
42
0.1013
0
VERTEX
8
0
10
9.0405
20
3.4137
42
0.0437
0
VERTEX
8
0
10
9.0569
20
3.4125
42
0.0364
0
VERTEX
8
0
10
9.0733
20
3.4137
42
0.0713
0
VERTEX
8
0
10
9.0890
20
3.4186
42
0.0917
0
VERTEX
8
0
10
9.0953
20
3.4238
42
0.1721
0
VERTEX
8
0
10
9.0978
20
3.4315
42
0.1402
0
VERTEX
8
0
10
9.0952
20
3.4393
42
0.0672
0
VERTEX
8
0
10
9.0900
20
3.4456
42
0.4128
0
VERTEX
8
0
10
9.0237
20
3.4456
42
0.0553
0
VERTEX
8
0
10
9.0186
20
3.4392
42
0.1103
0
VERTEX
8
0
10
9.0160
20
3.4315
42
0.1797
0
VERTEX
8
0
10
9.0184
20
3.4238
0
SEQEND
8
0
0
POLYLINE
8
Layer 1
66
1
0
VERTEX
8
0
10
8.8028
20
3.2427
42
-0.0243
0
VERTEX
8
0
10
8.7126
20
3.2212
42
-0.0111
0
VERTEX
8
0
10
8.6213
20
3.2050
42
-0.0124
0
VERTEX
8
0
10
8.4374
20
3.1805
42
-0.0039
0
VERTEX
8
0
10
8.3452
20
3.1708
0
VERTEX
8
0
10
8.2990
20
3.1664
0
VERTEX
8
0
10
8.2938
20
3.1659
0
VERTEX
8
0
10
8.2907
20
3.1656
0
VERTEX
8
0
10
8.2867
20
3.1652
0
VERTEX
8
0
10
8.2827
20
3.1649
0
VERTEX
8
0
10
8.2798
20
3.1646
0
VERTEX
8
0
10
8.2792
20
3.1646
0
VERTEX
8
0
10
8.2792
20
3.1646
0
VERTEX
8
0
10
8.2794
20
3.1646
0
VERTEX
8
0
10
8.2804
20
3.1647
0
VERTEX
8
0
10
8.2820
20
3.1648
0
VERTEX
8
0
10
8.2906
20
3.1656
0
VERTEX
8
0
10
8.2934
20
3.1659
0
VERTEX
8
0
10
8.2939
20
3.1659
0
VERTEX
8
0
10
8.2938
20
3.1659
0
VERTEX
8
0
10
8.2936
20
3.1659
0
VERTEX
8
0
10
8.2912
20
3.1657
0
VERTEX
8
0
10
8.2866
20
3.1652
0
VERTEX
8
0
10
8.2801
20
3.1647
0
VERTEX
8
0
10
8.2723
20
3.1640
42
0.0096
0
VERTEX
8
0
10
7.9364
20
3.1274
42
0.0058
0
VERTEX
8
0
10
7.7691
20
3.1041
42
0.0055
0
VERTEX
8
0
10
7.6857
20
3.0903
42
0.0135
0
VERTEX
8
0
10
7.6030
20
3.0732
42
-0.0299
0
VERTEX
8
0
10
7.5076
20
3.0547
42
-0.0291
0
VERTEX
8
0
10
7.4591
20
3.0518
42
-0.0397
0
VERTEX
8
0
10
7.4349
20
3.0543
42
-0.0604
0
VERTEX
8
0
10
7.4235
20
3.0582
0
VERTEX
8
0
10
7.4188
20
3.0620
42
-0.1662
0
VERTEX
8
0
10
7.4166
20
3.0679
42
-0.1094
0
VERTEX
8
0
10
7.4305
20
3.0854
42
-0.0457
0
VERTEX
8
0
10
7.4403
20
3.0914
42
-0.0099
0
VERTEX
8
0
10
7.4506
20
3.0966
42
-0.0277
0
VERTEX
8
0
10
7.4928
20
3.1145
42
-0.0208
0
VERTEX
8
0
10
7.5800
20
3.1430
42
-0.0153
0
VERTEX
8
0
10
7.7572
20
3.1895
42
-0.0136
0
VERTEX
8
0
10
8.1160
20
3.2648
42
-0.0116
0
VERTEX
8
0
10
8.4780
20
3.3234
42
-0.0112
0
VERTEX
8
0
10
8.6601
20
3.3436
42
-0.0134
0
VERTEX
8
0
10
8.7517
20
3.3486
42
-0.0163
0
VERTEX
8
0
10
8.7975
20
3.3480
42
-0.0179
0
VERTEX
8
0
10
8.8202
20
3.3459
42
-0.0204
0
VERTEX
8
0
10
8.8321
20
3.3436
42
-0.0156
0
VERTEX
8
0
10
8.8446
20
3.3403
42
-0.0235
0
VERTEX
8
0
10
8.8659
20
3.3310
42
-0.0465
0
VERTEX
8
0
10
8.8855
20
3.3188
42
-0.0579
0
VERTEX
8
0
10
8.8936
20
3.3104
42
-0.1250
0
VERTEX
8
0
10
8.8976
20
3.2997
42
-0.1651
0
VERTEX
8
0
10
8.8946
20
3.2886
42
-0.0890
0
VERTEX
8
0
10
8.8871
20
3.2799
42
-0.0707
0
VERTEX
8
0
10
8.8678
20
3.2671
42
-0.0286
0
VERTEX
8
0
10
8.8467
20
3.2575
42
-0.0280
0
VERTEX
8
0
10
8.8028
20
3.2427
0
SEQEND
8
0
0
POLYLINE
8
Layer 1
66
1
0
VERTEX
8
0
10
9.2878
20
1.5298
42
0.0926
0
VERTEX
8
0
10
9.2942
20
1.5350
42
0.1727
0
VERTEX
8
0
10
9.2966
20
1.5427
42
0.1392
0
VERTEX
8
0
10
9.2940
20
1.5505
42
0.0673
0
VERTEX
8
0
10
9.2888
20
1.5569
42
0.4125
0
VERTEX
8
0
10
9.2226
20
1.5569
42
0.0553
0
VERTEX
8
0
10
9.2174
20
1.5504
42
0.1095
0
VERTEX
8
0
10
9.2148
20
1.5427
42
0.1810
0
VERTEX
8
0
10
9.2173
20
1.5350
42
0.1167
0
VERTEX
8
0
10
9.2236
20
1.5298
42
0.1001
0
VERTEX
8
0
10
9.2393
20
1.5249
42
0.0435
0
VERTEX
8
0
10
9.2557
20
1.5237
42
0.0365
0
VERTEX
8
0
10
9.2722
20
1.5249
42
0.0727
0
VERTEX
8
0
10
9.2878
20
1.5298
0
SEQEND
8
0
0
POLYLINE
8
Layer 1
66
1
0
VERTEX
8
0
10
9.3795
20
1.3923
42
0.2591
0
VERTEX
8
0
10
9.3819
20
1.3976
0
VERTEX
8
0
10
9.3778
20
1.4022
42
0.0474
0
VERTEX
8
0
10
9.3725
20
1.4054
0
VERTEX
8
0
10
9.3693
20
1.4068
0
VERTEX
8
0
10
9.3693
20
1.4068
0
VERTEX
8
0
10
9.3694
20
1.4067
0
VERTEX
8
0
10
9.3695
20
1.4067
0
VERTEX
8
0
10
9.3688
20
1.4070
0
VERTEX
8
0
10
9.3675
20
1.4075
42
0.0634
0
VERTEX
8
0
10
9.3370
20
1.4155
42
0.0390
0
VERTEX
8
0
10
9.3054
20
1.4179
42
0.0369
0
VERTEX
8
0
10
9.2738
20
1.4155
42
0.0520
0
VERTEX
8
0
10
9.2433
20
1.4075
42
0.0554
0
VERTEX
8
0
10
9.2320
20
1.4015
42
0.1692
0
VERTEX
8
0
10
9.2287
20
1.3962
0
VERTEX
8
0
10
9.2326
20
1.3914
42
0.0973
0
VERTEX
8
0
10
9.2446
20
1.3872
42
0.0258
0
VERTEX
8
0
10
9.2573
20
1.3850
42
0.0246
0
VERTEX
8
0
10
9.2829
20
1.3829
42
0.0076
0
VERTEX
8
0
10
9.2957
20
1.3825
0
VERTEX
8
0
10
9.2989
20
1.3825
0
VERTEX
8
0
10
9.3023
20
1.3825
0
VERTEX
8
0
10
9.3033
20
1.3824
0
VERTEX
8
0
10
9.3035
20
1.3824
0
VERTEX
8
0
10
9.3016
20
1.3825
0
VERTEX
8
0
10
9.3013
20
1.3825
0
VERTEX
8
0
10
9.3019
20
1.3825
0
VERTEX
8
0
10
9.3054
20
1.3824
42
0.0277
0
VERTEX
8
0
10
9.3556
20
1.3853
42
0.0224
0
VERTEX
8
0
10
9.3679
20
1.3876
42
0.0682
0
VERTEX
8
0
10
9.3795
20
1.3923
0
SEQEND
8
0
0
POLYLINE
8
Layer 1
66
1
0
VERTEX
8
0
10
9.5392
20
1.1930
42
0.1893
0
VERTEX
8
0
10
9.5377
20
1.2000
42
0.0884
0
VERTEX
8
0
10
9.5292
20
1.2117
42
0.0408
0
VERTEX
8
0
10
9.5080
20
1.2315
42
0.0066
0
VERTEX
8
0
10
9.4968
20
1.2407
42
0.0031
0
VERTEX
8
0
10
9.4911
20
1.2452
0
VERTEX
8
0
10
9.4881
20
1.2475
0
VERTEX
8
0
10
9.4857
20
1.2494
0
VERTEX
8
0
10
9.4823
20
1.2519
42
0.0189
0
VERTEX
8
0
10
9.4363
20
1.2842
42
0.0345
0
VERTEX
8
0
10
9.3870
20
1.3110
42
0.0382
0
VERTEX
8
0
10
9.3604
20
1.3202
42
0.0891
0
VERTEX
8
0
10
9.3326
20
1.3217
42
0.2235
0
VERTEX
8
0
10
9.3108
20
1.3057
42
0.0827
0
VERTEX
8
0
10
9.3065
20
1.2924
42
0.0252
0
VERTEX
8
0
10
9.3056
20
1.2854
0
VERTEX
8
0
10
9.3055
20
1.2819
0
VERTEX
8
0
10
9.3054
20
1.2788
42
0.1263
0
VERTEX
8
0
10
9.3090
20
1.2648
42
0.0686
0
VERTEX
8
0
10
9.3172
20
1.2527
42
0.0745
0
VERTEX
8
0
10
9.3392
20
1.2336
42
0.0882
0
VERTEX
8
0
10
9.3924
20
1.2100
42
0.0074
0
VERTEX
8
0
10
9.4488
20
1.1962
42
0.0224
0
VERTEX
8
0
10
9.5059
20
1.1861
42
0.0232
0
VERTEX
8
0
10
9.5204
20
1.1853
42
0.0765
0
VERTEX
8
0
10
9.5347
20
1.1877
42
0.2133
0
VERTEX
8
0
10
9.5392
20
1.1930
0
SEQEND
8
0
0
POLYLINE
8
Layer 1
66
1
0
VERTEX
8
0
10
10.1504
20
0.7036
42
0.4127
0
VERTEX
8
0
10
10.1753
20
0.6787
42
0.2007
0
VERTEX
8
0
10
10.1928
20
0.6860
42
0.1985
0
VERTEX
8
0
10
10.2001
20
0.7036
42
0.4126
0
VERTEX
8
0
10
10.1753
20
0.7284
42
0.2003
0
VERTEX
8
0
10
10.1577
20
0.7211
42
0.1979
0
VERTEX
8
0
10
10.1504
20
0.7036
0
SEQEND
8
0
0
POLYLINE
8
Layer 1
66
1
0
VERTEX
8
0
10
9.3463
20
0.3001
42
0.1403
0
VERTEX
8
0
10
9.3437
20
0.3078
42
0.0667
0
VERTEX
8
0
10
9.3386
20
0.3142
42
0.4125
0
VERTEX
8
0
10
9.2723
20
0.3142
42
0.0551
0
VERTEX
8
0
10
9.2671
20
0.3078
42
0.1096
0
VERTEX
8
0
10
9.2645
20
0.3001
42
0.1804
0
VERTEX
8
0
10
9.2670
20
0.2924
42
0.1182
0
VERTEX
8
0
10
9.2733
20
0.2872
42
0.1005
0
VERTEX
8
0
10
9.2890
20
0.2823
42
0.0431
0
VERTEX
8
0
10
9.3054
20
0.2811
42
0.0365
0
VERTEX
8
0
10
9.3218
20
0.2823
42
0.0727
0
VERTEX
8
0
10
9.3375
20
0.2872
42
0.0918
0
VERTEX
8
0
10
9.3439
20
0.2924
42
0.1714
0
VERTEX
8
0
10
9.3463
20
0.3001
0
SEQEND
8
0
0
POLYLINE
8
Layer 1
66
1
0
VERTEX
8
0
10
9.6285
20
0.3308
42
0.4125
0
VERTEX
8
0
10
9.6036
20
0.3059
42
0.2005
0
VERTEX
8
0
10
9.6109
20
0.2884
42
0.1978
0
VERTEX
8
0
10
9.6285
20
0.2811
42
0.4125
0
VERTEX
8
0
10
9.6533
20
0.3059
42
0.4125
0
VERTEX
8
0
10
9.6285
20
0.3308
0
SEQEND
8
0
0
POLYLINE
8
Layer 1
66
1
0
VERTEX
8
0
10
9.6036
20
0.4053
42
-0.1980
0
VERTEX
8
0
10
9.5963
20
0.3878
42
-0.2008
0
VERTEX
8
0
10
9.5788
20
0.3805
42
-0.1981
0
VERTEX
8
0
10
9.5612
20
0.3878
42
-0.2008
0
VERTEX
8
0
10
9.5539
20
0.4053
42
-0.1984
0
VERTEX
8
0
10
9.5612
20
0.4229
42
-0.2006
0
VERTEX
8
0
10
9.5788
20
0.4302
42
-0.1982
0
VERTEX
8
0
10
9.5963
20
0.4229
42
-0.2007
0
VERTEX
8
0
10
9.6036
20
0.4053
0
SEQEND
8
0
0
POLYLINE
8
Layer 1
66
1
0
VERTEX
8
0
10
9.7776
20
0.4302
42
0.4126
0
VERTEX
8
0
10
9.7527
20
0.4053
42
0.2008
0
VERTEX
8
0
10
9.7601
20
0.3878
42
0.1981
0
VERTEX
8
0
10
9.7776
20
0.3805
42
0.2008
0
VERTEX
8
0
10
9.7952
20
0.3878
42
0.1981
0
VERTEX
8
0
10
9.8025
20
0.4053
42
0.2006
0
VERTEX
8
0
10
9.7952
20
0.4229
42
0.1990
0
VERTEX
8
0
10
9.7776
20
0.4302
0
SEQEND
8
0
0
POLYLINE
8
Layer 1
66
1
0
VERTEX
8
0
10
9.7438
20
0.5527
42
0.1099
0
VERTEX
8
0
10
9.7240
20
0.5682
42
0.1292
0
VERTEX
8
0
10
9.6753
20
0.5793
42
0.0531
0
VERTEX
8
0
10
9.6536
20
0.5771
42
0.0916
0
VERTEX
8
0
10
9.6337
20
0.5684
42
0.1937
0
VERTEX
8
0
10
9.6228
20
0.5503
42
0.1864
0
VERTEX
8
0
10
9.6285
20
0.5296
42
0.0956
0
VERTEX
8
0
10
9.6573
20
0.4983
42
0.1160
0
VERTEX
8
0
10
9.6964
20
0.4820
42
0.0827
0
VERTEX
8
0
10
9.7176
20
0.4826
42
0.1139
0
VERTEX
8
0
10
9.7368
20
0.4916
42
0.1328
0
VERTEX
8
0
10
9.7492
20
0.5088
42
0.0999
0
VERTEX
8
0
10
9.7527
20
0.5296
42
0.1870
0
VERTEX
8
0
10
9.7438
20
0.5527
0
SEQEND
8
0
0
POLYLINE
8
Layer 1
66
1
0
VERTEX
8
0
10
9.9489
20
0.6194
42
0.0651
0
VERTEX
8
0
10
9.9192
20
0.6057
42
0.0732
0
VERTEX
8
0
10
9.9073
20
0.5945
42
0.1462
0
VERTEX
8
0
10
9.9019
20
0.5793
42
0.0724
0
VERTEX
8
0
10
9.9053
20
0.5558
42
0.1658
0
VERTEX
8
0
10
9.9197
20
0.5375
42
0.1610
0
VERTEX
8
0
10
9.9427
20
0.5327
42
0.0689
0
VERTEX
8
0
10
9.9662
20
0.5368
42
0.0593
0
VERTEX
8
0
10
10.0101
20
0.5552
42
0.0259
0
VERTEX
8
0
10
10.0510
20
0.5793
42
0.0215
0
VERTEX
8
0
10
10.0779
20
0.5984
42
0.0673
0
VERTEX
8
0
10
10.0890
20
0.6105
42
0.2530
0
VERTEX
8
0
10
10.0888
20
0.6183
42
0.1772
0
VERTEX
8
0
10
10.0818
20
0.6225
42
0.0691
0
VERTEX
8
0
10
10.0657
20
0.6259
42
0.0185
0
VERTEX
8
0
10
10.0493
20
0.6273
42
0.0077
0
VERTEX
8
0
10
10.0328
20
0.6280
42
0.0035
0
VERTEX
8
0
10
10.0245
20
0.6281
0
VERTEX
8
0
10
10.0205
20
0.6282
0
VERTEX
8
0
10
10.0177
20
0.6282
0
VERTEX
8
0
10
10.0137
20
0.6283
42
0.0702
0
VERTEX
8
0
10
9.9489
20
0.6194
0
SEQEND
8
0
0
POLYLINE
8
Layer 1
66
1
0
VERTEX
8
0
10
9.9215
20
0.7081
0
VERTEX
8
0
10
9.9166
20
0.7104
42
0.0109
0
VERTEX
8
0
10
9.9112
20
0.7127
42
0.0920
0
VERTEX
8
0
10
9.8626
20
0.7224
42
0.0574
0
VERTEX
8
0
10
9.8379
20
0.7198
42
0.1151
0
VERTEX
8
0
10
9.8159
20
0.7088
42
0.1718
0
VERTEX
8
0
10
9.8113
20
0.6993
0
VERTEX
8
0
10
9.8136
20
0.6945
0
VERTEX
8
0
10
9.8178
20
0.6911
42
0.0743
0
VERTEX
8
0
10
9.8277
20
0.6870
42
0.0322
0
VERTEX
8
0
10
9.8383
20
0.6846
42
0.0355
0
VERTEX
8
0
10
9.8598
20
0.6826
42
0.0212
0
VERTEX
8
0
10
9.8812
20
0.6827
42
0.0140
0
VERTEX
8
0
10
9.9027
20
0.6842
42
0.0367
0
VERTEX
8
0
10
9.9239
20
0.6881
42
0.0971
0
VERTEX
8
0
10
9.9332
20
0.6931
42
0.2806
0
VERTEX
8
0
10
9.9340
20
0.6982
0
VERTEX
8
0
10
9.9306
20
0.7023
42
0.0716
0
VERTEX
8
0
10
9.9215
20
0.7081
0
SEQEND
8
0
0
POLYLINE
8
Layer 1
66
1
0
VERTEX
8
0
10
10.0117
20
0.8725
42
0.1392
0
VERTEX
8
0
10
10.0057
20
0.8684
0
VERTEX
8
0
10
10.0056
20
0.8647
0
VERTEX
8
0
10
10.0072
20
0.8614
42
0.0637
0
VERTEX
8
0
10
10.0121
20
0.8559
42
0.0362
0
VERTEX
8
0
10
10.0237
20
0.8464
42
0.0119
0
VERTEX
8
0
10
10.0358
20
0.8379
42
0.0027
0
VERTEX
8
0
10
10.0420
20
0.8337
0
VERTEX
8
0
10
10.0451
20
0.8317
0
VERTEX
8
0
10
10.0476
20
0.8301
0
VERTEX
8
0
10
10.0510
20
0.8279
42
0.0029
0
VERTEX
8
0
10
10.0823
20
0.8079
42
0.0171
0
VERTEX
8
0
10
10.1145
20
0.7893
42
0.0501
0
VERTEX
8
0
10
10.1318
20
0.7828
42
0.1234
0
VERTEX
8
0
10
10.1409
20
0.7834
42
0.2185
0
VERTEX
8
0
10
10.1469
20
0.7902
42
0.0735
0
VERTEX
8
0
10
10.1491
20
0.7992
42
0.0258
0
VERTEX
8
0
10
10.1500
20
0.8084
42
0.0106
0
VERTEX
8
0
10
10.1503
20
0.8177
0
VERTEX
8
0
10
10.1504
20
0.8223
0
VERTEX
8
0
10
10.1504
20
0.8247
0
VERTEX
8
0
10
10.1504
20
0.8279
42
0.1173
0
VERTEX
8
0
10
10.1473
20
0.8410
42
0.0876
0
VERTEX
8
0
10
10.1393
20
0.8520
42
0.1046
0
VERTEX
8
0
10
10.1166
20
0.8668
42
0.1131
0
VERTEX
8
0
10
10.0634
20
0.8768
42
0.0108
0
VERTEX
8
0
10
10.0337
20
0.8759
42
0.0216
0
VERTEX
8
0
10
10.0189
20
0.8743
42
0.0336
0
VERTEX
8
0
10
10.0117
20
0.8725
0
SEQEND
8
0
0
POLYLINE
8
Layer 1
66
1
0
VERTEX
8
0
10
9.9453
20
1.1461
42
0.0138
0
VERTEX
8
0
10
9.9847
20
1.1105
42
0.0051
0
VERTEX
8
0
10
10.0050
20
1.0934
42
0.0026
0
VERTEX
8
0
10
10.0153
20
1.0850
0
VERTEX
8
0
10
10.0205
20
1.0809
0
VERTEX
8
0
10
10.0231
20
1.0788
0
VERTEX
8
0
10
10.0261
20
1.0764
42
0.0169
0
VERTEX
8
0
10
10.1041
20
1.0187
42
0.0251
0
VERTEX
8
0
10
10.1866
20
0.9679
42
0.0206
0
VERTEX
8
0
10
10.2302
20
0.9466
42
0.0352
0
VERTEX
8
0
10
10.2760
20
0.9307
42
0.0365
0
VERTEX
8
0
10
10.2998
20
0.9265
42
0.0745
0
VERTEX
8
0
10
10.3239
20
0.9281
42
0.1733
0
VERTEX
8
0
10
10.3433
20
0.9416
42
0.0930
0
VERTEX
8
0
10
10.3478
20
0.9528
42
0.0326
0
VERTEX
8
0
10
10.3486
20
0.9588
42
0.0245
0
VERTEX
8
0
10
10.3488
20
0.9645
42
0.1212
0
VERTEX
8
0
10
10.3417
20
0.9792
42
0.0332
0
VERTEX
8
0
10
10.3304
20
0.9913
42
0.0297
0
VERTEX
8
0
10
10.3054
20
1.0128
42
0.0222
0
VERTEX
8
0
10
10.2518
20
1.0513
42
0.0200
0
VERTEX
8
0
10
10.1392
20
1.1204
42
0.0167
0
VERTEX
8
0
10
10.0222
20
1.1818
42
0.0156
0
VERTEX
8
0
10
9.9617
20
1.2083
42
0.0173
0
VERTEX
8
0
10
9.9306
20
1.2192
42
0.0174
0
VERTEX
8
0
10
9.9146
20
1.2234
42
0.0444
0
VERTEX
8
0
10
9.8976
20
1.2255
42
0.1186
0
VERTEX
8
0
10
9.8912
20
1.2240
42
0.2914
0
VERTEX
8
0
10
9.8886
20
1.2183
42
0.1040
0
VERTEX
8
0
10
9.8901
20
1.2119
42
0.0376
0
VERTEX
8
0
10
9.8931
20
1.2059
42
0.0570
0
VERTEX
8
0
10
9.9086
20
1.1844
42
0.0330
0
VERTEX
8
0
10
9.9453
20
1.1461
0
SEQEND
8
0
0
POLYLINE
8
Layer 1
66
1
0
VERTEX
8
0
10
9.8159
20
1.0567
42
0.1718
0
VERTEX
8
0
10
9.8113
20
1.0473
0
VERTEX
8
0
10
9.8136
20
1.0424
0
VERTEX
8
0
10
9.8178
20
1.0390
42
0.0743
0
VERTEX
8
0
10
9.8277
20
1.0349
42
0.0322
0
VERTEX
8
0
10
9.8383
20
1.0326
42
0.0355
0
VERTEX
8
0
10
9.8598
20
1.0305
42
0.0212
0
VERTEX
8
0
10
9.8812
20
1.0306
42
0.0144
0
VERTEX
8
0
10
9.9027
20
1.0321
42
0.0369
0
VERTEX
8
0
10
9.9239
20
1.0360
42
0.0973
0
VERTEX
8
0
10
9.9332
20
1.0411
42
0.2813
0
VERTEX
8
0
10
9.9340
20
1.0461
0
VERTEX
8
0
10
9.9306
20
1.0503
42
0.0718
0
VERTEX
8
0
10
9.9215
20
1.0560
0
VERTEX
8
0
10
9.9166
20
1.0583
42
0.0101
0
VERTEX
8
0
10
9.9112
20
1.0606
42
0.0920
0
VERTEX
8
0
10
9.8626
20
1.0703
42
0.0574
0
VERTEX
8
0
10
9.8379
20
1.0678
42
0.1151
0
VERTEX
8
0
10
9.8159
20
1.0567
0
SEQEND
8
0
0
POLYLINE
8
Layer 1
66
1
0
VERTEX
8
0
10
9.7031
20
1.1758
42
0.4125
0
VERTEX
8
0
10
9.7527
20
1.2255
42
0.4125
0
VERTEX
8
0
10
9.7031
20
1.2752
42
0.4126
0
VERTEX
8
0
10
9.6533
20
1.2255
42
0.4126
0
VERTEX
8
0
10
9.7031
20
1.1758
0
SEQEND
8
0
0
POLYLINE
8
Layer 1
66
1
0
VERTEX
8
0
10
9.6137
20
1.0282
42
0.0376
0
VERTEX
8
0
10
9.6452
20
1.0340
42
0.0346
0
VERTEX
8
0
10
9.6603
20
1.0394
42
0.0645
0
VERTEX
8
0
10
9.6739
20
1.0478
42
0.1534
0
VERTEX
8
0
10
9.6819
20
1.0613
42
0.1989
0
VERTEX
8
0
10
9.6782
20
1.0764
42
0.1217
0
VERTEX
8
0
10
9.6553
20
1.0988
42
0.0656
0
VERTEX
8
0
10
9.6262
20
1.1128
42
0.0782
0
VERTEX
8
0
10
9.5628
20
1.1246
42
0.0733
0
VERTEX
8
0
10
9.4987
20
1.1181
42
0.0809
0
VERTEX
8
0
10
9.4696
20
1.1043
42
0.0887
0
VERTEX
8
0
10
9.4588
20
1.0924
42
0.0625
0
VERTEX
8
0
10
9.4557
20
1.0850
0
VERTEX
8
0
10
9.4549
20
1.0810
0
VERTEX
8
0
10
9.4545
20
1.0764
42
0.2082
0
VERTEX
8
0
10
9.4616
20
1.0600
42
0.0880
0
VERTEX
8
0
10
9.4759
20
1.0489
42
0.0756
0
VERTEX
8
0
10
9.5096
20
1.0355
42
0.0715
0
VERTEX
8
0
10
9.5817
20
1.0267
42
0.0255
0
VERTEX
8
0
10
9.6137
20
1.0282
0
SEQEND
8
0
0
POLYLINE
8
Layer 1
66
1
0
VERTEX
8
0
10
9.6285
20
0.8775
42
0.1218
0
VERTEX
8
0
10
9.6514
20
0.8551
42
0.0651
0
VERTEX
8
0
10
9.6805
20
0.8411
42
0.0773
0
VERTEX
8
0
10
9.7439
20
0.8293
42
0.0735
0
VERTEX
8
0
10
9.8080
20
0.8358
42
0.0809
0
VERTEX
8
0
10
9.8371
20
0.8496
42
0.0884
0
VERTEX
8
0
10
9.8479
20
0.8615
42
0.0622
0
VERTEX
8
0
10
9.8510
20
0.8689
0
VERTEX
8
0
10
9.8518
20
0.8729
0
VERTEX
8
0
10
9.8522
20
0.8775
42
0.2061
0
VERTEX
8
0
10
9.8451
20
0.8939
42
0.0885
0
VERTEX
8
0
10
9.8308
20
0.9050
42
0.0750
0
VERTEX
8
0
10
9.7971
20
0.9184
42
0.0710
0
VERTEX
8
0
10
9.7250
20
0.9273
42
0.0255
0
VERTEX
8
0
10
9.6930
20
0.9257
42
0.0376
0
VERTEX
8
0
10
9.6614
20
0.9199
42
0.0348
0
VERTEX
8
0
10
9.6464
20
0.9145
42
0.0660
0
VERTEX
8
0
10
9.6328
20
0.9061
42
0.1539
0
VERTEX
8
0
10
9.6247
20
0.8926
42
0.1992
0
VERTEX
8
0
10
9.6285
20
0.8775
0
SEQEND
8
0
0
POLYLINE
8
Layer 1
66
1
0
VERTEX
8
0
10
9.4374
20
0.7631
42
0.0920
0
VERTEX
8
0
10
9.4282
20
0.7535
42
0.3058
0
VERTEX
8
0
10
9.4297
20
0.7284
42
0.0829
0
VERTEX
8
0
10
9.4472
20
0.7084
42
0.0638
0
VERTEX
8
0
10
9.4697
20
0.6940
42
0.0970
0
VERTEX
8
0
10
9.5212
20
0.6804
42
0.0481
0
VERTEX
8
0
10
9.5479
20
0.6810
42
0.0649
0
VERTEX
8
0
10
9.5737
20
0.6878
42
0.1113
0
VERTEX
8
0
10
9.5951
20
0.7034
42
0.1704
0
VERTEX
8
0
10
9.6036
20
0.7282
42
0.1510
0
VERTEX
8
0
10
9.5992
20
0.7429
42
0.0919
0
VERTEX
8
0
10
9.5888
20
0.7541
42
0.0941
0
VERTEX
8
0
10
9.5617
20
0.7685
42
0.0510
0
VERTEX
8
0
10
9.5319
20
0.7759
42
0.0386
0
VERTEX
8
0
10
9.5013
20
0.7781
42
0.0360
0
VERTEX
8
0
10
9.4747
20
0.7763
42
0.0550
0
VERTEX
8
0
10
9.4490
20
0.7695
42
0.0510
0
VERTEX
8
0
10
9.4374
20
0.7631
0
SEQEND
8
0
0
POLYLINE
8
Layer 1
66
1
0
VERTEX
8
0
10
9.3203
20
0.8784
42
0.0410
0
VERTEX
8
0
10
9.3991
20
0.8446
42
0.0219
0
VERTEX
8
0
10
9.4404
20
0.8328
42
0.0307
0
VERTEX
8
0
10
9.4827
20
0.8256
42
0.0261
0
VERTEX
8
0
10
9.5041
20
0.8247
42
0.0444
0
VERTEX
8
0
10
9.5254
20
0.8270
42
0.0991
0
VERTEX
8
0
10
9.5449
20
0.8357
42
0.1038
0
VERTEX
8
0
10
9.5515
20
0.8440
42
0.0579
0
VERTEX
8
0
10
9.5533
20
0.8490
0
VERTEX
8
0
10
9.5537
20
0.8517
0
VERTEX
8
0
10
9.5539
20
0.8552
42
0.1861
0
VERTEX
8
0
10
9.5512
20
0.8611
0
VERTEX
8
0
10
9.5466
20
0.8659
42
0.0345
0
VERTEX
8
0
10
9.5362
20
0.8741
42
0.0244
0
VERTEX
8
0
10
9.5139
20
0.8884
42
0.0181
0
VERTEX
8
0
10
9.4673
20
0.9137
42
0.0168
0
VERTEX
8
0
10
9.3713
20
0.9586
42
0.0142
0
VERTEX
8
0
10
9.2729
20
0.9980
42
0.0137
0
VERTEX
8
0
10
9.2227
20
1.0148
42
0.0139
0
VERTEX
8
0
10
9.1971
20
1.0215
42
0.0161
0
VERTEX
8
0
10
9.1840
20
1.0240
42
0.0152
0
VERTEX
8
0
10
9.1775
20
1.0248
0
VERTEX
8
0
10
9.1742
20
1.0250
0
VERTEX
8
0
10
9.1703
20
1.0250
0
VERTEX
8
0
10
9.1662
20
1.0239
0
VERTEX
8
0
10
9.1641
20
1.0204
42
0.1774
0
VERTEX
8
0
10
9.1662
20
1.0121
42
0.0658
0
VERTEX
8
0
10
9.1753
20
0.9977
42
0.0371
0
VERTEX
8
0
10
9.1980
20
0.9720
42
0.0284
0
VERTEX
8
0
10
9.2488
20
0.9256
42
0.0563
0
VERTEX
8
0
10
9.3203
20
0.8784
0
SEQEND
8
0
0
POLYLINE
8
Layer 1
66
1
0
VERTEX
8
0
10
9.2286
20
0.7398
42
0.0929
0
VERTEX
8
0
10
9.2474
20
0.7554
42
0.1563
0
VERTEX
8
0
10
9.2557
20
0.7781
42
0.1778
0
VERTEX
8
0
10
9.2474
20
0.8009
42
0.1109
0
VERTEX
8
0
10
9.2285
20
0.8164
42
0.1340
0
VERTEX
8
0
10
9.1811
20
0.8279
42
0.1177
0
VERTEX
8
0
10
9.1337
20
0.8164
42
0.0931
0
VERTEX
8
0
10
9.1149
20
0.8008
42
0.1571
0
VERTEX
8
0
10
9.1066
20
0.7781
42
0.1777
0
VERTEX
8
0
10
9.1149
20
0.7554
42
0.1101
0
VERTEX
8
0
10
9.1337
20
0.7398
42
0.1347
0
VERTEX
8
0
10
9.1811
20
0.7284
42
0.1177
0
VERTEX
8
0
10
9.2286
20
0.7398
0
SEQEND
8
0
0
POLYLINE
8
Layer 1
66
1
0
VERTEX
8
0
10
9.2656
20
0.5534
42
0.0975
0
VERTEX
8
0
10
9.2884
20
0.5310
42
0.0518
0
VERTEX
8
0
10
9.3164
20
0.5152
42
0.0328
0
VERTEX
8
0
10
9.3464
20
0.5038
42
0.0419
0
VERTEX
8
0
10
9.4091
20
0.4898
42
0.0278
0
VERTEX
8
0
10
9.4730
20
0.4838
42
0.0194
0
VERTEX
8
0
10
9.5069
20
0.4837
42
0.0392
0
VERTEX
8
0
10
9.5237
20
0.4860
42
0.0611
0
VERTEX
8
0
10
9.5315
20
0.4891
42
0.1535
0
VERTEX
8
0
10
9.5371
20
0.4953
42
0.1629
0
VERTEX
8
0
10
9.5374
20
0.5036
42
0.0647
0
VERTEX
8
0
10
9.5346
20
0.5116
42
0.0491
0
VERTEX
8
0
10
9.5260
20
0.5262
42
0.0179
0
VERTEX
8
0
10
9.5160
20
0.5398
42
0.0052
0
VERTEX
8
0
10
9.5108
20
0.5465
0
VERTEX
8
0
10
9.5081
20
0.5497
0
VERTEX
8
0
10
9.5065
20
0.5517
0
VERTEX
8
0
10
9.5042
20
0.5545
42
0.0609
0
VERTEX
8
0
10
9.4778
20
0.5794
42
0.0442
0
VERTEX
8
0
10
9.4470
20
0.5987
42
0.0682
0
VERTEX
8
0
10
9.3786
20
0.6230
42
0.0345
0
VERTEX
8
0
10
9.3425
20
0.6281
42
0.0480
0
VERTEX
8
0
10
9.3062
20
0.6268
42
0.0407
0
VERTEX
8
0
10
9.2885
20
0.6226
42
0.0649
0
VERTEX
8
0
10
9.2723
20
0.6146
42
0.1084
0
VERTEX
8
0
10
9.2601
20
0.6013
42
0.0659
0
VERTEX
8
0
10
9.2568
20
0.5928
42
0.0616
0
VERTEX
8
0
10
9.2557
20
0.5834
42
0.1608
0
VERTEX
8
0
10
9.2656
20
0.5534
0
SEQEND
8
0
0
POLYLINE
8
Layer 1
66
1
0
VERTEX
8
0
10
9.0237
20
0.4633
42
0.0553
0
VERTEX
8
0
10
9.0186
20
0.4569
42
0.1103
0
VERTEX
8
0
10
9.0160
20
0.4492
42
0.1797
0
VERTEX
8
0
10
9.0184
20
0.4415
42
0.1178
0
VERTEX
8
0
10
9.0248
20
0.4363
42
0.1013
0
VERTEX
8
0
10
9.0405
20
0.4314
42
0.0437
0
VERTEX
8
0
10
9.0569
20
0.4302
42
0.0364
0
VERTEX
8
0
10
9.0733
20
0.4314
42
0.0713
0
VERTEX
8
0
10
9.0890
20
0.4363
42
0.0917
0
VERTEX
8
0
10
9.0953
20
0.4415
42
0.1721
0
VERTEX
8
0
10
9.0978
20
0.4492
42
0.1402
0
VERTEX
8
0
10
9.0952
20
0.4569
42
0.0672
0
VERTEX
8
0
10
9.0900
20
0.4633
42
0.4125
0
VERTEX
8
0
10
9.0237
20
0.4633
0
SEQEND
8
0
0
POLYLINE
8
Layer 1
66
1
0
VERTEX
8
0
10
8.9709
20
0.6094
42
-0.0773
0
VERTEX
8
0
10
8.9812
20
0.6163
42
-0.0473
0
VERTEX
8
0
10
8.9929
20
0.6204
42
-0.0587
0
VERTEX
8
0
10
9.0176
20
0.6230
42
-0.0913
0
VERTEX
8
0
10
9.0662
20
0.6133
42
-0.0108
0
VERTEX
8
0
10
9.0716
20
0.6110
0
VERTEX
8
0
10
9.0765
20
0.6087
42
-0.0720
0
VERTEX
8
0
10
9.0856
20
0.6029
0
VERTEX
8
0
10
9.0890
20
0.5988
42
-0.2811
0
VERTEX
8
0
10
9.0883
20
0.5937
42
-0.0970
0
VERTEX
8
0
10
9.0789
20
0.5887
42
-0.0368
0
VERTEX
8
0
10
9.0577
20
0.5848
42
-0.0146
0
VERTEX
8
0
10
9.0362
20
0.5832
42
-0.0211
0
VERTEX
8
0
10
9.0148
20
0.5831
42
-0.0366
0
VERTEX
8
0
10
8.9933
20
0.5852
42
-0.0323
0
VERTEX
8
0
10
8.9827
20
0.5876
42
-0.0738
0
VERTEX
8
0
10
8.9728
20
0.5917
0
VERTEX
8
0
10
8.9686
20
0.5951
0
VERTEX
8
0
10
8.9664
20
0.5999
42
-0.1727
0
VERTEX
8
0
10
8.9709
20
0.6094
0
SEQEND
8
0
0
POLYLINE
8
Layer 1
66
1
0
VERTEX
8
0
10
8.8318
20
0.7032
42
0.1131
0
VERTEX
8
0
10
8.8410
20
0.6937
42
0.0615
0
VERTEX
8
0
10
8.8527
20
0.6874
42
0.0691
0
VERTEX
8
0
10
8.8784
20
0.6806
42
0.0399
0
VERTEX
8
0
10
8.9048
20
0.6787
42
0.0804
0
VERTEX
8
0
10
8.9653
20
0.6884
42
0.0723
0
VERTEX
8
0
10
8.9923
20
0.7027
42
0.0746
0
VERTEX
8
0
10
9.0027
20
0.7139
42
0.1335
0
VERTEX
8
0
10
9.0072
20
0.7284
42
0.1654
0
VERTEX
8
0
10
8.9988
20
0.7533
42
0.1362
0
VERTEX
8
0
10
8.9774
20
0.7690
42
0.0762
0
VERTEX
8
0
10
8.9516
20
0.7758
42
0.0525
0
VERTEX
8
0
10
8.9249
20
0.7765
42
0.0921
0
VERTEX
8
0
10
8.8734
20
0.7630
42
0.0582
0
VERTEX
8
0
10
8.8509
20
0.7486
42
0.0767
0
VERTEX
8
0
10
8.8333
20
0.7286
42
0.1079
0
VERTEX
8
0
10
8.8288
20
0.7160
42
0.1601
0
VERTEX
8
0
10
8.8318
20
0.7032
0
SEQEND
8
0
0
POLYLINE
8
Layer 1
66
1
0
VERTEX
8
0
10
8.7147
20
0.6415
42
0.0621
0
VERTEX
8
0
10
8.7287
20
0.6499
42
0.1518
0
VERTEX
8
0
10
8.7374
20
0.6633
42
0.2068
0
VERTEX
8
0
10
8.7338
20
0.6787
42
0.0835
0
VERTEX
8
0
10
8.7149
20
0.7003
42
0.0698
0
VERTEX
8
0
10
8.6904
20
0.7153
42
0.1098
0
VERTEX
8
0
10
8.6344
20
0.7268
42
0.1013
0
VERTEX
8
0
10
8.5784
20
0.7153
42
0.0657
0
VERTEX
8
0
10
8.5539
20
0.7003
42
0.0800
0
VERTEX
8
0
10
8.5350
20
0.6787
42
0.1649
0
VERTEX
8
0
10
8.5314
20
0.6632
42
0.1980
0
VERTEX
8
0
10
8.5402
20
0.6497
42
0.0808
0
VERTEX
8
0
10
8.5542
20
0.6415
42
0.0393
0
VERTEX
8
0
10
8.5697
20
0.6362
42
0.0456
0
VERTEX
8
0
10
8.6019
20
0.6305
42
0.0258
0
VERTEX
8
0
10
8.6344
20
0.6290
42
0.0242
0
VERTEX
8
0
10
8.6671
20
0.6306
42
0.0372
0
VERTEX
8
0
10
8.6993
20
0.6362
42
0.0338
0
VERTEX
8
0
10
8.7147
20
0.6415
0
SEQEND
8
0
0
POLYLINE
8
Layer 1
66
1
0
VERTEX
8
0
10
8.7974
20
0.4926
42
0.0234
0
VERTEX
8
0
10
8.8185
20
0.4856
42
0.0271
0
VERTEX
8
0
10
8.8294
20
0.4833
42
0.0632
0
VERTEX
8
0
10
8.8405
20
0.4832
42
0.0934
0
VERTEX
8
0
10
8.8457
20
0.4852
0
VERTEX
8
0
10
8.8490
20
0.4896
42
0.1891
0
VERTEX
8
0
10
8.8484
20
0.5006
42
0.0515
0
VERTEX
8
0
10
8.8442
20
0.5109
0
VERTEX
8
0
10
8.8416
20
0.5158
0
VERTEX
8
0
10
8.8402
20
0.5182
0
VERTEX
8
0
10
8.8384
20
0.5212
42
0.0990
0
VERTEX
8
0
10
8.8152
20
0.5461
42
0.0664
0
VERTEX
8
0
10
8.7854
20
0.5629
42
0.0906
0
VERTEX
8
0
10
8.7188
20
0.5775
42
0.0419
0
VERTEX
8
0
10
8.6846
20
0.5765
42
0.0552
0
VERTEX
8
0
10
8.6513
20
0.5687
42
0.0979
0
VERTEX
8
0
10
8.6224
20
0.5509
42
0.0889
0
VERTEX
8
0
10
8.6129
20
0.5367
42
0.0503
0
VERTEX
8
0
10
8.6104
20
0.5285
42
0.0500
0
VERTEX
8
0
10
8.6095
20
0.5197
42
-0.0474
0
VERTEX
8
0
10
8.6072
20
0.4952
42
-0.0597
0
VERTEX
8
0
10
8.6049
20
0.4895
0
VERTEX
8
0
10
8.6004
20
0.4855
42
-0.1675
0
VERTEX
8
0
10
8.5943
20
0.4852
42
-0.0701
0
VERTEX
8
0
10
8.5885
20
0.4874
42
-0.0548
0
VERTEX
8
0
10
8.5782
20
0.4940
42
-0.0206
0
VERTEX
8
0
10
8.5687
20
0.5019
42
-0.0183
0
VERTEX
8
0
10
8.5507
20
0.5188
42
0.0832
0
VERTEX
8
0
10
8.5177
20
0.5425
42
0.0427
0
VERTEX
8
0
10
8.4813
20
0.5581
42
0.0540
0
VERTEX
8
0
10
8.4042
20
0.5755
42
0.0524
0
VERTEX
8
0
10
8.3252
20
0.5772
42
0.0593
0
VERTEX
8
0
10
8.2867
20
0.5683
42
0.0811
0
VERTEX
8
0
10
8.2699
20
0.5580
42
0.0812
0
VERTEX
8
0
10
8.2640
20
0.5501
0
VERTEX
8
0
10
8.2623
20
0.5455
0
VERTEX
8
0
10
8.2618
20
0.5430
0
VERTEX
8
0
10
8.2616
20
0.5396
42
0.1181
0
VERTEX
8
0
10
8.2745
20
0.4855
42
0.1154
0
VERTEX
8
0
10
8.3108
20
0.4433
42
0.0825
0
VERTEX
8
0
10
8.3602
20
0.4171
42
0.0593
0
VERTEX
8
0
10
8.4147
20
0.4047
42
0.0935
0
VERTEX
8
0
10
8.5260
20
0.4128
42
0.0869
0
VERTEX
8
0
10
8.6277
20
0.4586
42
-0.0527
0
VERTEX
8
0
10
8.6669
20
0.4798
42
-0.0436
0
VERTEX
8
0
10
8.7093
20
0.4934
42
-0.0480
0
VERTEX
8
0
10
8.7535
20
0.4990
42
-0.0351
0
VERTEX
8
0
10
8.7757
20
0.4979
42
-0.0538
0
VERTEX
8
0
10
8.7974
20
0.4926
0
SEQEND
8
0
0
POLYLINE
8
Layer 1
66
1
0
VERTEX
8
0
10
8.7628
20
0.3566
42
0.0570
0
VERTEX
8
0
10
8.7982
20
0.3432
42
0.0751
0
VERTEX
8
0
10
8.8734
20
0.3343
0
VERTEX
8
0
10
8.9121
20
0.3357
42
0.0085
0
VERTEX
8
0
10
8.9314
20
0.3370
42
0.0430
0
VERTEX
8
0
10
8.9504
20
0.3404
0
VERTEX
8
0
10
8.9535
20
0.3438
0
VERTEX
8
0
10
8.9509
20
0.3477
42
0.0675
0
VERTEX
8
0
10
8.9428
20
0.3531
42
0.0245
0
VERTEX
8
0
10
8.9255
20
0.3617
42
0.0061
0
VERTEX
8
0
10
8.9079
20
0.3697
0
VERTEX
8
0
10
8.8990
20
0.3735
0
VERTEX
8
0
10
8.8945
20
0.3755
0
VERTEX
8
0
10
8.8925
20
0.3764
0
VERTEX
8
0
10
8.8899
20
0.3775
0
VERTEX
8
0
10
8.8867
20
0.3789
0
VERTEX
8
0
10
8.8829
20
0.3805
42
0.0099
0
VERTEX
8
0
10
8.8342
20
0.4003
42
0.0192
0
VERTEX
8
0
10
8.7845
20
0.4172
42
0.0243
0
VERTEX
8
0
10
8.7589
20
0.4231
42
0.0283
0
VERTEX
8
0
10
8.7459
20
0.4245
42
0.0628
0
VERTEX
8
0
10
8.7328
20
0.4234
42
0.2080
0
VERTEX
8
0
10
8.7231
20
0.4154
42
0.1923
0
VERTEX
8
0
10
8.7233
20
0.4024
42
0.0581
0
VERTEX
8
0
10
8.7282
20
0.3903
42
0.0143
0
VERTEX
8
0
10
8.7313
20
0.3846
0
VERTEX
8
0
10
8.7331
20
0.3816
0
VERTEX
8
0
10
8.7331
20
0.3816
0
VERTEX
8
0
10
8.7331
20
0.3817
0
VERTEX
8
0
10
8.7329
20
0.3819
0
VERTEX
8
0
10
8.7328
20
0.3822
0
VERTEX
8
0
10
8.7331
20
0.3816
0
VERTEX
8
0
10
8.7338
20
0.3805
42
0.1007
0
VERTEX
8
0
10
8.7467
20
0.3667
42
0.0503
0
VERTEX
8
0
10
8.7628
20
0.3566
0
SEQEND
8
0
0
POLYLINE
8
Layer 1
66
1
0
VERTEX
8
0
10
8.7338
20
0.2314
42
0.0873
0
VERTEX
8
0
10
8.7219
20
0.2447
42
0.0474
0
VERTEX
8
0
10
8.7071
20
0.2550
42
0.0576
0
VERTEX
8
0
10
8.6743
20
0.2695
42
0.0795
0
VERTEX
8
0
10
8.6037
20
0.2811
42
0.0354
0
VERTEX
8
0
10
8.5777
20
0.2792
42
0.0582
0
VERTEX
8
0
10
8.5527
20
0.2722
42
0.0550
0
VERTEX
8
0
10
8.5414
20
0.2657
42
0.0969
0
VERTEX
8
0
10
8.5329
20
0.2560
42
0.1515
0
VERTEX
8
0
10
8.5305
20
0.2434
42
0.1210
0
VERTEX
8
0
10
8.5350
20
0.2314
42
0.0861
0
VERTEX
8
0
10
8.5469
20
0.2180
42
0.0469
0
VERTEX
8
0
10
8.5616
20
0.2077
42
0.0568
0
VERTEX
8
0
10
8.5944
20
0.1932
42
0.0794
0
VERTEX
8
0
10
8.6651
20
0.1817
42
0.0355
0
VERTEX
8
0
10
8.6911
20
0.1836
42
0.0583
0
VERTEX
8
0
10
8.7161
20
0.1905
42
0.0553
0
VERTEX
8
0
10
8.7273
20
0.1971
42
0.0967
0
VERTEX
8
0
10
8.7359
20
0.2068
42
0.1515
0
VERTEX
8
0
10
8.7383
20
0.2194
42
0.1208
0
VERTEX
8
0
10
8.7338
20
0.2314
0
SEQEND
8
0
0
POLYLINE
8
Layer 1
66
1
0
VERTEX
8
0
10
8.6818
20
0.0181
42
-0.0111
0
VERTEX
8
0
10
8.6878
20
0.0166
42
-0.0905
0
VERTEX
8
0
10
8.6936
20
0.0146
42
0.0921
0
VERTEX
8
0
10
8.7244
20
0.0044
42
0.0162
0
VERTEX
8
0
10
8.7565
20
0.0013
42
0.0142
0
VERTEX
8
0
10
8.8209
20
0.0000
42
0.0115
0
VERTEX
8
0
10
8.9495
20
0.0050
42
0.0118
0
VERTEX
8
0
10
9.2060
20
0.0280
42
0.0132
0
VERTEX
8
0
10
9.4611
20
0.0631
42
0.0119
0
VERTEX
8
0
10
9.5877
20
0.0864
42
0.0106
0
VERTEX
8
0
10
9.6505
20
0.1007
42
0.0216
0
VERTEX
8
0
10
9.7124
20
0.1184
42
-0.0081
0
VERTEX
8
0
10
9.8106
20
0.1502
42
-0.0087
0
VERTEX
8
0
10
9.8602
20
0.1645
42
-0.0167
0
VERTEX
8
0
10
9.9104
20
0.1765
42
-0.0323
0
VERTEX
8
0
10
9.9615
20
0.1842
42
-0.0536
0
VERTEX
8
0
10
10.0130
20
0.1839
42
-0.0580
0
VERTEX
8
0
10
10.0631
20
0.1717
42
-0.0322
0
VERTEX
8
0
10
10.1097
20
0.1497
42
0.0329
0
VERTEX
8
0
10
10.1567
20
0.1279
42
0.0253
0
VERTEX
8
0
10
10.2061
20
0.1120
42
0.0350
0
VERTEX
8
0
10
10.3080
20
0.0933
42
0.0244
0
VERTEX
8
0
10
10.4114
20
0.0873
42
0.0184
0
VERTEX
8
0
10
10.5151
20
0.0905
42
0.0265
0
VERTEX
8
0
10
10.7207
20
0.1168
42
0.0205
0
VERTEX
8
0
10
10.9224
20
0.1630
42
-0.0060
0
VERTEX
8
0
10
11.1550
20
0.2229
42
-0.0043
0
VERTEX
8
0
10
11.2717
20
0.2504
42
-0.0133
0
VERTEX
8
0
10
11.3933
20
0.2760
42
0.0055
0
VERTEX
8
0
10
11.4087
20
0.2790
42
0.0083
0
VERTEX
8
0
10
11.4300
20
0.2838
42
0.0223
0
VERTEX
8
0
10
11.4721
20
0.2958
42
0.0365
0
VERTEX
8
0
10
11.5127
20
0.3121
42
0.0745
0
VERTEX
8
0
10
11.5494
20
0.3357
42
0.0684
0
VERTEX
8
0
10
11.5641
20
0.3519
42
0.1053
0
VERTEX
8
0
10
11.5728
20
0.3718
42
0.1122
0
VERTEX
8
0
10
11.5722
20
0.3935
42
0.0778
0
VERTEX
8
0
10
11.5631
20
0.4133
42
0.0746
0
VERTEX
8
0
10
11.5323
20
0.4441
42
0.0386
0
VERTEX
8
0
10
11.4949
20
0.4667
42
0.0411
0
VERTEX
8
0
10
11.4133
20
0.4979
42
0.0263
0
VERTEX
8
0
10
11.3279
20
0.5173
42
0.0358
0
VERTEX
8
0
10
11.1537
20
0.5331
42
-0.0335
0
VERTEX
8
0
10
11.0102
20
0.5468
42
-0.0214
0
VERTEX
8
0
10
10.9395
20
0.5610
42
-0.0174
0
VERTEX
8
0
10
10.9048
20
0.5707
42
-0.0388
0
VERTEX
8
0
10
10.8711
20
0.5834
0
VERTEX
8
0
10
10.8711
20
0.5834
0
VERTEX
8
0
10
10.8701
20
0.5839
0
VERTEX
8
0
10
10.8694
20
0.5843
0
VERTEX
8
0
10
10.8692
20
0.5844
0
VERTEX
8
0
10
10.8691
20
0.5844
0
VERTEX
8
0
10
10.8706
20
0.5837
0
VERTEX
8
0
10
10.8709
20
0.5836
0
VERTEX
8
0
10
10.8709
20
0.5836
0
VERTEX
8
0
10
10.8685
20
0.5847
0
VERTEX
8
0
10
10.8685
20
0.5847
0
VERTEX
8
0
10
10.8646
20
0.5868
42
-0.1062
0
VERTEX
8
0
10
10.8548
20
0.5938
42
-0.3024
0
VERTEX
8
0
10
10.8527
20
0.5992
0
VERTEX
8
0
10
10.8567
20
0.6035
42
-0.0537
0
VERTEX
8
0
10
10.8680
20
0.6073
42
-0.0262
0
VERTEX
8
0
10
10.8919
20
0.6107
42
-0.0106
0
VERTEX
8
0
10
10.9159
20
0.6121
42
-0.0131
0
VERTEX
8
0
10
11.0122
20
0.6119
42
-0.0073
0
VERTEX
8
0
10
11.2047
20
0.6024
42
0.0061
0
VERTEX
8
0
10
11.3449
20
0.5946
42
0.0155
0
VERTEX
8
0
10
11.4852
20
0.5918
42
0.0156
0
VERTEX
8
0
10
11.5553
20
0.5944
42
0.0285
0
VERTEX
8
0
10
11.6250
20
0.6024
42
0.0490
0
VERTEX
8
0
10
11.6929
20
0.6200
42
0.0566
0
VERTEX
8
0
10
11.7554
20
0.6516
42
-0.0560
0
VERTEX
8
0
10
11.8280
20
0.6894
42
-0.0557
0
VERTEX
8
0
10
11.8672
20
0.7008
42
-0.0652
0
VERTEX
8
0
10
11.8876
20
0.7022
42
-0.0677
0
VERTEX
8
0
10
11.8977
20
0.7005
42
-0.1316
0
VERTEX
8
0
10
11.9065
20
0.6955
42
0.1038
0
VERTEX
8
0
10
11.9177
20
0.6872
42
0.2905
0
VERTEX
8
0
10
11.9309
20
0.6873
42
0.1514
0
VERTEX
8
0
10
11.9382
20
0.6987
42
0.0587
0
VERTEX
8
0
10
11.9398
20
0.7125
42
0.0633
0
VERTEX
8
0
10
11.9376
20
0.7276
42
0.0373
0
VERTEX
8
0
10
11.9325
20
0.7411
42
0.0437
0
VERTEX
8
0
10
11.9175
20
0.7657
42
0.0391
0
VERTEX
8
0
10
11.8787
20
0.8085
42
0.0212
0
VERTEX
8
0
10
11.8347
20
0.8460
42
0.0141
0
VERTEX
8
0
10
11.7881
20
0.8801
42
0.0187
0
VERTEX
8
0
10
11.6902
20
0.9415
42
0.0148
0
VERTEX
8
0
10
11.5882
20
0.9961
42
0.0298
0
VERTEX
8
0
10
11.3757
20
1.0870
42
0.0199
0
VERTEX
8
0
10
11.2656
20
1.1221
42
0.0303
0
VERTEX
8
0
10
11.1528
20
1.1470
0
VERTEX
8
0
10
10.8062
20
1.2015
42
-0.0183
0
VERTEX
8
0
10
10.7626
20
1.2106
42
-0.0096
0
VERTEX
8
0
10
10.7196
20
1.2223
42
-0.0103
0
VERTEX
8
0
10
10.6346
20
1.2494
42
-0.0113
0
VERTEX
8
0
10
10.4676
20
1.3118
42
-0.0195
0
VERTEX
8
0
10
10.1415
20
1.4562
42
0.0028
0
VERTEX
8
0
10
10.0826
20
1.4847
42
0.0028
0
VERTEX
8
0
10
10.0237
20
1.5123
42
0.0072
0
VERTEX
8
0
10
9.9049
20
1.5655
42
0.0132
0
VERTEX
8
0
10
9.7844
20
1.6146
42
0.0164
0
VERTEX
8
0
10
9.7230
20
1.6361
42
0.0227
0
VERTEX
8
0
10
9.6916
20
1.6448
42
0.0236
0
VERTEX
8
0
10
9.6756
20
1.6478
42
0.1357
0
VERTEX
8
0
10
9.6597
20
1.6461
42
0.2616
0
VERTEX
8
0
10
9.6532
20
1.6238
42
0.0866
0
VERTEX
8
0
10
9.6646
20
1.6024
42
0.0336
0
VERTEX
8
0
10
9.6812
20
1.5846
42
0.0165
0
VERTEX
8
0
10
9.6996
20
1.5686
42
0.0226
0
VERTEX
8
0
10
9.7795
20
1.5127
42
0.0124
0
VERTEX
8
0
10
9.9479
20
1.4142
42
-0.0387
0
VERTEX
8
0
10
10.0340
20
1.3583
42
-0.0354
0
VERTEX
8
0
10
10.0730
20
1.3249
42
-0.0413
0
VERTEX
8
0
10
10.0901
20
1.3057
42
-0.0468
0
VERTEX
8
0
10
10.0970
20
1.2949
42
-0.1418
0
VERTEX
8
0
10
10.1007
20
1.2827
42
-0.0355
0
VERTEX
8
0
10
10.0989
20
1.2774
0
VERTEX
8
0
10
10.0966
20
1.2730
42
-0.1364
0
VERTEX
8
0
10
10.0904
20
1.2674
42
-0.0588
0
VERTEX
8
0
10
10.0746
20
1.2633
42
-0.0435
0
VERTEX
8
0
10
10.0420
20
1.2632
42
-0.0302
0
VERTEX
8
0
10
9.9778
20
1.2741
42
-0.0290
0
VERTEX
8
0
10
9.8531
20
1.3123
42
-0.0334
0
VERTEX
8
0
10
9.7336
20
1.3647
42
-0.0317
0
VERTEX
8
0
10
9.6774
20
1.3976
42
-0.0301
0
VERTEX
8
0
10
9.6513
20
1.4172
42
-0.0637
0
VERTEX
8
0
10
9.6286
20
1.4406
42
0.0503
0
VERTEX
8
0
10
9.5845
20
1.4902
42
0.0426
0
VERTEX
8
0
10
9.5586
20
1.5110
42
0.0418
0
VERTEX
8
0
10
9.5442
20
1.5193
42
0.1331
0
VERTEX
8
0
10
9.5283
20
1.5237
42
0.2876
0
VERTEX
8
0
10
9.5215
20
1.5208
42
0.1405
0
VERTEX
8
0
10
9.5202
20
1.5134
42
0.0613
0
VERTEX
8
0
10
9.5248
20
1.4988
42
0.0350
0
VERTEX
8
0
10
9.5403
20
1.4723
42
0.0290
0
VERTEX
8
0
10
9.5788
20
1.4243
42
-0.0024
0
VERTEX
8
0
10
9.5839
20
1.4186
0
VERTEX
8
0
10
9.5853
20
1.4170
0
VERTEX
8
0
10
9.5871
20
1.4150
0
VERTEX
8
0
10
9.5871
20
1.4150
0
VERTEX
8
0
10
9.5875
20
1.4146
0
VERTEX
8
0
10
9.5859
20
1.4164
0
VERTEX
8
0
10
9.5843
20
1.4182
0
VERTEX
8
0
10
9.5809
20
1.4219
0
VERTEX
8
0
10
9.5809
20
1.4219
0
VERTEX
8
0
10
9.5794
20
1.4236
0
VERTEX
8
0
10
9.5794
20
1.4236
0
VERTEX
8
0
10
9.5793
20
1.4237
0
VERTEX
8
0
10
9.5793
20
1.4237
0
VERTEX
8
0
10
9.5816
20
1.4212
0
VERTEX
8
0
10
9.5856
20
1.4167
42
-0.0090
0
VERTEX
8
0
10
9.6015
20
1.3981
42
-0.0470
0
VERTEX
8
0
10
9.6304
20
1.3585
42
-0.0301
0
VERTEX
8
0
10
9.6362
20
1.3477
42
-0.0912
0
VERTEX
8
0
10
9.6399
20
1.3360
42
-0.1457
0
VERTEX
8
0
10
9.6394
20
1.3300
0
VERTEX
8
0
10
9.6351
20
1.3259
42
-0.1052
0
VERTEX
8
0
10
9.6230
20
1.3262
42
-0.0461
0
VERTEX
8
0
10
9.6002
20
1.3351
42
-0.0207
0
VERTEX
8
0
10
9.5789
20
1.3472
42
-0.0335
0
VERTEX
8
0
10
9.5006
20
1.4063
42
-0.0228
0
VERTEX
8
0
10
9.4297
20
1.4740
42
0.0456
0
VERTEX
8
0
10
9.3258
20
1.5644
42
0.0368
0
VERTEX
8
0
10
9.2675
20
1.6012
42
0.0360
0
VERTEX
8
0
10
9.2362
20
1.6156
42
0.0330
0
VERTEX
8
0
10
9.2198
20
1.6208
42
0.0681
0
VERTEX
8
0
10
9.2028
20
1.6231
42
-0.0657
0
VERTEX
8
0
10
9.1615
20
1.6301
42
-0.0440
0
VERTEX
8
0
10
9.1228
20
1.6463
42
-0.0435
0
VERTEX
8
0
10
9.0873
20
1.6689
42
-0.0595
0
VERTEX
8
0
10
9.0569
20
1.6977
0
VERTEX
8
0
10
9.0550
20
1.7000
0
VERTEX
8
0
10
9.0536
20
1.7017
0
VERTEX
8
0
10
9.0514
20
1.7044
42
-0.0044
0
VERTEX
8
0
10
9.0470
20
1.7099
42
-0.0116
0
VERTEX
8
0
10
9.0387
20
1.7212
42
-0.0642
0
VERTEX
8
0
10
9.0245
20
1.7454
42
-0.1372
0
VERTEX
8
0
10
9.0213
20
1.7589
42
-0.1826
0
VERTEX
8
0
10
9.0235
20
1.7654
42
-0.1346
0
VERTEX
8
0
10
9.0295
20
1.7689
42
-0.0760
0
VERTEX
8
0
10
9.0434
20
1.7692
42
-0.0284
0
VERTEX
8
0
10
9.0571
20
1.7663
42
-0.0312
0
VERTEX
8
0
10
9.1094
20
1.7460
42
-0.0127
0
VERTEX
8
0
10
9.1596
20
1.7208
42
0.0686
0
VERTEX
8
0
10
9.2100
20
1.7003
42
0.0316
0
VERTEX
8
0
10
9.2234
20
1.6977
42
0.0599
0
VERTEX
8
0
10
9.2370
20
1.6972
42
0.1584
0
VERTEX
8
0
10
9.2499
20
1.7012
42
0.2348
0
VERTEX
8
0
10
9.2557
20
1.7129
42
0.1368
0
VERTEX
8
0
10
9.2468
20
1.7266
42
0.0242
0
VERTEX
8
0
10
9.2341
20
1.7364
42
0.0209
0
VERTEX
8
0
10
9.2067
20
1.7530
42
0.0165
0
VERTEX
8
0
10
9.1492
20
1.7813
42
0.0167
0
VERTEX
8
0
10
9.0304
20
1.8295
42
0.0186
0
VERTEX
8
0
10
8.9087
20
1.8696
42
0.0166
0
VERTEX
8
0
10
8.8467
20
1.8857
42
0.0148
0
VERTEX
8
0
10
8.8153
20
1.8919
42
0.0294
0
VERTEX
8
0
10
8.7835
20
1.8957
42
-0.0754
0
VERTEX
8
0
10
8.7607
20
1.9012
42
-0.0540
0
VERTEX
8
0
10
8.7402
20
1.9126
42
-0.0549
0
VERTEX
8
0
10
8.7225
20
1.9280
42
-0.0725
0
VERTEX
8
0
10
8.7089
20
1.9472
0
VERTEX
8
0
10
8.7074
20
1.9505
0
VERTEX
8
0
10
8.7066
20
1.9529
0
VERTEX
8
0
10
8.7056
20
1.9576
42
-0.1001
0
VERTEX
8
0
10
8.7063
20
1.9672
42
-0.1262
0
VERTEX
8
0
10
8.7170
20
1.9830
42
-0.0569
0
VERTEX
8
0
10
8.7331
20
1.9935
42
-0.0333
0
VERTEX
8
0
10
8.7510
20
2.0008
42
-0.0382
0
VERTEX
8
0
10
8.7886
20
2.0096
42
-0.0279
0
VERTEX
8
0
10
8.8270
20
2.0132
42
-0.0646
0
VERTEX
8
0
10
8.9039
20
2.0072
42
-0.0531
0
VERTEX
8
0
10
8.9408
20
1.9960
42
-0.1078
0
VERTEX
8
0
10
8.9731
20
1.9753
42
0.0655
0
VERTEX
8
0
10
9.0083
20
1.9512
42
0.0385
0
VERTEX
8
0
10
9.0479
20
1.9353
42
0.0354
0
VERTEX
8
0
10
9.0894
20
1.9252
42
0.0459
0
VERTEX
8
0
10
9.1319
20
1.9214
42
-0.0482
0
VERTEX
8
0
10
9.1856
20
1.9144
42
-0.0308
0
VERTEX
8
0
10
9.2375
20
1.8987
42
-0.0304
0
VERTEX
8
0
10
9.2871
20
1.8769
42
-0.0504
0
VERTEX
8
0
10
9.3373
20
1.8453
0
VERTEX
8
0
10
9.3465
20
1.8384
42
0.0026
0
VERTEX
8
0
10
9.3568
20
1.8307
42
0.0082
0
VERTEX
8
0
10
9.3777
20
1.8159
42
0.0174
0
VERTEX
8
0
10
9.3992
20
1.8019
42
0.0418
0
VERTEX
8
0
10
9.4220
20
1.7901
42
0.0418
0
VERTEX
8
0
10
9.4341
20
1.7860
42
0.0739
0
VERTEX
8
0
10
9.4468
20
1.7844
42
0.1984
0
VERTEX
8
0
10
9.4694
20
1.7949
42
0.0744
0
VERTEX
8
0
10
9.4822
20
1.8169
42
0.0283
0
VERTEX
8
0
10
9.4897
20
1.8414
42
0.0207
0
VERTEX
8
0
10
9.4990
20
1.8918
42
0.0078
0
VERTEX
8
0
10
9.5052
20
1.9427
42
0.0036
0
VERTEX
8
0
10
9.5145
20
2.0449
42
-0.0202
0
VERTEX
8
0
10
9.5265
20
2.1441
42
-0.0261
0
VERTEX
8
0
10
9.5470
20
2.2420
42
-0.0423
0
VERTEX
8
0
10
9.5793
20
2.3366
42
-0.0330
0
VERTEX
8
0
10
9.6020
20
2.3811
42
-0.0530
0
VERTEX
8
0
10
9.6313
20
2.4215
42
0.0445
0
VERTEX
8
0
10
9.6552
20
2.4542
42
0.0301
0
VERTEX
8
0
10
9.6737
20
2.4901
42
0.0376
0
VERTEX
8
0
10
9.6996
20
2.5667
42
0.0463
0
VERTEX
8
0
10
9.7227
20
2.7266
42
0.0425
0
VERTEX
8
0
10
9.7175
20
2.8881
42
0.0252
0
VERTEX
8
0
10
9.7043
20
2.9679
42
0.0330
0
VERTEX
8
0
10
9.6821
20
3.0466
42
-0.0217
0
VERTEX
8
0
10
9.6740
20
3.0722
42
-0.0513
0
VERTEX
8
0
10
9.6691
20
3.0985
42
-0.1167
0
VERTEX
8
0
10
9.6718
20
3.1251
42
-0.1231
0
VERTEX
8
0
10
9.6868
20
3.1469
42
-0.0585
0
VERTEX
8
0
10
9.7094
20
3.1613
42
-0.0258
0
VERTEX
8
0
10
9.7343
20
3.1713
42
-0.0169
0
VERTEX
8
0
10
9.7859
20
3.1861
42
0.0339
0
VERTEX
8
0
10
9.8445
20
3.2057
42
0.0246
0
VERTEX
8
0
10
9.9001
20
3.2321
42
0.0390
0
VERTEX
8
0
10
10.0033
20
3.2991
42
0.0210
0
VERTEX
8
0
10
10.0506
20
3.3385
42
0.0289
0
VERTEX
8
0
10
10.0939
20
3.3822
42
0.0521
0
VERTEX
8
0
10
10.1307
20
3.4314
42
0.0502
0
VERTEX
8
0
10
10.1443
20
3.4590
42
0.1008
0
VERTEX
8
0
10
10.1504
20
3.4890
42
-0.0599
0
VERTEX
8
0
10
10.1563
20
3.5161
42
-0.0220
0
VERTEX
8
0
10
10.1669
20
3.5417
42
-0.0224
0
VERTEX
8
0
10
10.1930
20
3.5907
42
-0.0330
0
VERTEX
8
0
10
10.2558
20
3.6823
42
0.0454
0
VERTEX
8
0
10
10.3029
20
3.7514
42
0.0738
0
VERTEX
8
0
10
10.3334
20
3.8289
42
0.0588
0
VERTEX
8
0
10
10.3409
20
3.9120
42
0.0277
0
VERTEX
8
0
10
10.3322
20
3.9951
42
-0.0152
0
VERTEX
8
0
10
10.3259
20
4.0413
42
-0.0270
0
VERTEX
8
0
10
10.3230
20
4.0876
42
-0.0965
0
VERTEX
8
0
10
10.3378
20
4.1787
42
-0.0386
0
VERTEX
8
0
10
10.3576
20
4.2206
42
-0.0240
0
VERTEX
8
0
10
10.3830
20
4.2595
42
-0.0196
0
VERTEX
8
0
10
10.4415
20
4.3316
42
0.0150
0
VERTEX
8
0
10
10.4752
20
4.3718
42
0.0263
0
VERTEX
8
0
10
10.5058
20
4.4144
42
0.0563
0
VERTEX
8
0
10
10.5512
20
4.5089
42
0.0283
0
VERTEX
8
0
10
10.5784
20
4.6103
42
0.0121
0
VERTEX
8
0
10
10.5965
20
4.7138
42
0.0074
0
VERTEX
8
0
10
10.6228
20
4.9223
0
VERTEX
8
0
10
10.6448
20
5.1313
42
0.0070
0
VERTEX
8
0
10
10.6564
20
5.2705
42
0.0041
0
VERTEX
8
0
10
10.6647
20
5.4099
42
0.0049
0
VERTEX
8
0
10
10.6757
20
5.6891
42
0.0065
0
VERTEX
8
0
10
10.6840
20
6.2478
42
0.0077
0
VERTEX
8
0
10
10.6774
20
6.8065
42
0.0069
0
VERTEX
8
0
10
10.6668
20
7.0858
42
0.0063
0
VERTEX
8
0
10
10.6581
20
7.2252
42
0.0148
0
VERTEX
8
0
10
10.6446
20
7.3641
42
-0.0444
0
VERTEX
8
0
10
10.6448
20
7.3822
42
-0.0162
0
VERTEX
8
0
10
10.6473
20
7.4001
42
-0.0143
0
VERTEX
8
0
10
10.6548
20
7.4354
42
-0.0122
0
VERTEX
8
0
10
10.6741
20
7.5050
42
-0.0110
0
VERTEX
8
0
10
10.7199
20
7.6420
42
-0.0133
0
VERTEX
8
0
10
10.8255
20
7.9109
42
0.0038
0
VERTEX
8
0
10
10.8900
20
8.0656
42
0.0096
0
VERTEX
8
0
10
10.9513
20
8.2220
42
0.0102
0
VERTEX
8
0
10
10.9792
20
8.3012
42
0.0232
0
VERTEX
8
0
10
11.0026
20
8.3818
42
0.0234
0
VERTEX
8
0
10
11.0109
20
8.4230
42
0.0479
0
VERTEX
8
0
10
11.0141
20
8.4648
42
0.0411
0
VERTEX
8
0
10
11.0123
20
8.4857
42
0.0610
0
VERTEX
8
0
10
11.0065
20
8.5059
42
0.1384
0
VERTEX
8
0
10
10.9802
20
8.5379
42
-0.1723
0
VERTEX
8
0
10
10.9737
20
8.5478
42
-0.0780
0
VERTEX
8
0
10
10.9734
20
8.5597
42
-0.0572
0
VERTEX
8
0
10
10.9802
20
8.5826
42
-0.0425
0
VERTEX
8
0
10
11.0038
20
8.6241
42
-0.0421
0
VERTEX
8
0
10
11.0655
20
8.6972
42
0.0422
0
VERTEX
8
0
10
11.1199
20
8.7605
42
0.0550
0
VERTEX
8
0
10
11.1616
20
8.8327
42
0.0555
0
VERTEX
8
0
10
11.1865
20
8.9123
42
0.0462
0
VERTEX
8
0
10
11.1942
20
8.9954
42
-0.0440
0
VERTEX
8
0
10
11.2027
20
9.0755
42
-0.0333
0
VERTEX
8
0
10
11.2236
20
9.1533
42
-0.0352
0
VERTEX
8
0
10
11.2547
20
9.2276
42
-0.0552
0
VERTEX
8
0
10
11.2973
20
9.2959
42
0.0236
0
VERTEX
8
0
10
11.3293
20
9.3404
42
0.0331
0
VERTEX
8
0
10
11.3563
20
9.3876
42
0.0508
0
VERTEX
8
0
10
11.3758
20
9.4384
42
0.0848
0
VERTEX
8
0
10
11.3826
20
9.4922
42
0.1236
0
VERTEX
8
0
10
11.3683
20
9.5443
42
0.1108
0
VERTEX
8
0
10
11.3312
20
9.5835
42
0.0681
0
VERTEX
8
0
10
11.2819
20
9.6061
42
0.0421
0
VERTEX
8
0
10
11.2285
20
9.6168
0
VERTEX
8
0
10
11.0897
20
9.6328
0
VERTEX
8
0
10
11.2861
20
9.7751
42
0.0094
0
VERTEX
8
0
10
11.3771
20
9.8429
42
0.0103
0
VERTEX
8
0
10
11.4214
20
9.8784
42
0.0214
0
VERTEX
8
0
10
11.4636
20
9.9163
42
0.0462
0
VERTEX
8
0
10
11.5012
20
9.9588
42
0.0393
0
VERTEX
8
0
10
11.5163
20
9.9827
42
0.0528
0
VERTEX
8
0
10
11.5270
20
10.0090
42
0.0947
0
VERTEX
8
0
10
11.5309
20
10.0652
42
0.0399
0
VERTEX
8
0
10
11.5180
20
10.1204
0
VERTEX
8
0
10
11.5158
20
10.1275
42
0.0041
0
VERTEX
8
0
10
11.5121
20
10.1388
42
0.0202
0
VERTEX
8
0
10
11.5055
20
10.1565
42
0.0553
0
VERTEX
8
0
10
11.4969
20
10.1733
42
0.1267
0
VERTEX
8
0
10
11.4836
20
10.1865
42
0.1090
0
VERTEX
8
0
10
11.4656
20
10.1916
42
0.0479
0
VERTEX
8
0
10
11.4467
20
10.1902
42
0.0301
0
VERTEX
8
0
10
11.4103
20
10.1803
42
0.0123
0
VERTEX
8
0
10
11.3397
20
10.1529
0
VERTEX
8
0
10
11.2700
20
10.1233
0
VERTEX
8
0
10
11.2602
20
10.1191
0
VERTEX
8
0
10
11.2514
20
10.1154
0
VERTEX
8
0
10
11.2341
20
10.1082
42
-0.0030
0
VERTEX
8
0
10
11.1991
20
10.0940
42
-0.0051
0
VERTEX
8
0
10
11.1289
20
10.0667
42
-0.0103
0
VERTEX
8
0
10
10.9868
20
10.0165
42
-0.0162
0
VERTEX
8
0
10
10.8424
20
9.9730
42
-0.0193
0
VERTEX
8
0
10
10.7691
20
9.9556
42
-0.0258
0
VERTEX
8
0
10
10.7319
20
9.9497
42
-0.0244
0
VERTEX
8
0
10
10.7131
20
9.9489
42
-0.1334
0
VERTEX
8
0
10
10.7038
20
9.9501
42
-0.1318
0
VERTEX
8
0
10
10.6972
20
9.9563
42
-0.0586
0
VERTEX
8
0
10
10.7002
20
9.9632
42
-0.0127
0
VERTEX
8
0
10
10.7043
20
9.9696
42
-0.0082
0
VERTEX
8
0
10
10.7131
20
9.9819
42
-0.0062
0
VERTEX
8
0
10
10.7315
20
10.0058
42
-0.0044
0
VERTEX
8
0
10
10.7695
20
10.0527
42
-0.0042
0
VERTEX
8
0
10
10.8475
20
10.1451
42
-0.0057
0
VERTEX
8
0
10
11.0069
20
10.3266
42
0.0093
0
VERTEX
8
0
10
11.1992
20
10.5493
42
0.0075
0
VERTEX
8
0
10
11.2919
20
10.6636
42
0.0082
0
VERTEX
8
0
10
11.3366
20
10.7220
42
0.0087
0
VERTEX
8
0
10
11.3581
20
10.7519
42
0.0218
0
VERTEX
8
0
10
11.3742
20
10.7765
42
0.0163
0
VERTEX
8
0
10
11.3838
20
10.7940
42
0.0067
0
VERTEX
8
0
10
11.3888
20
10.8041
42
0.0126
0
VERTEX
8
0
10
11.3979
20
10.8246
42
0.0208
0
VERTEX
8
0
10
11.4131
20
10.8668
42
0.0362
0
VERTEX
8
0
10
11.4337
20
10.9541
42
0.0229
0
VERTEX
8
0
10
11.4389
20
10.9987
42
0.0335
0
VERTEX
8
0
10
11.4397
20
11.0435
42
0.0282
0
VERTEX
8
0
10
11.4375
20
11.0658
42
0.0553
0
VERTEX
8
0
10
11.4322
20
11.0876
42
0.0536
0
VERTEX
8
0
10
11.4275
20
11.0978
42
0.1013
0
VERTEX
8
0
10
11.4202
20
11.1062
42
0.1483
0
VERTEX
8
0
10
11.4099
20
11.1103
42
0.1019
0
VERTEX
8
0
10
11.3989
20
11.1086
42
0.0323
0
VERTEX
8
0
10
11.3815
20
11.0971
42
0.0067
0
VERTEX
8
0
10
11.3649
20
11.0844
42
0.0048
0
VERTEX
8
0
10
11.3326
20
11.0580
42
0.0038
0
VERTEX
8
0
10
11.2689
20
11.0039
42
0.0033
0
VERTEX
8
0
10
11.1433
20
10.8937
42
0.0040
0
VERTEX
8
0
10
10.8954
20
10.6695
42
-0.0035
0
VERTEX
8
0
10
10.7143
20
10.5049
42
-0.0067
0
VERTEX
8
0
10
10.5304
20
10.3435
42
-0.0059
0
VERTEX
8
0
10
10.4367
20
10.2649
42
-0.0108
0
VERTEX
8
0
10
10.3406
20
10.1892
42
-0.0093
0
VERTEX
8
0
10
10.2912
20
10.1532
42
-0.0158
0
VERTEX
8
0
10
10.2402
20
10.1194
42
-0.0346
0
VERTEX
8
0
10
10.1866
20
10.0899
42
-0.0367
0
VERTEX
8
0
10
10.1582
20
10.0787
42
-0.0786
0
VERTEX
8
0
10
10.1282
20
10.0734
0
VERTEX
8
0
10
10.1243
20
10.0742
0
VERTEX
8
0
10
10.1221
20
10.0764
42
-0.1204
0
VERTEX
8
0
10
10.1216
20
10.0827
42
-0.0524
0
VERTEX
8
0
10
10.1257
20
10.0948
42
-0.0291
0
VERTEX
8
0
10
10.1385
20
10.1170
42
-0.0211
0
VERTEX
8
0
10
10.1692
20
10.1581
42
-0.0198
0
VERTEX
8
0
10
10.2376
20
10.2346
42
0.0266
0
VERTEX
8
0
10
10.2924
20
10.3004
42
0.0131
0
VERTEX
8
0
10
10.3414
20
10.3706
42
0.0139
0
VERTEX
8
0
10
10.4308
20
10.5167
42
0.0165
0
VERTEX
8
0
10
10.5899
20
10.8198
42
0.0190
0
VERTEX
8
0
10
10.7288
20
11.1328
42
0.0175
0
VERTEX
8
0
10
10.7877
20
11.2935
42
0.0165
0
VERTEX
8
0
10
10.8122
20
11.3756
42
0.0400
0
VERTEX
8
0
10
10.8295
20
11.4626
42
0.0044
0
VERTEX
8
0
10
10.8304
20
11.4715
42
0.0054
0
VERTEX
8
0
10
10.8313
20
11.4827
42
0.0109
0
VERTEX
8
0
10
10.8323
20
11.5051
42
0.0192
0
VERTEX
8
0
10
10.8316
20
11.5501
42
0.0363
0
VERTEX
8
0
10
10.8206
20
11.6392
42
0.0220
0
VERTEX
8
0
10
10.8101
20
11.6829
42
0.0362
0
VERTEX
8
0
10
10.7951
20
11.7252
42
0.0336
0
VERTEX
8
0
10
10.7850
20
11.7452
42
0.0732
0
VERTEX
8
0
10
10.7716
20
11.7631
42
0.0780
0
VERTEX
8
0
10
10.7627
20
11.7700
42
0.1441
0
VERTEX
8
0
10
10.7520
20
11.7728
42
0.1299
0
VERTEX
8
0
10
10.7415
20
11.7693
42
0.0687
0
VERTEX
8
0
10
10.7333
20
11.7616
42
0.0079
0
VERTEX
8
0
10
10.7006
20
11.7086
0
VERTEX
8
0
10
10.6689
20
11.6549
0
VERTEX
8
0
10
10.6063
20
11.5471
0
VERTEX
8
0
10
10.4823
20
11.3308
42
-0.0168
0
VERTEX
8
0
10
10.1220
20
10.7466
42
-0.0128
0
VERTEX
8
0
10
9.9262
20
10.4648
42
-0.0126
0
VERTEX
8
0
10
9.8219
20
10.3285
42
-0.0124
0
VERTEX
8
0
10
9.7668
20
10.2628
42
-0.0315
0
VERTEX
8
0
10
9.7072
20
10.2011
0
VERTEX
8
0
10
9.7072
20
10.2011
0
VERTEX
8
0
10
9.7054
20
10.1994
0
VERTEX
8
0
10
9.7054
20
10.1994
0
VERTEX
8
0
10
9.7055
20
10.1995
0
VERTEX
8
0
10
9.7031
20
10.1974
0
VERTEX
8
0
10
9.6979
20
10.1927
0
VERTEX
8
0
10
9.6874
20
10.1834
42
-0.0096
0
VERTEX
8
0
10
9.6659
20
10.1652
42
-0.0219
0
VERTEX
8
0
10
9.6435
20
10.1481
42
-0.0277
0
VERTEX
8
0
10
9.6317
20
10.1405
42
-0.1256
0
VERTEX
8
0
10
9.6187
20
10.1354
42
-0.3102
0
VERTEX
8
0
10
9.6122
20
10.1373
42
-0.1297
0
VERTEX
8
0
10
9.6106
20
10.1440
42
-0.0508
0
VERTEX
8
0
10
9.6131
20
10.1578
42
-0.0247
0
VERTEX
8
0
10
9.6230
20
10.1841
42
-0.0137
0
VERTEX
8
0
10
9.6476
20
10.2348
42
-0.0075
0
VERTEX
8
0
10
9.7019
20
10.3334
42
-0.0044
0
VERTEX
8
0
10
9.7586
20
10.4308
42
0.0039
0
VERTEX
8
0
10
9.8163
20
10.5301
42
0.0080
0
VERTEX
8
0
10
9.8719
20
10.6304
42
0.0147
0
VERTEX
8
0
10
9.9234
20
10.7329
42
0.0203
0
VERTEX
8
0
10
9.9678
20
10.8386
42
0.0192
0
VERTEX
8
0
10
10.0035
20
10.9476
42
0.0128
0
VERTEX
8
0
10
10.0316
20
11.0588
42
0.0068
0
VERTEX
8
0
10
10.0550
20
11.1711
42
0.0029
0
VERTEX
8
0
10
10.0760
20
11.2839
42
0.0226
0
VERTEX
8
0
10
10.0999
20
11.4640
42
0.0243
0
VERTEX
8
0
10
10.1073
20
11.6453
42
0.0154
0
VERTEX
8
0
10
10.1040
20
11.7360
42
0.0220
0
VERTEX
8
0
10
10.0945
20
11.8262
42
0.0411
0
VERTEX
8
0
10
10.0755
20
11.9149
42
0.0414
0
VERTEX
8
0
10
10.0595
20
11.9573
42
0.0346
0
VERTEX
8
0
10
10.0485
20
11.9771
42
0.0540
0
VERTEX
8
0
10
10.0345
20
11.9949
42
0.0545
0
VERTEX
8
0
10
10.0294
20
11.9982
0
VERTEX
8
0
10
10.0245
20
11.9999
42
0.1310
0
VERTEX
8
0
10
10.0151
20
11.9982
42
0.0764
0
VERTEX
8
0
10
9.9999
20
11.9865
42
0.0421
0
VERTEX
8
0
10
9.9771
20
11.9554
42
0.0256
0
VERTEX
8
0
10
9.9418
20
11.8868
42
0.0177
0
VERTEX
8
0
10
9.8856
20
11.7431
42
0.0092
0
VERTEX
8
0
10
9.8376
20
11.5964
42
0.0065
0
VERTEX
8
0
10
9.7945
20
11.4482
42
-0.0152
0
VERTEX
8
0
10
9.7422
20
11.2826
42
-0.0108
0
VERTEX
8
0
10
9.6810
20
11.1200
42
-0.0174
0
VERTEX
8
0
10
9.5400
20
10.8025
42
-0.0095
0
VERTEX
8
0
10
9.4612
20
10.6477
42
-0.0122
0
VERTEX
8
0
10
9.3762
20
10.4963
42
-0.0207
0
VERTEX
8
0
10
9.2826
20
10.3500
42
-0.0189
0
VERTEX
8
0
10
9.2306
20
10.2804
42
-0.0414
0
VERTEX
8
0
10
9.1720
20
10.2165
0
VERTEX
8
0
10
9.0425
20
10.0979
0
VERTEX
8
0
10
9.1216
20
10.2222
42
0.0266
0
VERTEX
8
0
10
9.1412
20
10.2587
42
0.0128
0
VERTEX
8
0
10
9.1576
20
10.2966
42
0.0130
0
VERTEX
8
0
10
9.1860
20
10.3743
42
0.0122
0
VERTEX
8
0
10
9.2338
20
10.5325
42
0.0136
0
VERTEX
8
0
10
9.3115
20
10.8540
42
0.0147
0
VERTEX
8
0
10
9.3720
20
11.1791
42
0.0124
0
VERTEX
8
0
10
9.3940
20
11.3430
42
0.0103
0
VERTEX
8
0
10
9.4015
20
11.4253
42
0.0202
0
VERTEX
8
0
10
9.4048
20
11.5124
42
0.0056
0
VERTEX
8
0
10
9.4045
20
11.5322
42
0.0087
0
VERTEX
8
0
10
9.4032
20
11.5629
42
0.0186
0
VERTEX
8
0
10
9.3971
20
11.6241
42
0.0224
0
VERTEX
8
0
10
9.3861
20
11.6846
42
0.0301
0
VERTEX
8
0
10
9.3690
20
11.7437
42
0.0508
0
VERTEX
8
0
10
9.3435
20
11.7996
42
0.0424
0
VERTEX
8
0
10
9.3261
20
11.8248
42
0.0733
0
VERTEX
8
0
10
9.3039
20
11.8460
42
0.1327
0
VERTEX
8
0
10
9.2758
20
11.8577
42
0.1404
0
VERTEX
8
0
10
9.2459
20
11.8525
42
0.0799
0
VERTEX
8
0
10
9.2216
20
11.8340
42
0.0446
0
VERTEX
8
0
10
9.2030
20
11.8095
42
0.0353
0
VERTEX
8
0
10
9.1911
20
11.7863
42
0.0203
0
VERTEX
8
0
10
9.1821
20
11.7619
42
0.0254
0
VERTEX
8
0
10
9.1688
20
11.7114
42
0.0227
0
VERTEX
8
0
10
9.1604
20
11.6600
42
0.0297
0
VERTEX
8
0
10
9.1571
20
11.6079
42
-0.0229
0
VERTEX
8
0
10
9.1539
20
11.5640
42
-0.0108
0
VERTEX
8
0
10
9.1477
20
11.5205
42
-0.0105
0
VERTEX
8
0
10
9.1310
20
11.4343
42
-0.0098
0
VERTEX
8
0
10
9.0896
20
11.2636
42
-0.0108
0
VERTEX
8
0
10
8.9917
20
10.9261
42
-0.0125
0
VERTEX
8
0
10
8.8792
20
10.5933
42
-0.0123
0
VERTEX
8
0
10
8.8155
20
10.4295
42
-0.0127
0
VERTEX
8
0
10
8.7801
20
10.3491
42
-0.0118
0
VERTEX
8
0
10
8.7605
20
10.3098
42
-0.0231
0
VERTEX
8
0
10
8.7386
20
10.2719
42
0.0087
0
VERTEX
8
0
10
8.6995
20
10.2068
42
0.0027
0
VERTEX
8
0
10
8.6620
20
10.1408
42
0.0023
0
VERTEX
8
0
10
8.5885
20
10.0080
0
VERTEX
8
0
10
8.4443
20
9.7407
42
0.0030
0
VERTEX
8
0
10
8.1617
20
9.2032
42
-0.0062
0
VERTEX
8
0
10
7.9561
20
8.8201
42
-0.0049
0
VERTEX
8
0
10
7.7418
20
8.4418
42
-0.0060
0
VERTEX
8
0
10
7.5198
20
8.0679
42
-0.0045
0
VERTEX
8
0
10
7.4052
20
7.8832
42
-0.0087
0
VERTEX
8
0
10
7.2864
20
7.7011
42
0.0098
0
VERTEX
8
0
10
7.0975
20
7.4137
42
0.0092
0
VERTEX
8
0
10
7.0081
20
7.2667
42
0.0154
0
VERTEX
8
0
10
6.9253
20
7.1160
42
0.0262
0
VERTEX
8
0
10
6.8541
20
6.9595
42
0.0419
0
VERTEX
8
0
10
6.8029
20
6.7955
42
0.0508
0
VERTEX
8
0
10
6.7826
20
6.6250
42
0.0223
0
VERTEX
8
0
10
6.7853
20
6.5390
42
0.0177
0
VERTEX
8
0
10
6.7950
20
6.4536
0
VERTEX
8
0
10
6.7957
20
6.4496
0
VERTEX
8
0
10
6.7971
20
6.4395
0
VERTEX
8
0
10
6.7992
20
6.4248
42
-0.0041
0
VERTEX
8
0
10
6.8031
20
6.3955
42
-0.0189
0
VERTEX
8
0
10
6.8089
20
6.3366
42
-0.0220
0
VERTEX
8
0
10
6.8097
20
6.3070
42
-0.0626
0
VERTEX
8
0
10
6.8068
20
6.2776
42
-0.0874
0
VERTEX
8
0
10
6.8017
20
6.2638
42
-0.1803
0
VERTEX
8
0
10
6.7909
20
6.2541
42
-0.1134
0
VERTEX
8
0
10
6.7763
20
6.2529
42
-0.0454
0
VERTEX
8
0
10
6.7621
20
6.2568
42
0.1079
0
VERTEX
8
0
10
6.7448
20
6.2580
42
0.0481
0
VERTEX
8
0
10
6.7281
20
6.2533
42
0.0412
0
VERTEX
8
0
10
6.6972
20
6.2374
42
0.0355
0
VERTEX
8
0
10
6.6419
20
6.1953
42
0.0407
0
VERTEX
8
0
10
6.5468
20
6.0939
0
VERTEX
8
0
10
6.5421
20
6.0882
42
-0.0023
0
VERTEX
8
0
10
6.5379
20
6.0831
0
VERTEX
8
0
10
6.5342
20
6.0787
0
VERTEX
8
0
10
6.5308
20
6.0748
42
-0.0065
0
VERTEX
8
0
10
6.5171
20
6.0595
42
-0.0096
0
VERTEX
8
0
10
6.4886
20
6.0297
42
-0.0124
0
VERTEX
8
0
10
6.4286
20
5.9729
42
-0.0170
0
VERTEX
8
0
10
6.3018
20
5.8670
42
-0.0220
0
VERTEX
8
0
10
6.1678
20
5.7703
42
-0.0260
0
VERTEX
8
0
10
6.0972
20
5.7275
42
-0.0409
0
VERTEX
8
0
10
6.0598
20
5.7100
42
-0.0793
0
VERTEX
8
0
10
6.0399
20
5.7047
42
-0.0505
0
VERTEX
8
0
10
6.0345
20
5.7046
0
VERTEX
8
0
10
6.0296
20
5.7058
0
VERTEX
8
0
10
6.0264
20
5.7092
42
-0.0696
0
VERTEX
8
0
10
6.0249
20
5.7146
42
-0.0321
0
VERTEX
8
0
10
6.0278
20
5.7276
42
-0.0073
0
VERTEX
8
0
10
6.0318
20
5.7404
42
-0.0060
0
VERTEX
8
0
10
6.0406
20
5.7656
42
-0.0044
0
VERTEX
8
0
10
6.0594
20
5.8157
42
-0.0057
0
VERTEX
8
0
10
6.0994
20
5.9150
42
0.0215
0
VERTEX
8
0
10
6.1271
20
5.9917
42
0.0162
0
VERTEX
8
0
10
6.1488
20
6.0704
42
0.0212
0
VERTEX
8
0
10
6.1648
20
6.1505
42
0.0164
0
VERTEX
8
0
10
6.1700
20
6.1909
42
0.0318
0
VERTEX
8
0
10
6.1719
20
6.2317
42
0.0062
0
VERTEX
8
0
10
6.1715
20
6.2421
42
0.0090
0
VERTEX
8
0
10
6.1709
20
6.2510
42
0.0099
0
VERTEX
8
0
10
6.1691
20
6.2667
42
0.0157
0
VERTEX
8
0
10
6.1639
20
6.2982
42
0.0202
0
VERTEX
8
0
10
6.1484
20
6.3602
42
0.0273
0
VERTEX
8
0
10
6.1052
20
6.4805
42
0.0148
0
VERTEX
8
0
10
6.0787
20
6.5386
42
0.0233
0
VERTEX
8
0
10
6.0483
20
6.5949
42
0.0220
0
VERTEX
8
0
10
6.0308
20
6.6216
42
0.0613
0
VERTEX
8
0
10
6.0102
20
6.6460
42
0.1356
0
VERTEX
8
0
10
5.9968
20
6.6548
42
0.2036
0
VERTEX
8
0
10
5.9891
20
6.6550
42
0.1312
0
VERTEX
8
0
10
5.9832
20
6.6497
42
0.0765
0
VERTEX
8
0
10
5.9784
20
6.6345
42
0.0352
0
VERTEX
8
0
10
5.9772
20
6.6185
42
-0.0296
0
VERTEX
8
0
10
5.9743
20
6.5893
42
-0.0167
0
VERTEX
8
0
10
5.9686
20
6.5606
42
-0.0184
0
VERTEX
8
0
10
5.9527
20
6.5044
42
-0.0182
0
VERTEX
8
0
10
5.9118
20
6.3951
42
-0.0207
0
VERTEX
8
0
10
5.8117
20
6.1841
42
-0.0231
0
VERTEX
8
0
10
5.6946
20
5.9820
42
-0.0202
0
VERTEX
8
0
10
5.6282
20
5.8860
42
-0.0179
0
VERTEX
8
0
10
5.5917
20
5.8404
42
-0.0371
0
VERTEX
8
0
10
5.5496
20
5.7970
42
-0.0047
0
VERTEX
8
0
10
5.5136
20
5.7652
42
-0.0194
0
VERTEX
8
0
10
5.4755
20
5.7339
42
-0.0407
0
VERTEX
8
0
10
5.4551
20
5.7200
42
-0.0978
0
VERTEX
8
0
10
5.4439
20
5.7151
42
-0.2350
0
VERTEX
8
0
10
5.4379
20
5.7156
42
-0.1772
0
VERTEX
8
0
10
5.4349
20
5.7208
42
-0.0616
0
VERTEX
8
0
10
5.4358
20
5.7331
42
-0.0195
0
VERTEX
8
0
10
5.4388
20
5.7450
42
-0.0121
0
VERTEX
8
0
10
5.4465
20
5.7684
42
0.0230
0
VERTEX
8
0
10
5.4629
20
5.8241
42
0.0125
0
VERTEX
8
0
10
5.4749
20
5.8806
42
0.0140
0
VERTEX
8
0
10
5.4923
20
5.9949
42
0.0173
0
VERTEX
8
0
10
5.5117
20
6.2253
42
0.0210
0
VERTEX
8
0
10
5.5148
20
6.4564
42
0.0214
0
VERTEX
8
0
10
5.5077
20
6.5718
42
0.0239
0
VERTEX
8
0
10
5.4996
20
6.6290
42
0.0245
0
VERTEX
8
0
10
5.4931
20
6.6572
42
0.0569
0
VERTEX
8
0
10
5.4829
20
6.6841
0
VERTEX
8
0
10
5.4803
20
6.6889
0
VERTEX
8
0
10
5.4786
20
6.6919
0
VERTEX
8
0
10
5.4786
20
6.6919
0
VERTEX
8
0
10
5.4783
20
6.6926
0
VERTEX
8
0
10
5.4782
20
6.6928
0
VERTEX
8
0
10
5.4746
20
6.6991
42
0.0097
0
VERTEX
8
0
10
5.4645
20
6.7163
42
0.0076
0
VERTEX
8
0
10
5.4575
20
6.7273
42
0.0553
0
VERTEX
8
0
10
5.4255
20
6.7684
42
0.0576
0
VERTEX
8
0
10
5.4058
20
6.7852
42
0.1129
0
VERTEX
8
0
10
5.3820
20
6.7955
42
0.1444
0
VERTEX
8
0
10
5.3565
20
6.7928
42
0.0861
0
VERTEX
8
0
10
5.3353
20
6.7780
42
0.0443
0
VERTEX
8
0
10
5.3189
20
6.7578
42
0.0261
0
VERTEX
8
0
10
5.3058
20
6.7354
42
0.0273
0
VERTEX
8
0
10
5.2850
20
6.6877
42
0.0236
0
VERTEX
8
0
10
5.2551
20
6.5880
42
0.0121
0
VERTEX
8
0
10
5.2328
20
6.4863
42
0.0073
0
VERTEX
8
0
10
5.2148
20
6.3838
42
0.0085
0
VERTEX
8
0
10
5.1860
20
6.1775
42
-0.0138
0
VERTEX
8
0
10
5.1489
20
5.9260
42
-0.0128
0
VERTEX
8
0
10
5.1244
20
5.8013
42
-0.0148
0
VERTEX
8
0
10
5.1092
20
5.7395
42
-0.0185
0
VERTEX
8
0
10
5.0999
20
5.7092
42
-0.0199
0
VERTEX
8
0
10
5.0942
20
5.6943
42
-0.0526
0
VERTEX
8
0
10
5.0865
20
5.6805
42
0.0319
0
VERTEX
8
0
10
5.0657
20
5.6488
42
0.0113
0
VERTEX
8
0
10
5.0478
20
5.6154
42
0.0101
0
VERTEX
8
0
10
5.0154
20
5.5471
42
0.0087
0
VERTEX
8
0
10
4.9566
20
5.4078
42
0.0093
0
VERTEX
8
0
10
4.8501
20
5.1247
42
0.0109
0
VERTEX
8
0
10
4.7541
20
4.8379
42
0.0114
0
VERTEX
8
0
10
4.7118
20
4.6927
42
0.0131
0
VERTEX
8
0
10
4.6938
20
4.6193
42
0.0134
0
VERTEX
8
0
10
4.6866
20
4.5822
42
0.0360
0
VERTEX
8
0
10
4.6828
20
4.5447
42
0.0660
0
VERTEX
8
0
10
4.6922
20
4.4740
42
0.0469
0
VERTEX
8
0
10
4.7183
20
4.4076
42
0.0269
0
VERTEX
8
0
10
4.7546
20
4.3460
42
0.0155
0
VERTEX
8
0
10
4.7963
20
4.2879
42
0.0144
0
VERTEX
8
0
10
4.8878
20
4.1780
42
0.0063
0
VERTEX
8
0
10
4.9842
20
4.0723
0
VERTEX
8
0
10
4.9892
20
4.0669
0
VERTEX
8
0
10
4.9940
20
4.0618
0
VERTEX
8
0
10
5.0034
20
4.0516
0
VERTEX
8
0
10
5.0223
20
4.0311
42
-0.0022
0
VERTEX
8
0
10
5.0598
20
3.9899
42
-0.0059
0
VERTEX
8
0
10
5.1335
20
3.9064
42
-0.0115
0
VERTEX
8
0
10
5.2046
20
3.8207
42
-0.0145
0
VERTEX
8
0
10
5.2383
20
3.7764
42
-0.0193
0
VERTEX
8
0
10
5.2539
20
3.7533
42
-0.0285
0
VERTEX
8
0
10
5.2608
20
3.7412
42
-0.0426
0
VERTEX
8
0
10
5.2635
20
3.7348
0
VERTEX
8
0
10
5.2643
20
3.7314
0
VERTEX
8
0
10
5.2635
20
3.7281
42
-0.1263
0
VERTEX
8
0
10
5.2567
20
3.7258
42
-0.0349
0
VERTEX
8
0
10
5.2495
20
3.7259
42
-0.0271
0
VERTEX
8
0
10
5.2353
20
3.7283
42
-0.0200
0
VERTEX
8
0
10
5.2076
20
3.7360
42
-0.0174
0
VERTEX
8
0
10
5.1536
20
3.7560
42
-0.0187
0
VERTEX
8
0
10
5.0484
20
3.8047
42
0.0313
0
VERTEX
8
0
10
4.9353
20
3.8511
42
0.0177
0
VERTEX
8
0
10
4.8178
20
3.8857
42
0.0202
0
VERTEX
8
0
10
4.5777
20
3.9347
42
0.0139
0
VERTEX
8
0
10
4.3348
20
3.9667
42
0.0120
0
VERTEX
8
0
10
4.0905
20
3.9860
42
0.0123
0
VERTEX
8
0
10
3.8456
20
3.9936
42
0.0153
0
VERTEX
8
0
10
3.6006
20
3.9883
42
0.0099
0
VERTEX
8
0
10
3.4784
20
3.9797
42
0.0136
0
VERTEX
8
0
10
3.3567
20
3.9657
42
0.0211
0
VERTEX
8
0
10
3.2361
20
3.9440
42
0.0157
0
VERTEX
8
0
10
3.1767
20
3.9290
42
0.0227
0
VERTEX
8
0
10
3.1186
20
3.9098
42
0.0346
0
VERTEX
8
0
10
3.0913
20
3.8953
42
0.0137
0
VERTEX
8
0
10
3.0656
20
3.8781
42
0.0121
0
VERTEX
8
0
10
3.0165
20
3.8406
42
0.0121
0
VERTEX
8
0
10
2.9224
20
3.7602
42
0.0164
0
VERTEX
8
0
10
2.7443
20
3.5885
42
-0.0347
0
VERTEX
8
0
10
2.5070
20
3.3761
42
-0.0309
0
VERTEX
8
0
10
2.2436
20
3.1971
42
-0.0274
0
VERTEX
8
0
10
1.9607
20
3.0506
42
-0.0243
0
VERTEX
8
0
10
1.6640
20
2.9346
42
0.0077
0
VERTEX
8
0
10
1.5660
20
2.8994
42
0.0042
0
VERTEX
8
0
10
1.4689
20
2.8617
42
0.0049
0
VERTEX
8
0
10
1.2764
20
2.7824
42
0.0061
0
VERTEX
8
0
10
0.8953
20
2.6148
42
0.0073
0
VERTEX
8
0
10
0.5184
20
2.4379
42
0.0078
0
VERTEX
8
0
10
0.3323
20
2.3444
42
0.0095
0
VERTEX
8
0
10
0.2407
20
2.2949
42
0.0117
0
VERTEX
8
0
10
0.1958
20
2.2686
42
0.0436
0
VERTEX
8
0
10
0.1534
20
2.2388
42
0.0695
0
VERTEX
8
0
10
0.1110
20
2.1852
42
0.0479
0
VERTEX
8
0
10
0.0827
20
2.1229
42
0.0868
0
VERTEX
8
0
10
0.0602
20
1.9823
0
VERTEX
8
0
10
0.0602
20
1.9712
0
VERTEX
8
0
10
0.0603
20
1.9604
42
0.0033
0
VERTEX
8
0
10
0.0606
20
1.9389
42
0.0172
0
VERTEX
8
0
10
0.0625
20
1.8960
42
0.0225
0
VERTEX
8
0
10
0.0650
20
1.8747
42
0.0536
0
VERTEX
8
0
10
0.0700
20
1.8538
42
0.0553
0
VERTEX
8
0
10
0.0745
20
1.8441
42
0.0987
0
VERTEX
8
0
10
0.0814
20
1.8360
42
0.1143
0
VERTEX
8
0
10
0.0911
20
1.8316
42
0.0716
0
VERTEX
8
0
10
0.1018
20
1.8314
42
0.0561
0
VERTEX
8
0
10
0.1224
20
1.8374
42
0.0231
0
VERTEX
8
0
10
0.1416
20
1.8469
42
0.0166
0
VERTEX
8
0
10
0.1782
20
1.8695
42
0.0056
0
VERTEX
8
0
10
0.2486
20
1.9187
42
-0.0483
0
VERTEX
8
0
10
0.3163
20
1.9577
42
-0.0337
0
VERTEX
8
0
10
0.3899
20
1.9844
42
-0.0204
0
VERTEX
8
0
10
0.4661
20
2.0024
42
-0.0125
0
VERTEX
8
0
10
0.5434
20
2.0149
42
-0.0120
0
VERTEX
8
0
10
0.6992
20
2.0313
42
-0.0055
0
VERTEX
8
0
10
0.8555
20
2.0418
42
0.0124
0
VERTEX
8
0
10
1.0688
20
2.0605
42
0.0074
0
VERTEX
8
0
10
1.2811
20
2.0883
42
0.0103
0
VERTEX
8
0
10
1.7034
20
2.1596
42
0.0112
0
VERTEX
8
0
10
2.1224
20
2.2482
42
0.0081
0
VERTEX
8
0
10
2.3301
20
2.3001
42
0.0143
0
VERTEX
8
0
10
2.5357
20
2.3600
42
-0.0130
0
VERTEX
8
0
10
2.5839
20
2.3745
42
-0.0310
0
VERTEX
8
0
10
2.6332
20
2.3856
42
-0.0333
0
VERTEX
8
0
10
2.6583
20
2.3883
42
-0.0741
0
VERTEX
8
0
10
2.6835
20
2.3865
42
-0.1481
0
VERTEX
8
0
10
2.7057
20
2.3752
42
-0.1135
0
VERTEX
8
0
10
2.7183
20
2.3536
0
VERTEX
8
0
10
2.7921
20
2.1138
42
0.0119
0
VERTEX
8
0
10
2.8093
20
2.0613
42
0.0220
0
VERTEX
8
0
10
2.8296
20
2.0099
42
0.0679
0
VERTEX
8
0
10
2.8868
20
1.9158
42
0.0294
0
VERTEX
8
0
10
2.9242
20
1.8752
42
0.0210
0
VERTEX
8
0
10
2.9657
20
1.8388
42
0.0222
0
VERTEX
8
0
10
3.0556
20
1.7746
42
0.0102
0
VERTEX
8
0
10
3.1497
20
1.7169
42
0.0050
0
VERTEX
8
0
10
3.2458
20
1.6623
42
0.0034
0
VERTEX
8
0
10
3.4402
20
1.5571
42
0.0110
0
VERTEX
8
0
10
3.7207
20
1.4149
42
0.0151
0
VERTEX
8
0
10
4.0078
20
1.2866
42
0.0097
0
VERTEX
8
0
10
4.1543
20
1.2294
42
0.0122
0
VERTEX
8
0
10
4.3030
20
1.1784
42
0.0161
0
VERTEX
8
0
10
4.4543
20
1.1354
42
0.0225
0
VERTEX
8
0
10
4.6082
20
1.1035
42
-0.0090
0
VERTEX
8
0
10
4.6870
20
1.0885
42
-0.0036
0
VERTEX
8
0
10
4.7654
20
1.0713
42
-0.0036
0
VERTEX
8
0
10
4.9215
20
1.0345
42
-0.0039
0
VERTEX
8
0
10
5.2325
20
0.9557
42
-0.0034
0
VERTEX
8
0
10
5.5424
20
0.8724
42
-0.0054
0
VERTEX
8
0
10
5.8509
20
0.7844
42
-0.0084
0
VERTEX
8
0
10
7.3340
20
0.3233
42
0.0146
0
VERTEX
8
0
10
7.8144
20
0.1832
42
0.0089
0
VERTEX
8
0
10
8.0575
20
0.1239
42
0.0073
0
VERTEX
8
0
10
8.1800
20
0.0981
42
0.0157
0
VERTEX
8
0
10
8.3031
20
0.0769
42
-0.0035
0
VERTEX
8
0
10
8.4990
20
0.0485
42
-0.0026
0
VERTEX
8
0
10
8.5966
20
0.0333
42
-0.0045
0
VERTEX
8
0
10
8.6454
20
0.0250
42
-0.0055
0
VERTEX
8
0
10
8.6697
20
0.0206
42
-0.0066
0
VERTEX
8
0
10
8.6818
20
0.0181
0
SEQEND
8
0
0
POLYLINE
8
Layer 1
66
1
0
VERTEX
8
0
10
8.3925
20
0.2446
42
-0.1204
0
VERTEX
8
0
10
8.3861
20
0.2387
42
-0.0500
0
VERTEX
8
0
10
8.3779
20
0.2356
42
-0.0360
0
VERTEX
8
0
10
8.3607
20
0.2327
42
-0.0180
0
VERTEX
8
0
10
8.3257
20
0.2314
42
-0.0465
0
VERTEX
8
0
10
8.2710
20
0.2357
42
-0.0802
0
VERTEX
8
0
10
8.2187
20
0.2520
42
-0.0599
0
VERTEX
8
0
10
8.1956
20
0.2668
42
-0.0757
0
VERTEX
8
0
10
8.1772
20
0.2870
42
-0.0788
0
VERTEX
8
0
10
8.1658
20
0.3119
42
-0.0647
0
VERTEX
8
0
10
8.1622
20
0.3391
42
-0.2179
0
VERTEX
8
0
10
8.1729
20
0.3666
42
-0.0870
0
VERTEX
8
0
10
8.1857
20
0.3749
42
-0.0570
0
VERTEX
8
0
10
8.2003
20
0.3790
42
-0.0633
0
VERTEX
8
0
10
8.2308
20
0.3790
42
-0.0426
0
VERTEX
8
0
10
8.2605
20
0.3724
42
-0.0692
0
VERTEX
8
0
10
8.3155
20
0.3462
42
-0.0759
0
VERTEX
8
0
10
8.3610
20
0.3059
0
VERTEX
8
0
10
8.3633
20
0.3031
0
VERTEX
8
0
10
8.3649
20
0.3012
0
VERTEX
8
0
10
8.3676
20
0.2978
42
-0.0051
0
VERTEX
8
0
10
8.3730
20
0.2909
42
-0.0205
0
VERTEX
8
0
10
8.3833
20
0.2767
42
-0.0604
0
VERTEX
8
0
10
8.3918
20
0.2615
42
-0.0821
0
VERTEX
8
0
10
8.3940
20
0.2530
42
-0.1709
0
VERTEX
8
0
10
8.3925
20
0.2446
0
SEQEND
8
0
0
POLYLINE
8
Layer 1
66
1
0
VERTEX
8
0
10
8.1936
20
0.4434
42
-0.1192
0
VERTEX
8
0
10
8.1872
20
0.4375
42
-0.0500
0
VERTEX
8
0
10
8.1791
20
0.4344
42
-0.0358
0
VERTEX
8
0
10
8.1618
20
0.4315
42
-0.0180
0
VERTEX
8
0
10
8.1268
20
0.4302
42
-0.0464
0
VERTEX
8
0
10
8.0721
20
0.4345
42
-0.0807
0
VERTEX
8
0
10
8.0199
20
0.4508
42
-0.0597
0
VERTEX
8
0
10
7.9968
20
0.4656
42
-0.0757
0
VERTEX
8
0
10
7.9783
20
0.4859
42
-0.0791
0
VERTEX
8
0
10
7.9669
20
0.5107
42
-0.0646
0
VERTEX
8
0
10
7.9634
20
0.5379
42
-0.2188
0
VERTEX
8
0
10
7.9741
20
0.5655
42
-0.0864
0
VERTEX
8
0
10
7.9869
20
0.5737
42
-0.0565
0
VERTEX
8
0
10
8.0015
20
0.5778
42
-0.0633
0
VERTEX
8
0
10
8.0320
20
0.5779
42
-0.0423
0
VERTEX
8
0
10
8.0617
20
0.5712
42
-0.0680
0
VERTEX
8
0
10
8.1166
20
0.5451
42
-0.0760
0
VERTEX
8
0
10
8.1622
20
0.5048
0
VERTEX
8
0
10
8.1645
20
0.5019
0
VERTEX
8
0
10
8.1661
20
0.5000
0
VERTEX
8
0
10
8.1688
20
0.4966
42
-0.0051
0
VERTEX
8
0
10
8.1742
20
0.4898
42
-0.0197
0
VERTEX
8
0
10
8.1845
20
0.4756
42
-0.0596
0
VERTEX
8
0
10
8.1929
20
0.4603
42
-0.0819
0
VERTEX
8
0
10
8.1952
20
0.4518
42
-0.1719
0
VERTEX
8
0
10
8.1936
20
0.4434
0
SEQEND
8
0
0
POLYLINE
8
Layer 1
66
1
0
VERTEX
8
0
10
8.2505
20
0.6416
42
-0.0991
0
VERTEX
8
0
10
8.2385
20
0.6458
0
VERTEX
8
0
10
8.2346
20
0.6507
42
-0.1692
0
VERTEX
8
0
10
8.2379
20
0.6559
42
-0.0535
0
VERTEX
8
0
10
8.2492
20
0.6619
42
-0.0513
0
VERTEX
8
0
10
8.2797
20
0.6699
42
-0.0370
0
VERTEX
8
0
10
8.3113
20
0.6723
42
-0.0394
0
VERTEX
8
0
10
8.3429
20
0.6699
42
-0.0636
0
VERTEX
8
0
10
8.3734
20
0.6619
0
VERTEX
8
0
10
8.3734
20
0.6619
0
VERTEX
8
0
10
8.3754
20
0.6611
0
VERTEX
8
0
10
8.3754
20
0.6611
0
VERTEX
8
0
10
8.3753
20
0.6612
0
VERTEX
8
0
10
8.3752
20
0.6612
0
VERTEX
8
0
10
8.3783
20
0.6598
42
-0.0466
0
VERTEX
8
0
10
8.3837
20
0.6567
0
VERTEX
8
0
10
8.3878
20
0.6520
42
-0.2597
0
VERTEX
8
0
10
8.3854
20
0.6467
42
-0.0679
0
VERTEX
8
0
10
8.3738
20
0.6420
42
-0.0226
0
VERTEX
8
0
10
8.3615
20
0.6397
42
-0.0277
0
VERTEX
8
0
10
8.3113
20
0.6369
0
VERTEX
8
0
10
8.3078
20
0.6369
0
VERTEX
8
0
10
8.3078
20
0.6369
0
VERTEX
8
0
10
8.3072
20
0.6369
0
VERTEX
8
0
10
8.3094
20
0.6369
0
VERTEX
8
0
10
8.3094
20
0.6369
0
VERTEX
8
0
10
8.3092
20
0.6369
0
VERTEX
8
0
10
8.3048
20
0.6369
0
VERTEX
8
0
10
8.3016
20
0.6370
42
-0.0079
0
VERTEX
8
0
10
8.2888
20
0.6373
42
-0.0248
0
VERTEX
8
0
10
8.2632
20
0.6394
42
-0.0265
0
VERTEX
8
0
10
8.2505
20
0.6416
0
SEQEND
8
0
0
POLYLINE
8
Layer 1
66
1
0
VERTEX
8
0
10
8.2178
20
0.7531
42
-0.0061
0
VERTEX
8
0
10
8.2020
20
0.7475
42
-0.0219
0
VERTEX
8
0
10
8.1698
20
0.7379
42
-0.0443
0
VERTEX
8
0
10
8.1367
20
0.7320
42
-0.0856
0
VERTEX
8
0
10
8.1033
20
0.7338
42
-0.0981
0
VERTEX
8
0
10
8.0729
20
0.7477
42
-0.0581
0
VERTEX
8
0
10
8.0490
20
0.7711
42
-0.0277
0
VERTEX
8
0
10
8.0297
20
0.7987
42
-0.0130
0
VERTEX
8
0
10
8.0131
20
0.8279
0
VERTEX
8
0
10
8.0110
20
0.8318
0
VERTEX
8
0
10
8.0097
20
0.8343
42
-0.0023
0
VERTEX
8
0
10
8.0070
20
0.8393
42
-0.0051
0
VERTEX
8
0
10
8.0019
20
0.8494
42
-0.0238
0
VERTEX
8
0
10
7.9927
20
0.8701
42
-0.0763
0
VERTEX
8
0
10
7.9866
20
0.8918
42
-0.0963
0
VERTEX
8
0
10
7.9869
20
0.9030
42
-0.1397
0
VERTEX
8
0
10
7.9921
20
0.9129
42
-0.0855
0
VERTEX
8
0
10
8.0015
20
0.9191
42
-0.0413
0
VERTEX
8
0
10
8.0122
20
0.9226
42
-0.0310
0
VERTEX
8
0
10
8.0346
20
0.9259
42
-0.0165
0
VERTEX
8
0
10
8.0798
20
0.9273
0
VERTEX
8
0
10
8.0822
20
0.9272
0
VERTEX
8
0
10
8.0822
20
0.9272
0
VERTEX
8
0
10
8.0827
20
0.9272
0
VERTEX
8
0
10
8.0826
20
0.9272
0
VERTEX
8
0
10
8.0815
20
0.9273
0
VERTEX
8
0
10
8.0852
20
0.9272
0
VERTEX
8
0
10
8.0878
20
0.9272
42
-0.0090
0
VERTEX
8
0
10
8.0980
20
0.9267
42
-0.0174
0
VERTEX
8
0
10
8.1184
20
0.9247
42
-0.0360
0
VERTEX
8
0
10
8.1584
20
0.9164
42
-0.0898
0
VERTEX
8
0
10
8.2323
20
0.8821
42
-0.0732
0
VERTEX
8
0
10
8.2625
20
0.8547
42
-0.0570
0
VERTEX
8
0
10
8.2738
20
0.8377
42
-0.0883
0
VERTEX
8
0
10
8.2803
20
0.8183
42
-0.2202
0
VERTEX
8
0
10
8.2683
20
0.7807
42
-0.0651
0
VERTEX
8
0
10
8.2524
20
0.7679
42
-0.0417
0
VERTEX
8
0
10
8.2339
20
0.7591
0
VERTEX
8
0
10
8.2257
20
0.7560
42
-0.0026
0
VERTEX
8
0
10
8.2178
20
0.7531
0
SEQEND
8
0
0
POLYLINE
8
Layer 1
66
1
0
VERTEX
8
0
10
8.3415
20
0.8568
0
VERTEX
8
0
10
8.3403
20
0.8599
0
VERTEX
8
0
10
8.3393
20
0.8623
0
VERTEX
8
0
10
8.3381
20
0.8655
0
VERTEX
8
0
10
8.3358
20
0.8718
42
-0.0025
0
VERTEX
8
0
10
8.3311
20
0.8844
42
-0.0141
0
VERTEX
8
0
10
8.3225
20
0.9100
42
-0.0440
0
VERTEX
8
0
10
8.3162
20
0.9361
42
-0.0589
0
VERTEX
8
0
10
8.3154
20
0.9495
42
-0.1420
0
VERTEX
8
0
10
8.3190
20
0.9623
42
-0.1410
0
VERTEX
8
0
10
8.3292
20
0.9707
42
-0.0597
0
VERTEX
8
0
10
8.3422
20
0.9739
42
-0.0352
0
VERTEX
8
0
10
8.3691
20
0.9742
42
-0.0133
0
VERTEX
8
0
10
8.4226
20
0.9680
42
-0.1233
0
VERTEX
8
0
10
8.5018
20
0.9346
42
-0.0762
0
VERTEX
8
0
10
8.5325
20
0.9042
42
-0.1224
0
VERTEX
8
0
10
8.5505
20
0.8651
42
-0.1282
0
VERTEX
8
0
10
8.5495
20
0.8283
42
-0.1462
0
VERTEX
8
0
10
8.5291
20
0.7975
42
-0.1005
0
VERTEX
8
0
10
8.4958
20
0.7810
42
-0.0732
0
VERTEX
8
0
10
8.4587
20
0.7772
42
-0.1363
0
VERTEX
8
0
10
8.3881
20
0.7996
42
-0.1613
0
VERTEX
8
0
10
8.3415
20
0.8568
0
SEQEND
8
0
0
POLYLINE
8
Layer 1
66
1
0
VERTEX
8
0
10
8.3491
20
1.0405
42
-0.0241
0
VERTEX
8
0
10
8.2733
20
1.0376
42
-0.0286
0
VERTEX
8
0
10
8.2355
20
1.0397
42
-0.0600
0
VERTEX
8
0
10
8.1984
20
1.0473
42
-0.1191
0
VERTEX
8
0
10
8.1658
20
1.0660
42
-0.1012
0
VERTEX
8
0
10
8.1456
20
1.0977
42
-0.0562
0
VERTEX
8
0
10
8.1400
20
1.1175
42
-0.0911
0
VERTEX
8
0
10
8.1399
20
1.1379
42
-0.1068
0
VERTEX
8
0
10
8.1477
20
1.1568
42
-0.0754
0
VERTEX
8
0
10
8.1621
20
1.1713
42
-0.0655
0
VERTEX
8
0
10
8.1988
20
1.1896
42
-0.0286
0
VERTEX
8
0
10
8.2385
20
1.2001
0
VERTEX
8
0
10
8.4796
20
1.2499
42
-0.0177
0
VERTEX
8
0
10
8.4896
20
1.2515
42
-0.0164
0
VERTEX
8
0
10
8.4994
20
1.2525
42
-0.0280
0
VERTEX
8
0
10
8.5191
20
1.2526
42
-0.0425
0
VERTEX
8
0
10
8.5579
20
1.2469
42
-0.0685
0
VERTEX
8
0
10
8.6310
20
1.2184
42
-0.0391
0
VERTEX
8
0
10
8.6638
20
1.1968
42
-0.0623
0
VERTEX
8
0
10
8.6921
20
1.1696
42
-0.0507
0
VERTEX
8
0
10
8.7031
20
1.1534
42
-0.0862
0
VERTEX
8
0
10
8.7099
20
1.1350
42
-0.1293
0
VERTEX
8
0
10
8.7089
20
1.1156
42
-0.1118
0
VERTEX
8
0
10
8.6985
20
1.0991
42
-0.0610
0
VERTEX
8
0
10
8.6910
20
1.0946
42
-0.0181
0
VERTEX
8
0
10
8.6828
20
1.0915
42
-0.0142
0
VERTEX
8
0
10
8.6660
20
1.0865
42
-0.0118
0
VERTEX
8
0
10
8.6320
20
1.0786
42
-0.0110
0
VERTEX
8
0
10
8.5632
20
1.0660
42
-0.0129
0
VERTEX
8
0
10
8.4245
20
1.0475
42
-0.0093
0
VERTEX
8
0
10
8.3491
20
1.0405
0
SEQEND
8
0
0
POLYLINE
8
Layer 1
66
1
0
VERTEX
8
0
10
8.5614
20
0.9856
42
-0.0961
0
VERTEX
8
0
10
8.5695
20
0.9977
42
-0.0645
0
VERTEX
8
0
10
8.5812
20
1.0065
42
-0.0650
0
VERTEX
8
0
10
8.6088
20
1.0162
42
-0.0346
0
VERTEX
8
0
10
8.6379
20
1.0199
42
-0.0379
0
VERTEX
8
0
10
8.6965
20
1.0175
42
-0.0633
0
VERTEX
8
0
10
8.7740
20
0.9998
42
-0.0651
0
VERTEX
8
0
10
8.8098
20
0.9825
42
-0.0753
0
VERTEX
8
0
10
8.8251
20
0.9698
42
-0.0741
0
VERTEX
8
0
10
8.8308
20
0.9617
42
-0.1225
0
VERTEX
8
0
10
8.8332
20
0.9521
0
VERTEX
8
0
10
8.8328
20
0.9473
0
VERTEX
8
0
10
8.8318
20
0.9432
42
-0.0572
0
VERTEX
8
0
10
8.8282
20
0.9356
42
-0.0709
0
VERTEX
8
0
10
8.8171
20
0.9231
42
-0.0629
0
VERTEX
8
0
10
8.7885
20
0.9058
42
-0.0610
0
VERTEX
8
0
10
8.7239
20
0.8877
42
-0.0669
0
VERTEX
8
0
10
8.6569
20
0.8855
42
-0.0594
0
VERTEX
8
0
10
8.6240
20
0.8921
42
-0.0494
0
VERTEX
8
0
10
8.6086
20
0.8987
42
-0.0757
0
VERTEX
8
0
10
8.5951
20
0.9086
0
VERTEX
8
0
10
8.5921
20
0.9115
0
VERTEX
8
0
10
8.5896
20
0.9142
42
-0.0094
0
VERTEX
8
0
10
8.5847
20
0.9196
42
-0.0228
0
VERTEX
8
0
10
8.5755
20
0.9311
42
-0.0884
0
VERTEX
8
0
10
8.5617
20
0.9568
42
-0.0791
0
VERTEX
8
0
10
8.5590
20
0.9712
42
-0.1056
0
VERTEX
8
0
10
8.5614
20
0.9856
0
SEQEND
8
0
0
POLYLINE
8
Layer 1
66
1
0
VERTEX
8
0
10
8.7742
20
1.1253
42
-0.0278
0
VERTEX
8
0
10
8.7386
20
1.1782
42
-0.0219
0
VERTEX
8
0
10
8.7234
20
1.2062
42
-0.0396
0
VERTEX
8
0
10
8.7112
20
1.2357
42
-0.0351
0
VERTEX
8
0
10
8.7072
20
1.2511
42
-0.0662
0
VERTEX
8
0
10
8.7059
20
1.2670
42
-0.1387
0
VERTEX
8
0
10
8.7102
20
1.2823
42
-0.1587
0
VERTEX
8
0
10
8.7223
20
1.2923
0
VERTEX
8
0
10
8.7272
20
1.2944
0
VERTEX
8
0
10
8.7315
20
1.2965
42
0.0625
0
VERTEX
8
0
10
8.7397
20
1.3016
0
VERTEX
8
0
10
8.7429
20
1.3051
0
VERTEX
8
0
10
8.7436
20
1.3097
0
VERTEX
8
0
10
8.7405
20
1.3132
0
VERTEX
8
0
10
8.7362
20
1.3153
42
0.0454
0
VERTEX
8
0
10
8.7174
20
1.3194
42
0.0178
0
VERTEX
8
0
10
8.6983
20
1.3210
42
-0.0861
0
VERTEX
8
0
10
8.6557
20
1.3326
42
-0.0533
0
VERTEX
8
0
10
8.6180
20
1.3561
42
-0.0490
0
VERTEX
8
0
10
8.5858
20
1.3867
42
-0.0582
0
VERTEX
8
0
10
8.5605
20
1.4231
0
VERTEX
8
0
10
8.5586
20
1.4267
0
VERTEX
8
0
10
8.5571
20
1.4294
42
-0.0032
0
VERTEX
8
0
10
8.5543
20
1.4350
42
-0.0092
0
VERTEX
8
0
10
8.5488
20
1.4463
42
-0.0388
0
VERTEX
8
0
10
8.5395
20
1.4697
42
-0.1134
0
VERTEX
8
0
10
8.5359
20
1.4944
42
-0.1706
0
VERTEX
8
0
10
8.5462
20
1.5168
42
-0.0709
0
VERTEX
8
0
10
8.5669
20
1.5309
42
-0.0259
0
VERTEX
8
0
10
8.5902
20
1.5403
42
-0.0157
0
VERTEX
8
0
10
8.6386
20
1.5541
42
-0.0909
0
VERTEX
8
0
10
8.7188
20
1.5608
42
-0.0587
0
VERTEX
8
0
10
8.7583
20
1.5525
42
-0.0722
0
VERTEX
8
0
10
8.7944
20
1.5347
42
-0.1842
0
VERTEX
8
0
10
8.8411
20
1.4708
42
-0.0839
0
VERTEX
8
0
10
8.8447
20
1.4307
42
-0.0650
0
VERTEX
8
0
10
8.8359
20
1.3913
42
0.2541
0
VERTEX
8
0
10
8.8371
20
1.3685
42
0.0889
0
VERTEX
8
0
10
8.8454
20
1.3599
42
0.0479
0
VERTEX
8
0
10
8.8558
20
1.3541
42
0.0431
0
VERTEX
8
0
10
8.8786
20
1.3470
42
0.0231
0
VERTEX
8
0
10
8.9023
20
1.3433
42
0.0218
0
VERTEX
8
0
10
8.9501
20
1.3407
42
0.0133
0
VERTEX
8
0
10
8.9980
20
1.3416
42
-0.0159
0
VERTEX
8
0
10
9.0474
20
1.3425
42
-0.0312
0
VERTEX
8
0
10
9.0969
20
1.3394
42
-0.0289
0
VERTEX
8
0
10
9.1214
20
1.3352
42
-0.0580
0
VERTEX
8
0
10
9.1449
20
1.3275
42
-0.0521
0
VERTEX
8
0
10
9.1557
20
1.3213
42
-0.0874
0
VERTEX
8
0
10
9.1645
20
1.3127
42
-0.1979
0
VERTEX
8
0
10
9.1692
20
1.2891
42
0.0919
0
VERTEX
8
0
10
9.1698
20
1.2704
42
0.0551
0
VERTEX
8
0
10
9.1761
20
1.2527
42
0.0609
0
VERTEX
8
0
10
9.1972
20
1.2217
42
0.0861
0
VERTEX
8
0
10
9.2562
20
1.1755
42
-0.0534
0
VERTEX
8
0
10
9.3143
20
1.1365
42
-0.0474
0
VERTEX
8
0
10
9.3394
20
1.1121
42
-0.0497
0
VERTEX
8
0
10
9.3496
20
1.0979
42
-0.0483
0
VERTEX
8
0
10
9.3534
20
1.0901
42
-0.0960
0
VERTEX
8
0
10
9.3551
20
1.0815
0
VERTEX
8
0
10
9.3545
20
1.0771
0
VERTEX
8
0
10
9.3534
20
1.0744
0
VERTEX
8
0
10
9.3498
20
1.0699
42
-0.0792
0
VERTEX
8
0
10
9.3398
20
1.0641
42
-0.0544
0
VERTEX
8
0
10
9.3171
20
1.0592
42
-0.0372
0
VERTEX
8
0
10
9.2706
20
1.0593
42
-0.0356
0
VERTEX
8
0
10
9.1787
20
1.0745
42
-0.0346
0
VERTEX
8
0
10
9.0898
20
1.1018
42
-0.0250
0
VERTEX
8
0
10
9.0471
20
1.1205
42
-0.0477
0
VERTEX
8
0
10
9.0072
20
1.1443
0
VERTEX
8
0
10
9.0038
20
1.1468
0
VERTEX
8
0
10
9.0008
20
1.1489
42
0.0069
0
VERTEX
8
0
10
8.9947
20
1.1530
42
0.0492
0
VERTEX
8
0
10
8.9821
20
1.1604
0
VERTEX
8
0
10
8.9787
20
1.1617
0
VERTEX
8
0
10
8.9751
20
1.1618
0
VERTEX
8
0
10
8.9744
20
1.1584
0
VERTEX
8
0
10
8.9757
20
1.1550
42
0.0305
0
VERTEX
8
0
10
8.9832
20
1.1424
42
0.0172
0
VERTEX
8
0
10
9.0196
20
1.0965
42
-0.0256
0
VERTEX
8
0
10
9.0692
20
1.0321
42
-0.0225
0
VERTEX
8
0
10
9.0911
20
0.9979
42
-0.0257
0
VERTEX
8
0
10
9.1006
20
0.9799
42
-0.0283
0
VERTEX
8
0
10
9.1044
20
0.9705
42
-0.0995
0
VERTEX
8
0
10
9.1066
20
0.9606
42
-0.1637
0
VERTEX
8
0
10
9.1016
20
0.9495
42
-0.0661
0
VERTEX
8
0
10
9.0918
20
0.9421
42
-0.0555
0
VERTEX
8
0
10
9.0687
20
0.9331
42
-0.0600
0
VERTEX
8
0
10
9.0196
20
0.9273
42
-0.0208
0
VERTEX
8
0
10
9.0092
20
0.9282
42
-0.0303
0
VERTEX
8
0
10
9.0006
20
0.9298
42
-0.0267
0
VERTEX
8
0
10
8.9856
20
0.9348
42
-0.0348
0
VERTEX
8
0
10
8.9570
20
0.9490
42
-0.0346
0
VERTEX
8
0
10
8.9051
20
0.9861
42
-0.0386
0
VERTEX
8
0
10
8.8143
20
1.0756
42
-0.0194
0
VERTEX
8
0
10
8.7742
20
1.1253
0
SEQEND
8
0
0
POLYLINE
8
Layer 1
66
1
0
VERTEX
8
0
10
8.9497
20
1.4340
42
-0.0929
0
VERTEX
8
0
10
8.9226
20
1.4483
42
-0.0923
0
VERTEX
8
0
10
8.9122
20
1.4595
42
-0.1509
0
VERTEX
8
0
10
8.9078
20
1.4740
42
-0.1708
0
VERTEX
8
0
10
8.9163
20
1.4990
42
-0.1106
0
VERTEX
8
0
10
8.9377
20
1.5146
42
-0.0644
0
VERTEX
8
0
10
8.9635
20
1.5214
42
-0.0480
0
VERTEX
8
0
10
8.9902
20
1.5220
42
-0.0979
0
VERTEX
8
0
10
9.0417
20
1.5085
42
-0.0638
0
VERTEX
8
0
10
9.0642
20
1.4941
42
-0.0839
0
VERTEX
8
0
10
9.0817
20
1.4740
42
-0.3055
0
VERTEX
8
0
10
9.0832
20
1.4489
42
-0.0925
0
VERTEX
8
0
10
9.0740
20
1.4394
42
-0.0513
0
VERTEX
8
0
10
9.0624
20
1.4330
42
-0.0548
0
VERTEX
8
0
10
9.0367
20
1.4262
42
-0.0360
0
VERTEX
8
0
10
9.0101
20
1.4243
42
-0.0930
0
VERTEX
8
0
10
8.9497
20
1.4340
0
SEQEND
8
0
0
POLYLINE
8
Layer 1
66
1
0
VERTEX
8
0
10
8.9575
20
1.5734
42
-0.0445
0
VERTEX
8
0
10
8.9411
20
1.5746
42
-0.1006
0
VERTEX
8
0
10
8.9254
20
1.5795
42
-0.1184
0
VERTEX
8
0
10
8.9190
20
1.5847
42
-0.1806
0
VERTEX
8
0
10
8.9166
20
1.5924
42
-0.1098
0
VERTEX
8
0
10
8.9192
20
1.6001
42
-0.0551
0
VERTEX
8
0
10
8.9243
20
1.6066
42
-0.4128
0
VERTEX
8
0
10
8.9906
20
1.6066
42
-0.0672
0
VERTEX
8
0
10
8.9958
20
1.6002
42
-0.1389
0
VERTEX
8
0
10
8.9984
20
1.5924
42
-0.1717
0
VERTEX
8
0
10
8.9959
20
1.5847
42
-0.0921
0
VERTEX
8
0
10
8.9896
20
1.5795
42
-0.0712
0
VERTEX
8
0
10
8.9739
20
1.5746
42
-0.0364
0
VERTEX
8
0
10
8.9575
20
1.5734
0
SEQEND
8
0
0
POLYLINE
8
Layer 1
66
1
0
VERTEX
8
0
10
8.8581
20
1.7225
42
-0.4126
0
VERTEX
8
0
10
8.8084
20
1.7722
42
-0.4126
0
VERTEX
8
0
10
8.8581
20
1.8220
42
-0.4125
0
VERTEX
8
0
10
8.9078
20
1.7722
42
-0.4125
0
VERTEX
8
0
10
8.8581
20
1.7225
0
SEQEND
8
0
0
POLYLINE
8
Layer 1
66
1
0
VERTEX
8
0
10
8.6855
20
1.6461
42
-0.2058
0
VERTEX
8
0
10
8.6826
20
1.6329
42
-0.0693
0
VERTEX
8
0
10
8.6723
20
1.6234
42
-0.0282
0
VERTEX
8
0
10
8.6602
20
1.6164
42
-0.0226
0
VERTEX
8
0
10
8.6345
20
1.6052
42
-0.0077
0
VERTEX
8
0
10
8.5946
20
1.5903
42
-0.0120
0
VERTEX
8
0
10
8.5746
20
1.5835
42
-0.0298
0
VERTEX
8
0
10
8.5542
20
1.5780
42
-0.0897
0
VERTEX
8
0
10
8.5332
20
1.5764
42
-0.1449
0
VERTEX
8
0
10
8.5139
20
1.5844
42
-0.0533
0
VERTEX
8
0
10
8.5000
20
1.6002
42
-0.0119
0
VERTEX
8
0
10
8.4885
20
1.6179
42
-0.1978
0
VERTEX
8
0
10
8.4822
20
1.6446
42
-0.0934
0
VERTEX
8
0
10
8.4871
20
1.6577
42
-0.0655
0
VERTEX
8
0
10
8.4961
20
1.6685
42
-0.0745
0
VERTEX
8
0
10
8.5198
20
1.6834
42
-0.0494
0
VERTEX
8
0
10
8.5467
20
1.6918
42
-0.0860
0
VERTEX
8
0
10
8.6027
20
1.6936
42
-0.1100
0
VERTEX
8
0
10
8.6555
20
1.6752
0
VERTEX
8
0
10
8.6590
20
1.6729
0
VERTEX
8
0
10
8.6619
20
1.6710
42
-0.0124
0
VERTEX
8
0
10
8.6676
20
1.6670
42
-0.0495
0
VERTEX
8
0
10
8.6782
20
1.6579
42
-0.1539
0
VERTEX
8
0
10
8.6855
20
1.6461
0
SEQEND
8
0
0
POLYLINE
8
Layer 1
66
1
0
VERTEX
8
0
10
8.5816
20
1.7988
42
-0.0675
0
VERTEX
8
0
10
8.5170
20
1.7805
42
-0.0273
0
VERTEX
8
0
10
8.4829
20
1.7771
42
-0.0712
0
VERTEX
8
0
10
8.4487
20
1.7790
42
-0.0900
0
VERTEX
8
0
10
8.4325
20
1.7846
42
-0.1665
0
VERTEX
8
0
10
8.4207
20
1.7967
42
-0.1157
0
VERTEX
8
0
10
8.4181
20
1.8134
42
-0.0534
0
VERTEX
8
0
10
8.4217
20
1.8302
42
-0.1001
0
VERTEX
8
0
10
8.4374
20
1.8566
42
-0.0723
0
VERTEX
8
0
10
8.4614
20
1.8757
42
-0.0993
0
VERTEX
8
0
10
8.5196
20
1.8944
42
-0.0525
0
VERTEX
8
0
10
8.5503
20
1.8949
42
-0.0684
0
VERTEX
8
0
10
8.5803
20
1.8885
42
-0.1113
0
VERTEX
8
0
10
8.6065
20
1.8729
42
-0.1456
0
VERTEX
8
0
10
8.6220
20
1.8468
42
-0.1635
0
VERTEX
8
0
10
8.6199
20
1.8304
42
-0.0805
0
VERTEX
8
0
10
8.6098
20
1.8171
42
-0.0676
0
VERTEX
8
0
10
8.5816
20
1.7988
0
SEQEND
8
0
0
POLYLINE
8
Layer 1
66
1
0
VERTEX
8
0
10
8.4421
20
1.9855
42
-0.0963
0
VERTEX
8
0
10
8.4327
20
1.9804
42
-0.0369
0
VERTEX
8
0
10
8.4115
20
1.9765
42
-0.0146
0
VERTEX
8
0
10
8.3900
20
1.9750
42
-0.0211
0
VERTEX
8
0
10
8.3687
20
1.9749
42
-0.0355
0
VERTEX
8
0
10
8.3471
20
1.9770
42
-0.0325
0
VERTEX
8
0
10
8.3366
20
1.9793
42
-0.0737
0
VERTEX
8
0
10
8.3266
20
1.9834
0
VERTEX
8
0
10
8.3224
20
1.9868
0
VERTEX
8
0
10
8.3202
20
1.9917
42
-0.1718
0
VERTEX
8
0
10
8.3248
20
2.0011
42
-0.1139
0
VERTEX
8
0
10
8.3468
20
2.0122
42
-0.0587
0
VERTEX
8
0
10
8.3715
20
2.0147
42
-0.0914
0
VERTEX
8
0
10
8.4200
20
2.0050
42
-0.0105
0
VERTEX
8
0
10
8.4254
20
2.0027
0
VERTEX
8
0
10
8.4303
20
2.0004
42
-0.0719
0
VERTEX
8
0
10
8.4394
20
1.9947
0
VERTEX
8
0
10
8.4428
20
1.9905
42
-0.2817
0
VERTEX
8
0
10
8.4421
20
1.9855
0
SEQEND
8
0
0
POLYLINE
8
Layer 1
66
1
0
VERTEX
8
0
10
8.2616
20
1.9499
42
0.0932
0
VERTEX
8
0
10
8.2560
20
1.9795
42
0.1366
0
VERTEX
8
0
10
8.2372
20
2.0029
42
0.1285
0
VERTEX
8
0
10
8.2090
20
2.0133
42
0.0860
0
VERTEX
8
0
10
8.1787
20
2.0120
42
0.0852
0
VERTEX
8
0
10
8.1195
20
1.9896
42
0.0656
0
VERTEX
8
0
10
8.0950
20
1.9695
42
0.0960
0
VERTEX
8
0
10
8.0786
20
1.9425
42
0.1532
0
VERTEX
8
0
10
8.0779
20
1.9112
42
0.1745
0
VERTEX
8
0
10
8.0973
20
1.8867
42
0.1056
0
VERTEX
8
0
10
8.1266
20
1.8748
42
0.0584
0
VERTEX
8
0
10
8.1580
20
1.8716
42
0.0570
0
VERTEX
8
0
10
8.1939
20
1.8758
42
0.0786
0
VERTEX
8
0
10
8.2272
20
1.8896
42
0.1118
0
VERTEX
8
0
10
8.2524
20
1.9153
42
0.1353
0
VERTEX
8
0
10
8.2616
20
1.9499
0
SEQEND
8
0
0
POLYLINE
8
Layer 1
66
1
0
VERTEX
8
0
10
8.2446
20
1.8204
42
-0.0861
0
VERTEX
8
0
10
8.2937
20
1.8085
42
-0.0638
0
VERTEX
8
0
10
8.3157
20
1.7959
42
-0.0979
0
VERTEX
8
0
10
8.3329
20
1.7775
42
-0.1714
0
VERTEX
8
0
10
8.3379
20
1.7549
42
-0.1183
0
VERTEX
8
0
10
8.3288
20
1.7334
42
-0.0765
0
VERTEX
8
0
10
8.3118
20
1.7172
42
-0.0583
0
VERTEX
8
0
10
8.2910
20
1.7063
42
-0.0848
0
VERTEX
8
0
10
8.2469
20
1.6964
42
-0.1399
0
VERTEX
8
0
10
8.2028
20
1.7048
42
-0.1615
0
VERTEX
8
0
10
8.1715
20
1.7365
42
-0.1052
0
VERTEX
8
0
10
8.1622
20
1.7805
42
-0.1094
0
VERTEX
8
0
10
8.1648
20
1.7931
42
-0.0920
0
VERTEX
8
0
10
8.1723
20
1.8033
42
-0.0967
0
VERTEX
8
0
10
8.1943
20
1.8156
42
-0.0878
0
VERTEX
8
0
10
8.2446
20
1.8204
0
SEQEND
8
0
0
POLYLINE
8
Layer 1
66
1
0
VERTEX
8
0
10
8.1021
20
1.7376
42
-0.1407
0
VERTEX
8
0
10
8.1011
20
1.7132
42
-0.1049
0
VERTEX
8
0
10
8.0753
20
1.6677
42
-0.0622
0
VERTEX
8
0
10
8.0556
20
1.6502
42
-0.0781
0
VERTEX
8
0
10
8.0319
20
1.6385
42
-0.1104
0
VERTEX
8
0
10
8.0058
20
1.6356
42
-0.1536
0
VERTEX
8
0
10
7.9817
20
1.6456
42
-0.1284
0
VERTEX
8
0
10
7.9673
20
1.6675
42
-0.0747
0
VERTEX
8
0
10
7.9634
20
1.6935
42
-0.4125
0
VERTEX
8
0
10
8.0421
20
1.7722
42
-0.0736
0
VERTEX
8
0
10
8.0666
20
1.7690
42
-0.1103
0
VERTEX
8
0
10
8.0885
20
1.7579
42
-0.1611
0
VERTEX
8
0
10
8.1021
20
1.7376
0
SEQEND
8
0
0
POLYLINE
8
Layer 1
66
1
0
VERTEX
8
0
10
7.9874
20
1.8370
42
-0.0951
0
VERTEX
8
0
10
7.9643
20
1.8253
42
-0.0649
0
VERTEX
8
0
10
7.9385
20
1.8220
42
-0.0519
0
VERTEX
8
0
10
7.9145
20
1.8242
42
-0.0803
0
VERTEX
8
0
10
7.8918
20
1.8321
42
-0.1592
0
VERTEX
8
0
10
7.8742
20
1.8483
42
-0.2081
0
VERTEX
8
0
10
7.8722
20
1.8716
42
-0.1162
0
VERTEX
8
0
10
7.8947
20
1.9104
42
-0.0776
0
VERTEX
8
0
10
7.9123
20
1.9244
42
-0.0929
0
VERTEX
8
0
10
7.9334
20
1.9319
42
-0.2066
0
VERTEX
8
0
10
7.9759
20
1.9211
42
-0.0813
0
VERTEX
8
0
10
7.9910
20
1.9045
42
-0.0601
0
VERTEX
8
0
10
8.0006
20
1.8841
42
-0.1580
0
VERTEX
8
0
10
8.0017
20
1.8584
42
-0.1465
0
VERTEX
8
0
10
7.9874
20
1.8370
0
SEQEND
8
0
0
POLYLINE
8
Layer 1
66
1
0
VERTEX
8
0
10
7.7963
20
1.8269
42
-0.0121
0
VERTEX
8
0
10
7.9115
20
1.6278
0
VERTEX
8
0
10
7.9158
20
1.6199
0
VERTEX
8
0
10
7.9196
20
1.6130
0
VERTEX
8
0
10
7.9227
20
1.6071
0
VERTEX
8
0
10
7.9253
20
1.6024
0
VERTEX
8
0
10
7.9350
20
1.5846
0
VERTEX
8
0
10
7.9544
20
1.5484
42
-0.0040
0
VERTEX
8
0
10
7.9926
20
1.4757
42
-0.0061
0
VERTEX
8
0
10
8.0294
20
1.4022
42
-0.0128
0
VERTEX
8
0
10
8.0640
20
1.3277
42
-0.0163
0
VERTEX
8
0
10
8.0795
20
1.2896
42
-0.0216
0
VERTEX
8
0
10
8.0860
20
1.2701
42
-0.0188
0
VERTEX
8
0
10
8.0886
20
1.2604
42
-0.0311
0
VERTEX
8
0
10
8.0895
20
1.2553
42
-0.0561
0
VERTEX
8
0
10
8.0896
20
1.2494
0
VERTEX
8
0
10
8.0891
20
1.2468
0
VERTEX
8
0
10
8.0880
20
1.2450
0
VERTEX
8
0
10
8.0838
20
1.2447
42
-0.0786
0
VERTEX
8
0
10
8.0744
20
1.2506
42
-0.0240
0
VERTEX
8
0
10
8.0601
20
1.2651
42
-0.0151
0
VERTEX
8
0
10
8.0340
20
1.2968
42
-0.0103
0
VERTEX
8
0
10
7.9858
20
1.3633
42
-0.0051
0
VERTEX
8
0
10
7.9397
20
1.4314
0
VERTEX
8
0
10
7.9320
20
1.4430
0
VERTEX
8
0
10
7.9252
20
1.4534
0
VERTEX
8
0
10
7.9113
20
1.4744
0
VERTEX
8
0
10
7.8838
20
1.5164
0
VERTEX
8
0
10
7.8292
20
1.6007
42
-0.0072
0
VERTEX
8
0
10
7.7226
20
1.7709
42
-0.0067
0
VERTEX
8
0
10
7.6714
20
1.8574
42
-0.0127
0
VERTEX
8
0
10
7.6232
20
1.9454
42
-0.0117
0
VERTEX
8
0
10
7.6011
20
1.9905
42
-0.0238
0
VERTEX
8
0
10
7.5817
20
2.0368
42
-0.0232
0
VERTEX
8
0
10
7.5740
20
2.0607
42
-0.0519
0
VERTEX
8
0
10
7.5694
20
2.0854
42
-0.0551
0
VERTEX
8
0
10
7.5694
20
2.0979
42
-0.1170
0
VERTEX
8
0
10
7.5731
20
2.1099
42
-0.1517
0
VERTEX
8
0
10
7.5825
20
2.1180
42
-0.1141
0
VERTEX
8
0
10
7.5948
20
2.1202
42
-0.0544
0
VERTEX
8
0
10
7.6156
20
2.1182
42
-0.1029
0
VERTEX
8
0
10
7.6351
20
2.1109
42
-0.2265
0
VERTEX
8
0
10
7.6475
20
2.0947
42
-0.1087
0
VERTEX
8
0
10
7.6471
20
2.0843
42
-0.0704
0
VERTEX
8
0
10
7.6429
20
2.0747
42
0.0963
0
VERTEX
8
0
10
7.6360
20
2.0573
42
0.1190
0
VERTEX
8
0
10
7.6367
20
2.0386
42
0.1268
0
VERTEX
8
0
10
7.6462
20
2.0224
42
0.1079
0
VERTEX
8
0
10
7.6621
20
2.0126
42
-0.0661
0
VERTEX
8
0
10
7.6736
20
2.0039
42
-0.0184
0
VERTEX
8
0
10
7.6833
20
1.9933
42
-0.0144
0
VERTEX
8
0
10
7.7012
20
1.9708
42
-0.0113
0
VERTEX
8
0
10
7.7343
20
1.9238
42
-0.0098
0
VERTEX
8
0
10
7.7963
20
1.8269
0
SEQEND
8
0
0
POLYLINE
8
Layer 1
66
1
0
VERTEX
8
0
10
7.6847
20
1.7026
42
-0.0078
0
VERTEX
8
0
10
7.8323
20
1.4836
42
-0.0086
0
VERTEX
8
0
10
7.9031
20
1.3720
42
-0.0115
0
VERTEX
8
0
10
7.9365
20
1.3150
42
-0.0115
0
VERTEX
8
0
10
7.9520
20
1.2859
42
-0.0616
0
VERTEX
8
0
10
7.9634
20
1.2551
0
VERTEX
8
0
10
7.9633
20
1.2525
0
VERTEX
8
0
10
7.9631
20
1.2495
42
-0.0287
0
VERTEX
8
0
10
7.9624
20
1.2435
42
-0.0872
0
VERTEX
8
0
10
7.9584
20
1.2323
42
-0.2087
0
VERTEX
8
0
10
7.9395
20
1.2187
42
-0.0861
0
VERTEX
8
0
10
7.9157
20
1.2194
42
-0.0404
0
VERTEX
8
0
10
7.8928
20
1.2265
42
-0.0391
0
VERTEX
8
0
10
7.8502
20
1.2485
42
-0.0235
0
VERTEX
8
0
10
7.8109
20
1.2760
42
-0.0325
0
VERTEX
8
0
10
7.7393
20
1.3399
42
-0.0273
0
VERTEX
8
0
10
7.6758
20
1.4119
0
VERTEX
8
0
10
7.6641
20
1.4268
0
VERTEX
8
0
10
7.6538
20
1.4401
0
VERTEX
8
0
10
7.6345
20
1.4651
42
-0.0037
0
VERTEX
8
0
10
7.5963
20
1.5161
42
-0.0076
0
VERTEX
8
0
10
7.5223
20
1.6196
42
-0.0183
0
VERTEX
8
0
10
7.3844
20
1.8337
42
-0.0128
0
VERTEX
8
0
10
7.3220
20
1.9446
42
-0.0210
0
VERTEX
8
0
10
7.2664
20
2.0592
42
-0.0185
0
VERTEX
8
0
10
7.2428
20
2.1183
42
-0.0389
0
VERTEX
8
0
10
7.2249
20
2.1793
42
-0.0446
0
VERTEX
8
0
10
7.2205
20
2.2108
42
-0.0367
0
VERTEX
8
0
10
7.2208
20
2.2267
42
-0.0908
0
VERTEX
8
0
10
7.2243
20
2.2423
42
-0.2849
0
VERTEX
8
0
10
7.2486
20
2.2604
42
-0.1197
0
VERTEX
8
0
10
7.2799
20
2.2548
42
-0.1578
0
VERTEX
8
0
10
7.3190
20
2.2241
42
-0.0917
0
VERTEX
8
0
10
7.3292
20
2.2011
42
-0.1176
0
VERTEX
8
0
10
7.3296
20
2.1761
42
0.0743
0
VERTEX
8
0
10
7.3281
20
2.1575
42
0.1009
0
VERTEX
8
0
10
7.3326
20
2.1394
42
0.2968
0
VERTEX
8
0
10
7.3623
20
2.1202
42
-0.0749
0
VERTEX
8
0
10
7.3882
20
2.0993
42
-0.0086
0
VERTEX
8
0
10
7.4101
20
2.0744
42
-0.0079
0
VERTEX
8
0
10
7.4516
20
2.0231
42
-0.0064
0
VERTEX
8
0
10
7.5313
20
1.9177
42
-0.0065
0
VERTEX
8
0
10
7.6847
20
1.7026
0
SEQEND
8
0
0
POLYLINE
8
Layer 1
66
1
0
VERTEX
8
0
10
7.4727
20
1.6041
42
0.0138
0
VERTEX
8
0
10
7.5600
20
1.4871
0
VERTEX
8
0
10
7.5833
20
1.4576
0
VERTEX
8
0
10
7.6066
20
1.4277
42
-0.0036
0
VERTEX
8
0
10
7.6526
20
1.3675
42
-0.0139
0
VERTEX
8
0
10
7.7414
20
1.2446
42
-0.0140
0
VERTEX
8
0
10
7.7826
20
1.1811
42
-0.0295
0
VERTEX
8
0
10
7.8191
20
1.1147
42
-0.0292
0
VERTEX
8
0
10
7.8338
20
1.0797
42
-0.0605
0
VERTEX
8
0
10
7.8429
20
1.0430
42
-0.0530
0
VERTEX
8
0
10
7.8436
20
1.0241
42
-0.0789
0
VERTEX
8
0
10
7.8396
20
1.0057
42
-0.1576
0
VERTEX
8
0
10
7.8152
20
0.9775
42
0.0478
0
VERTEX
8
0
10
7.8035
20
0.9691
42
0.1395
0
VERTEX
8
0
10
7.7949
20
0.9579
42
0.2372
0
VERTEX
8
0
10
7.7962
20
0.9442
42
0.0844
0
VERTEX
8
0
10
7.8065
20
0.9344
42
0.0477
0
VERTEX
8
0
10
7.8324
20
0.9223
42
0.0200
0
VERTEX
8
0
10
7.8597
20
0.9140
42
-0.1251
0
VERTEX
8
0
10
7.9283
20
0.8761
42
-0.0833
0
VERTEX
8
0
10
7.9527
20
0.8453
42
-0.1391
0
VERTEX
8
0
10
7.9634
20
0.8076
0
VERTEX
8
0
10
7.9634
20
0.8076
0
VERTEX
8
0
10
7.9633
20
0.8053
0
VERTEX
8
0
10
7.9633
20
0.8025
42
-0.0115
0
VERTEX
8
0
10
7.9629
20
0.7970
42
-0.0254
0
VERTEX
8
0
10
7.9615
20
0.7859
42
-0.0721
0
VERTEX
8
0
10
7.9547
20
0.7648
42
-0.1849
0
VERTEX
8
0
10
7.9229
20
0.7349
42
-0.0700
0
VERTEX
8
0
10
7.9013
20
0.7297
42
-0.0501
0
VERTEX
8
0
10
7.8790
20
0.7301
42
-0.0671
0
VERTEX
8
0
10
7.8362
20
0.7421
42
-0.0880
0
VERTEX
8
0
10
7.7633
20
0.7927
42
-0.0767
0
VERTEX
8
0
10
7.7108
20
0.8644
42
0.0035
0
VERTEX
8
0
10
7.6172
20
1.0356
0
VERTEX
8
0
10
7.5219
20
1.2058
0
VERTEX
8
0
10
7.3296
20
1.5453
42
-0.0080
0
VERTEX
8
0
10
7.1642
20
1.8454
42
-0.0078
0
VERTEX
8
0
10
7.0858
20
1.9977
42
-0.0094
0
VERTEX
8
0
10
7.0488
20
2.0750
42
-0.0118
0
VERTEX
8
0
10
7.0317
20
2.1142
42
-0.0135
0
VERTEX
8
0
10
7.0241
20
2.1342
42
-0.0663
0
VERTEX
8
0
10
7.0190
20
2.1549
0
VERTEX
8
0
10
7.0190
20
2.1579
0
VERTEX
8
0
10
7.0190
20
2.1579
0
VERTEX
8
0
10
7.0190
20
2.1607
0
VERTEX
8
0
10
7.0190
20
2.1607
0
VERTEX
8
0
10
7.0190
20
2.1574
0
VERTEX
8
0
10
7.0190
20
2.1574
0
VERTEX
8
0
10
7.0190
20
2.1560
0
VERTEX
8
0
10
7.0190
20
2.1557
0
VERTEX
8
0
10
7.0190
20
2.1594
42
-0.0151
0
VERTEX
8
0
10
7.0195
20
2.1719
42
-0.0618
0
VERTEX
8
0
10
7.0235
20
2.1967
42
-0.0710
0
VERTEX
8
0
10
7.0284
20
2.2082
42
-0.1496
0
VERTEX
8
0
10
7.0371
20
2.2171
42
-0.1491
0
VERTEX
8
0
10
7.0493
20
2.2191
42
-0.0712
0
VERTEX
8
0
10
7.0612
20
2.2152
42
-0.0531
0
VERTEX
8
0
10
7.0817
20
2.2007
42
-0.0249
0
VERTEX
8
0
10
7.0996
20
2.1830
42
-0.0230
0
VERTEX
8
0
10
7.1313
20
2.1440
42
-0.0197
0
VERTEX
8
0
10
7.1869
20
2.0601
42
-0.0105
0
VERTEX
8
0
10
7.2369
20
1.9728
42
0.0120
0
VERTEX
8
0
10
7.3108
20
1.8470
42
0.0079
0
VERTEX
8
0
10
7.3899
20
1.7243
42
0.0081
0
VERTEX
8
0
10
7.4727
20
1.6041
0
SEQEND
8
0
0
POLYLINE
8
Layer 1
66
1
0
VERTEX
8
0
10
7.2597
20
1.5374
42
0.0081
0
VERTEX
8
0
10
7.3442
20
1.3995
42
-0.0090
0
VERTEX
8
0
10
7.4814
20
1.1722
42
-0.0048
0
VERTEX
8
0
10
7.5469
20
1.0567
42
-0.0107
0
VERTEX
8
0
10
7.6095
20
0.9397
0
VERTEX
8
0
10
7.6095
20
0.9397
0
VERTEX
8
0
10
7.6111
20
0.9366
0
VERTEX
8
0
10
7.6128
20
0.9332
0
VERTEX
8
0
10
7.6163
20
0.9262
0
VERTEX
8
0
10
7.6233
20
0.9123
42
-0.0040
0
VERTEX
8
0
10
7.6369
20
0.8843
42
-0.0169
0
VERTEX
8
0
10
7.6623
20
0.8275
42
-0.0197
0
VERTEX
8
0
10
7.6731
20
0.7983
42
-0.0538
0
VERTEX
8
0
10
7.6805
20
0.7681
42
-0.0694
0
VERTEX
8
0
10
7.6809
20
0.7525
42
-0.1616
0
VERTEX
8
0
10
7.6755
20
0.7382
42
-0.1411
0
VERTEX
8
0
10
7.6624
20
0.7302
42
-0.0574
0
VERTEX
8
0
10
7.6470
20
0.7284
42
-0.0853
0
VERTEX
8
0
10
7.6211
20
0.7351
42
-0.0372
0
VERTEX
8
0
10
7.5978
20
0.7484
42
-0.0385
0
VERTEX
8
0
10
7.5564
20
0.7824
42
-0.0556
0
VERTEX
8
0
10
7.4882
20
0.8651
42
0.0254
0
VERTEX
8
0
10
7.4165
20
0.9634
42
0.0172
0
VERTEX
8
0
10
7.3769
20
1.0096
42
0.0149
0
VERTEX
8
0
10
7.3558
20
1.0314
42
0.0390
0
VERTEX
8
0
10
7.3329
20
1.0515
42
-0.0369
0
VERTEX
8
0
10
7.3194
20
1.0677
42
-0.0168
0
VERTEX
8
0
10
7.3086
20
1.0850
42
-0.0103
0
VERTEX
8
0
10
7.2888
20
1.1206
42
-0.0078
0
VERTEX
8
0
10
7.2521
20
1.1935
42
-0.0063
0
VERTEX
8
0
10
7.1838
20
1.3414
42
-0.0064
0
VERTEX
8
0
10
7.0552
20
1.6410
42
-0.0076
0
VERTEX
8
0
10
6.9343
20
1.9438
42
-0.0084
0
VERTEX
8
0
10
6.8781
20
2.0968
42
-0.0107
0
VERTEX
8
0
10
6.8525
20
2.1742
42
-0.0091
0
VERTEX
8
0
10
6.8414
20
2.2133
42
-0.0470
0
VERTEX
8
0
10
6.8370
20
2.2333
42
-0.0594
0
VERTEX
8
0
10
6.8374
20
2.2534
0
VERTEX
8
0
10
6.8405
20
2.2534
0
VERTEX
8
0
10
6.8427
20
2.2519
0
VERTEX
8
0
10
6.8467
20
2.2482
42
-0.0195
0
VERTEX
8
0
10
6.8539
20
2.2400
42
-0.0130
0
VERTEX
8
0
10
6.8669
20
2.2226
42
-0.0105
0
VERTEX
8
0
10
6.8910
20
2.1863
42
-0.0080
0
VERTEX
8
0
10
6.9361
20
2.1118
42
-0.0097
0
VERTEX
8
0
10
7.0206
20
1.9595
42
0.0074
0
VERTEX
8
0
10
7.1780
20
1.6769
42
0.0039
0
VERTEX
8
0
10
7.2597
20
1.5374
0
SEQEND
8
0
0
POLYLINE
8
Layer 1
66
1
0
VERTEX
8
0
10
6.9880
20
1.6306
42
0.0142
0
VERTEX
8
0
10
7.1500
20
1.2565
42
0.0110
0
VERTEX
8
0
10
7.2396
20
1.0733
42
0.0109
0
VERTEX
8
0
10
7.2880
20
0.9836
42
0.0107
0
VERTEX
8
0
10
7.3139
20
0.9397
42
0.0276
0
VERTEX
8
0
10
7.3424
20
0.8975
0
VERTEX
8
0
10
7.3442
20
0.8951
0
VERTEX
8
0
10
7.3456
20
0.8933
0
VERTEX
8
0
10
7.3480
20
0.8902
0
VERTEX
8
0
10
7.3528
20
0.8838
0
VERTEX
8
0
10
7.3625
20
0.8710
0
VERTEX
8
0
10
7.3818
20
0.8454
42
-0.0211
0
VERTEX
8
0
10
7.4189
20
0.7930
42
-0.0516
0
VERTEX
8
0
10
7.4347
20
0.7651
42
-0.1075
0
VERTEX
8
0
10
7.4390
20
0.7497
42
-0.2774
0
VERTEX
8
0
10
7.4325
20
0.7359
42
-0.0790
0
VERTEX
8
0
10
7.4175
20
0.7307
42
-0.0235
0
VERTEX
8
0
10
7.4015
20
0.7291
42
-0.0105
0
VERTEX
8
0
10
7.3694
20
0.7284
42
-0.0666
0
VERTEX
8
0
10
7.3122
20
0.7349
42
-0.0700
0
VERTEX
8
0
10
7.2851
20
0.7448
42
-0.0845
0
VERTEX
8
0
10
7.2734
20
0.7531
42
-0.2249
0
VERTEX
8
0
10
7.2673
20
0.7657
42
0.1385
0
VERTEX
8
0
10
7.2650
20
0.7715
0
VERTEX
8
0
10
7.2607
20
0.7758
42
0.0452
0
VERTEX
8
0
10
7.2502
20
0.7822
42
0.0318
0
VERTEX
8
0
10
7.2273
20
0.7908
42
0.0260
0
VERTEX
8
0
10
7.1796
20
0.8019
42
0.0295
0
VERTEX
8
0
10
7.0822
20
0.8126
42
-0.0118
0
VERTEX
8
0
10
7.0386
20
0.8157
42
-0.0231
0
VERTEX
8
0
10
6.9953
20
0.8215
42
-0.0376
0
VERTEX
8
0
10
6.9530
20
0.8321
42
-0.0475
0
VERTEX
8
0
10
6.9130
20
0.8494
42
-0.0435
0
VERTEX
8
0
10
6.8769
20
0.8739
42
-0.0315
0
VERTEX
8
0
10
6.8452
20
0.9038
42
-0.0318
0
VERTEX
8
0
10
6.7911
20
0.9723
42
-0.0139
0
VERTEX
8
0
10
6.7441
20
1.0459
42
-0.0067
0
VERTEX
8
0
10
6.7005
20
1.1216
42
-0.0042
0
VERTEX
8
0
10
6.6173
20
1.2752
42
0.0089
0
VERTEX
8
0
10
6.5090
20
1.4705
42
0.0062
0
VERTEX
8
0
10
6.4521
20
1.5666
42
0.0055
0
VERTEX
8
0
10
6.4226
20
1.6140
42
0.0169
0
VERTEX
8
0
10
6.3916
20
1.6604
42
-0.0268
0
VERTEX
8
0
10
6.3680
20
1.6963
42
-0.0237
0
VERTEX
8
0
10
6.3579
20
1.7154
42
-0.0451
0
VERTEX
8
0
10
6.3501
20
1.7355
42
-0.0420
0
VERTEX
8
0
10
6.3478
20
1.7461
42
-0.0823
0
VERTEX
8
0
10
6.3478
20
1.7568
42
-0.3144
0
VERTEX
8
0
10
6.3616
20
1.7714
42
-0.0931
0
VERTEX
8
0
10
6.3830
20
1.7697
42
-0.0382
0
VERTEX
8
0
10
6.4031
20
1.7619
42
-0.0362
0
VERTEX
8
0
10
6.4403
20
1.7399
42
-0.0219
0
VERTEX
8
0
10
6.4745
20
1.7136
42
-0.0290
0
VERTEX
8
0
10
6.5367
20
1.6536
42
-0.0220
0
VERTEX
8
0
10
6.5779
20
1.6019
42
-0.0093
0
VERTEX
8
0
10
6.6156
20
1.5477
42
-0.0105
0
VERTEX
8
0
10
6.6861
20
1.4359
42
-0.0180
0
VERTEX
8
0
10
6.8148
20
1.2050
0
VERTEX
8
0
10
6.8164
20
1.2018
0
VERTEX
8
0
10
6.8177
20
1.1993
0
VERTEX
8
0
10
6.8203
20
1.1942
0
VERTEX
8
0
10
6.8255
20
1.1841
0
VERTEX
8
0
10
6.8361
20
1.1639
42
0.0031
0
VERTEX
8
0
10
6.8575
20
1.1236
42
0.0081
0
VERTEX
8
0
10
6.9019
20
1.0438
42
0.0140
0
VERTEX
8
0
10
6.9491
20
0.9658
42
0.0186
0
VERTEX
8
0
10
6.9747
20
0.9280
42
0.0259
0
VERTEX
8
0
10
6.9889
20
0.9102
42
0.0407
0
VERTEX
8
0
10
6.9969
20
0.9020
0
VERTEX
8
0
10
7.0015
20
0.8987
42
0.3697
0
VERTEX
8
0
10
7.0069
20
0.8986
42
0.1091
0
VERTEX
8
0
10
7.0058
20
0.9157
42
0.0132
0
VERTEX
8
0
10
7.0006
20
0.9320
42
0.0109
0
VERTEX
8
0
10
6.9884
20
0.9640
42
0.0085
0
VERTEX
8
0
10
6.9611
20
1.0268
42
0.0073
0
VERTEX
8
0
10
6.9022
20
1.1504
42
0.0081
0
VERTEX
8
0
10
6.7761
20
1.3936
42
-0.0039
0
VERTEX
8
0
10
6.6447
20
1.6414
42
-0.0038
0
VERTEX
8
0
10
6.5808
20
1.7662
42
-0.0047
0
VERTEX
8
0
10
6.5497
20
1.8290
42
-0.0061
0
VERTEX
8
0
10
6.5347
20
1.8607
42
-0.0047
0
VERTEX
8
0
10
6.5276
20
1.8768
42
-0.0447
0
VERTEX
8
0
10
6.5219
20
1.8933
0
VERTEX
8
0
10
6.5220
20
1.8959
0
VERTEX
8
0
10
6.5222
20
1.8990
42
-0.0370
0
VERTEX
8
0
10
6.5232
20
1.9050
42
-0.1141
0
VERTEX
8
0
10
6.5283
20
1.9159
42
-0.1280
0
VERTEX
8
0
10
6.5380
20
1.9231
42
-0.0860
0
VERTEX
8
0
10
6.5499
20
1.9253
42
-0.0823
0
VERTEX
8
0
10
6.5736
20
1.9204
42
-0.0489
0
VERTEX
8
0
10
6.5951
20
1.9092
42
-0.0772
0
VERTEX
8
0
10
6.6310
20
1.8766
42
-0.0892
0
VERTEX
8
0
10
6.6549
20
1.8344
42
0.0086
0
VERTEX
8
0
10
6.6613
20
1.8179
42
0.0077
0
VERTEX
8
0
10
6.6680
20
1.8022
42
0.0062
0
VERTEX
8
0
10
6.6823
20
1.7713
42
0.0060
0
VERTEX
8
0
10
6.7127
20
1.7104
42
0.0054
0
VERTEX
8
0
10
6.7765
20
1.5901
42
0.0057
0
VERTEX
8
0
10
6.9100
20
1.3528
42
0.0066
0
VERTEX
8
0
10
7.0489
20
1.1185
42
0.0073
0
VERTEX
8
0
10
7.1211
20
1.0030
42
0.0094
0
VERTEX
8
0
10
7.1588
20
0.9463
42
0.0036
0
VERTEX
8
0
10
7.1786
20
0.9186
42
0.1084
0
VERTEX
8
0
10
7.2027
20
0.8957
0
VERTEX
8
0
10
7.2042
20
0.9002
0
VERTEX
8
0
10
7.2039
20
0.9048
42
0.0274
0
VERTEX
8
0
10
7.2020
20
0.9137
42
0.0198
0
VERTEX
8
0
10
7.1961
20
0.9311
42
0.0138
0
VERTEX
8
0
10
7.1817
20
0.9649
42
0.0119
0
VERTEX
8
0
10
7.1488
20
1.0306
42
0.0133
0
VERTEX
8
0
10
7.0757
20
1.1579
42
-0.0083
0
VERTEX
8
0
10
6.9946
20
1.2981
42
-0.0048
0
VERTEX
8
0
10
6.9173
20
1.4404
42
-0.0047
0
VERTEX
8
0
10
6.8426
20
1.5841
42
-0.0070
0
VERTEX
8
0
10
6.7710
20
1.7294
42
0.0066
0
VERTEX
8
0
10
6.7252
20
1.8230
42
0.0169
0
VERTEX
8
0
10
6.6757
20
1.9149
42
0.0190
0
VERTEX
8
0
10
6.6480
20
1.9592
42
0.0428
0
VERTEX
8
0
10
6.6160
20
2.0004
42
0.0407
0
VERTEX
8
0
10
6.5970
20
2.0183
42
0.0689
0
VERTEX
8
0
10
6.5749
20
2.0321
42
0.0932
0
VERTEX
8
0
10
6.5498
20
2.0385
42
0.0734
0
VERTEX
8
0
10
6.5239
20
2.0357
42
-0.1190
0
VERTEX
8
0
10
6.4556
20
2.0345
42
-0.0790
0
VERTEX
8
0
10
6.4235
20
2.0465
42
-0.1396
0
VERTEX
8
0
10
6.3983
20
2.0695
42
-0.0093
0
VERTEX
8
0
10
6.3950
20
2.0750
42
-0.0091
0
VERTEX
8
0
10
6.3921
20
2.0803
42
-0.0229
0
VERTEX
8
0
10
6.3869
20
2.0913
42
-0.0688
0
VERTEX
8
0
10
6.3803
20
2.1145
42
-0.1317
0
VERTEX
8
0
10
6.3819
20
2.1384
42
-0.1941
0
VERTEX
8
0
10
6.3971
20
2.1565
42
-0.1262
0
VERTEX
8
0
10
6.4206
20
2.1609
42
-0.0693
0
VERTEX
8
0
10
6.4440
20
2.1553
42
-0.0716
0
VERTEX
8
0
10
6.4851
20
2.1301
42
0.1615
0
VERTEX
8
0
10
6.5517
20
2.1027
42
0.1547
0
VERTEX
8
0
10
6.6216
20
2.1204
0
VERTEX
8
0
10
6.6243
20
2.1221
0
VERTEX
8
0
10
6.6263
20
2.1233
0
VERTEX
8
0
10
6.6296
20
2.1254
42
0.0051
0
VERTEX
8
0
10
6.6362
20
2.1297
42
0.0230
0
VERTEX
8
0
10
6.6489
20
2.1389
42
0.0772
0
VERTEX
8
0
10
6.6602
20
2.1498
42
0.1179
0
VERTEX
8
0
10
6.6638
20
2.1568
42
0.1812
0
VERTEX
8
0
10
6.6629
20
2.1644
42
0.0855
0
VERTEX
8
0
10
6.6578
20
2.1703
42
0.0373
0
VERTEX
8
0
10
6.6513
20
2.1747
42
0.0271
0
VERTEX
8
0
10
6.6371
20
2.1815
42
0.0151
0
VERTEX
8
0
10
6.6075
20
2.1921
0
VERTEX
8
0
10
6.6029
20
2.1935
0
VERTEX
8
0
10
6.6001
20
2.1944
0
VERTEX
8
0
10
6.5953
20
2.1960
0
VERTEX
8
0
10
6.5856
20
2.1992
0
VERTEX
8
0
10
6.5662
20
2.2055
42
-0.0026
0
VERTEX
8
0
10
6.5275
20
2.2184
42
-0.0197
0
VERTEX
8
0
10
6.4509
20
2.2464
42
-0.0127
0
VERTEX
8
0
10
6.4321
20
2.2545
42
-0.0321
0
VERTEX
8
0
10
6.4141
20
2.2639
42
-0.0426
0
VERTEX
8
0
10
6.4057
20
2.2697
42
-0.1754
0
VERTEX
8
0
10
6.3993
20
2.2776
0
VERTEX
8
0
10
6.3994
20
2.2825
0
VERTEX
8
0
10
6.4026
20
2.2865
42
-0.0593
0
VERTEX
8
0
10
6.4115
20
2.2914
42
-0.0316
0
VERTEX
8
0
10
6.4310
20
2.2973
42
-0.0124
0
VERTEX
8
0
10
6.4510
20
2.3014
42
-0.0082
0
VERTEX
8
0
10
6.4913
20
2.3076
42
-0.0774
0
VERTEX
8
0
10
6.6000
20
2.3042
42
-0.0514
0
VERTEX
8
0
10
6.6525
20
2.2893
42
-0.0414
0
VERTEX
8
0
10
6.6770
20
2.2774
42
-0.0739
0
VERTEX
8
0
10
6.6986
20
2.2608
42
-0.0340
0
VERTEX
8
0
10
6.7115
20
2.2434
42
-0.0107
0
VERTEX
8
0
10
6.7227
20
2.2248
42
-0.0087
0
VERTEX
8
0
10
6.7433
20
2.1866
42
-0.0073
0
VERTEX
8
0
10
6.7818
20
2.1088
42
-0.0064
0
VERTEX
8
0
10
6.8538
20
1.9509
42
-0.0083
0
VERTEX
8
0
10
6.9880
20
1.6306
0
SEQEND
8
0
0
POLYLINE
8
Layer 1
66
1
0
VERTEX
8
0
10
6.5322
20
1.3350
42
-0.0078
0
VERTEX
8
0
10
6.5967
20
1.2255
42
0.0288
0
VERTEX
8
0
10
6.7549
20
0.9804
42
0.0228
0
VERTEX
8
0
10
6.8452
20
0.8658
42
0.0221
0
VERTEX
8
0
10
6.8949
20
0.8124
42
0.0202
0
VERTEX
8
0
10
6.9217
20
0.7877
42
0.0428
0
VERTEX
8
0
10
6.9509
20
0.7660
0
VERTEX
8
0
10
7.0935
20
0.6792
0
VERTEX
8
0
10
6.9097
20
0.6790
42
-0.0341
0
VERTEX
8
0
10
6.8531
20
0.6824
42
-0.0434
0
VERTEX
8
0
10
6.7976
20
0.6942
42
-0.0842
0
VERTEX
8
0
10
6.6971
20
0.7461
42
-0.0305
0
VERTEX
8
0
10
6.6541
20
0.7833
42
-0.0221
0
VERTEX
8
0
10
6.6154
20
0.8249
42
-0.0261
0
VERTEX
8
0
10
6.5475
20
0.9160
42
-0.0145
0
VERTEX
8
0
10
6.4876
20
1.0128
42
-0.0086
0
VERTEX
8
0
10
6.4327
20
1.1123
42
-0.0085
0
VERTEX
8
0
10
6.3306
20
1.3156
0
VERTEX
8
0
10
6.3289
20
1.3191
0
VERTEX
8
0
10
6.3289
20
1.3191
0
VERTEX
8
0
10
6.3284
20
1.3201
0
VERTEX
8
0
10
6.3283
20
1.3203
0
VERTEX
8
0
10
6.3292
20
1.3184
0
VERTEX
8
0
10
6.3292
20
1.3184
0
VERTEX
8
0
10
6.3298
20
1.3172
0
VERTEX
8
0
10
6.3301
20
1.3166
0
VERTEX
8
0
10
6.3299
20
1.3170
0
VERTEX
8
0
10
6.3287
20
1.3195
0
VERTEX
8
0
10
6.3274
20
1.3222
0
VERTEX
8
0
10
6.3222
20
1.3331
0
VERTEX
8
0
10
6.3116
20
1.3550
0
VERTEX
8
0
10
6.2907
20
1.3989
42
-0.0090
0
VERTEX
8
0
10
6.2500
20
1.4872
42
-0.0129
0
VERTEX
8
0
10
6.2313
20
1.5320
42
-0.0145
0
VERTEX
8
0
10
6.2231
20
1.5549
42
-0.0357
0
VERTEX
8
0
10
6.2167
20
1.5783
42
-0.0407
0
VERTEX
8
0
10
6.2151
20
1.5903
42
-0.0935
0
VERTEX
8
0
10
6.2162
20
1.6024
42
-0.1745
0
VERTEX
8
0
10
6.2228
20
1.6123
42
-0.0999
0
VERTEX
8
0
10
6.2340
20
1.6167
42
-0.0494
0
VERTEX
8
0
10
6.2582
20
1.6169
42
-0.0120
0
VERTEX
8
0
10
6.2823
20
1.6138
42
-0.0759
0
VERTEX
8
0
10
6.3121
20
1.6031
42
-0.0385
0
VERTEX
8
0
10
6.3385
20
1.5854
42
-0.0353
0
VERTEX
8
0
10
6.3845
20
1.5416
42
-0.0182
0
VERTEX
8
0
10
6.4252
20
1.4928
42
-0.0115
0
VERTEX
8
0
10
6.4628
20
1.4416
42
-0.0133
0
VERTEX
8
0
10
6.5322
20
1.3350
0
SEQEND
8
0
0
POLYLINE
8
Layer 1
66
1
0
VERTEX
8
0
10
6.2765
20
1.3077
42
-0.0193
0
VERTEX
8
0
10
6.3865
20
1.1183
42
-0.0117
0
VERTEX
8
0
10
6.4797
20
0.9336
42
-0.0120
0
VERTEX
8
0
10
6.5222
20
0.8396
42
-0.0139
0
VERTEX
8
0
10
6.5414
20
0.7917
42
-0.0203
0
VERTEX
8
0
10
6.5496
20
0.7672
42
-0.0289
0
VERTEX
8
0
10
6.5526
20
0.7547
42
-0.0398
0
VERTEX
8
0
10
6.5535
20
0.7483
42
-0.2279
0
VERTEX
8
0
10
6.5522
20
0.7422
42
-0.1068
0
VERTEX
8
0
10
6.5431
20
0.7376
42
-0.1008
0
VERTEX
8
0
10
6.5342
20
0.7374
42
-0.0639
0
VERTEX
8
0
10
6.5174
20
0.7436
42
-0.0431
0
VERTEX
8
0
10
6.4880
20
0.7641
42
-0.0300
0
VERTEX
8
0
10
6.4370
20
0.8144
42
-0.0255
0
VERTEX
8
0
10
6.3483
20
0.9269
42
-0.0365
0
VERTEX
8
0
10
6.2005
20
1.1724
0
VERTEX
8
0
10
6.1988
20
1.1759
0
VERTEX
8
0
10
6.1988
20
1.1759
0
VERTEX
8
0
10
6.1983
20
1.1768
0
VERTEX
8
0
10
6.1982
20
1.1771
0
VERTEX
8
0
10
6.1981
20
1.1771
0
VERTEX
8
0
10
6.1984
20
1.1766
0
VERTEX
8
0
10
6.2000
20
1.1735
0
VERTEX
8
0
10
6.2000
20
1.1735
0
VERTEX
8
0
10
6.2000
20
1.1735
0
VERTEX
8
0
10
6.1987
20
1.1760
0
VERTEX
8
0
10
6.1974
20
1.1785
0
VERTEX
8
0
10
6.1922
20
1.1889
0
VERTEX
8
0
10
6.1816
20
1.2099
0
VERTEX
8
0
10
6.1605
20
1.2519
42
-0.0075
0
VERTEX
8
0
10
6.1194
20
1.3363
42
-0.0118
0
VERTEX
8
0
10
6.1002
20
1.3792
42
-0.0422
0
VERTEX
8
0
10
6.0844
20
1.4234
42
-0.0839
0
VERTEX
8
0
10
6.0809
20
1.4466
42
-0.1135
0
VERTEX
8
0
10
6.0831
20
1.4580
42
-0.1457
0
VERTEX
8
0
10
6.0907
20
1.4667
42
-0.0726
0
VERTEX
8
0
10
6.1016
20
1.4710
42
-0.0313
0
VERTEX
8
0
10
6.1132
20
1.4727
42
-0.0175
0
VERTEX
8
0
10
6.1367
20
1.4732
42
-0.0836
0
VERTEX
8
0
10
6.1435
20
1.4715
42
-0.0359
0
VERTEX
8
0
10
6.1495
20
1.4682
42
-0.0313
0
VERTEX
8
0
10
6.1604
20
1.4598
42
-0.0242
0
VERTEX
8
0
10
6.1797
20
1.4405
42
-0.0191
0
VERTEX
8
0
10
6.2143
20
1.3980
42
-0.0165
0
VERTEX
8
0
10
6.2765
20
1.3077
0
SEQEND
8
0
0
POLYLINE
8
Layer 1
66
1
0
VERTEX
8
0
10
6.1429
20
1.1840
42
-0.0093
0
VERTEX
8
0
10
6.1913
20
1.1007
0
VERTEX
8
0
10
6.1936
20
1.0967
0
VERTEX
8
0
10
6.1954
20
1.0934
0
VERTEX
8
0
10
6.1991
20
1.0867
42
-0.0023
0
VERTEX
8
0
10
6.2064
20
1.0732
42
-0.0052
0
VERTEX
8
0
10
6.2206
20
1.0460
42
-0.0147
0
VERTEX
8
0
10
6.2469
20
0.9906
42
-0.0284
0
VERTEX
8
0
10
6.2693
20
0.9336
42
-0.0410
0
VERTEX
8
0
10
6.2772
20
0.9039
42
-0.0714
0
VERTEX
8
0
10
6.2785
20
0.8887
42
-0.1320
0
VERTEX
8
0
10
6.2767
20
0.8813
42
-0.2869
0
VERTEX
8
0
10
6.2705
20
0.8775
42
-0.1095
0
VERTEX
8
0
10
6.2543
20
0.8843
42
-0.0265
0
VERTEX
8
0
10
6.2410
20
0.8951
42
-0.0216
0
VERTEX
8
0
10
6.2171
20
0.9193
42
-0.0174
0
VERTEX
8
0
10
6.1738
20
0.9720
42
-0.0181
0
VERTEX
8
0
10
6.0955
20
1.0838
42
-0.0211
0
VERTEX
8
0
10
6.0255
20
1.2009
42
-0.0221
0
VERTEX
8
0
10
5.9950
20
1.2620
42
-0.0250
0
VERTEX
8
0
10
5.9824
20
1.2937
42
-0.0247
0
VERTEX
8
0
10
5.9775
20
1.3100
42
-0.0523
0
VERTEX
8
0
10
5.9751
20
1.3268
0
VERTEX
8
0
10
5.9752
20
1.3293
0
VERTEX
8
0
10
5.9752
20
1.3293
0
VERTEX
8
0
10
5.9752
20
1.3310
0
VERTEX
8
0
10
5.9752
20
1.3312
0
VERTEX
8
0
10
5.9752
20
1.3311
0
VERTEX
8
0
10
5.9752
20
1.3302
0
VERTEX
8
0
10
5.9752
20
1.3292
0
VERTEX
8
0
10
5.9752
20
1.3289
0
VERTEX
8
0
10
5.9752
20
1.3289
0
VERTEX
8
0
10
5.9753
20
1.3337
42
-0.0425
0
VERTEX
8
0
10
5.9767
20
1.3456
42
-0.1028
0
VERTEX
8
0
10
5.9808
20
1.3569
42
-0.2355
0
VERTEX
8
0
10
5.9902
20
1.3637
42
-0.1171
0
VERTEX
8
0
10
6.0019
20
1.3617
42
-0.0452
0
VERTEX
8
0
10
6.0124
20
1.3557
42
-0.0360
0
VERTEX
8
0
10
6.0306
20
1.3400
42
-0.0262
0
VERTEX
8
0
10
6.0622
20
1.3038
42
-0.0130
0
VERTEX
8
0
10
6.0907
20
1.2649
42
-0.0136
0
VERTEX
8
0
10
6.1429
20
1.1840
0
SEQEND
8
0
0
POLYLINE
8
Layer 1
66
1
0
VERTEX
8
0
10
6.0177
20
1.0932
42
0.0130
0
VERTEX
8
0
10
6.0550
20
1.0391
42
-0.0217
0
VERTEX
8
0
10
6.0733
20
1.0117
42
-0.0345
0
VERTEX
8
0
10
6.0889
20
0.9825
42
-0.0281
0
VERTEX
8
0
10
6.0950
20
0.9671
42
-0.0568
0
VERTEX
8
0
10
6.0988
20
0.9509
42
-0.0554
0
VERTEX
8
0
10
6.0990
20
0.9427
42
-0.1098
0
VERTEX
8
0
10
6.0970
20
0.9347
42
-0.1648
0
VERTEX
8
0
10
6.0912
20
0.9289
42
-0.1053
0
VERTEX
8
0
10
6.0832
20
0.9273
42
-0.0888
0
VERTEX
8
0
10
6.0673
20
0.9315
42
-0.0293
0
VERTEX
8
0
10
6.0536
20
0.9394
42
-0.0268
0
VERTEX
8
0
10
6.0284
20
0.9585
42
-0.0223
0
VERTEX
8
0
10
5.9826
20
1.0024
42
-0.0234
0
VERTEX
8
0
10
5.9003
20
1.0987
42
-0.0274
0
VERTEX
8
0
10
5.8272
20
1.2023
42
-0.0282
0
VERTEX
8
0
10
5.7959
20
1.2574
42
-0.0312
0
VERTEX
8
0
10
5.7832
20
1.2864
42
-0.0942
0
VERTEX
8
0
10
5.7763
20
1.3172
0
VERTEX
8
0
10
5.7763
20
1.3172
0
VERTEX
8
0
10
5.7764
20
1.3204
0
VERTEX
8
0
10
5.7765
20
1.3240
42
-0.0149
0
VERTEX
8
0
10
5.7770
20
1.3312
42
-0.0419
0
VERTEX
8
0
10
5.7795
20
1.3456
42
-0.0753
0
VERTEX
8
0
10
5.7848
20
1.3591
42
-0.1307
0
VERTEX
8
0
10
5.7947
20
1.3697
42
-0.1348
0
VERTEX
8
0
10
5.8085
20
1.3735
42
-0.0803
0
VERTEX
8
0
10
5.8228
20
1.3708
42
-0.0706
0
VERTEX
8
0
10
5.8477
20
1.3559
42
-0.0584
0
VERTEX
8
0
10
5.8867
20
1.3127
42
-0.0345
0
VERTEX
8
0
10
5.9167
20
1.2628
42
0.0165
0
VERTEX
8
0
10
5.9822
20
1.1487
42
0.0071
0
VERTEX
8
0
10
6.0177
20
1.0932
0
SEQEND
8
0
0
POLYLINE
8
Layer 1
66
1
0
VERTEX
8
0
10
5.8677
20
1.0297
42
-0.0300
0
VERTEX
8
0
10
5.8727
20
1.0139
42
-0.0713
0
VERTEX
8
0
10
5.8751
20
0.9975
42
-0.0767
0
VERTEX
8
0
10
5.8741
20
0.9893
42
-0.1332
0
VERTEX
8
0
10
5.8702
20
0.9822
42
-0.1192
0
VERTEX
8
0
10
5.8631
20
0.9780
42
-0.0663
0
VERTEX
8
0
10
5.8549
20
0.9770
42
-0.0448
0
VERTEX
8
0
10
5.8457
20
0.9792
42
-0.0532
0
VERTEX
8
0
10
5.8382
20
0.9828
42
-0.0280
0
VERTEX
8
0
10
5.8252
20
0.9923
42
-0.0265
0
VERTEX
8
0
10
5.8018
20
1.0146
42
-0.0218
0
VERTEX
8
0
10
5.7604
20
1.0642
42
-0.0221
0
VERTEX
8
0
10
5.6873
20
1.1708
42
-0.0265
0
VERTEX
8
0
10
5.6240
20
1.2834
42
-0.0308
0
VERTEX
8
0
10
5.5980
20
1.3425
42
-0.0426
0
VERTEX
8
0
10
5.5886
20
1.3735
42
-0.0531
0
VERTEX
8
0
10
5.5866
20
1.3895
42
-0.1591
0
VERTEX
8
0
10
5.5910
20
1.4047
0
VERTEX
8
0
10
5.5955
20
1.4049
0
VERTEX
8
0
10
5.5993
20
1.4029
42
-0.0280
0
VERTEX
8
0
10
5.6061
20
1.3979
42
-0.0196
0
VERTEX
8
0
10
5.6186
20
1.3864
42
-0.0146
0
VERTEX
8
0
10
5.6418
20
1.3615
42
-0.0110
0
VERTEX
8
0
10
5.6851
20
1.3091
42
-0.0127
0
VERTEX
8
0
10
5.7663
20
1.1999
42
-0.0095
0
VERTEX
8
0
10
5.8035
20
1.1454
42
-0.0172
0
VERTEX
8
0
10
5.8384
20
1.0890
42
-0.0148
0
VERTEX
8
0
10
5.8542
20
1.0599
42
-0.0309
0
VERTEX
8
0
10
5.8677
20
1.0297
0
SEQEND
8
0
0
POLYLINE
8
Layer 1
66
1
0
VERTEX
8
0
10
5.6761
20
1.0613
42
-0.0925
0
VERTEX
8
0
10
5.6715
20
1.0441
42
-0.2188
0
VERTEX
8
0
10
5.6590
20
1.0318
42
-0.1303
0
VERTEX
8
0
10
5.6414
20
1.0321
42
-0.0512
0
VERTEX
8
0
10
5.6250
20
1.0391
42
-0.0261
0
VERTEX
8
0
10
5.6099
20
1.0489
42
-0.0263
0
VERTEX
8
0
10
5.5823
20
1.0717
42
-0.0226
0
VERTEX
8
0
10
5.5326
20
1.1233
42
-0.0126
0
VERTEX
8
0
10
5.4867
20
1.1785
0
VERTEX
8
0
10
5.4852
20
1.1804
0
VERTEX
8
0
10
5.4834
20
1.1827
0
VERTEX
8
0
10
5.4799
20
1.1873
42
-0.0027
0
VERTEX
8
0
10
5.4728
20
1.1965
42
-0.0065
0
VERTEX
8
0
10
5.4590
20
1.2151
42
-0.0255
0
VERTEX
8
0
10
5.4334
20
1.2538
42
-0.0254
0
VERTEX
8
0
10
5.4224
20
1.2742
42
-0.0619
0
VERTEX
8
0
10
5.4144
20
1.2959
42
-0.0739
0
VERTEX
8
0
10
5.4130
20
1.3074
42
-0.1618
0
VERTEX
8
0
10
5.4163
20
1.3184
42
-0.1442
0
VERTEX
8
0
10
5.4256
20
1.3249
42
-0.0650
0
VERTEX
8
0
10
5.4370
20
1.3268
0
VERTEX
8
0
10
5.4412
20
1.3273
0
VERTEX
8
0
10
5.4445
20
1.3288
42
0.2061
0
VERTEX
8
0
10
5.4477
20
1.3351
42
0.0898
0
VERTEX
8
0
10
5.4440
20
1.3491
42
0.0398
0
VERTEX
8
0
10
5.4285
20
1.3738
42
0.0253
0
VERTEX
8
0
10
5.3905
20
1.4180
42
0.0228
0
VERTEX
8
0
10
5.3053
20
1.4977
0
VERTEX
8
0
10
5.2987
20
1.5035
0
VERTEX
8
0
10
5.2924
20
1.5089
42
-0.0035
0
VERTEX
8
0
10
5.2799
20
1.5200
42
-0.0064
0
VERTEX
8
0
10
5.2553
20
1.5425
42
-0.0157
0
VERTEX
8
0
10
5.2079
20
1.5894
42
-0.0290
0
VERTEX
8
0
10
5.1641
20
1.6397
42
-0.0394
0
VERTEX
8
0
10
5.1453
20
1.6671
42
-0.0573
0
VERTEX
8
0
10
5.1381
20
1.6822
42
-0.0819
0
VERTEX
8
0
10
5.1364
20
1.6903
42
-0.2395
0
VERTEX
8
0
10
5.1388
20
1.6980
0
VERTEX
8
0
10
5.1427
20
1.7002
0
VERTEX
8
0
10
5.1468
20
1.7007
42
-0.0531
0
VERTEX
8
0
10
5.1551
20
1.6994
42
-0.0379
0
VERTEX
8
0
10
5.1706
20
1.6933
42
-0.0278
0
VERTEX
8
0
10
5.1995
20
1.6766
42
-0.0212
0
VERTEX
8
0
10
5.2532
20
1.6368
42
-0.0247
0
VERTEX
8
0
10
5.3522
20
1.5469
0
VERTEX
8
0
10
5.3583
20
1.5408
0
VERTEX
8
0
10
5.3641
20
1.5349
42
-0.0024
0
VERTEX
8
0
10
5.3756
20
1.5231
42
-0.0051
0
VERTEX
8
0
10
5.3983
20
1.4992
42
-0.0120
0
VERTEX
8
0
10
5.4422
20
1.4500
42
-0.0228
0
VERTEX
8
0
10
5.4833
20
1.3984
42
-0.0291
0
VERTEX
8
0
10
5.5016
20
1.3710
42
-0.0407
0
VERTEX
8
0
10
5.5092
20
1.3563
42
-0.0605
0
VERTEX
8
0
10
5.5117
20
1.3485
0
VERTEX
8
0
10
5.5119
20
1.3444
0
VERTEX
8
0
10
5.5104
20
1.3406
42
0.1651
0
VERTEX
8
0
10
5.5074
20
1.3322
42
0.0573
0
VERTEX
8
0
10
5.5087
20
1.3233
42
0.0434
0
VERTEX
8
0
10
5.5154
20
1.3066
42
0.0345
0
VERTEX
8
0
10
5.5345
20
1.2760
42
0.0375
0
VERTEX
8
0
10
5.5816
20
1.2213
42
-0.0415
0
VERTEX
8
0
10
5.6386
20
1.1544
42
-0.0336
0
VERTEX
8
0
10
5.6623
20
1.1174
42
-0.0342
0
VERTEX
8
0
10
5.6718
20
1.0976
42
-0.0321
0
VERTEX
8
0
10
5.6753
20
1.0872
42
-0.0740
0
VERTEX
8
0
10
5.6769
20
1.0764
0
VERTEX
8
0
10
5.6769
20
1.0764
0
VERTEX
8
0
10
5.6769
20
1.0748
0
VERTEX
8
0
10
5.6769
20
1.0748
0
VERTEX
8
0
10
5.6769
20
1.0757
0
VERTEX
8
0
10
5.6769
20
1.0724
0
VERTEX
8
0
10
5.6768
20
1.0703
42
-0.0220
0
VERTEX
8
0
10
5.6761
20
1.0613
0
SEQEND
8
0
0
POLYLINE
8
Layer 1
66
1
0
VERTEX
8
0
10
5.4502
20
1.0884
42
-0.1135
0
VERTEX
8
0
10
5.4494
20
1.0823
0
VERTEX
8
0
10
5.4455
20
1.0776
42
-0.1090
0
VERTEX
8
0
10
5.4394
20
1.0764
42
-0.0282
0
VERTEX
8
0
10
5.4296
20
1.0773
42
-0.0289
0
VERTEX
8
0
10
5.4209
20
1.0791
42
-0.0276
0
VERTEX
8
0
10
5.4043
20
1.0849
42
-0.0288
0
VERTEX
8
0
10
5.3729
20
1.1005
42
-0.0266
0
VERTEX
8
0
10
5.3144
20
1.1394
42
-0.0287
0
VERTEX
8
0
10
5.2076
20
1.2308
42
-0.0345
0
VERTEX
8
0
10
5.1121
20
1.3338
42
-0.0392
0
VERTEX
8
0
10
5.0713
20
1.3910
42
-0.0498
0
VERTEX
8
0
10
5.0554
20
1.4223
42
-0.0552
0
VERTEX
8
0
10
5.0506
20
1.4391
42
-0.1216
0
VERTEX
8
0
10
5.0515
20
1.4565
42
0.0572
0
VERTEX
8
0
10
5.0570
20
1.4769
42
0.0926
0
VERTEX
8
0
10
5.0569
20
1.4979
42
0.1740
0
VERTEX
8
0
10
5.0474
20
1.5165
42
0.1800
0
VERTEX
8
0
10
5.0281
20
1.5237
42
-0.0655
0
VERTEX
8
0
10
5.0178
20
1.5261
42
-0.0221
0
VERTEX
8
0
10
5.0083
20
1.5304
42
-0.0186
0
VERTEX
8
0
10
4.9899
20
1.5407
42
-0.0146
0
VERTEX
8
0
10
4.9550
20
1.5639
42
-0.0131
0
VERTEX
8
0
10
4.8882
20
1.6147
42
-0.0159
0
VERTEX
8
0
10
4.7610
20
1.7245
42
0.0095
0
VERTEX
8
0
10
4.7054
20
1.7742
42
0.0167
0
VERTEX
8
0
10
4.6474
20
1.8213
42
0.0153
0
VERTEX
8
0
10
4.6171
20
1.8430
42
0.0299
0
VERTEX
8
0
10
4.5851
20
1.8624
42
0.0284
0
VERTEX
8
0
10
4.5682
20
1.8703
42
0.0599
0
VERTEX
8
0
10
4.5504
20
1.8756
42
0.1652
0
VERTEX
8
0
10
4.5320
20
1.8746
42
0.1959
0
VERTEX
8
0
10
4.5198
20
1.8611
42
-0.0107
0
VERTEX
8
0
10
4.5171
20
1.8541
42
-0.0141
0
VERTEX
8
0
10
4.5142
20
1.8474
42
-0.0552
0
VERTEX
8
0
10
4.5069
20
1.8349
42
-0.1330
0
VERTEX
8
0
10
4.4962
20
1.8253
42
-0.1549
0
VERTEX
8
0
10
4.4821
20
1.8235
42
-0.0688
0
VERTEX
8
0
10
4.4686
20
1.8286
42
-0.0309
0
VERTEX
8
0
10
4.4565
20
1.8365
42
-0.0229
0
VERTEX
8
0
10
4.4344
20
1.8553
42
0.1177
0
VERTEX
8
0
10
4.3728
20
1.8881
42
0.0640
0
VERTEX
8
0
10
4.3379
20
1.8928
42
0.1023
0
VERTEX
8
0
10
4.3033
20
1.8871
42
-0.0875
0
VERTEX
8
0
10
4.2657
20
1.8817
42
-0.0549
0
VERTEX
8
0
10
4.2280
20
1.8876
42
-0.0496
0
VERTEX
8
0
10
4.1923
20
1.9012
42
-0.0607
0
VERTEX
8
0
10
4.1603
20
1.9219
0
VERTEX
8
0
10
4.1569
20
1.9246
0
VERTEX
8
0
10
4.1541
20
1.9269
42
0.0029
0
VERTEX
8
0
10
4.1485
20
1.9315
42
0.0100
0
VERTEX
8
0
10
4.1369
20
1.9403
42
0.0193
0
VERTEX
8
0
10
4.1250
20
1.9485
42
0.0509
0
VERTEX
8
0
10
4.1122
20
1.9554
42
0.0622
0
VERTEX
8
0
10
4.1052
20
1.9575
42
0.1388
0
VERTEX
8
0
10
4.0980
20
1.9572
42
0.1487
0
VERTEX
8
0
10
4.0924
20
1.9529
42
0.0689
0
VERTEX
8
0
10
4.0893
20
1.9463
42
0.0440
0
VERTEX
8
0
10
4.0868
20
1.9320
42
0.0171
0
VERTEX
8
0
10
4.0864
20
1.9175
0
VERTEX
8
0
10
4.0863
20
1.9137
0
VERTEX
8
0
10
4.0862
20
1.9107
42
-0.0112
0
VERTEX
8
0
10
4.0859
20
1.9048
42
-0.0438
0
VERTEX
8
0
10
4.0843
20
1.8929
42
-0.1564
0
VERTEX
8
0
10
4.0795
20
1.8821
42
-0.2518
0
VERTEX
8
0
10
4.0686
20
1.8791
42
-0.0677
0
VERTEX
8
0
10
4.0578
20
1.8842
42
-0.0256
0
VERTEX
8
0
10
4.0482
20
1.8913
42
-0.0194
0
VERTEX
8
0
10
4.0306
20
1.9075
42
0.1213
0
VERTEX
8
0
10
3.9749
20
1.9391
42
0.0671
0
VERTEX
8
0
10
3.9431
20
1.9440
42
0.1036
0
VERTEX
8
0
10
3.9113
20
1.9389
42
-0.1576
0
VERTEX
8
0
10
3.8581
20
1.9370
42
-0.0848
0
VERTEX
8
0
10
3.8336
20
1.9485
42
-0.1072
0
VERTEX
8
0
10
3.8149
20
1.9679
42
0.0956
0
VERTEX
8
0
10
3.8012
20
1.9816
42
0.0532
0
VERTEX
8
0
10
3.7837
20
1.9904
42
0.0592
0
VERTEX
8
0
10
3.7455
20
1.9987
42
0.0831
0
VERTEX
8
0
10
3.6678
20
1.9925
42
-0.0876
0
VERTEX
8
0
10
3.6003
20
1.9873
42
-0.0712
0
VERTEX
8
0
10
3.5348
20
2.0046
42
-0.0457
0
VERTEX
8
0
10
3.4754
20
2.0374
42
-0.0278
0
VERTEX
8
0
10
3.4218
20
2.0793
0
VERTEX
8
0
10
3.4175
20
2.0830
0
VERTEX
8
0
10
3.4136
20
2.0865
0
VERTEX
8
0
10
3.4057
20
2.0935
42
-0.0049
0
VERTEX
8
0
10
3.3902
20
2.1076
42
-0.0221
0
VERTEX
8
0
10
3.3604
20
2.1373
42
-0.0519
0
VERTEX
8
0
10
3.3344
20
2.1703
42
-0.0854
0
VERTEX
8
0
10
3.3179
20
2.2087
42
-0.0650
0
VERTEX
8
0
10
3.3146
20
2.2505
42
-0.0299
0
VERTEX
8
0
10
3.3201
20
2.2921
42
-0.0154
0
VERTEX
8
0
10
3.3405
20
2.3737
42
-0.0256
0
VERTEX
8
0
10
3.3655
20
2.4497
42
-0.0409
0
VERTEX
8
0
10
3.3996
20
2.5219
42
-0.0511
0
VERTEX
8
0
10
3.4459
20
2.5869
42
-0.0456
0
VERTEX
8
0
10
3.5043
20
2.6413
42
-0.0317
0
VERTEX
8
0
10
3.5708
20
2.6855
42
-0.0197
0
VERTEX
8
0
10
3.6418
20
2.7222
42
-0.0179
0
VERTEX
8
0
10
3.7898
20
2.7828
0
VERTEX
8
0
10
3.7979
20
2.7858
0
VERTEX
8
0
10
3.8045
20
2.7882
0
VERTEX
8
0
10
3.8093
20
2.7899
0
VERTEX
8
0
10
3.8123
20
2.7910
0
VERTEX
8
0
10
3.8190
20
2.7934
0
VERTEX
8
0
10
3.8324
20
2.7983
0
VERTEX
8
0
10
3.8592
20
2.8078
42
-0.0053
0
VERTEX
8
0
10
3.9133
20
2.8262
42
-0.0092
0
VERTEX
8
0
10
3.9676
20
2.8432
42
-0.0267
0
VERTEX
8
0
10
4.0229
20
2.8573
42
-0.0175
0
VERTEX
8
0
10
4.0370
20
2.8597
42
-0.0533
0
VERTEX
8
0
10
4.0512
20
2.8607
42
-0.1195
0
VERTEX
8
0
10
4.0581
20
2.8594
42
-0.3862
0
VERTEX
8
0
10
4.0607
20
2.8536
42
-0.0766
0
VERTEX
8
0
10
4.0519
20
2.8425
42
-0.0268
0
VERTEX
8
0
10
4.0295
20
2.8250
42
-0.0103
0
VERTEX
8
0
10
4.0057
20
2.8093
42
-0.0127
0
VERTEX
8
0
10
3.9067
20
2.7525
42
0.0217
0
VERTEX
8
0
10
3.7304
20
2.6489
42
0.0161
0
VERTEX
8
0
10
3.6461
20
2.5909
42
0.0234
0
VERTEX
8
0
10
3.5663
20
2.5268
42
0.0369
0
VERTEX
8
0
10
3.4941
20
2.4544
42
0.0256
0
VERTEX
8
0
10
3.4626
20
2.4141
42
0.0335
0
VERTEX
8
0
10
3.4358
20
2.3705
42
0.0429
0
VERTEX
8
0
10
3.4157
20
2.3235
42
0.0515
0
VERTEX
8
0
10
3.4045
20
2.2737
42
0.1051
0
VERTEX
8
0
10
3.4145
20
2.1726
42
0.0878
0
VERTEX
8
0
10
3.4473
20
2.1089
42
0.1105
0
VERTEX
8
0
10
3.5012
20
2.0615
42
0.0782
0
VERTEX
8
0
10
3.5349
20
2.0488
42
0.1157
0
VERTEX
8
0
10
3.5708
20
2.0487
42
0.1371
0
VERTEX
8
0
10
3.6021
20
2.0659
42
0.0993
0
VERTEX
8
0
10
3.6213
20
2.0962
42
-0.0866
0
VERTEX
8
0
10
3.6347
20
2.1169
42
-0.0525
0
VERTEX
8
0
10
3.6535
20
2.1328
42
-0.0602
0
VERTEX
8
0
10
3.6978
20
2.1544
42
-0.0784
0
VERTEX
8
0
10
3.7951
20
2.1699
42
0.0338
0
VERTEX
8
0
10
3.8455
20
2.1748
42
0.0172
0
VERTEX
8
0
10
3.8951
20
2.1850
42
0.0198
0
VERTEX
8
0
10
3.9923
20
2.2134
42
0.0380
0
VERTEX
8
0
10
4.1793
20
2.2909
42
-0.0370
0
VERTEX
8
0
10
4.3399
20
2.3574
42
-0.0275
0
VERTEX
8
0
10
4.5080
20
2.4015
42
-0.0174
0
VERTEX
8
0
10
4.6797
20
2.4295
42
-0.0103
0
VERTEX
8
0
10
4.8527
20
2.4472
0
VERTEX
8
0
10
4.8609
20
2.4479
0
VERTEX
8
0
10
4.8684
20
2.4485
0
VERTEX
8
0
10
4.8827
20
2.4498
42
0.0030
0
VERTEX
8
0
10
4.9114
20
2.4527
42
0.0055
0
VERTEX
8
0
10
4.9688
20
2.4593
42
0.0108
0
VERTEX
8
0
10
5.0830
20
2.4764
42
0.0239
0
VERTEX
8
0
10
5.3085
20
2.5257
42
0.0156
0
VERTEX
8
0
10
5.4191
20
2.5589
42
0.0235
0
VERTEX
8
0
10
5.5270
20
2.5998
42
0.0182
0
VERTEX
8
0
10
5.5792
20
2.6245
42
0.0307
0
VERTEX
8
0
10
5.6291
20
2.6535
42
0.0249
0
VERTEX
8
0
10
5.6524
20
2.6706
42
0.0418
0
VERTEX
8
0
10
5.6734
20
2.6903
42
0.0828
0
VERTEX
8
0
10
5.6898
20
2.7140
42
0.1543
0
VERTEX
8
0
10
5.6947
20
2.7420
42
0.0027
0
VERTEX
8
0
10
5.6530
20
3.0026
0
VERTEX
8
0
10
5.6530
20
3.0026
0
VERTEX
8
0
10
5.6525
20
3.0056
0
VERTEX
8
0
10
5.6520
20
3.0091
0
VERTEX
8
0
10
5.6508
20
3.0162
0
VERTEX
8
0
10
5.6486
20
3.0303
42
-0.0036
0
VERTEX
8
0
10
5.6445
20
3.0586
42
-0.0199
0
VERTEX
8
0
10
5.6382
20
3.1154
42
-0.0242
0
VERTEX
8
0
10
5.6373
20
3.1440
42
-0.0774
0
VERTEX
8
0
10
5.6406
20
3.1724
42
-0.1149
0
VERTEX
8
0
10
5.6466
20
3.1852
42
-0.1780
0
VERTEX
8
0
10
5.6585
20
3.1925
42
-0.0846
0
VERTEX
8
0
10
5.6727
20
3.1920
42
-0.0353
0
VERTEX
8
0
10
5.6864
20
3.1879
42
0.0686
0
VERTEX
8
0
10
5.7082
20
3.1836
42
0.0399
0
VERTEX
8
0
10
5.7304
20
3.1844
42
0.0481
0
VERTEX
8
0
10
5.7738
20
3.1945
42
0.0825
0
VERTEX
8
0
10
5.8523
20
3.2359
0
VERTEX
8
0
10
5.8559
20
3.2386
0
VERTEX
8
0
10
5.8585
20
3.2406
0
VERTEX
8
0
10
5.8616
20
3.2429
0
VERTEX
8
0
10
5.8676
20
3.2476
42
0.0062
0
VERTEX
8
0
10
5.8796
20
3.2570
42
0.0490
0
VERTEX
8
0
10
5.9022
20
3.2774
42
0.0391
0
VERTEX
8
0
10
5.9069
20
3.2833
42
0.1088
0
VERTEX
8
0
10
5.9102
20
3.2901
42
0.2340
0
VERTEX
8
0
10
5.9089
20
3.2974
42
0.0977
0
VERTEX
8
0
10
5.9028
20
3.3019
42
0.0487
0
VERTEX
8
0
10
5.8883
20
3.3062
42
0.0164
0
VERTEX
8
0
10
5.8732
20
3.3085
42
0.0140
0
VERTEX
8
0
10
5.8124
20
3.3122
0
VERTEX
8
0
10
5.7515
20
3.3136
0
VERTEX
8
0
10
5.5527
20
3.3173
0
VERTEX
8
0
10
5.7266
20
3.4168
0
VERTEX
8
0
10
5.9006
20
3.5163
0
VERTEX
8
0
10
5.7018
20
3.4849
0
VERTEX
8
0
10
5.6948
20
3.4838
0
VERTEX
8
0
10
5.6888
20
3.4828
0
VERTEX
8
0
10
5.6839
20
3.4821
0
VERTEX
8
0
10
5.6801
20
3.4815
0
VERTEX
8
0
10
5.6774
20
3.4811
0
VERTEX
8
0
10
5.6774
20
3.4811
0
VERTEX
8
0
10
5.6733
20
3.4804
0
VERTEX
8
0
10
5.6624
20
3.4788
42
-0.0032
0
VERTEX
8
0
10
5.6407
20
3.4758
42
-0.0122
0
VERTEX
8
0
10
5.5970
20
3.4706
42
-0.0145
0
VERTEX
8
0
10
5.5751
20
3.4691
42
-0.0459
0
VERTEX
8
0
10
5.5532
20
3.4694
42
-0.1017
0
VERTEX
8
0
10
5.5425
20
3.4719
42
-0.4228
0
VERTEX
8
0
10
5.5385
20
3.4807
42
-0.0726
0
VERTEX
8
0
10
5.5449
20
3.4895
42
-0.0235
0
VERTEX
8
0
10
5.5531
20
3.4969
42
-0.0219
0
VERTEX
8
0
10
5.5891
20
3.5220
42
-0.0072
0
VERTEX
8
0
10
5.6266
20
3.5448
42
-0.0045
0
VERTEX
8
0
10
5.7031
20
3.5881
0
VERTEX
8
0
10
5.8509
20
3.6699
0
VERTEX
8
0
10
5.6645
20
3.6437
0
VERTEX
8
0
10
5.6605
20
3.6432
0
VERTEX
8
0
10
5.6572
20
3.6427
0
VERTEX
8
0
10
5.6546
20
3.6424
0
VERTEX
8
0
10
5.6546
20
3.6424
0
VERTEX
8
0
10
5.6477
20
3.6415
42
-0.0032
0
VERTEX
8
0
10
5.6374
20
3.6403
42
-0.0066
0
VERTEX
8
0
10
5.6168
20
3.6381
42
-0.0178
0
VERTEX
8
0
10
5.5755
20
3.6356
42
-0.0350
0
VERTEX
8
0
10
5.5341
20
3.6368
42
-0.0352
0
VERTEX
8
0
10
5.5137
20
3.6399
42
-0.0897
0
VERTEX
8
0
10
5.4943
20
3.6470
42
-0.1030
0
VERTEX
8
0
10
5.4863
20
3.6536
42
-0.1549
0
VERTEX
8
0
10
5.4826
20
3.6630
42
-0.1018
0
VERTEX
8
0
10
5.4844
20
3.6731
42
-0.0518
0
VERTEX
8
0
10
5.4894
20
3.6822
42
-0.0446
0
VERTEX
8
0
10
5.5032
20
3.6975
42
-0.0238
0
VERTEX
8
0
10
5.5192
20
3.7107
42
-0.0234
0
VERTEX
8
0
10
5.5537
20
3.7336
42
-0.0126
0
VERTEX
8
0
10
5.5899
20
3.7536
0
VERTEX
8
0
10
5.5941
20
3.7558
0
VERTEX
8
0
10
5.5973
20
3.7575
0
VERTEX
8
0
10
5.5994
20
3.7586
0
VERTEX
8
0
10
5.5994
20
3.7586
0
VERTEX
8
0
10
5.6066
20
3.7624
42
0.0039
0
VERTEX
8
0
10
5.6183
20
3.7687
42
0.0254
0
VERTEX
8
0
10
5.6412
20
3.7822
42
0.0791
0
VERTEX
8
0
10
5.6516
20
3.7903
0
VERTEX
8
0
10
5.6535
20
3.7930
0
VERTEX
8
0
10
5.6532
20
3.7961
42
0.1037
0
VERTEX
8
0
10
5.6470
20
3.7982
42
0.0316
0
VERTEX
8
0
10
5.6206
20
3.7977
42
0.0090
0
VERTEX
8
0
10
5.5154
20
3.7839
42
-0.0420
0
VERTEX
8
0
10
5.4176
20
3.7762
42
-0.0471
0
VERTEX
8
0
10
5.3687
20
3.7798
42
-0.0653
0
VERTEX
8
0
10
5.3451
20
3.7860
42
-0.0915
0
VERTEX
8
0
10
5.3345
20
3.7921
42
-0.2474
0
VERTEX
8
0
10
5.3290
20
3.8026
42
-0.0892
0
VERTEX
8
0
10
5.3320
20
3.8177
42
-0.0592
0
VERTEX
8
0
10
5.3393
20
3.8309
42
-0.0655
0
VERTEX
8
0
10
5.3608
20
3.8523
42
-0.0699
0
VERTEX
8
0
10
5.4143
20
3.8806
42
-0.0756
0
VERTEX
8
0
10
5.4735
20
3.8933
42
-0.0610
0
VERTEX
8
0
10
5.5038
20
3.8920
42
-0.1076
0
VERTEX
8
0
10
5.5323
20
3.8820
42
0.1005
0
VERTEX
8
0
10
5.5478
20
3.8756
42
0.1863
0
VERTEX
8
0
10
5.5641
20
3.8776
42
0.1629
0
VERTEX
8
0
10
5.5747
20
3.8902
42
0.0845
0
VERTEX
8
0
10
5.5775
20
3.9066
42
0.1561
0
VERTEX
8
0
10
5.5725
20
3.9185
42
0.0621
0
VERTEX
8
0
10
5.5626
20
3.9269
42
0.0477
0
VERTEX
8
0
10
5.5391
20
3.9381
42
0.0379
0
VERTEX
8
0
10
5.4886
20
3.9509
42
0.0396
0
VERTEX
8
0
10
5.3848
20
3.9593
0
VERTEX
8
0
10
5.3848
20
3.9593
0
VERTEX
8
0
10
5.3822
20
3.9593
0
VERTEX
8
0
10
5.3822
20
3.9593
0
VERTEX
8
0
10
5.3822
20
3.9593
0
VERTEX
8
0
10
5.3829
20
3.9593
0
VERTEX
8
0
10
5.3832
20
3.9593
0
VERTEX
8
0
10
5.3833
20
3.9593
0
VERTEX
8
0
10
5.3804
20
3.9593
42
-0.0042
0
VERTEX
8
0
10
5.3739
20
3.9594
42
-0.0078
0
VERTEX
8
0
10
5.3607
20
3.9600
42
-0.0140
0
VERTEX
8
0
10
5.3344
20
3.9624
42
-0.0265
0
VERTEX
8
0
10
5.2825
20
3.9717
42
-0.0515
0
VERTEX
8
0
10
5.1827
20
4.0059
42
-0.0346
0
VERTEX
8
0
10
5.1363
20
4.0311
42
-0.0665
0
VERTEX
8
0
10
5.0948
20
4.0637
42
-0.0760
0
VERTEX
8
0
10
5.0788
20
4.0846
42
-0.0686
0
VERTEX
8
0
10
5.0738
20
4.0968
42
-0.1065
0
VERTEX
8
0
10
5.0730
20
4.1099
42
-0.1118
0
VERTEX
8
0
10
5.0779
20
4.1220
42
-0.0743
0
VERTEX
8
0
10
5.0871
20
4.1314
42
-0.0676
0
VERTEX
8
0
10
5.1107
20
4.1431
42
0.0322
0
VERTEX
8
0
10
5.1504
20
4.1621
42
0.0144
0
VERTEX
8
0
10
5.1880
20
4.1849
42
0.0242
0
VERTEX
8
0
10
5.2598
20
4.2360
0
VERTEX
8
0
10
5.2629
20
4.2385
0
VERTEX
8
0
10
5.2653
20
4.2404
0
VERTEX
8
0
10
5.2681
20
4.2426
0
VERTEX
8
0
10
5.2735
20
4.2469
42
0.0034
0
VERTEX
8
0
10
5.2841
20
4.2556
42
0.0345
0
VERTEX
8
0
10
5.3045
20
4.2737
42
0.0386
0
VERTEX
8
0
10
5.3090
20
4.2788
0
VERTEX
8
0
10
5.3108
20
4.2817
0
VERTEX
8
0
10
5.3108
20
4.2849
42
0.1171
0
VERTEX
8
0
10
5.3042
20
4.2856
42
0.0217
0
VERTEX
8
0
10
5.2975
20
4.2844
42
0.0165
0
VERTEX
8
0
10
5.2713
20
4.2763
42
0.0058
0
VERTEX
8
0
10
5.1691
20
4.2375
0
VERTEX
8
0
10
5.1654
20
4.2360
0
VERTEX
8
0
10
5.1627
20
4.2350
0
VERTEX
8
0
10
5.1573
20
4.2328
0
VERTEX
8
0
10
5.1465
20
4.2286
42
-0.0028
0
VERTEX
8
0
10
5.1248
20
4.2202
42
-0.0139
0
VERTEX
8
0
10
5.0812
20
4.2045
42
-0.0473
0
VERTEX
8
0
10
5.0362
20
4.1929
42
-0.0471
0
VERTEX
8
0
10
5.0131
20
4.1911
42
-0.0642
0
VERTEX
8
0
10
4.9902
20
4.1944
42
-0.0579
0
VERTEX
8
0
10
4.9688
20
4.2033
42
-0.0378
0
VERTEX
8
0
10
4.9496
20
4.2163
42
-0.0298
0
VERTEX
8
0
10
4.9160
20
4.2482
42
-0.0082
0
VERTEX
8
0
10
4.8551
20
4.3183
42
-0.0206
0
VERTEX
8
0
10
4.8128
20
4.3717
42
-0.0470
0
VERTEX
8
0
10
4.7772
20
4.4292
42
-0.0745
0
VERTEX
8
0
10
4.7556
20
4.4932
42
-0.0614
0
VERTEX
8
0
10
4.7532
20
4.5608
42
-0.0330
0
VERTEX
8
0
10
4.7647
20
4.6275
42
-0.0162
0
VERTEX
8
0
10
4.7831
20
4.6927
42
-0.0107
0
VERTEX
8
0
10
4.8286
20
4.8204
42
-0.0452
0
VERTEX
8
0
10
4.8621
20
4.8878
42
-0.0367
0
VERTEX
8
0
10
4.9065
20
4.9487
42
-0.0620
0
VERTEX
8
0
10
5.0179
20
5.0498
42
-0.0685
0
VERTEX
8
0
10
5.1508
20
5.1202
42
-0.0438
0
VERTEX
8
0
10
5.2234
20
5.1402
42
-0.0580
0
VERTEX
8
0
10
5.2984
20
5.1459
0
VERTEX
8
0
10
5.4532
20
5.1397
0
VERTEX
8
0
10
5.2668
20
5.0875
42
0.0228
0
VERTEX
8
0
10
5.1688
20
5.0557
42
0.0228
0
VERTEX
8
0
10
5.1213
20
5.0360
42
0.0292
0
VERTEX
8
0
10
5.0985
20
5.0240
42
0.0392
0
VERTEX
8
0
10
5.0879
20
5.0168
0
VERTEX
8
0
10
5.0832
20
5.0124
42
0.1983
0
VERTEX
8
0
10
5.0805
20
5.0068
0
VERTEX
8
0
10
5.0829
20
5.0038
0
VERTEX
8
0
10
5.0862
20
5.0023
42
0.0237
0
VERTEX
8
0
10
5.0931
20
5.0001
42
0.0167
0
VERTEX
8
0
10
5.1073
20
4.9972
42
0.0122
0
VERTEX
8
0
10
5.1359
20
4.9932
42
0.0094
0
VERTEX
8
0
10
5.1935
20
4.9881
42
0.0080
0
VERTEX
8
0
10
5.3090
20
4.9821
42
0.0084
0
VERTEX
8
0
10
5.5402
20
4.9782
42
-0.0081
0
VERTEX
8
0
10
5.7196
20
4.9762
42
-0.0086
0
VERTEX
8
0
10
5.8092
20
4.9724
42
-0.0151
0
VERTEX
8
0
10
5.8986
20
4.9648
42
-0.0238
0
VERTEX
8
0
10
5.9871
20
4.9509
42
-0.0288
0
VERTEX
8
0
10
6.0738
20
4.9278
42
-0.0230
0
VERTEX
8
0
10
6.1573
20
4.8954
42
-0.0126
0
VERTEX
8
0
10
6.2382
20
4.8566
0
VERTEX
8
0
10
6.2476
20
4.8517
0
VERTEX
8
0
10
6.2557
20
4.8476
0
VERTEX
8
0
10
6.2708
20
4.8397
42
-0.0024
0
VERTEX
8
0
10
6.3009
20
4.8238
42
-0.0063
0
VERTEX
8
0
10
6.3608
20
4.7909
42
-0.0098
0
VERTEX
8
0
10
6.4197
20
4.7563
42
-0.0193
0
VERTEX
8
0
10
6.4768
20
4.7188
42
-0.0206
0
VERTEX
8
0
10
6.5040
20
4.6981
42
-0.0194
0
VERTEX
8
0
10
6.5168
20
4.6868
42
-0.0435
0
VERTEX
8
0
10
6.5282
20
4.6742
42
-0.0570
0
VERTEX
8
0
10
6.5330
20
4.6670
42
-0.1605
0
VERTEX
8
0
10
6.5347
20
4.6587
42
-0.2279
0
VERTEX
8
0
10
6.5308
20
4.6516
42
-0.0764
0
VERTEX
8
0
10
6.5226
20
4.6486
42
-0.0471
0
VERTEX
8
0
10
6.5056
20
4.6474
42
-0.0200
0
VERTEX
8
0
10
6.4886
20
4.6487
42
-0.0251
0
VERTEX
8
0
10
6.4216
20
4.6619
42
-0.0110
0
VERTEX
8
0
10
6.3558
20
4.6801
42
-0.0172
0
VERTEX
8
0
10
6.1624
20
4.7476
42
-0.0092
0
VERTEX
8
0
10
6.0676
20
4.7862
42
-0.0213
0
VERTEX
8
0
10
5.9748
20
4.8293
0
VERTEX
8
0
10
5.9748
20
4.8293
0
VERTEX
8
0
10
5.9710
20
4.8313
0
VERTEX
8
0
10
5.9667
20
4.8334
42
0.0026
0
VERTEX
8
0
10
5.9582
20
4.8377
42
0.0063
0
VERTEX
8
0
10
5.9410
20
4.8459
42
0.0185
0
VERTEX
8
0
10
5.9059
20
4.8608
42
0.0504
0
VERTEX
8
0
10
5.8695
20
4.8721
42
0.0344
0
VERTEX
8
0
10
5.8601
20
4.8735
42
0.1076
0
VERTEX
8
0
10
5.8506
20
4.8730
42
0.3885
0
VERTEX
8
0
10
5.8453
20
4.8662
42
0.0906
0
VERTEX
8
0
10
5.8488
20
4.8574
42
0.0418
0
VERTEX
8
0
10
5.8603
20
4.8426
42
0.0213
0
VERTEX
8
0
10
5.8734
20
4.8297
42
0.0219
0
VERTEX
8
0
10
5.9022
20
4.8064
42
0.0208
0
VERTEX
8
0
10
5.9639
20
4.7658
42
0.0231
0
VERTEX
8
0
10
6.0945
20
4.6965
42
0.0259
0
VERTEX
8
0
10
6.2308
20
4.6395
42
0.0241
0
VERTEX
8
0
10
6.3013
20
4.6173
42
0.0221
0
VERTEX
8
0
10
6.3374
20
4.6092
42
0.0482
0
VERTEX
8
0
10
6.3741
20
4.6055
42
-0.0455
0
VERTEX
8
0
10
6.4477
20
4.5992
42
-0.0556
0
VERTEX
8
0
10
6.5187
20
4.5789
42
-0.0680
0
VERTEX
8
0
10
6.5828
20
4.5424
42
-0.0801
0
VERTEX
8
0
10
6.6339
20
4.4893
42
-0.0859
0
VERTEX
8
0
10
6.6650
20
4.4226
42
-0.0807
0
VERTEX
8
0
10
6.6722
20
4.3493
42
-0.0675
0
VERTEX
8
0
10
6.6569
20
4.2771
42
-0.0533
0
VERTEX
8
0
10
6.6243
20
4.2109
42
-0.0355
0
VERTEX
8
0
10
6.6143
20
4.1970
42
-0.0648
0
VERTEX
8
0
10
6.6020
20
4.1849
42
-0.1672
0
VERTEX
8
0
10
6.5694
20
4.1750
42
-0.0672
0
VERTEX
8
0
10
6.5358
20
4.1830
42
-0.0261
0
VERTEX
8
0
10
6.5044
20
4.1976
42
-0.0177
0
VERTEX
8
0
10
6.4449
20
4.2334
42
-0.0050
0
VERTEX
8
0
10
6.3874
20
4.2722
42
0.0315
0
VERTEX
8
0
10
6.2958
20
4.3250
42
0.0180
0
VERTEX
8
0
10
6.1992
20
4.3679
42
0.0247
0
VERTEX
8
0
10
5.9991
20
4.4359
42
0.0265
0
VERTEX
8
0
10
5.7933
20
4.4841
42
0.0194
0
VERTEX
8
0
10
5.6886
20
4.4992
42
0.0344
0
VERTEX
8
0
10
5.5831
20
4.5045
0
VERTEX
8
0
10
5.5795
20
4.5044
0
VERTEX
8
0
10
5.5765
20
4.5043
0
VERTEX
8
0
10
5.5744
20
4.5043
0
VERTEX
8
0
10
5.5744
20
4.5043
0
VERTEX
8
0
10
5.5733
20
4.5042
0
VERTEX
8
0
10
5.5734
20
4.5042
0
VERTEX
8
0
10
5.5790
20
4.5044
0
VERTEX
8
0
10
5.5790
20
4.5044
0
VERTEX
8
0
10
5.5803
20
4.5045
0
VERTEX
8
0
10
5.5802
20
4.5045
0
VERTEX
8
0
10
5.5765
20
4.5043
42
0.0022
0
VERTEX
8
0
10
5.5709
20
4.5041
0
VERTEX
8
0
10
5.5663
20
4.5039
42
0.0057
0
VERTEX
8
0
10
5.5590
20
4.5034
42
0.0126
0
VERTEX
8
0
10
5.5510
20
4.5025
42
0.0518
0
VERTEX
8
0
10
5.5355
20
4.4996
42
0.1119
0
VERTEX
8
0
10
5.5282
20
4.4957
0
VERTEX
8
0
10
5.5256
20
4.4927
0
VERTEX
8
0
10
5.5252
20
4.4893
0
VERTEX
8
0
10
5.5271
20
4.4860
0
VERTEX
8
0
10
5.5302
20
4.4829
42
0.0359
0
VERTEX
8
0
10
5.5367
20
4.4782
42
0.0333
0
VERTEX
8
0
10
5.5653
20
4.4646
42
0.0202
0
VERTEX
8
0
10
5.6255
20
4.4445
42
0.0107
0
VERTEX
8
0
10
5.6870
20
4.4285
42
0.0273
0
VERTEX
8
0
10
5.9371
20
4.3844
42
-0.0241
0
VERTEX
8
0
10
6.0984
20
4.3578
42
-0.0227
0
VERTEX
8
0
10
6.1776
20
4.3380
42
-0.0266
0
VERTEX
8
0
10
6.2162
20
4.3247
42
-0.0325
0
VERTEX
8
0
10
6.2348
20
4.3162
42
-0.0366
0
VERTEX
8
0
10
6.2435
20
4.3109
42
-0.1140
0
VERTEX
8
0
10
6.2507
20
4.3037
0
VERTEX
8
0
10
6.2523
20
4.3006
0
VERTEX
8
0
10
6.2533
20
4.2982
0
VERTEX
8
0
10
6.2541
20
4.2950
42
-0.1152
0
VERTEX
8
0
10
6.2535
20
4.2884
42
-0.1329
0
VERTEX
8
0
10
6.2453
20
4.2782
42
-0.0701
0
VERTEX
8
0
10
6.2209
20
4.2678
42
-0.0410
0
VERTEX
8
0
10
6.1683
20
4.2600
42
-0.0345
0
VERTEX
8
0
10
6.0619
20
4.2620
42
-0.0284
0
VERTEX
8
0
10
5.9565
20
4.2772
42
-0.0438
0
VERTEX
8
0
10
5.8541
20
4.3060
42
0.0526
0
VERTEX
8
0
10
5.7878
20
4.3249
42
0.0652
0
VERTEX
8
0
10
5.7535
20
4.3277
42
0.1022
0
VERTEX
8
0
10
5.7366
20
4.3245
42
0.1336
0
VERTEX
8
0
10
5.7295
20
4.3197
42
0.1784
0
VERTEX
8
0
10
5.7266
20
4.3118
42
0.0651
0
VERTEX
8
0
10
5.7276
20
4.3046
42
0.0512
0
VERTEX
8
0
10
5.7301
20
4.2982
42
0.0662
0
VERTEX
8
0
10
5.7383
20
4.2871
42
0.0583
0
VERTEX
8
0
10
5.7604
20
4.2706
42
0.0436
0
VERTEX
8
0
10
5.8111
20
4.2490
42
0.0229
0
VERTEX
8
0
10
5.8645
20
4.2347
42
0.0142
0
VERTEX
8
0
10
5.9188
20
4.2245
42
0.0201
0
VERTEX
8
0
10
6.0287
20
4.2124
42
0.0164
0
VERTEX
8
0
10
6.1391
20
4.2085
42
-0.0042
0
VERTEX
8
0
10
6.1496
20
4.2083
42
-0.0058
0
VERTEX
8
0
10
6.1584
20
4.2080
42
-0.0072
0
VERTEX
8
0
10
6.1747
20
4.2069
42
-0.0124
0
VERTEX
8
0
10
6.2074
20
4.2035
42
-0.0177
0
VERTEX
8
0
10
6.2721
20
4.1923
42
-0.0271
0
VERTEX
8
0
10
6.3990
20
4.1581
42
-0.0148
0
VERTEX
8
0
10
6.4608
20
4.1359
42
-0.0212
0
VERTEX
8
0
10
6.5211
20
4.1096
42
-0.0165
0
VERTEX
8
0
10
6.5502
20
4.0944
42
-0.0292
0
VERTEX
8
0
10
6.5780
20
4.0770
42
-0.0255
0
VERTEX
8
0
10
6.5909
20
4.0668
42
-0.0513
0
VERTEX
8
0
10
6.6024
20
4.0551
42
-0.1541
0
VERTEX
8
0
10
6.6098
20
4.0406
42
-0.1322
0
VERTEX
8
0
10
6.6093
20
4.0325
42
-0.1014
0
VERTEX
8
0
10
6.6048
20
4.0256
42
-0.1034
0
VERTEX
8
0
10
6.5955
20
4.0223
42
-0.0269
0
VERTEX
8
0
10
6.5856
20
4.0216
42
-0.0198
0
VERTEX
8
0
10
6.5659
20
4.0225
42
-0.0152
0
VERTEX
8
0
10
6.5268
20
4.0275
42
-0.0130
0
VERTEX
8
0
10
6.4494
20
4.0425
42
-0.0160
0
VERTEX
8
0
10
6.2966
20
4.0819
42
0.0176
0
VERTEX
8
0
10
6.1432
20
4.1212
42
0.0185
0
VERTEX
8
0
10
6.0655
20
4.1360
42
0.0211
0
VERTEX
8
0
10
6.0263
20
4.1408
42
0.0285
0
VERTEX
8
0
10
6.0065
20
4.1415
42
0.0382
0
VERTEX
8
0
10
5.9967
20
4.1408
0
VERTEX
8
0
10
5.9918
20
4.1397
0
VERTEX
8
0
10
5.9875
20
4.1374
0
VERTEX
8
0
10
5.9875
20
4.1374
0
VERTEX
8
0
10
5.9840
20
4.1335
42
0.0640
0
VERTEX
8
0
10
5.9805
20
4.1285
42
0.2867
0
VERTEX
8
0
10
5.9811
20
4.1167
42
0.0769
0
VERTEX
8
0
10
5.9904
20
4.1087
42
0.0262
0
VERTEX
8
0
10
6.0014
20
4.1029
42
0.0223
0
VERTEX
8
0
10
6.0479
20
4.0856
42
0.0079
0
VERTEX
8
0
10
6.1433
20
4.0579
0
VERTEX
8
0
10
6.3355
20
4.0074
42
-0.0285
0
VERTEX
8
0
10
6.4611
20
3.9683
42
-0.0279
0
VERTEX
8
0
10
6.5215
20
3.9426
42
-0.0362
0
VERTEX
8
0
10
6.5501
20
3.9266
42
-0.0471
0
VERTEX
8
0
10
6.5632
20
3.9167
42
-0.0602
0
VERTEX
8
0
10
6.5687
20
3.9107
42
-0.1756
0
VERTEX
8
0
10
6.5716
20
3.9031
0
VERTEX
8
0
10
6.5716
20
3.9009
0
VERTEX
8
0
10
6.5715
20
3.8976
42
-0.0252
0
VERTEX
8
0
10
6.5708
20
3.8912
42
-0.0964
0
VERTEX
8
0
10
6.5670
20
3.8789
42
-0.1318
0
VERTEX
8
0
10
6.5583
20
3.8696
42
-0.0800
0
VERTEX
8
0
10
6.5462
20
3.8652
42
-0.0568
0
VERTEX
8
0
10
6.5205
20
3.8644
42
-0.0225
0
VERTEX
8
0
10
6.4949
20
3.8681
42
-0.0168
0
VERTEX
8
0
10
6.4446
20
3.8799
42
-0.0066
0
VERTEX
8
0
10
6.3950
20
3.8943
42
-0.0052
0
VERTEX
8
0
10
6.2967
20
3.9260
0
VERTEX
8
0
10
6.1988
20
3.9593
42
0.0109
0
VERTEX
8
0
10
6.0289
20
4.0140
42
0.0097
0
VERTEX
8
0
10
5.9430
20
4.0381
42
0.0107
0
VERTEX
8
0
10
5.8996
20
4.0487
42
0.0137
0
VERTEX
8
0
10
5.8777
20
4.0530
42
0.0153
0
VERTEX
8
0
10
5.8667
20
4.0546
42
0.0541
0
VERTEX
8
0
10
5.8555
20
4.0552
42
0.0489
0
VERTEX
8
0
10
5.8525
20
4.0490
42
0.1018
0
VERTEX
8
0
10
5.8513
20
4.0438
0
VERTEX
8
0
10
5.8525
20
4.0398
0
VERTEX
8
0
10
5.8557
20
4.0369
42
-0.0247
0
VERTEX
8
0
10
5.8636
20
4.0321
42
0.0172
0
VERTEX
8
0
10
5.8709
20
4.0273
42
0.0144
0
VERTEX
8
0
10
5.9019
20
4.0099
42
0.0117
0
VERTEX
8
0
10
5.9657
20
3.9791
42
0.0124
0
VERTEX
8
0
10
6.0965
20
3.9242
42
0.0131
0
VERTEX
8
0
10
6.2298
20
3.8757
42
0.0100
0
VERTEX
8
0
10
6.2975
20
3.8544
42
0.0191
0
VERTEX
8
0
10
6.3661
20
3.8365
42
-0.0263
0
VERTEX
8
0
10
6.4099
20
3.8246
42
-0.0377
0
VERTEX
8
0
10
6.4519
20
3.8076
42
-0.0291
0
VERTEX
8
0
10
6.4717
20
3.7966
42
-0.0467
0
VERTEX
8
0
10
6.4898
20
3.7830
42
-0.1050
0
VERTEX
8
0
10
6.5039
20
3.7654
42
-0.2275
0
VERTEX
8
0
10
6.5059
20
3.7435
42
-0.1040
0
VERTEX
8
0
10
6.4918
20
3.7217
42
-0.0860
0
VERTEX
8
0
10
6.4705
20
3.7068
42
-0.1710
0
VERTEX
8
0
10
6.4194
20
3.7014
42
0.0100
0
VERTEX
8
0
10
6.3110
20
3.7220
42
0.0052
0
VERTEX
8
0
10
6.2019
20
3.7392
0
VERTEX
8
0
10
6.1969
20
3.7399
0
VERTEX
8
0
10
6.1932
20
3.7405
0
VERTEX
8
0
10
6.1909
20
3.7408
0
VERTEX
8
0
10
6.1909
20
3.7408
0
VERTEX
8
0
10
6.1819
20
3.7420
42
0.0031
0
VERTEX
8
0
10
6.1674
20
3.7439
42
0.0195
0
VERTEX
8
0
10
6.1383
20
3.7468
42
0.0741
0
VERTEX
8
0
10
6.1237
20
3.7466
0
VERTEX
8
0
10
6.1202
20
3.7456
0
VERTEX
8
0
10
6.1201
20
3.7424
42
0.0544
0
VERTEX
8
0
10
6.1259
20
3.7379
42
0.0224
0
VERTEX
8
0
10
6.1521
20
3.7251
42
0.0089
0
VERTEX
8
0
10
6.2609
20
3.6823
42
-0.0305
0
VERTEX
8
0
10
6.3754
20
3.6320
42
-0.0297
0
VERTEX
8
0
10
6.4295
20
3.6009
42
-0.0376
0
VERTEX
8
0
10
6.4545
20
3.5823
42
-0.0490
0
VERTEX
8
0
10
6.4656
20
3.5713
42
-0.0551
0
VERTEX
8
0
10
6.4700
20
3.5649
42
-0.1370
0
VERTEX
8
0
10
6.4722
20
3.5575
0
VERTEX
8
0
10
6.4722
20
3.5544
0
VERTEX
8
0
10
6.4721
20
3.5509
42
-0.0127
0
VERTEX
8
0
10
6.4719
20
3.5440
42
-0.0695
0
VERTEX
8
0
10
6.4697
20
3.5303
42
-0.1939
0
VERTEX
8
0
10
6.4620
20
3.5190
42
-0.1126
0
VERTEX
8
0
10
6.4487
20
3.5153
42
-0.0484
0
VERTEX
8
0
10
6.4212
20
3.5188
42
-0.0152
0
VERTEX
8
0
10
6.3944
20
3.5260
42
-0.0070
0
VERTEX
8
0
10
6.2890
20
3.5619
0
VERTEX
8
0
10
6.2843
20
3.5636
0
VERTEX
8
0
10
6.2803
20
3.5650
0
VERTEX
8
0
10
6.2773
20
3.5661
0
VERTEX
8
0
10
6.2752
20
3.5668
0
VERTEX
8
0
10
6.2699
20
3.5687
0
VERTEX
8
0
10
6.2593
20
3.5725
42
0.0041
0
VERTEX
8
0
10
6.2379
20
3.5799
42
0.0078
0
VERTEX
8
0
10
6.2164
20
3.5869
42
0.0398
0
VERTEX
8
0
10
6.1945
20
3.5927
42
0.0484
0
VERTEX
8
0
10
6.1889
20
3.5933
0
VERTEX
8
0
10
6.1861
20
3.5931
0
VERTEX
8
0
10
6.1844
20
3.5911
0
VERTEX
8
0
10
6.1870
20
3.5862
0
VERTEX
8
0
10
6.1908
20
3.5820
42
0.0167
0
VERTEX
8
0
10
6.2077
20
3.5670
42
0.0061
0
VERTEX
8
0
10
6.2431
20
3.5389
42
0.0222
0
VERTEX
8
0
10
6.3138
20
3.4892
42
0.0165
0
VERTEX
8
0
10
6.3508
20
3.4669
42
0.0139
0
VERTEX
8
0
10
6.3699
20
3.4568
42
0.0410
0
VERTEX
8
0
10
6.3897
20
3.4483
42
-0.0348
0
VERTEX
8
0
10
6.3962
20
3.4454
42
-0.0461
0
VERTEX
8
0
10
6.4014
20
3.4421
42
-0.1072
0
VERTEX
8
0
10
6.4082
20
3.4340
42
-0.1252
0
VERTEX
8
0
10
6.4119
20
3.4135
42
-0.0552
0
VERTEX
8
0
10
6.4074
20
3.3930
42
-0.0299
0
VERTEX
8
0
10
6.3993
20
3.3736
42
-0.0307
0
VERTEX
8
0
10
6.3780
20
3.3374
42
-0.0182
0
VERTEX
8
0
10
6.3530
20
3.3036
42
-0.0220
0
VERTEX
8
0
10
6.2973
20
3.2407
42
-0.0162
0
VERTEX
8
0
10
6.2367
20
3.1824
42
-0.0290
0
VERTEX
8
0
10
6.1056
20
3.0772
42
-0.0384
0
VERTEX
8
0
10
5.9624
20
2.9892
0
VERTEX
8
0
10
5.9559
20
2.9859
0
VERTEX
8
0
10
5.9506
20
2.9831
0
VERTEX
8
0
10
5.9463
20
2.9809
0
VERTEX
8
0
10
5.9433
20
2.9793
0
VERTEX
8
0
10
5.9433
20
2.9793
0
VERTEX
8
0
10
5.9403
20
2.9777
0
VERTEX
8
0
10
5.9376
20
2.9763
42
0.0023
0
VERTEX
8
0
10
5.9269
20
2.9704
42
0.0053
0
VERTEX
8
0
10
5.9057
20
2.9585
42
0.0201
0
VERTEX
8
0
10
5.8643
20
2.9327
42
0.0199
0
VERTEX
8
0
10
5.8447
20
2.9182
42
0.0577
0
VERTEX
8
0
10
5.8269
20
2.9017
42
0.1186
0
VERTEX
8
0
10
5.8204
20
2.8914
42
0.3842
0
VERTEX
8
0
10
5.8243
20
2.8811
42
0.0812
0
VERTEX
8
0
10
5.8361
20
2.8787
42
0.0285
0
VERTEX
8
0
10
5.8483
20
2.8790
42
0.0340
0
VERTEX
8
0
10
5.8961
20
2.8885
42
0.0151
0
VERTEX
8
0
10
5.9427
20
2.9028
42
0.0161
0
VERTEX
8
0
10
6.0336
20
2.9379
0
VERTEX
8
0
10
6.0368
20
2.9392
0
VERTEX
8
0
10
6.0390
20
2.9401
0
VERTEX
8
0
10
6.0433
20
2.9418
42
-0.0097
0
VERTEX
8
0
10
6.0518
20
2.9449
42
-0.0417
0
VERTEX
8
0
10
6.0695
20
2.9499
42
-0.0468
0
VERTEX
8
0
10
6.0785
20
2.9510
42
-0.1012
0
VERTEX
8
0
10
6.0876
20
2.9498
42
-0.1534
0
VERTEX
8
0
10
6.0949
20
2.9445
42
-0.0925
0
VERTEX
8
0
10
6.0985
20
2.9362
42
-0.0594
0
VERTEX
8
0
10
6.0992
20
2.9179
42
-0.0223
0
VERTEX
8
0
10
6.0967
20
2.8998
42
-0.0155
0
VERTEX
8
0
10
6.0885
20
2.8640
0
VERTEX
8
0
10
6.0877
20
2.8609
0
VERTEX
8
0
10
6.0870
20
2.8583
0
VERTEX
8
0
10
6.0862
20
2.8551
0
VERTEX
8
0
10
6.0848
20
2.8496
42
0.0036
0
VERTEX
8
0
10
6.0821
20
2.8386
42
0.0176
0
VERTEX
8
0
10
6.0775
20
2.8165
42
0.0841
0
VERTEX
8
0
10
6.0758
20
2.7940
42
0.1960
0
VERTEX
8
0
10
6.0796
20
2.7835
42
0.1821
0
VERTEX
8
0
10
6.0899
20
2.7798
42
0.0611
0
VERTEX
8
0
10
6.1118
20
2.7854
42
0.0156
0
VERTEX
8
0
10
6.1325
20
2.7946
42
0.0073
0
VERTEX
8
0
10
6.1727
20
2.8154
0
VERTEX
8
0
10
6.1727
20
2.8154
0
VERTEX
8
0
10
6.1755
20
2.8169
0
VERTEX
8
0
10
6.1788
20
2.8186
0
VERTEX
8
0
10
6.1853
20
2.8220
42
-0.0055
0
VERTEX
8
0
10
6.1984
20
2.8285
42
-0.0252
0
VERTEX
8
0
10
6.2253
20
2.8403
42
-0.0326
0
VERTEX
8
0
10
6.2392
20
2.8448
42
-0.0368
0
VERTEX
8
0
10
6.2464
20
2.8462
42
-0.1067
0
VERTEX
8
0
10
6.2537
20
2.8461
42
-0.3104
0
VERTEX
8
0
10
6.2588
20
2.8414
42
-0.1024
0
VERTEX
8
0
10
6.2581
20
2.8341
42
-0.0477
0
VERTEX
8
0
10
6.2516
20
2.8210
42
0.0707
0
VERTEX
8
0
10
6.2437
20
2.8041
42
0.1387
0
VERTEX
8
0
10
6.2423
20
2.7857
42
0.2115
0
VERTEX
8
0
10
6.2525
20
2.7708
42
0.1224
0
VERTEX
8
0
10
6.2704
20
2.7664
0
VERTEX
8
0
10
6.2731
20
2.7663
0
VERTEX
8
0
10
6.2731
20
2.7663
0
VERTEX
8
0
10
6.2747
20
2.7663
0
VERTEX
8
0
10
6.2751
20
2.7663
0
VERTEX
8
0
10
6.2727
20
2.7663
0
VERTEX
8
0
10
6.2727
20
2.7663
0
VERTEX
8
0
10
6.2714
20
2.7664
0
VERTEX
8
0
10
6.2740
20
2.7663
42
-0.0142
0
VERTEX
8
0
10
6.2833
20
2.7659
42
-0.0498
0
VERTEX
8
0
10
6.3021
20
2.7631
42
-0.1248
0
VERTEX
8
0
10
6.3192
20
2.7553
42
-0.2323
0
VERTEX
8
0
10
6.3273
20
2.7389
42
-0.1063
0
VERTEX
8
0
10
6.3219
20
2.7210
42
-0.0466
0
VERTEX
8
0
10
6.3108
20
2.7057
42
-0.0431
0
VERTEX
8
0
10
6.2830
20
2.6801
42
-0.0419
0
VERTEX
8
0
10
6.2187
20
2.6403
42
-0.0288
0
VERTEX
8
0
10
6.1491
20
2.6105
42
0.0512
0
VERTEX
8
0
10
6.0500
20
2.5640
42
0.0480
0
VERTEX
8
0
10
6.0053
20
2.5325
42
0.0563
0
VERTEX
8
0
10
5.9861
20
2.5130
42
0.0575
0
VERTEX
8
0
10
5.9787
20
2.5015
42
0.1309
0
VERTEX
8
0
10
5.9751
20
2.4884
42
-0.1188
0
VERTEX
8
0
10
5.9682
20
2.4678
42
-0.0528
0
VERTEX
8
0
10
5.9541
20
2.4511
42
-0.0501
0
VERTEX
8
0
10
5.9190
20
2.4250
42
-0.0638
0
VERTEX
8
0
10
5.8385
20
2.3910
0
VERTEX
8
0
10
5.8356
20
2.3902
0
VERTEX
8
0
10
5.8334
20
2.3896
0
VERTEX
8
0
10
5.8290
20
2.3883
42
0.0022
0
VERTEX
8
0
10
5.8202
20
2.3858
42
0.0059
0
VERTEX
8
0
10
5.8028
20
2.3804
42
0.0357
0
VERTEX
8
0
10
5.7686
20
2.3678
42
0.0960
0
VERTEX
8
0
10
5.7529
20
2.3587
0
VERTEX
8
0
10
5.7499
20
2.3553
0
VERTEX
8
0
10
5.7488
20
2.3510
42
0.1559
0
VERTEX
8
0
10
5.7544
20
2.3441
42
0.0482
0
VERTEX
8
0
10
5.7711
20
2.3370
42
0.0163
0
VERTEX
8
0
10
5.7887
20
2.3323
0
VERTEX
8
0
10
5.7918
20
2.3315
0
VERTEX
8
0
10
5.7941
20
2.3310
0
VERTEX
8
0
10
5.7984
20
2.3298
42
-0.0074
0
VERTEX
8
0
10
5.8072
20
2.3274
42
-0.0194
0
VERTEX
8
0
10
5.8245
20
2.3216
42
-0.0283
0
VERTEX
8
0
10
5.8412
20
2.3144
42
-0.0491
0
VERTEX
8
0
10
5.8567
20
2.3050
42
-0.1030
0
VERTEX
8
0
10
5.8693
20
2.2921
42
-0.1891
0
VERTEX
8
0
10
5.8735
20
2.2748
42
-0.1223
0
VERTEX
8
0
10
5.8657
20
2.2586
42
-0.0577
0
VERTEX
8
0
10
5.8522
20
2.2465
42
-0.0499
0
VERTEX
8
0
10
5.8201
20
2.2296
42
-0.0263
0
VERTEX
8
0
10
5.7856
20
2.2181
42
-0.0313
0
VERTEX
8
0
10
5.7142
20
2.2041
42
0.0026
0
VERTEX
8
0
10
5.7065
20
2.2031
0
VERTEX
8
0
10
5.7041
20
2.2027
0
VERTEX
8
0
10
5.7041
20
2.2027
0
VERTEX
8
0
10
5.7063
20
2.2030
0
VERTEX
8
0
10
5.7119
20
2.2038
0
VERTEX
8
0
10
5.7119
20
2.2038
0
VERTEX
8
0
10
5.7136
20
2.2040
0
VERTEX
8
0
10
5.7110
20
2.2037
0
VERTEX
8
0
10
5.7110
20
2.2037
0
VERTEX
8
0
10
5.7054
20
2.2029
42
0.0031
0
VERTEX
8
0
10
5.6978
20
2.2018
42
0.0187
0
VERTEX
8
0
10
5.6827
20
2.1991
0
VERTEX
8
0
10
5.6790
20
2.1982
0
VERTEX
8
0
10
5.6770
20
2.1977
0
VERTEX
8
0
10
5.6770
20
2.1977
0
VERTEX
8
0
10
5.6771
20
2.1956
0
VERTEX
8
0
10
5.6792
20
2.1955
0
VERTEX
8
0
10
5.6830
20
2.1951
42
0.0116
0
VERTEX
8
0
10
5.7445
20
2.1961
42
0.0044
0
VERTEX
8
0
10
5.8674
20
2.2029
0
VERTEX
8
0
10
5.8726
20
2.2032
0
VERTEX
8
0
10
5.8773
20
2.2035
0
VERTEX
8
0
10
5.8867
20
2.2041
42
-0.0028
0
VERTEX
8
0
10
5.9056
20
2.2051
42
-0.0040
0
VERTEX
8
0
10
5.9433
20
2.2069
42
-0.0118
0
VERTEX
8
0
10
6.0188
20
2.2083
42
-0.0303
0
VERTEX
8
0
10
6.0942
20
2.2048
42
-0.0545
0
VERTEX
8
0
10
6.1314
20
2.1981
42
-0.0325
0
VERTEX
8
0
10
6.1403
20
2.1950
42
-0.0748
0
VERTEX
8
0
10
6.1484
20
2.1904
42
-0.2107
0
VERTEX
8
0
10
6.1537
20
2.1828
42
-0.1640
0
VERTEX
8
0
10
6.1515
20
2.1738
42
0.1249
0
VERTEX
8
0
10
6.1484
20
2.1631
42
0.0761
0
VERTEX
8
0
10
6.1500
20
2.1520
42
0.0668
0
VERTEX
8
0
10
6.1602
20
2.1320
42
0.0523
0
VERTEX
8
0
10
6.1909
20
2.0992
42
0.0537
0
VERTEX
8
0
10
6.2657
20
2.0496
42
-0.0502
0
VERTEX
8
0
10
6.3633
20
1.9854
42
-0.0368
0
VERTEX
8
0
10
6.4063
20
1.9459
42
-0.0327
0
VERTEX
8
0
10
6.4251
20
1.9236
42
-0.0789
0
VERTEX
8
0
10
6.4398
20
1.8983
0
VERTEX
8
0
10
6.4414
20
1.8940
0
VERTEX
8
0
10
6.4432
20
1.8893
42
-0.0039
0
VERTEX
8
0
10
6.4466
20
1.8800
42
-0.0218
0
VERTEX
8
0
10
6.4527
20
1.8610
42
-0.0250
0
VERTEX
8
0
10
6.4550
20
1.8513
42
-0.0644
0
VERTEX
8
0
10
6.4558
20
1.8413
42
-0.2072
0
VERTEX
8
0
10
6.4527
20
1.8321
42
-0.1616
0
VERTEX
8
0
10
6.4438
20
1.8283
42
-0.0642
0
VERTEX
8
0
10
6.4241
20
1.8313
42
-0.0199
0
VERTEX
8
0
10
6.4053
20
1.8378
42
-0.0125
0
VERTEX
8
0
10
6.3687
20
1.8538
42
-0.0075
0
VERTEX
8
0
10
6.2972
20
1.8892
0
VERTEX
8
0
10
6.2262
20
1.9258
42
0.0362
0
VERTEX
8
0
10
6.0989
20
1.9815
42
0.0306
0
VERTEX
8
0
10
6.0324
20
2.0014
42
0.0350
0
VERTEX
8
0
10
5.9982
20
2.0074
42
0.0364
0
VERTEX
8
0
10
5.9808
20
2.0082
42
0.1025
0
VERTEX
8
0
10
5.9638
20
2.0054
0
VERTEX
8
0
10
5.9638
20
2.0054
0
VERTEX
8
0
10
5.9599
20
2.0037
0
VERTEX
8
0
10
5.9560
20
2.0011
42
0.2187
0
VERTEX
8
0
10
5.9515
20
1.9930
42
0.1246
0
VERTEX
8
0
10
5.9540
20
1.9841
42
0.0513
0
VERTEX
8
0
10
5.9596
20
1.9766
42
0.0407
0
VERTEX
8
0
10
5.9739
20
1.9644
42
0.0215
0
VERTEX
8
0
10
5.9897
20
1.9542
42
0.0378
0
VERTEX
8
0
10
6.0581
20
1.9229
42
-0.0534
0
VERTEX
8
0
10
6.1609
20
1.8719
42
-0.0411
0
VERTEX
8
0
10
6.2071
20
1.8379
42
-0.0389
0
VERTEX
8
0
10
6.2275
20
1.8177
42
-0.0334
0
VERTEX
8
0
10
6.2362
20
1.8063
42
-0.0614
0
VERTEX
8
0
10
6.2430
20
1.7936
42
-0.0079
0
VERTEX
8
0
10
6.2452
20
1.7877
42
-0.0098
0
VERTEX
8
0
10
6.2472
20
1.7813
42
-0.0275
0
VERTEX
8
0
10
6.2505
20
1.7684
42
-0.0440
0
VERTEX
8
0
10
6.2521
20
1.7551
42
-0.0831
0
VERTEX
8
0
10
6.2507
20
1.7418
42
-0.3058
0
VERTEX
8
0
10
6.2321
20
1.7251
42
-0.0743
0
VERTEX
8
0
10
6.2188
20
1.7257
42
-0.0430
0
VERTEX
8
0
10
6.2060
20
1.7297
42
-0.0461
0
VERTEX
8
0
10
6.1826
20
1.7424
42
-0.0283
0
VERTEX
8
0
10
6.1614
20
1.7587
42
-0.0378
0
VERTEX
8
0
10
6.1243
20
1.7971
42
0.0498
0
VERTEX
8
0
10
6.0944
20
1.8256
42
0.0406
0
VERTEX
8
0
10
6.0599
20
1.8482
42
0.0479
0
VERTEX
8
0
10
6.0220
20
1.8646
42
0.0872
0
VERTEX
8
0
10
5.9815
20
1.8720
42
-0.0347
0
VERTEX
8
0
10
5.9533
20
1.8749
42
-0.0171
0
VERTEX
8
0
10
5.9256
20
1.8808
42
-0.0210
0
VERTEX
8
0
10
5.8714
20
1.8973
42
-0.0378
0
VERTEX
8
0
10
5.7673
20
1.9418
0
VERTEX
8
0
10
5.7634
20
1.9439
0
VERTEX
8
0
10
5.7608
20
1.9452
0
VERTEX
8
0
10
5.7559
20
1.9478
0
VERTEX
8
0
10
5.7459
20
1.9529
42
0.0042
0
VERTEX
8
0
10
5.7260
20
1.9630
42
0.0311
0
VERTEX
8
0
10
5.6852
20
1.9814
42
0.0257
0
VERTEX
8
0
10
5.6746
20
1.9849
42
0.0739
0
VERTEX
8
0
10
5.6637
20
1.9869
42
0.1047
0
VERTEX
8
0
10
5.6581
20
1.9862
0
VERTEX
8
0
10
5.6538
20
1.9828
42
0.1193
0
VERTEX
8
0
10
5.6524
20
1.9719
42
0.0376
0
VERTEX
8
0
10
5.6578
20
1.9503
42
0.0093
0
VERTEX
8
0
10
5.6654
20
1.9292
0
VERTEX
8
0
10
5.6670
20
1.9253
0
VERTEX
8
0
10
5.6680
20
1.9226
0
VERTEX
8
0
10
5.6700
20
1.9172
42
-0.0099
0
VERTEX
8
0
10
5.6737
20
1.9063
42
-0.0227
0
VERTEX
8
0
10
5.6769
20
1.8952
42
-0.0768
0
VERTEX
8
0
10
5.6785
20
1.8839
42
-0.1411
0
VERTEX
8
0
10
5.6774
20
1.8783
0
VERTEX
8
0
10
5.6729
20
1.8750
42
-0.0907
0
VERTEX
8
0
10
5.6617
20
1.8767
42
-0.0320
0
VERTEX
8
0
10
5.6408
20
1.8864
42
-0.0125
0
VERTEX
8
0
10
5.6013
20
1.9101
42
-0.0030
0
VERTEX
8
0
10
5.5627
20
1.9351
0
VERTEX
8
0
10
5.5584
20
1.9378
0
VERTEX
8
0
10
5.5549
20
1.9401
0
VERTEX
8
0
10
5.5523
20
1.9418
0
VERTEX
8
0
10
5.5506
20
1.9429
0
VERTEX
8
0
10
5.5457
20
1.9460
42
0.0025
0
VERTEX
8
0
10
5.5359
20
1.9523
42
0.0048
0
VERTEX
8
0
10
5.5160
20
1.9645
42
0.0231
0
VERTEX
8
0
10
5.4752
20
1.9871
42
0.0397
0
VERTEX
8
0
10
5.4538
20
1.9963
42
0.0740
0
VERTEX
8
0
10
5.4425
20
1.9990
42
0.1591
0
VERTEX
8
0
10
5.4368
20
1.9984
0
VERTEX
8
0
10
5.4340
20
1.9937
42
0.0847
0
VERTEX
8
0
10
5.4376
20
1.9827
42
0.0256
0
VERTEX
8
0
10
5.4437
20
1.9728
42
0.0189
0
VERTEX
8
0
10
5.4579
20
1.9543
42
0.0196
0
VERTEX
8
0
10
5.5220
20
1.8866
42
0.0077
0
VERTEX
8
0
10
5.5899
20
1.8227
0
VERTEX
8
0
10
5.5976
20
1.8157
0
VERTEX
8
0
10
5.6042
20
1.8096
42
-0.0022
0
VERTEX
8
0
10
5.6157
20
1.7988
42
-0.0059
0
VERTEX
8
0
10
5.6387
20
1.7766
42
-0.0260
0
VERTEX
8
0
10
5.6825
20
1.7301
42
-0.0451
0
VERTEX
8
0
10
5.7017
20
1.7046
42
-0.0158
0
VERTEX
8
0
10
5.7057
20
1.6977
42
-0.0826
0
VERTEX
8
0
10
5.7086
20
1.6903
42
-0.2049
0
VERTEX
8
0
10
5.7083
20
1.6822
0
VERTEX
8
0
10
5.7058
20
1.6797
0
VERTEX
8
0
10
5.7019
20
1.6789
42
-0.0559
0
VERTEX
8
0
10
5.6935
20
1.6796
42
-0.0222
0
VERTEX
8
0
10
5.6859
20
1.6817
42
-0.0233
0
VERTEX
8
0
10
5.6710
20
1.6874
42
-0.0191
0
VERTEX
8
0
10
5.6424
20
1.7016
42
-0.0167
0
VERTEX
8
0
10
5.5878
20
1.7347
42
-0.0095
0
VERTEX
8
0
10
5.5350
20
1.7708
42
-0.0119
0
VERTEX
8
0
10
5.4331
20
1.8479
0
VERTEX
8
0
10
5.4245
20
1.8546
0
VERTEX
8
0
10
5.4168
20
1.8606
0
VERTEX
8
0
10
5.4099
20
1.8660
0
VERTEX
8
0
10
5.4041
20
1.8705
0
VERTEX
8
0
10
5.3993
20
1.8741
0
VERTEX
8
0
10
5.3956
20
1.8770
0
VERTEX
8
0
10
5.3895
20
1.8816
42
0.0049
0
VERTEX
8
0
10
5.3630
20
1.9011
42
0.0141
0
VERTEX
8
0
10
5.3089
20
1.9382
42
0.0288
0
VERTEX
8
0
10
5.2523
20
1.9714
42
0.0360
0
VERTEX
8
0
10
5.2224
20
1.9847
42
0.0462
0
VERTEX
8
0
10
5.2067
20
1.9893
42
0.0407
0
VERTEX
8
0
10
5.1984
20
1.9902
42
0.1745
0
VERTEX
8
0
10
5.1904
20
1.9888
42
0.1788
0
VERTEX
8
0
10
5.1858
20
1.9823
42
0.1200
0
VERTEX
8
0
10
5.1861
20
1.9742
42
0.0481
0
VERTEX
8
0
10
5.1927
20
1.9591
42
0.0325
0
VERTEX
8
0
10
5.2114
20
1.9322
42
0.0232
0
VERTEX
8
0
10
5.2555
20
1.8837
42
0.0190
0
VERTEX
8
0
10
5.3527
20
1.7954
0
VERTEX
8
0
10
5.3562
20
1.7925
0
VERTEX
8
0
10
5.3593
20
1.7898
0
VERTEX
8
0
10
5.3656
20
1.7845
0
VERTEX
8
0
10
5.3780
20
1.7736
42
-0.0062
0
VERTEX
8
0
10
5.4026
20
1.7516
42
-0.0158
0
VERTEX
8
0
10
5.4500
20
1.7057
42
-0.0279
0
VERTEX
8
0
10
5.4940
20
1.6565
42
-0.0368
0
VERTEX
8
0
10
5.5132
20
1.6296
42
-0.0557
0
VERTEX
8
0
10
5.5207
20
1.6149
42
-0.0795
0
VERTEX
8
0
10
5.5227
20
1.6070
42
-0.2532
0
VERTEX
8
0
10
5.5205
20
1.5993
0
VERTEX
8
0
10
5.5158
20
1.5972
0
VERTEX
8
0
10
5.5110
20
1.5973
42
-0.0440
0
VERTEX
8
0
10
5.5018
20
1.5996
42
-0.0300
0
VERTEX
8
0
10
5.4842
20
1.6074
42
-0.0215
0
VERTEX
8
0
10
5.4513
20
1.6271
42
-0.0178
0
VERTEX
8
0
10
5.3893
20
1.6723
42
-0.0201
0
VERTEX
8
0
10
5.2731
20
1.7724
0
VERTEX
8
0
10
5.2647
20
1.7802
0
VERTEX
8
0
10
5.2566
20
1.7878
0
VERTEX
8
0
10
5.2403
20
1.8030
0
VERTEX
8
0
10
5.2076
20
1.8332
42
0.0157
0
VERTEX
8
0
10
5.1410
20
1.8922
42
0.0316
0
VERTEX
8
0
10
5.1056
20
1.9192
42
0.0471
0
VERTEX
8
0
10
5.0864
20
1.9304
42
0.0502
0
VERTEX
8
0
10
5.0759
20
1.9342
42
0.0979
0
VERTEX
8
0
10
5.0649
20
1.9352
42
0.1240
0
VERTEX
8
0
10
5.0546
20
1.9314
42
0.0769
0
VERTEX
8
0
10
5.0468
20
1.9236
42
0.0503
0
VERTEX
8
0
10
5.0367
20
1.9038
42
0.0157
0
VERTEX
8
0
10
5.0233
20
1.8614
0
VERTEX
8
0
10
5.0223
20
1.8581
0
VERTEX
8
0
10
5.0223
20
1.8581
0
VERTEX
8
0
10
5.0222
20
1.8574
0
VERTEX
8
0
10
5.0227
20
1.8594
0
VERTEX
8
0
10
5.0227
20
1.8594
0
VERTEX
8
0
10
5.0228
20
1.8597
0
VERTEX
8
0
10
5.0228
20
1.8596
0
VERTEX
8
0
10
5.0216
20
1.8557
0
VERTEX
8
0
10
5.0208
20
1.8527
42
-0.0050
0
VERTEX
8
0
10
5.0172
20
1.8410
42
-0.0161
0
VERTEX
8
0
10
5.0091
20
1.8179
42
-0.0510
0
VERTEX
8
0
10
4.9990
20
1.7956
42
-0.0444
0
VERTEX
8
0
10
4.9956
20
1.7905
0
VERTEX
8
0
10
4.9934
20
1.7883
0
VERTEX
8
0
10
4.9907
20
1.7871
0
VERTEX
8
0
10
4.9882
20
1.7887
0
VERTEX
8
0
10
4.9870
20
1.7915
42
-0.0378
0
VERTEX
8
0
10
4.9860
20
1.7976
42
0.0826
0
VERTEX
8
0
10
4.9785
20
1.8174
42
0.0327
0
VERTEX
8
0
10
4.9662
20
1.8348
42
0.0328
0
VERTEX
8
0
10
4.9370
20
1.8658
42
0.0475
0
VERTEX
8
0
10
4.8692
20
1.9174
0
VERTEX
8
0
10
4.8649
20
1.9200
0
VERTEX
8
0
10
4.8614
20
1.9223
0
VERTEX
8
0
10
4.8585
20
1.9241
0
VERTEX
8
0
10
4.8564
20
1.9254
0
VERTEX
8
0
10
4.8518
20
1.9282
0
VERTEX
8
0
10
4.8428
20
1.9338
42
0.0037
0
VERTEX
8
0
10
4.8246
20
1.9447
42
0.0105
0
VERTEX
8
0
10
4.8063
20
1.9553
42
0.0164
0
VERTEX
8
0
10
4.7969
20
1.9602
42
0.0976
0
VERTEX
8
0
10
4.7870
20
1.9638
0
VERTEX
8
0
10
4.7840
20
1.9608
0
VERTEX
8
0
10
4.7862
20
1.9559
42
0.0214
0
VERTEX
8
0
10
4.7919
20
1.9470
42
0.0104
0
VERTEX
8
0
10
4.8048
20
1.9302
42
0.0032
0
VERTEX
8
0
10
4.8315
20
1.8973
0
VERTEX
8
0
10
4.8341
20
1.8942
0
VERTEX
8
0
10
4.8363
20
1.8916
0
VERTEX
8
0
10
4.8379
20
1.8896
0
VERTEX
8
0
10
4.8379
20
1.8896
0
VERTEX
8
0
10
4.8424
20
1.8841
42
-0.0023
0
VERTEX
8
0
10
4.8493
20
1.8755
42
-0.0134
0
VERTEX
8
0
10
4.8628
20
1.8580
42
-0.0605
0
VERTEX
8
0
10
4.8746
20
1.8394
42
-0.0530
0
VERTEX
8
0
10
4.8766
20
1.8343
42
-0.1834
0
VERTEX
8
0
10
4.8767
20
1.8289
0
VERTEX
8
0
10
4.8727
20
1.8253
42
-0.0609
0
VERTEX
8
0
10
4.8673
20
1.8246
42
-0.0409
0
VERTEX
8
0
10
4.8455
20
1.8277
42
-0.0099
0
VERTEX
8
0
10
4.8241
20
1.8332
42
-0.0040
0
VERTEX
8
0
10
4.7818
20
1.8458
0
VERTEX
8
0
10
4.7795
20
1.8465
0
VERTEX
8
0
10
4.7795
20
1.8465
0
VERTEX
8
0
10
4.7790
20
1.8467
0
VERTEX
8
0
10
4.7811
20
1.8460
0
VERTEX
8
0
10
4.7811
20
1.8460
0
VERTEX
8
0
10
4.7817
20
1.8458
0
VERTEX
8
0
10
4.7786
20
1.8468
0
VERTEX
8
0
10
4.7761
20
1.8475
0
VERTEX
8
0
10
4.7660
20
1.8506
42
0.0079
0
VERTEX
8
0
10
4.7455
20
1.8561
42
0.0175
0
VERTEX
8
0
10
4.7248
20
1.8608
42
0.0538
0
VERTEX
8
0
10
4.7037
20
1.8634
42
0.1578
0
VERTEX
8
0
10
4.6933
20
1.8619
0
VERTEX
8
0
10
4.6904
20
1.8578
42
0.1064
0
VERTEX
8
0
10
4.6919
20
1.8528
42
0.0566
0
VERTEX
8
0
10
4.7063
20
1.8373
42
0.0227
0
VERTEX
8
0
10
4.7405
20
1.8121
42
0.0131
0
VERTEX
8
0
10
4.8128
20
1.7677
42
0.0062
0
VERTEX
8
0
10
4.8871
20
1.7266
42
-0.0440
0
VERTEX
8
0
10
5.0053
20
1.6472
42
-0.0295
0
VERTEX
8
0
10
5.0583
20
1.5995
42
-0.0237
0
VERTEX
8
0
10
5.0823
20
1.5732
42
-0.0542
0
VERTEX
8
0
10
5.1027
20
1.5440
42
0.0121
0
VERTEX
8
0
10
5.1389
20
1.4822
42
0.0100
0
VERTEX
8
0
10
5.1584
20
1.4521
42
0.0106
0
VERTEX
8
0
10
5.1686
20
1.4374
42
0.0442
0
VERTEX
8
0
10
5.1799
20
1.4235
0
VERTEX
8
0
10
5.3507
20
1.2371
42
-0.0124
0
VERTEX
8
0
10
5.3835
20
1.1993
42
-0.0180
0
VERTEX
8
0
10
5.4138
20
1.1598
42
-0.0428
0
VERTEX
8
0
10
5.4402
20
1.1176
42
-0.0776
0
VERTEX
8
0
10
5.4493
20
1.0945
42
-0.0488
0
VERTEX
8
0
10
5.4502
20
1.0884
0
SEQEND
8
0
0
POLYLINE
8
Layer 1
66
1
0
VERTEX
8
0
10
5.1597
20
1.1385
42
-0.2240
0
VERTEX
8
0
10
5.1536
20
1.1288
42
-0.1208
0
VERTEX
8
0
10
5.1423
20
1.1261
42
-0.0667
0
VERTEX
8
0
10
5.1255
20
1.1292
42
-0.0333
0
VERTEX
8
0
10
5.1097
20
1.1358
42
-0.0383
0
VERTEX
8
0
10
5.0806
20
1.1539
42
-0.0621
0
VERTEX
8
0
10
5.0307
20
1.2006
42
-0.0288
0
VERTEX
8
0
10
5.0168
20
1.2193
42
-0.0525
0
VERTEX
8
0
10
5.0054
20
1.2399
42
-0.0503
0
VERTEX
8
0
10
5.0018
20
1.2511
42
-0.1127
0
VERTEX
8
0
10
5.0012
20
1.2628
42
-0.2256
0
VERTEX
8
0
10
5.0073
20
1.2725
42
-0.1207
0
VERTEX
8
0
10
5.0186
20
1.2752
42
-0.0669
0
VERTEX
8
0
10
5.0354
20
1.2721
42
-0.0334
0
VERTEX
8
0
10
5.0512
20
1.2654
42
-0.0380
0
VERTEX
8
0
10
5.0803
20
1.2474
42
-0.0624
0
VERTEX
8
0
10
5.1302
20
1.2006
42
-0.0288
0
VERTEX
8
0
10
5.1441
20
1.1819
42
-0.0519
0
VERTEX
8
0
10
5.1555
20
1.1613
42
-0.0502
0
VERTEX
8
0
10
5.1591
20
1.1502
42
-0.1128
0
VERTEX
8
0
10
5.1597
20
1.1385
0
SEQEND
8
0
0
POLYLINE
8
Layer 1
66
1
0
VERTEX
8
0
10
4.9309
20
1.1534
42
-0.0542
0
VERTEX
8
0
10
4.9289
20
1.1427
42
-0.1313
0
VERTEX
8
0
10
4.9240
20
1.1332
42
-0.1849
0
VERTEX
8
0
10
4.9144
20
1.1285
42
-0.0838
0
VERTEX
8
0
10
4.9037
20
1.1301
42
-0.0371
0
VERTEX
8
0
10
4.8937
20
1.1344
42
-0.0309
0
VERTEX
8
0
10
4.8754
20
1.1461
42
-0.0214
0
VERTEX
8
0
10
4.8420
20
1.1740
42
-0.0107
0
VERTEX
8
0
10
4.8106
20
1.2042
0
VERTEX
8
0
10
4.8064
20
1.2085
0
VERTEX
8
0
10
4.8031
20
1.2118
0
VERTEX
8
0
10
4.8009
20
1.2140
0
VERTEX
8
0
10
4.8009
20
1.2140
0
VERTEX
8
0
10
4.7948
20
1.2203
42
-0.0033
0
VERTEX
8
0
10
4.7852
20
1.2304
42
-0.0111
0
VERTEX
8
0
10
4.7665
20
1.2512
42
-0.0255
0
VERTEX
8
0
10
4.7491
20
1.2731
42
-0.0281
0
VERTEX
8
0
10
4.7414
20
1.2848
42
-0.1182
0
VERTEX
8
0
10
4.7361
20
1.2976
42
-0.3078
0
VERTEX
8
0
10
4.7377
20
1.3041
42
-0.1449
0
VERTEX
8
0
10
4.7443
20
1.3059
42
-0.0542
0
VERTEX
8
0
10
4.7579
20
1.3028
42
-0.0277
0
VERTEX
8
0
10
4.7835
20
1.2916
42
-0.0183
0
VERTEX
8
0
10
4.8319
20
1.2636
42
-0.0445
0
VERTEX
8
0
10
4.8895
20
1.2207
42
-0.0398
0
VERTEX
8
0
10
4.9147
20
1.1950
42
-0.0438
0
VERTEX
8
0
10
4.9253
20
1.1805
42
-0.0458
0
VERTEX
8
0
10
4.9294
20
1.1725
42
-0.1068
0
VERTEX
8
0
10
4.9313
20
1.1638
0
VERTEX
8
0
10
4.9313
20
1.1616
0
VERTEX
8
0
10
4.9312
20
1.1589
42
-0.0144
0
VERTEX
8
0
10
4.9309
20
1.1534
0
SEQEND
8
0
0
POLYLINE
8
Layer 1
66
1
0
VERTEX
8
0
10
4.7325
20
1.2006
42
0.4130
0
VERTEX
8
0
10
4.7077
20
1.2255
42
0.4126
0
VERTEX
8
0
10
4.6828
20
1.2006
42
0.2010
0
VERTEX
8
0
10
4.6901
20
1.1831
42
0.1985
0
VERTEX
8
0
10
4.7077
20
1.1758
42
0.2004
0
VERTEX
8
0
10
4.7252
20
1.1831
42
0.1971
0
VERTEX
8
0
10
4.7325
20
1.2006
0
SEQEND
8
0
0
POLYLINE
8
Layer 1
66
1
0
VERTEX
8
0
10
4.6258
20
1.2825
42
-0.2005
0
VERTEX
8
0
10
4.6082
20
1.2752
42
-0.1975
0
VERTEX
8
0
10
4.5907
20
1.2825
42
-0.2009
0
VERTEX
8
0
10
4.5834
20
1.3000
42
-0.4124
0
VERTEX
8
0
10
4.6082
20
1.3249
42
-0.4124
0
VERTEX
8
0
10
4.6331
20
1.3000
42
-0.1969
0
VERTEX
8
0
10
4.6258
20
1.2825
0
SEQEND
8
0
0
POLYLINE
8
Layer 1
66
1
0
VERTEX
8
0
10
4.8071
20
1.4243
42
-0.0726
0
VERTEX
8
0
10
4.7947
20
1.4503
42
-0.1111
0
VERTEX
8
0
10
4.7925
20
1.4645
42
-0.1819
0
VERTEX
8
0
10
4.7948
20
1.4713
42
-0.2151
0
VERTEX
8
0
10
4.8012
20
1.4740
42
-0.0883
0
VERTEX
8
0
10
4.8104
20
1.4716
42
-0.0385
0
VERTEX
8
0
10
4.8186
20
1.4667
42
-0.0399
0
VERTEX
8
0
10
4.8332
20
1.4543
42
-0.0566
0
VERTEX
8
0
10
4.8568
20
1.4243
42
-0.0724
0
VERTEX
8
0
10
4.8691
20
1.3983
42
-0.1114
0
VERTEX
8
0
10
4.8713
20
1.3841
42
-0.1824
0
VERTEX
8
0
10
4.8691
20
1.3774
42
-0.2147
0
VERTEX
8
0
10
4.8626
20
1.3746
42
-0.0881
0
VERTEX
8
0
10
4.8535
20
1.3770
42
-0.0378
0
VERTEX
8
0
10
4.8452
20
1.3819
42
-0.0399
0
VERTEX
8
0
10
4.8307
20
1.3943
42
-0.0577
0
VERTEX
8
0
10
4.8071
20
1.4243
0
SEQEND
8
0
0
POLYLINE
8
Layer 1
66
1
0
VERTEX
8
0
10
5.6493
20
1.5379
42
-0.0718
0
VERTEX
8
0
10
5.6501
20
1.5514
42
-0.3164
0
VERTEX
8
0
10
5.6671
20
1.5704
42
-0.0859
0
VERTEX
8
0
10
5.6805
20
1.5705
42
-0.0463
0
VERTEX
8
0
10
5.6935
20
1.5669
42
-0.0492
0
VERTEX
8
0
10
5.7173
20
1.5542
42
-0.0293
0
VERTEX
8
0
10
5.7388
20
1.5377
42
-0.0385
0
VERTEX
8
0
10
5.7763
20
1.4989
0
VERTEX
8
0
10
5.7781
20
1.4967
0
VERTEX
8
0
10
5.7795
20
1.4950
0
VERTEX
8
0
10
5.7819
20
1.4920
42
-0.0046
0
VERTEX
8
0
10
5.7868
20
1.4860
42
-0.0125
0
VERTEX
8
0
10
5.7961
20
1.4736
42
-0.0265
0
VERTEX
8
0
10
5.8046
20
1.4607
42
-0.0844
0
VERTEX
8
0
10
5.8110
20
1.4466
42
-0.1209
0
VERTEX
8
0
10
5.8115
20
1.4390
42
-0.1650
0
VERTEX
8
0
10
5.8079
20
1.4323
42
-0.1007
0
VERTEX
8
0
10
5.7937
20
1.4264
42
-0.0350
0
VERTEX
8
0
10
5.7629
20
1.4243
42
-0.0847
0
VERTEX
8
0
10
5.7299
20
1.4307
42
-0.0651
0
VERTEX
8
0
10
5.7004
20
1.4468
42
-0.0661
0
VERTEX
8
0
10
5.6760
20
1.4699
42
-0.0836
0
VERTEX
8
0
10
5.6589
20
1.4989
42
-0.0447
0
VERTEX
8
0
10
5.6511
20
1.5246
42
-0.0398
0
VERTEX
8
0
10
5.6493
20
1.5379
0
SEQEND
8
0
0
POLYLINE
8
Layer 1
66
1
0
VERTEX
8
0
10
5.8413
20
1.5691
42
-0.1185
0
VERTEX
8
0
10
5.8418
20
1.5970
42
-0.1020
0
VERTEX
8
0
10
5.8477
20
1.6097
42
-0.1315
0
VERTEX
8
0
10
5.8584
20
1.6185
42
-0.1061
0
VERTEX
8
0
10
5.8721
20
1.6210
42
-0.0666
0
VERTEX
8
0
10
5.8859
20
1.6184
42
-0.0671
0
VERTEX
8
0
10
5.9106
20
1.6052
42
-0.0376
0
VERTEX
8
0
10
5.9319
20
1.5869
42
-0.1112
0
VERTEX
8
0
10
5.9635
20
1.5340
42
-0.0653
0
VERTEX
8
0
10
5.9697
20
1.5036
42
-0.1092
0
VERTEX
8
0
10
5.9665
20
1.4729
42
-0.0625
0
VERTEX
8
0
10
5.9605
20
1.4593
42
-0.1560
0
VERTEX
8
0
10
5.9502
20
1.4487
42
-0.1679
0
VERTEX
8
0
10
5.9357
20
1.4472
42
-0.0710
0
VERTEX
8
0
10
5.9221
20
1.4532
42
-0.0466
0
VERTEX
8
0
10
5.8992
20
1.4724
42
-0.0193
0
VERTEX
8
0
10
5.8793
20
1.4946
42
-0.0790
0
VERTEX
8
0
10
5.8494
20
1.5422
42
-0.0629
0
VERTEX
8
0
10
5.8413
20
1.5691
0
SEQEND
8
0
0
POLYLINE
8
Layer 1
66
1
0
VERTEX
8
0
10
5.8509
20
1.7225
42
-0.1988
0
VERTEX
8
0
10
5.8333
20
1.7298
42
-0.2004
0
VERTEX
8
0
10
5.8260
20
1.7474
42
-0.4124
0
VERTEX
8
0
10
5.8509
20
1.7722
42
-0.1976
0
VERTEX
8
0
10
5.8684
20
1.7649
42
-0.2008
0
VERTEX
8
0
10
5.8757
20
1.7474
42
-0.4127
0
VERTEX
8
0
10
5.8509
20
1.7225
0
SEQEND
8
0
0
POLYLINE
8
Layer 1
66
1
0
VERTEX
8
0
10
5.9819
20
1.6856
42
-0.1695
0
VERTEX
8
0
10
5.9917
20
1.7060
42
-0.1529
0
VERTEX
8
0
10
6.0122
20
1.7158
42
-0.0834
0
VERTEX
8
0
10
6.0350
20
1.7145
42
-0.0875
0
VERTEX
8
0
10
6.0764
20
1.6950
42
-0.0900
0
VERTEX
8
0
10
6.1089
20
1.6628
42
-0.0646
0
VERTEX
8
0
10
6.1199
20
1.6426
42
-0.0963
0
VERTEX
8
0
10
6.1243
20
1.6202
42
-0.4126
0
VERTEX
8
0
10
6.0775
20
1.5734
42
-0.0868
0
VERTEX
8
0
10
6.0549
20
1.5779
42
-0.0582
0
VERTEX
8
0
10
6.0347
20
1.5888
42
-0.0824
0
VERTEX
8
0
10
6.0026
20
1.6214
42
-0.1067
0
VERTEX
8
0
10
5.9832
20
1.6628
42
-0.1039
0
VERTEX
8
0
10
5.9819
20
1.6856
0
SEQEND
8
0
0
POLYLINE
8
Layer 1
66
1
0
VERTEX
8
0
10
6.2413
20
2.1263
42
-0.1164
0
VERTEX
8
0
10
6.2349
20
2.1315
42
-0.1797
0
VERTEX
8
0
10
6.2325
20
2.1392
42
-0.1092
0
VERTEX
8
0
10
6.2351
20
2.1469
42
-0.0553
0
VERTEX
8
0
10
6.2402
20
2.1533
42
-0.4124
0
VERTEX
8
0
10
6.3065
20
2.1533
42
-0.0671
0
VERTEX
8
0
10
6.3117
20
2.1469
42
-0.1393
0
VERTEX
8
0
10
6.3143
20
2.1392
42
-0.1716
0
VERTEX
8
0
10
6.3118
20
2.1315
42
-0.0915
0
VERTEX
8
0
10
6.3055
20
2.1263
42
-0.0729
0
VERTEX
8
0
10
6.2898
20
2.1214
42
-0.0365
0
VERTEX
8
0
10
6.2734
20
2.1202
42
-0.0431
0
VERTEX
8
0
10
6.2570
20
2.1214
42
-0.1008
0
VERTEX
8
0
10
6.2413
20
2.1263
0
SEQEND
8
0
0
POLYLINE
8
Layer 1
66
1
0
VERTEX
8
0
10
6.2543
20
2.3225
42
-0.0255
0
VERTEX
8
0
10
6.2072
20
2.3210
0
VERTEX
8
0
10
6.2036
20
2.3211
0
VERTEX
8
0
10
6.2008
20
2.3211
0
VERTEX
8
0
10
6.1974
20
2.3212
0
VERTEX
8
0
10
6.1915
20
2.3214
42
-0.0050
0
VERTEX
8
0
10
6.1795
20
2.3219
42
-0.0379
0
VERTEX
8
0
10
6.1557
20
2.3242
42
-0.1064
0
VERTEX
8
0
10
6.1443
20
2.3276
0
VERTEX
8
0
10
6.1405
20
2.3319
42
-0.1522
0
VERTEX
8
0
10
6.1422
20
2.3375
42
-0.0538
0
VERTEX
8
0
10
6.1506
20
2.3459
42
-0.0165
0
VERTEX
8
0
10
6.1602
20
2.3530
42
-0.0152
0
VERTEX
8
0
10
6.2011
20
2.3777
42
-0.0047
0
VERTEX
8
0
10
6.2430
20
2.4008
42
0.0137
0
VERTEX
8
0
10
6.2836
20
2.4238
42
0.0418
0
VERTEX
8
0
10
6.3221
20
2.4502
42
0.0659
0
VERTEX
8
0
10
6.3388
20
2.4666
42
0.0732
0
VERTEX
8
0
10
6.3448
20
2.4765
42
0.1240
0
VERTEX
8
0
10
6.3469
20
2.4879
42
0.1093
0
VERTEX
8
0
10
6.3434
20
2.4990
42
0.0589
0
VERTEX
8
0
10
6.3361
20
2.5081
42
0.0461
0
VERTEX
8
0
10
6.3176
20
2.5223
0
VERTEX
8
0
10
6.3149
20
2.5240
0
VERTEX
8
0
10
6.3127
20
2.5254
0
VERTEX
8
0
10
6.3083
20
2.5284
42
-0.0119
0
VERTEX
8
0
10
6.2997
20
2.5344
42
-0.0811
0
VERTEX
8
0
10
6.2840
20
2.5485
0
VERTEX
8
0
10
6.2812
20
2.5529
42
-0.1861
0
VERTEX
8
0
10
6.2802
20
2.5580
0
VERTEX
8
0
10
6.2833
20
2.5622
0
VERTEX
8
0
10
6.2880
20
2.5644
42
-0.0507
0
VERTEX
8
0
10
6.3089
20
2.5668
42
-0.0777
0
VERTEX
8
0
10
6.3273
20
2.5634
42
-0.0441
0
VERTEX
8
0
10
6.3443
20
2.5554
42
-0.0515
0
VERTEX
8
0
10
6.3742
20
2.5326
42
-0.0822
0
VERTEX
8
0
10
6.4198
20
2.4731
42
-0.0365
0
VERTEX
8
0
10
6.4364
20
2.4379
42
-0.0392
0
VERTEX
8
0
10
6.4421
20
2.4194
42
-0.0766
0
VERTEX
8
0
10
6.4441
20
2.4002
42
-0.1171
0
VERTEX
8
0
10
6.4391
20
2.3817
42
-0.0901
0
VERTEX
8
0
10
6.4267
20
2.3670
42
-0.0477
0
VERTEX
8
0
10
6.4104
20
2.3566
42
-0.0247
0
VERTEX
8
0
10
6.3927
20
2.3488
42
-0.0310
0
VERTEX
8
0
10
6.3474
20
2.3359
42
-0.0178
0
VERTEX
8
0
10
6.3011
20
2.3276
42
-0.0167
0
VERTEX
8
0
10
6.2543
20
2.3225
0
SEQEND
8
0
0
POLYLINE
8
Layer 1
66
1
0
VERTEX
8
0
10
6.1676
20
2.4344
42
-0.1574
0
VERTEX
8
0
10
6.1243
20
2.4203
42
-0.1452
0
VERTEX
8
0
10
6.0809
20
2.4344
42
-0.0963
0
VERTEX
8
0
10
6.0497
20
2.4681
42
-0.3154
0
VERTEX
8
0
10
6.0490
20
2.4936
42
-0.0884
0
VERTEX
8
0
10
6.0587
20
2.5031
42
-0.0490
0
VERTEX
8
0
10
6.0708
20
2.5093
42
-0.0521
0
VERTEX
8
0
10
6.0971
20
2.5160
42
-0.0342
0
VERTEX
8
0
10
6.1243
20
2.5178
42
-0.0379
0
VERTEX
8
0
10
6.1513
20
2.5160
42
-0.0657
0
VERTEX
8
0
10
6.1776
20
2.5094
42
-0.0577
0
VERTEX
8
0
10
6.1897
20
2.5031
42
-0.1087
0
VERTEX
8
0
10
6.1995
20
2.4937
42
-0.1665
0
VERTEX
8
0
10
6.2032
20
2.4809
42
-0.1128
0
VERTEX
8
0
10
6.1988
20
2.4681
42
-0.1124
0
VERTEX
8
0
10
6.1676
20
2.4344
0
SEQEND
8
0
0
POLYLINE
8
Layer 1
66
1
0
VERTEX
8
0
10
6.0536
20
2.2929
0
VERTEX
8
0
10
6.0570
20
2.2888
42
-0.2821
0
VERTEX
8
0
10
6.0562
20
2.2837
42
-0.0968
0
VERTEX
8
0
10
6.0469
20
2.2787
42
-0.0367
0
VERTEX
8
0
10
6.0257
20
2.2748
42
-0.0145
0
VERTEX
8
0
10
6.0041
20
2.2732
42
-0.0212
0
VERTEX
8
0
10
5.9828
20
2.2731
42
-0.0354
0
VERTEX
8
0
10
5.9613
20
2.2752
42
-0.0323
0
VERTEX
8
0
10
5.9507
20
2.2775
42
-0.0749
0
VERTEX
8
0
10
5.9407
20
2.2817
0
VERTEX
8
0
10
5.9365
20
2.2850
0
VERTEX
8
0
10
5.9343
20
2.2899
42
-0.1727
0
VERTEX
8
0
10
5.9389
20
2.2993
42
-0.1143
0
VERTEX
8
0
10
5.9609
20
2.3104
42
-0.0574
0
VERTEX
8
0
10
5.9856
20
2.3130
42
-0.0921
0
VERTEX
8
0
10
6.0342
20
2.3033
42
-0.0101
0
VERTEX
8
0
10
6.0396
20
2.3010
0
VERTEX
8
0
10
6.0445
20
2.2987
42
-0.0719
0
VERTEX
8
0
10
6.0536
20
2.2929
0
SEQEND
8
0
0
POLYLINE
8
Layer 1
66
1
0
VERTEX
8
0
10
6.4954
20
2.4663
42
-0.0295
0
VERTEX
8
0
10
6.4887
20
2.4828
42
-0.0315
0
VERTEX
8
0
10
6.4799
20
2.5173
42
-0.0504
0
VERTEX
8
0
10
6.4738
20
2.5882
0
VERTEX
8
0
10
6.4738
20
2.5921
0
VERTEX
8
0
10
6.4739
20
2.5952
0
VERTEX
8
0
10
6.4739
20
2.5976
0
VERTEX
8
0
10
6.4739
20
2.5976
0
VERTEX
8
0
10
6.4741
20
2.6045
42
-0.0026
0
VERTEX
8
0
10
6.4743
20
2.6151
42
-0.0128
0
VERTEX
8
0
10
6.4752
20
2.6365
42
-0.0169
0
VERTEX
8
0
10
6.4762
20
2.6471
42
-0.0526
0
VERTEX
8
0
10
6.4782
20
2.6576
0
VERTEX
8
0
10
6.4804
20
2.6625
0
VERTEX
8
0
10
6.4846
20
2.6655
42
-0.1231
0
VERTEX
8
0
10
6.4897
20
2.6642
0
VERTEX
8
0
10
6.4941
20
2.6612
42
-0.0322
0
VERTEX
8
0
10
6.5089
20
2.6459
42
-0.0090
0
VERTEX
8
0
10
6.5224
20
2.6293
42
-0.0022
0
VERTEX
8
0
10
6.5483
20
2.5953
42
-0.0305
0
VERTEX
8
0
10
6.5916
20
2.5303
42
-0.0262
0
VERTEX
8
0
10
6.6097
20
2.4957
42
-0.0277
0
VERTEX
8
0
10
6.6171
20
2.4776
42
-0.0267
0
VERTEX
8
0
10
6.6199
20
2.4683
42
-0.0686
0
VERTEX
8
0
10
6.6213
20
2.4586
42
-0.2642
0
VERTEX
8
0
10
6.6054
20
2.4273
42
-0.0922
0
VERTEX
8
0
10
6.5884
20
2.4206
42
-0.0646
0
VERTEX
8
0
10
6.5701
20
2.4198
42
-0.0908
0
VERTEX
8
0
10
6.5350
20
2.4300
42
-0.0789
0
VERTEX
8
0
10
6.5053
20
2.4516
42
-0.0656
0
VERTEX
8
0
10
6.4954
20
2.4663
0
SEQEND
8
0
0
POLYLINE
8
Layer 1
66
1
0
VERTEX
8
0
10
6.6336
20
2.5464
42
-0.0182
0
VERTEX
8
0
10
6.5876
20
2.6486
42
-0.0230
0
VERTEX
8
0
10
6.5497
20
2.7539
42
-0.0289
0
VERTEX
8
0
10
6.5401
20
2.7907
42
-0.0286
0
VERTEX
8
0
10
6.5372
20
2.8094
42
-0.0570
0
VERTEX
8
0
10
6.5371
20
2.8282
42
-0.1175
0
VERTEX
8
0
10
6.5426
20
2.8462
42
-0.1364
0
VERTEX
8
0
10
6.5562
20
2.8590
42
-0.0719
0
VERTEX
8
0
10
6.5742
20
2.8645
42
-0.0342
0
VERTEX
8
0
10
6.5931
20
2.8658
42
0.1312
0
VERTEX
8
0
10
6.6267
20
2.8746
42
0.1079
0
VERTEX
8
0
10
6.6521
20
2.8985
42
0.0808
0
VERTEX
8
0
10
6.6666
20
2.9304
42
0.0647
0
VERTEX
8
0
10
6.6710
20
2.9652
42
-0.0573
0
VERTEX
8
0
10
6.6737
20
2.9988
42
-0.1393
0
VERTEX
8
0
10
6.6872
20
3.0295
42
-0.1096
0
VERTEX
8
0
10
6.7148
20
3.0485
42
-0.0443
0
VERTEX
8
0
10
6.7473
20
3.0574
42
-0.0261
0
VERTEX
8
0
10
6.8146
20
3.0637
42
-0.0079
0
VERTEX
8
0
10
6.8823
20
3.0649
42
0.0290
0
VERTEX
8
0
10
6.9751
20
3.0713
42
0.0211
0
VERTEX
8
0
10
7.0667
20
3.0870
42
0.0260
0
VERTEX
8
0
10
7.1566
20
3.1109
42
0.0181
0
VERTEX
8
0
10
7.2004
20
3.1266
42
0.0318
0
VERTEX
8
0
10
7.2426
20
3.1462
42
-0.0173
0
VERTEX
8
0
10
7.3009
20
3.1748
42
-0.0112
0
VERTEX
8
0
10
7.3607
20
3.1998
42
-0.0130
0
VERTEX
8
0
10
7.4830
20
3.2434
42
-0.0118
0
VERTEX
8
0
10
7.7321
20
3.3163
42
-0.0059
0
VERTEX
8
0
10
7.9838
20
3.3797
42
-0.0036
0
VERTEX
8
0
10
8.2368
20
3.4381
42
0.0042
0
VERTEX
8
0
10
8.4400
20
3.4854
42
0.0031
0
VERTEX
8
0
10
8.5413
20
3.5105
42
0.0037
0
VERTEX
8
0
10
8.5917
20
3.5236
42
0.0119
0
VERTEX
8
0
10
8.6419
20
3.5377
42
-0.0581
0
VERTEX
8
0
10
8.6798
20
3.5457
42
-0.0935
0
VERTEX
8
0
10
8.7183
20
3.5426
42
-0.0746
0
VERTEX
8
0
10
8.7534
20
3.5263
42
-0.0413
0
VERTEX
8
0
10
8.7833
20
3.5017
42
-0.0302
0
VERTEX
8
0
10
8.8339
20
3.4429
42
-0.0109
0
VERTEX
8
0
10
8.8791
20
3.3798
0
VERTEX
8
0
10
8.8791
20
3.3798
0
VERTEX
8
0
10
8.8810
20
3.3769
0
VERTEX
8
0
10
8.8833
20
3.3736
0
VERTEX
8
0
10
8.8877
20
3.3670
0
VERTEX
8
0
10
8.8965
20
3.3539
42
-0.0043
0
VERTEX
8
0
10
8.9140
20
3.3273
42
-0.0208
0
VERTEX
8
0
10
8.9468
20
3.2731
42
-0.0259
0
VERTEX
8
0
10
8.9610
20
3.2447
42
-0.0806
0
VERTEX
8
0
10
8.9705
20
3.2145
42
-0.1057
0
VERTEX
8
0
10
8.9703
20
3.1988
42
-0.1486
0
VERTEX
8
0
10
8.9624
20
3.1853
42
-0.0813
0
VERTEX
8
0
10
8.9489
20
3.1772
42
-0.0354
0
VERTEX
8
0
10
8.9336
20
3.1728
42
0.0893
0
VERTEX
8
0
10
8.8877
20
3.1549
42
0.0784
0
VERTEX
8
0
10
8.8684
20
3.1396
42
0.0721
0
VERTEX
8
0
10
8.8612
20
3.1295
42
0.1309
0
VERTEX
8
0
10
8.8581
20
3.1177
42
-0.1424
0
VERTEX
8
0
10
8.8441
20
3.1079
42
-0.0168
0
VERTEX
8
0
10
8.8277
20
3.1029
42
-0.0135
0
VERTEX
8
0
10
8.7944
20
3.0954
42
-0.0105
0
VERTEX
8
0
10
8.7271
20
3.0840
42
-0.0087
0
VERTEX
8
0
10
8.5915
20
3.0672
42
-0.0099
0
VERTEX
8
0
10
8.3193
20
3.0446
0
VERTEX
8
0
10
8.3043
20
3.0437
0
VERTEX
8
0
10
8.2908
20
3.0428
0
VERTEX
8
0
10
8.2789
20
3.0420
0
VERTEX
8
0
10
8.2689
20
3.0414
0
VERTEX
8
0
10
8.2347
20
3.0391
0
VERTEX
8
0
10
8.1655
20
3.0341
42
0.0034
0
VERTEX
8
0
10
8.0271
20
3.0230
42
0.0054
0
VERTEX
8
0
10
7.8889
20
3.0098
42
0.0117
0
VERTEX
8
0
10
7.7513
20
2.9926
42
0.0146
0
VERTEX
8
0
10
7.6828
20
2.9809
42
0.0272
0
VERTEX
8
0
10
7.6491
20
2.9730
42
-0.0103
0
VERTEX
8
0
10
7.6320
20
2.9685
42
0.0623
0
VERTEX
8
0
10
7.6236
20
2.9657
42
0.1314
0
VERTEX
8
0
10
7.6171
20
2.9606
42
0.1410
0
VERTEX
8
0
10
7.6139
20
2.9529
42
0.2456
0
VERTEX
8
0
10
7.6159
20
2.9461
0
VERTEX
8
0
10
7.6191
20
2.9438
0
VERTEX
8
0
10
7.6232
20
2.9423
42
0.0126
0
VERTEX
8
0
10
7.6328
20
2.9401
42
-0.0080
0
VERTEX
8
0
10
7.6417
20
2.9382
42
0.0040
0
VERTEX
8
0
10
7.6499
20
2.9363
42
0.0151
0
VERTEX
8
0
10
7.6668
20
2.9332
42
0.0135
0
VERTEX
8
0
10
7.7357
20
2.9252
42
0.0095
0
VERTEX
8
0
10
7.8743
20
2.9165
42
0.0047
0
VERTEX
8
0
10
8.0131
20
2.9120
42
-0.0052
0
VERTEX
8
0
10
8.5062
20
2.8973
42
-0.0087
0
VERTEX
8
0
10
8.7523
20
2.8845
42
-0.0132
0
VERTEX
8
0
10
8.8750
20
2.8737
42
-0.0193
0
VERTEX
8
0
10
8.9360
20
2.8651
42
-0.0268
0
VERTEX
8
0
10
8.9661
20
2.8584
42
-0.0307
0
VERTEX
8
0
10
8.9807
20
2.8536
42
-0.0774
0
VERTEX
8
0
10
8.9939
20
2.8459
42
-0.1055
0
VERTEX
8
0
10
9.0003
20
2.8335
42
-0.0441
0
VERTEX
8
0
10
9.0026
20
2.8197
42
-0.0433
0
VERTEX
8
0
10
9.0015
20
2.7917
42
-0.0585
0
VERTEX
8
0
10
8.9876
20
2.7374
42
-0.0725
0
VERTEX
8
0
10
8.9728
20
2.7089
42
-0.1092
0
VERTEX
8
0
10
8.9490
20
2.6873
42
-0.0746
0
VERTEX
8
0
10
8.9186
20
2.6767
42
-0.0364
0
VERTEX
8
0
10
8.8865
20
2.6736
42
-0.0271
0
VERTEX
8
0
10
8.8219
20
2.6772
42
-0.0095
0
VERTEX
8
0
10
8.7579
20
2.6862
0
VERTEX
8
0
10
8.7379
20
2.6893
0
VERTEX
8
0
10
8.7192
20
2.6921
42
0.0023
0
VERTEX
8
0
10
8.6821
20
2.6974
42
0.0040
0
VERTEX
8
0
10
8.6077
20
2.7070
42
0.0062
0
VERTEX
8
0
10
8.4585
20
2.7230
42
0.0100
0
VERTEX
8
0
10
8.1592
20
2.7452
42
0.0135
0
VERTEX
8
0
10
7.8593
20
2.7547
42
0.0153
0
VERTEX
8
0
10
7.7093
20
2.7520
42
0.0196
0
VERTEX
8
0
10
7.6345
20
2.7462
42
0.0145
0
VERTEX
8
0
10
7.5974
20
2.7402
42
0.0950
0
VERTEX
8
0
10
7.5796
20
2.7349
42
0.0946
0
VERTEX
8
0
10
7.5657
20
2.7229
42
0.1550
0
VERTEX
8
0
10
7.5728
20
2.7051
42
0.0696
0
VERTEX
8
0
10
7.5876
20
2.6925
42
0.0608
0
VERTEX
8
0
10
7.6234
20
2.6771
42
0.0644
0
VERTEX
8
0
10
7.7007
20
2.6669
42
-0.0053
0
VERTEX
8
0
10
7.7187
20
2.6667
42
-0.0052
0
VERTEX
8
0
10
7.7358
20
2.6661
42
-0.0065
0
VERTEX
8
0
10
7.7697
20
2.6640
42
-0.0082
0
VERTEX
8
0
10
7.8375
20
2.6576
42
-0.0090
0
VERTEX
8
0
10
7.9724
20
2.6397
42
-0.0109
0
VERTEX
8
0
10
8.2404
20
2.5922
42
-0.0133
0
VERTEX
8
0
10
8.5060
20
2.5329
42
-0.0146
0
VERTEX
8
0
10
8.6373
20
2.4969
42
-0.0197
0
VERTEX
8
0
10
8.7018
20
2.4752
42
-0.0169
0
VERTEX
8
0
10
8.7332
20
2.4619
42
-0.1510
0
VERTEX
8
0
10
8.7586
20
2.4406
42
-0.0461
0
VERTEX
8
0
10
8.7563
20
2.4348
0
VERTEX
8
0
10
8.7532
20
2.4301
42
-0.0895
0
VERTEX
8
0
10
8.7448
20
2.4246
42
-0.0452
0
VERTEX
8
0
10
8.7255
20
2.4184
42
-0.0309
0
VERTEX
8
0
10
8.6855
20
2.4130
42
-0.0230
0
VERTEX
8
0
10
8.6047
20
2.4122
42
-0.0227
0
VERTEX
8
0
10
8.4436
20
2.4267
42
-0.0246
0
VERTEX
8
0
10
8.2845
20
2.4555
42
-0.0207
0
VERTEX
8
0
10
8.2064
20
2.4766
42
-0.0170
0
VERTEX
8
0
10
8.1682
20
2.4898
42
-0.0296
0
VERTEX
8
0
10
8.1313
20
2.5061
42
0.0296
0
VERTEX
8
0
10
8.0917
20
2.5220
42
0.0126
0
VERTEX
8
0
10
8.0509
20
2.5341
42
0.0141
0
VERTEX
8
0
10
7.9678
20
2.5536
42
0.0236
0
VERTEX
8
0
10
7.7994
20
2.5800
0
VERTEX
8
0
10
7.7962
20
2.5803
0
VERTEX
8
0
10
7.7939
20
2.5806
0
VERTEX
8
0
10
7.7896
20
2.5810
0
VERTEX
8
0
10
7.7810
20
2.5820
0
VERTEX
8
0
10
7.7638
20
2.5838
0
VERTEX
8
0
10
7.7292
20
2.5872
42
0.0172
0
VERTEX
8
0
10
7.6600
20
2.5924
42
0.0381
0
VERTEX
8
0
10
7.6254
20
2.5922
42
0.0811
0
VERTEX
8
0
10
7.6083
20
2.5891
42
0.1419
0
VERTEX
8
0
10
7.6010
20
2.5846
42
0.1952
0
VERTEX
8
0
10
7.5983
20
2.5766
42
0.0740
0
VERTEX
8
0
10
7.6007
20
2.5683
42
0.0308
0
VERTEX
8
0
10
7.6049
20
2.5607
42
0.0228
0
VERTEX
8
0
10
7.6151
20
2.5467
42
0.0103
0
VERTEX
8
0
10
7.6379
20
2.5205
0
VERTEX
8
0
10
7.6429
20
2.5149
0
VERTEX
8
0
10
7.6476
20
2.5096
42
-0.0045
0
VERTEX
8
0
10
7.6569
20
2.4988
42
-0.0137
0
VERTEX
8
0
10
7.6748
20
2.4767
42
-0.0215
0
VERTEX
8
0
10
7.6913
20
2.4535
42
-0.0477
0
VERTEX
8
0
10
7.7050
20
2.4286
42
-0.0474
0
VERTEX
8
0
10
7.7096
20
2.4152
42
-0.0883
0
VERTEX
8
0
10
7.7110
20
2.4011
42
-0.1375
0
VERTEX
8
0
10
7.7064
20
2.3878
42
-0.1027
0
VERTEX
8
0
10
7.6958
20
2.3785
42
-0.0750
0
VERTEX
8
0
10
7.6687
20
2.3704
42
-0.0297
0
VERTEX
8
0
10
7.6403
20
2.3687
42
-0.1085
0
VERTEX
8
0
10
7.5950
20
2.3772
42
-0.1019
0
VERTEX
8
0
10
7.5755
20
2.3895
42
-0.0889
0
VERTEX
8
0
10
7.5685
20
2.3987
42
-0.1227
0
VERTEX
8
0
10
7.5657
20
2.4098
0
VERTEX
8
0
10
7.5653
20
2.4127
0
VERTEX
8
0
10
7.5648
20
2.4149
0
VERTEX
8
0
10
7.5635
20
2.4176
0
VERTEX
8
0
10
7.5595
20
2.4221
42
0.0697
0
VERTEX
8
0
10
7.5491
20
2.4279
42
0.0497
0
VERTEX
8
0
10
7.5257
20
2.4333
42
0.0345
0
VERTEX
8
0
10
7.4778
20
2.4347
42
0.0332
0
VERTEX
8
0
10
7.3825
20
2.4229
42
0.0390
0
VERTEX
8
0
10
7.2897
20
2.3986
42
0.0403
0
VERTEX
8
0
10
7.2455
20
2.3800
42
0.0418
0
VERTEX
8
0
10
7.2250
20
2.3676
42
0.1103
0
VERTEX
8
0
10
7.2080
20
2.3508
42
-0.0515
0
VERTEX
8
0
10
7.2001
20
2.3406
42
-0.1129
0
VERTEX
8
0
10
7.1899
20
2.3330
42
-0.1755
0
VERTEX
8
0
10
7.1773
20
2.3320
42
-0.1021
0
VERTEX
8
0
10
7.1663
20
2.3385
42
-0.0678
0
VERTEX
8
0
10
7.1512
20
2.3591
42
-0.0279
0
VERTEX
8
0
10
7.1406
20
2.3825
42
0.0863
0
VERTEX
8
0
10
7.1092
20
2.4359
42
0.0684
0
VERTEX
8
0
10
7.0866
20
2.4571
42
0.0602
0
VERTEX
8
0
10
7.0731
20
2.4647
42
0.1098
0
VERTEX
8
0
10
7.0580
20
2.4681
42
0.2293
0
VERTEX
8
0
10
7.0379
20
2.4592
42
0.1280
0
VERTEX
8
0
10
7.0298
20
2.4382
42
0.0673
0
VERTEX
8
0
10
7.0307
20
2.4155
42
0.0448
0
VERTEX
8
0
10
7.0369
20
2.3936
0
VERTEX
8
0
10
7.0387
20
2.3891
42
-0.0031
0
VERTEX
8
0
10
7.0406
20
2.3839
0
VERTEX
8
0
10
7.0429
20
2.3773
0
VERTEX
8
0
10
7.0437
20
2.3751
0
VERTEX
8
0
10
7.0437
20
2.3751
0
VERTEX
8
0
10
7.0438
20
2.3748
0
VERTEX
8
0
10
7.0429
20
2.3772
0
VERTEX
8
0
10
7.0416
20
2.3808
0
VERTEX
8
0
10
7.0403
20
2.3844
0
VERTEX
8
0
10
7.0394
20
2.3869
0
VERTEX
8
0
10
7.0394
20
2.3869
0
VERTEX
8
0
10
7.0393
20
2.3874
0
VERTEX
8
0
10
7.0400
20
2.3854
0
VERTEX
8
0
10
7.0424
20
2.3788
42
-0.0042
0
VERTEX
8
0
10
7.0444
20
2.3732
0
VERTEX
8
0
10
7.0458
20
2.3688
42
-0.0071
0
VERTEX
8
0
10
7.0488
20
2.3592
42
-0.0327
0
VERTEX
8
0
10
7.0537
20
2.3393
42
-0.0198
0
VERTEX
8
0
10
7.0551
20
2.3292
42
-0.1259
0
VERTEX
8
0
10
7.0545
20
2.3190
0
VERTEX
8
0
10
7.0520
20
2.3143
0
VERTEX
8
0
10
7.0480
20
2.3116
0
VERTEX
8
0
10
7.0430
20
2.3118
42
-0.0378
0
VERTEX
8
0
10
7.0379
20
2.3137
42
-0.0482
0
VERTEX
8
0
10
7.0210
20
2.3249
42
-0.0192
0
VERTEX
8
0
10
7.0057
20
2.3385
42
-0.0245
0
VERTEX
8
0
10
6.9513
20
2.3995
42
-0.0122
0
VERTEX
8
0
10
6.9017
20
2.4645
42
-0.0303
0
VERTEX
8
0
10
6.7282
20
2.7415
0
VERTEX
8
0
10
6.7282
20
2.7415
0
VERTEX
8
0
10
6.7270
20
2.7437
0
VERTEX
8
0
10
6.7256
20
2.7463
42
0.0033
0
VERTEX
8
0
10
6.7226
20
2.7515
42
0.0073
0
VERTEX
8
0
10
6.7165
20
2.7617
42
0.0254
0
VERTEX
8
0
10
6.7032
20
2.7815
42
0.0229
0
VERTEX
8
0
10
6.6958
20
2.7908
42
0.0554
0
VERTEX
8
0
10
6.6872
20
2.7991
42
0.0808
0
VERTEX
8
0
10
6.6821
20
2.8022
42
0.2922
0
VERTEX
8
0
10
6.6764
20
2.8021
42
0.1461
0
VERTEX
8
0
10
6.6734
20
2.7971
42
0.0478
0
VERTEX
8
0
10
6.6727
20
2.7912
42
0.0475
0
VERTEX
8
0
10
6.6746
20
2.7771
42
0.0186
0
VERTEX
8
0
10
6.6785
20
2.7633
42
0.0161
0
VERTEX
8
0
10
6.6884
20
2.7366
42
0.0160
0
VERTEX
8
0
10
6.7120
20
2.6846
42
0.0219
0
VERTEX
8
0
10
6.7670
20
2.5847
42
-0.0217
0
VERTEX
8
0
10
6.8010
20
2.5243
42
-0.0185
0
VERTEX
8
0
10
6.8157
20
2.4927
42
-0.0322
0
VERTEX
8
0
10
6.8275
20
2.4600
42
-0.0705
0
VERTEX
8
0
10
6.8336
20
2.4258
42
-0.0655
0
VERTEX
8
0
10
6.8323
20
2.4085
42
-0.0988
0
VERTEX
8
0
10
6.8258
20
2.3925
42
-0.0991
0
VERTEX
8
0
10
6.8136
20
2.3803
42
-0.0682
0
VERTEX
8
0
10
6.7978
20
2.3730
42
-0.0622
0
VERTEX
8
0
10
6.7634
20
2.3687
42
-0.0851
0
VERTEX
8
0
10
6.7562
20
2.3703
42
-0.0416
0
VERTEX
8
0
10
6.7501
20
2.3735
42
-0.0389
0
VERTEX
8
0
10
6.7391
20
2.3822
42
-0.0305
0
VERTEX
8
0
10
6.7202
20
2.4028
42
-0.0261
0
VERTEX
8
0
10
6.6879
20
2.4486
42
-0.0223
0
VERTEX
8
0
10
6.6336
20
2.5464
0
SEQEND
8
0
0
POLYLINE
8
Layer 1
66
1
0
VERTEX
8
0
10
6.4556
20
2.7332
42
-0.0666
0
VERTEX
8
0
10
6.4492
20
2.7281
42
-0.1393
0
VERTEX
8
0
10
6.4415
20
2.7254
42
-0.1717
0
VERTEX
8
0
10
6.4338
20
2.7279
42
-0.0932
0
VERTEX
8
0
10
6.4286
20
2.7342
42
-0.0724
0
VERTEX
8
0
10
6.4237
20
2.7499
42
-0.0365
0
VERTEX
8
0
10
6.4225
20
2.7664
42
-0.0431
0
VERTEX
8
0
10
6.4237
20
2.7828
42
-0.1005
0
VERTEX
8
0
10
6.4286
20
2.7984
42
-0.1182
0
VERTEX
8
0
10
6.4338
20
2.8048
42
-0.1804
0
VERTEX
8
0
10
6.4415
20
2.8073
42
-0.1096
0
VERTEX
8
0
10
6.4492
20
2.8047
42
-0.0551
0
VERTEX
8
0
10
6.4556
20
2.7995
42
-0.4125
0
VERTEX
8
0
10
6.4556
20
2.7332
0
SEQEND
8
0
0
POLYLINE
8
Layer 1
66
1
0
VERTEX
8
0
10
6.8710
20
2.8494
42
0.0999
0
VERTEX
8
0
10
6.8759
20
2.8337
42
0.1165
0
VERTEX
8
0
10
6.8811
20
2.8273
42
0.1811
0
VERTEX
8
0
10
6.8888
20
2.8249
42
0.1094
0
VERTEX
8
0
10
6.8966
20
2.8275
42
0.0553
0
VERTEX
8
0
10
6.9030
20
2.8326
42
0.4125
0
VERTEX
8
0
10
6.9030
20
2.8989
42
0.0673
0
VERTEX
8
0
10
6.8966
20
2.9040
42
0.1392
0
VERTEX
8
0
10
6.8889
20
2.9067
42
0.1727
0
VERTEX
8
0
10
6.8812
20
2.9042
42
0.0926
0
VERTEX
8
0
10
6.8760
20
2.8979
42
0.0727
0
VERTEX
8
0
10
6.8710
20
2.8822
42
0.0365
0
VERTEX
8
0
10
6.8698
20
2.8658
42
0.0437
0
VERTEX
8
0
10
6.8710
20
2.8494
0
SEQEND
8
0
0
POLYLINE
8
Layer 1
66
1
0
VERTEX
8
0
10
6.9273
20
2.7601
0
VERTEX
8
0
10
6.9228
20
2.7565
42
0.0631
0
VERTEX
8
0
10
6.9217
20
2.7505
42
0.0377
0
VERTEX
8
0
10
6.9224
20
2.7382
42
0.0325
0
VERTEX
8
0
10
6.9342
20
2.6904
42
0.0146
0
VERTEX
8
0
10
6.9505
20
2.6440
42
0.0667
0
VERTEX
8
0
10
6.9704
20
2.6049
42
0.0898
0
VERTEX
8
0
10
6.9850
20
2.5885
42
0.1386
0
VERTEX
8
0
10
6.9947
20
2.5835
42
0.2579
0
VERTEX
8
0
10
7.0048
20
2.5865
42
0.1098
0
VERTEX
8
0
10
7.0084
20
2.5932
42
0.0495
0
VERTEX
8
0
10
7.0096
20
2.6007
42
0.0446
0
VERTEX
8
0
10
7.0086
20
2.6159
42
0.0384
0
VERTEX
8
0
10
7.0010
20
2.6453
42
0.0458
0
VERTEX
8
0
10
6.9753
20
2.7005
0
VERTEX
8
0
10
6.9734
20
2.7037
0
VERTEX
8
0
10
6.9719
20
2.7063
0
VERTEX
8
0
10
6.9709
20
2.7080
0
VERTEX
8
0
10
6.9709
20
2.7080
42
0.0031
0
VERTEX
8
0
10
6.9669
20
2.7145
42
0.0074
0
VERTEX
8
0
10
6.9603
20
2.7249
42
0.0295
0
VERTEX
8
0
10
6.9460
20
2.7449
42
0.0385
0
VERTEX
8
0
10
6.9377
20
2.7540
0
VERTEX
8
0
10
6.9329
20
2.7579
42
0.1869
0
VERTEX
8
0
10
6.9273
20
2.7601
0
SEQEND
8
0
0
POLYLINE
8
Layer 1
66
1
0
VERTEX
8
0
10
6.8947
20
2.3687
42
-0.4128
0
VERTEX
8
0
10
6.9195
20
2.3439
42
-0.1981
0
VERTEX
8
0
10
6.9122
20
2.3263
42
-0.2004
0
VERTEX
8
0
10
6.8947
20
2.3190
42
-0.1975
0
VERTEX
8
0
10
6.8771
20
2.3263
42
-0.2009
0
VERTEX
8
0
10
6.8698
20
2.3439
42
-0.4124
0
VERTEX
8
0
10
6.8947
20
2.3687
0
SEQEND
8
0
0
POLYLINE
8
Layer 1
66
1
0
VERTEX
8
0
10
7.4175
20
2.3112
42
-0.0489
0
VERTEX
8
0
10
7.4204
20
2.3241
42
-0.1448
0
VERTEX
8
0
10
7.4347
20
2.3460
42
-0.1419
0
VERTEX
8
0
10
7.4587
20
2.3562
42
-0.0984
0
VERTEX
8
0
10
7.4849
20
2.3535
42
-0.1281
0
VERTEX
8
0
10
7.5283
20
2.3243
42
-0.0987
0
VERTEX
8
0
10
7.5543
20
2.2786
42
-0.1585
0
VERTEX
8
0
10
7.5554
20
2.2542
42
-0.1473
0
VERTEX
8
0
10
7.5418
20
2.2339
42
-0.0957
0
VERTEX
8
0
10
7.5198
20
2.2228
42
-0.0655
0
VERTEX
8
0
10
7.4953
20
2.2196
42
-0.4126
0
VERTEX
8
0
10
7.4166
20
2.2983
42
-0.0360
0
VERTEX
8
0
10
7.4175
20
2.3112
0
SEQEND
8
0
0
POLYLINE
8
Layer 1
66
1
0
VERTEX
8
0
10
7.7760
20
2.1469
42
-0.0553
0
VERTEX
8
0
10
7.7811
20
2.1533
42
-0.4124
0
VERTEX
8
0
10
7.8474
20
2.1533
42
-0.0665
0
VERTEX
8
0
10
7.8525
20
2.1469
42
-0.1403
0
VERTEX
8
0
10
7.8552
20
2.1392
42
-0.1722
0
VERTEX
8
0
10
7.8527
20
2.1315
42
-0.0916
0
VERTEX
8
0
10
7.8464
20
2.1263
42
-0.0727
0
VERTEX
8
0
10
7.8307
20
2.1214
42
-0.0365
0
VERTEX
8
0
10
7.8142
20
2.1202
42
-0.0437
0
VERTEX
8
0
10
7.7978
20
2.1214
42
-0.1006
0
VERTEX
8
0
10
7.7822
20
2.1263
42
-0.1173
0
VERTEX
8
0
10
7.7758
20
2.1315
42
-0.1810
0
VERTEX
8
0
10
7.7733
20
2.1392
42
-0.1089
0
VERTEX
8
0
10
7.7760
20
2.1469
0
SEQEND
8
0
0
POLYLINE
8
Layer 1
66
1
0
VERTEX
8
0
10
7.8640
20
2.0456
42
-0.4125
0
VERTEX
8
0
10
7.8888
20
2.0705
42
-0.1978
0
VERTEX
8
0
10
7.9064
20
2.0632
42
-0.2005
0
VERTEX
8
0
10
7.9136
20
2.0456
42
-0.1975
0
VERTEX
8
0
10
7.9064
20
2.0281
42
-0.2009
0
VERTEX
8
0
10
7.8888
20
2.0208
42
-0.4125
0
VERTEX
8
0
10
7.8640
20
2.0456
0
SEQEND
8
0
0
POLYLINE
8
Layer 1
66
1
0
VERTEX
8
0
10
8.0219
20
2.0895
42
-0.1097
0
VERTEX
8
0
10
8.0245
20
2.0972
42
-0.0551
0
VERTEX
8
0
10
8.0296
20
2.1036
42
-0.4126
0
VERTEX
8
0
10
8.0959
20
2.1036
42
-0.0670
0
VERTEX
8
0
10
8.1010
20
2.0972
42
-0.1394
0
VERTEX
8
0
10
8.1037
20
2.0895
42
-0.1714
0
VERTEX
8
0
10
8.1012
20
2.0818
42
-0.0913
0
VERTEX
8
0
10
8.0949
20
2.0766
42
-0.0713
0
VERTEX
8
0
10
8.0792
20
2.0717
42
-0.0364
0
VERTEX
8
0
10
8.0628
20
2.0705
42
-0.0435
0
VERTEX
8
0
10
8.0464
20
2.0717
42
-0.0990
0
VERTEX
8
0
10
8.0307
20
2.0766
42
-0.1181
0
VERTEX
8
0
10
8.0243
20
2.0818
42
-0.1807
0
VERTEX
8
0
10
8.0219
20
2.0895
0
SEQEND
8
0
0
POLYLINE
8
Layer 1
66
1
0
VERTEX
8
0
10
8.1471
20
2.2594
42
-0.1118
0
VERTEX
8
0
10
8.1373
20
2.2693
0
VERTEX
8
0
10
8.1350
20
2.2738
0
VERTEX
8
0
10
8.1340
20
2.2766
42
-0.0786
0
VERTEX
8
0
10
8.1333
20
2.2822
42
-0.1508
0
VERTEX
8
0
10
8.1372
20
2.2925
42
-0.0753
0
VERTEX
8
0
10
8.1457
20
2.2998
42
-0.0403
0
VERTEX
8
0
10
8.1557
20
2.3048
42
-0.0535
0
VERTEX
8
0
10
8.1993
20
2.3148
42
-0.0428
0
VERTEX
8
0
10
8.2888
20
2.3157
42
-0.0432
0
VERTEX
8
0
10
8.3773
20
2.3020
42
-0.0316
0
VERTEX
8
0
10
8.4202
20
2.2889
42
-0.0596
0
VERTEX
8
0
10
8.4604
20
2.2693
0
VERTEX
8
0
10
8.4604
20
2.2693
0
VERTEX
8
0
10
8.4624
20
2.2680
0
VERTEX
8
0
10
8.4648
20
2.2664
0
VERTEX
8
0
10
8.4694
20
2.2631
42
-0.0309
0
VERTEX
8
0
10
8.4783
20
2.2560
42
-0.0976
0
VERTEX
8
0
10
8.4857
20
2.2474
42
-0.3399
0
VERTEX
8
0
10
8.4855
20
2.2367
42
-0.0988
0
VERTEX
8
0
10
8.4760
20
2.2307
42
-0.0317
0
VERTEX
8
0
10
8.4650
20
2.2275
42
-0.0236
0
VERTEX
8
0
10
8.4425
20
2.2240
42
-0.0152
0
VERTEX
8
0
10
8.3971
20
2.2211
42
-0.0070
0
VERTEX
8
0
10
8.3515
20
2.2204
42
-0.0443
0
VERTEX
8
0
10
8.2398
20
2.2291
42
-0.0399
0
VERTEX
8
0
10
8.1852
20
2.2419
42
-0.0442
0
VERTEX
8
0
10
8.1592
20
2.2522
42
-0.0451
0
VERTEX
8
0
10
8.1471
20
2.2594
0
SEQEND
8
0
0
POLYLINE
8
Layer 1
66
1
0
VERTEX
8
0
10
7.9634
20
2.3385
42
0.1571
0
VERTEX
8
0
10
7.9614
20
2.3438
0
VERTEX
8
0
10
7.9577
20
2.3481
42
0.0447
0
VERTEX
8
0
10
7.9491
20
2.3555
42
0.0361
0
VERTEX
8
0
10
7.9300
20
2.3676
42
0.0381
0
VERTEX
8
0
10
7.8888
20
2.3867
42
0.0435
0
VERTEX
8
0
10
7.8671
20
2.3929
42
0.0636
0
VERTEX
8
0
10
7.8446
20
2.3942
42
0.1219
0
VERTEX
8
0
10
7.8236
20
2.3868
42
0.2382
0
VERTEX
8
0
10
7.8142
20
2.3671
42
0.1844
0
VERTEX
8
0
10
7.8228
20
2.3448
42
0.1095
0
VERTEX
8
0
10
7.8418
20
2.3299
42
0.1294
0
VERTEX
8
0
10
7.8888
20
2.3190
42
0.0378
0
VERTEX
8
0
10
7.9288
20
2.3221
42
0.0357
0
VERTEX
8
0
10
7.9483
20
2.3268
42
0.0454
0
VERTEX
8
0
10
7.9574
20
2.3309
0
VERTEX
8
0
10
7.9613
20
2.3340
0
VERTEX
8
0
10
7.9634
20
2.3385
0
SEQEND
8
0
0
POLYLINE
8
Layer 1
66
1
0
VERTEX
8
0
10
8.5598
20
2.1947
42
-0.1988
0
VERTEX
8
0
10
8.5671
20
2.2123
42
-0.2004
0
VERTEX
8
0
10
8.5847
20
2.2196
42
-0.4125
0
VERTEX
8
0
10
8.6095
20
2.1947
42
-0.1976
0
VERTEX
8
0
10
8.6022
20
2.1772
42
-0.2008
0
VERTEX
8
0
10
8.5847
20
2.1699
42
-0.4127
0
VERTEX
8
0
10
8.5598
20
2.1947
0
SEQEND
8
0
0
POLYLINE
8
Layer 1
66
1
0
VERTEX
8
0
10
8.3955
20
1.6142
42
-0.0684
0
VERTEX
8
0
10
8.4049
20
1.6095
0
VERTEX
8
0
10
8.4088
20
1.6060
0
VERTEX
8
0
10
8.4107
20
1.6012
42
-0.1185
0
VERTEX
8
0
10
8.4060
20
1.5820
42
-0.0911
0
VERTEX
8
0
10
8.3936
20
1.5666
42
-0.1167
0
VERTEX
8
0
10
8.3581
20
1.5497
42
-0.1252
0
VERTEX
8
0
10
8.3187
20
1.5502
42
-0.2038
0
VERTEX
8
0
10
8.2869
20
1.5726
42
-0.1806
0
VERTEX
8
0
10
8.2810
20
1.5934
42
-0.1965
0
VERTEX
8
0
10
8.2916
20
1.6119
42
-0.0950
0
VERTEX
8
0
10
8.3114
20
1.6208
42
-0.0543
0
VERTEX
8
0
10
8.3332
20
1.6231
42
-0.0496
0
VERTEX
8
0
10
8.3752
20
1.6196
42
-0.0524
0
VERTEX
8
0
10
8.3955
20
1.6142
0
SEQEND
8
0
0
POLYLINE
8
Layer 1
66
1
0
VERTEX
8
0
10
8.3486
20
1.4649
42
-0.0386
0
VERTEX
8
0
10
8.3921
20
1.4567
42
-0.0571
0
VERTEX
8
0
10
8.4334
20
1.4410
42
-0.0403
0
VERTEX
8
0
10
8.4523
20
1.4295
42
-0.0582
0
VERTEX
8
0
10
8.4688
20
1.4147
42
-0.0841
0
VERTEX
8
0
10
8.4807
20
1.3961
42
-0.1031
0
VERTEX
8
0
10
8.4853
20
1.3746
0
VERTEX
8
0
10
8.4851
20
1.3703
0
VERTEX
8
0
10
8.4849
20
1.3669
42
-0.0251
0
VERTEX
8
0
10
8.4838
20
1.3601
42
-0.0525
0
VERTEX
8
0
10
8.4795
20
1.3471
42
-0.0862
0
VERTEX
8
0
10
8.4637
20
1.3246
42
-0.0592
0
VERTEX
8
0
10
8.4418
20
1.3080
42
-0.0405
0
VERTEX
8
0
10
8.4168
20
1.2963
42
-0.0524
0
VERTEX
8
0
10
8.3634
20
1.2832
42
-0.0395
0
VERTEX
8
0
10
8.3083
20
1.2805
42
-0.0402
0
VERTEX
8
0
10
8.2535
20
1.2864
42
-0.0488
0
VERTEX
8
0
10
8.2005
20
1.3013
42
-0.0733
0
VERTEX
8
0
10
8.1521
20
1.3275
42
-0.1186
0
VERTEX
8
0
10
8.1158
20
1.3684
42
-0.0263
0
VERTEX
8
0
10
8.0875
20
1.4272
42
-0.0222
0
VERTEX
8
0
10
8.0760
20
1.4579
42
-0.0376
0
VERTEX
8
0
10
8.0678
20
1.4896
42
-0.0786
0
VERTEX
8
0
10
8.0661
20
1.5221
42
-0.1621
0
VERTEX
8
0
10
8.0776
20
1.5523
42
-0.0833
0
VERTEX
8
0
10
8.0900
20
1.5629
42
-0.0596
0
VERTEX
8
0
10
8.1049
20
1.5694
42
-0.0626
0
VERTEX
8
0
10
8.1373
20
1.5734
42
-0.1245
0
VERTEX
8
0
10
8.1839
20
1.5632
42
-0.1084
0
VERTEX
8
0
10
8.2031
20
1.5489
42
-0.1937
0
VERTEX
8
0
10
8.2119
20
1.5270
42
0.1156
0
VERTEX
8
0
10
8.2146
20
1.5176
42
0.0599
0
VERTEX
8
0
10
8.2205
20
1.5098
42
0.0538
0
VERTEX
8
0
10
8.2361
20
1.4979
42
0.0459
0
VERTEX
8
0
10
8.2719
20
1.4818
42
0.0508
0
VERTEX
8
0
10
8.3486
20
1.4649
0
SEQEND
8
0
0
POLYLINE
8
Layer 1
66
1
0
VERTEX
8
0
10
8.0584
20
1.1536
42
-0.0757
0
VERTEX
8
0
10
8.0810
20
1.1331
42
-0.0519
0
VERTEX
8
0
10
8.0974
20
1.1074
42
-0.0522
0
VERTEX
8
0
10
8.1083
20
1.0788
42
-0.0698
0
VERTEX
8
0
10
8.1125
20
1.0486
42
-0.2310
0
VERTEX
8
0
10
8.0891
20
0.9971
42
-0.0889
0
VERTEX
8
0
10
8.0635
20
0.9832
42
-0.0710
0
VERTEX
8
0
10
8.0347
20
0.9784
42
-0.1286
0
VERTEX
8
0
10
7.9782
20
0.9915
42
-0.1347
0
VERTEX
8
0
10
7.9358
20
1.0310
42
-0.1906
0
VERTEX
8
0
10
7.9268
20
1.0858
42
-0.1364
0
VERTEX
8
0
10
7.9545
20
1.1349
42
-0.0675
0
VERTEX
8
0
10
7.9771
20
1.1522
42
-0.0803
0
VERTEX
8
0
10
8.0036
20
1.1626
42
-0.1973
0
VERTEX
8
0
10
8.0584
20
1.1536
0
SEQEND
8
0
0
POLYLINE
8
Layer 1
66
1
0
VERTEX
8
0
10
7.9949
20
0.6699
42
-0.0636
0
VERTEX
8
0
10
8.0255
20
0.6619
0
VERTEX
8
0
10
8.0255
20
0.6619
0
VERTEX
8
0
10
8.0274
20
0.6611
0
VERTEX
8
0
10
8.0274
20
0.6611
0
VERTEX
8
0
10
8.0274
20
0.6612
0
VERTEX
8
0
10
8.0272
20
0.6612
0
VERTEX
8
0
10
8.0304
20
0.6598
42
-0.0465
0
VERTEX
8
0
10
8.0358
20
0.6567
0
VERTEX
8
0
10
8.0399
20
0.6520
42
-0.2595
0
VERTEX
8
0
10
8.0375
20
0.6467
42
-0.0681
0
VERTEX
8
0
10
8.0259
20
0.6420
42
-0.0232
0
VERTEX
8
0
10
8.0135
20
0.6397
42
-0.0277
0
VERTEX
8
0
10
7.9634
20
0.6369
0
VERTEX
8
0
10
7.9599
20
0.6369
0
VERTEX
8
0
10
7.9599
20
0.6369
0
VERTEX
8
0
10
7.9592
20
0.6369
0
VERTEX
8
0
10
7.9614
20
0.6369
0
VERTEX
8
0
10
7.9614
20
0.6369
0
VERTEX
8
0
10
7.9613
20
0.6369
0
VERTEX
8
0
10
7.9569
20
0.6369
0
VERTEX
8
0
10
7.9536
20
0.6370
42
-0.0078
0
VERTEX
8
0
10
7.9408
20
0.6373
42
-0.0246
0
VERTEX
8
0
10
7.9152
20
0.6394
42
-0.0264
0
VERTEX
8
0
10
7.9026
20
0.6416
42
-0.0991
0
VERTEX
8
0
10
7.8905
20
0.6458
0
VERTEX
8
0
10
7.8867
20
0.6507
42
-0.1692
0
VERTEX
8
0
10
7.8899
20
0.6559
42
-0.0535
0
VERTEX
8
0
10
7.9012
20
0.6619
42
-0.0513
0
VERTEX
8
0
10
7.9318
20
0.6699
42
-0.0370
0
VERTEX
8
0
10
7.9634
20
0.6723
42
-0.0392
0
VERTEX
8
0
10
7.9949
20
0.6699
0
SEQEND
8
0
0
POLYLINE
8
Layer 1
66
1
0
VERTEX
8
0
10
7.8267
20
0.5890
42
0.0371
0
VERTEX
8
0
10
7.7740
20
0.6345
42
0.0338
0
VERTEX
8
0
10
7.7443
20
0.6529
42
0.0654
0
VERTEX
8
0
10
7.7116
20
0.6646
42
0.0768
0
VERTEX
8
0
10
7.6943
20
0.6648
42
0.1367
0
VERTEX
8
0
10
7.6788
20
0.6573
42
0.1398
0
VERTEX
8
0
10
7.6699
20
0.6426
42
0.0784
0
VERTEX
8
0
10
7.6672
20
0.6254
42
0.0755
0
VERTEX
8
0
10
7.6714
20
0.5909
42
0.0191
0
VERTEX
8
0
10
7.6761
20
0.5741
42
0.0073
0
VERTEX
8
0
10
7.6789
20
0.5658
0
VERTEX
8
0
10
7.6803
20
0.5618
0
VERTEX
8
0
10
7.6812
20
0.5596
0
VERTEX
8
0
10
7.6823
20
0.5566
42
0.0733
0
VERTEX
8
0
10
7.6926
20
0.5382
42
0.0508
0
VERTEX
8
0
10
7.7069
20
0.5227
42
0.0735
0
VERTEX
8
0
10
7.7421
20
0.4993
42
0.1131
0
VERTEX
8
0
10
7.8237
20
0.4799
0
VERTEX
8
0
10
7.9357
20
0.4799
0
VERTEX
8
0
10
7.8267
20
0.5890
0
SEQEND
8
0
0
POLYLINE
8
Layer 1
66
1
0
VERTEX
8
0
10
7.8590
20
0.4023
42
-0.0609
0
VERTEX
8
0
10
7.9136
20
0.3949
42
-0.0720
0
VERTEX
8
0
10
7.9725
20
0.3710
42
-0.0664
0
VERTEX
8
0
10
7.9980
20
0.3521
42
-0.0687
0
VERTEX
8
0
10
8.0081
20
0.3399
42
-0.1589
0
VERTEX
8
0
10
8.0131
20
0.3250
42
-0.0499
0
VERTEX
8
0
10
8.0113
20
0.3033
42
-0.0643
0
VERTEX
8
0
10
8.0083
20
0.2928
0
VERTEX
8
0
10
8.0055
20
0.2882
0
VERTEX
8
0
10
8.0006
20
0.2868
42
0.0112
0
VERTEX
8
0
10
7.9512
20
0.3019
42
0.0031
0
VERTEX
8
0
10
7.9012
20
0.3154
42
-0.0788
0
VERTEX
8
0
10
7.8491
20
0.3373
42
-0.0698
0
VERTEX
8
0
10
7.8268
20
0.3548
42
-0.0686
0
VERTEX
8
0
10
7.8183
20
0.3660
42
-0.1434
0
VERTEX
8
0
10
7.8142
20
0.3795
42
-0.2009
0
VERTEX
8
0
10
7.8198
20
0.3917
42
-0.0894
0
VERTEX
8
0
10
7.8318
20
0.3983
42
-0.0662
0
VERTEX
8
0
10
7.8590
20
0.4023
0
SEQEND
8
0
0
POLYLINE
8
Layer 1
66
1
0
VERTEX
8
0
10
7.6651
20
0.4056
42
-0.0462
0
VERTEX
8
0
10
7.6644
20
0.3974
42
-0.1870
0
VERTEX
8
0
10
7.6612
20
0.3900
42
-0.1668
0
VERTEX
8
0
10
7.6536
20
0.3873
42
-0.0491
0
VERTEX
8
0
10
7.6455
20
0.3884
42
-0.0280
0
VERTEX
8
0
10
7.6299
20
0.3937
42
-0.0151
0
VERTEX
8
0
10
7.5705
20
0.4220
0
VERTEX
8
0
10
7.4539
20
0.4833
0
VERTEX
8
0
10
7.4501
20
0.4853
0
VERTEX
8
0
10
7.4471
20
0.4869
0
VERTEX
8
0
10
7.4450
20
0.4880
0
VERTEX
8
0
10
7.4450
20
0.4880
0
VERTEX
8
0
10
7.4384
20
0.4916
0
VERTEX
8
0
10
7.4279
20
0.4972
42
-0.0032
0
VERTEX
8
0
10
7.4070
20
0.5088
42
-0.0113
0
VERTEX
8
0
10
7.3659
20
0.5331
42
-0.0215
0
VERTEX
8
0
10
7.3262
20
0.5595
42
-0.0198
0
VERTEX
8
0
10
7.3075
20
0.5743
42
-0.0397
0
VERTEX
8
0
10
7.2903
20
0.5908
42
-0.0379
0
VERTEX
8
0
10
7.2830
20
0.6003
42
-0.0686
0
VERTEX
8
0
10
7.2776
20
0.6108
42
-0.2640
0
VERTEX
8
0
10
7.2806
20
0.6334
42
-0.0707
0
VERTEX
8
0
10
7.2894
20
0.6415
42
-0.0390
0
VERTEX
8
0
10
7.2998
20
0.6473
42
-0.0353
0
VERTEX
8
0
10
7.3223
20
0.6551
42
-0.0275
0
VERTEX
8
0
10
7.3691
20
0.6641
42
-0.0125
0
VERTEX
8
0
10
7.4166
20
0.6689
42
-0.0647
0
VERTEX
8
0
10
7.4992
20
0.6662
42
-0.0733
0
VERTEX
8
0
10
7.5390
20
0.6551
42
-0.0916
0
VERTEX
8
0
10
7.5565
20
0.6443
42
-0.0919
0
VERTEX
8
0
10
7.5631
20
0.6364
42
-0.1304
0
VERTEX
8
0
10
7.5657
20
0.6265
42
-0.1586
0
VERTEX
8
0
10
7.5611
20
0.6113
42
-0.1092
0
VERTEX
8
0
10
7.5488
20
0.6011
42
-0.0872
0
VERTEX
8
0
10
7.5177
20
0.5937
42
-0.0425
0
VERTEX
8
0
10
7.4855
20
0.5951
42
-0.0284
0
VERTEX
8
0
10
7.4539
20
0.6013
0
VERTEX
8
0
10
7.4539
20
0.6013
0
VERTEX
8
0
10
7.4533
20
0.6015
0
VERTEX
8
0
10
7.4498
20
0.6023
0
VERTEX
8
0
10
7.4452
20
0.6034
42
0.0107
0
VERTEX
8
0
10
7.4361
20
0.6054
42
0.0230
0
VERTEX
8
0
10
7.4268
20
0.6068
42
0.0999
0
VERTEX
8
0
10
7.4175
20
0.6068
0
VERTEX
8
0
10
7.4142
20
0.6041
0
VERTEX
8
0
10
7.4162
20
0.5999
42
0.0391
0
VERTEX
8
0
10
7.4231
20
0.5935
42
0.0197
0
VERTEX
8
0
10
7.4384
20
0.5827
42
0.0175
0
VERTEX
8
0
10
7.5036
20
0.5459
42
-0.0326
0
VERTEX
8
0
10
7.5927
20
0.4927
42
-0.0307
0
VERTEX
8
0
10
7.6340
20
0.4613
42
-0.0370
0
VERTEX
8
0
10
7.6526
20
0.4434
42
-0.0443
0
VERTEX
8
0
10
7.6606
20
0.4331
42
-0.0484
0
VERTEX
8
0
10
7.6637
20
0.4274
42
-0.1093
0
VERTEX
8
0
10
7.6651
20
0.4212
0
VERTEX
8
0
10
7.6651
20
0.4212
0
VERTEX
8
0
10
7.6651
20
0.4180
0
VERTEX
8
0
10
7.6652
20
0.4138
42
-0.0105
0
VERTEX
8
0
10
7.6651
20
0.4056
0
SEQEND
8
0
0
POLYLINE
8
Layer 1
66
1
0
VERTEX
8
0
10
7.2148
20
0.5148
42
-0.2014
0
VERTEX
8
0
10
7.2068
20
0.5049
42
-0.1055
0
VERTEX
8
0
10
7.1941
20
0.5022
42
-0.0489
0
VERTEX
8
0
10
7.1812
20
0.5037
42
-0.0441
0
VERTEX
8
0
10
7.1565
20
0.5122
42
-0.0243
0
VERTEX
8
0
10
7.1333
20
0.5242
42
-0.0284
0
VERTEX
8
0
10
7.0899
20
0.5534
0
VERTEX
8
0
10
7.0865
20
0.5560
0
VERTEX
8
0
10
7.0843
20
0.5576
0
VERTEX
8
0
10
7.0807
20
0.5604
0
VERTEX
8
0
10
7.0735
20
0.5660
42
-0.0057
0
VERTEX
8
0
10
7.0591
20
0.5773
42
-0.0125
0
VERTEX
8
0
10
7.0451
20
0.5891
42
-0.0385
0
VERTEX
8
0
10
7.0319
20
0.6018
42
-0.0654
0
VERTEX
8
0
10
7.0265
20
0.6092
0
VERTEX
8
0
10
7.0249
20
0.6134
0
VERTEX
8
0
10
7.0254
20
0.6179
42
-0.1388
0
VERTEX
8
0
10
7.0327
20
0.6230
42
-0.0359
0
VERTEX
8
0
10
7.0416
20
0.6251
42
-0.0232
0
VERTEX
8
0
10
7.0782
20
0.6274
42
-0.0974
0
VERTEX
8
0
10
7.1427
20
0.6149
42
-0.0595
0
VERTEX
8
0
10
7.1718
20
0.5993
42
-0.1140
0
VERTEX
8
0
10
7.1950
20
0.5760
0
VERTEX
8
0
10
7.1969
20
0.5728
0
VERTEX
8
0
10
7.1986
20
0.5700
42
-0.0074
0
VERTEX
8
0
10
7.2018
20
0.5643
42
-0.0195
0
VERTEX
8
0
10
7.2077
20
0.5526
42
-0.0898
0
VERTEX
8
0
10
7.2155
20
0.5278
42
-0.1223
0
VERTEX
8
0
10
7.2148
20
0.5148
0
SEQEND
8
0
0
POLYLINE
8
Layer 1
66
1
0
VERTEX
8
0
10
5.5395
20
2.7582
42
0.0952
0
VERTEX
8
0
10
5.5512
20
2.7764
42
0.0499
0
VERTEX
8
0
10
5.5577
20
2.7971
42
0.0492
0
VERTEX
8
0
10
5.5631
20
2.8403
42
0.0238
0
VERTEX
8
0
10
5.5632
20
2.8838
42
0.0149
0
VERTEX
8
0
10
5.5602
20
2.9272
42
0.0199
0
VERTEX
8
0
10
5.5486
20
3.0134
42
0.0132
0
VERTEX
8
0
10
5.5317
20
3.0987
42
0.0199
0
VERTEX
8
0
10
5.4871
20
3.2669
42
0.0087
0
VERTEX
8
0
10
5.4603
20
3.3497
42
0.0041
0
VERTEX
8
0
10
5.4459
20
3.3907
42
0.0043
0
VERTEX
8
0
10
5.4306
20
3.4319
42
0.0114
0
VERTEX
8
0
10
5.4084
20
3.4862
42
0.0189
0
VERTEX
8
0
10
5.3953
20
3.5124
42
0.0588
0
VERTEX
8
0
10
5.3781
20
3.5360
42
0.1336
0
VERTEX
8
0
10
5.3653
20
3.5426
42
0.2241
0
VERTEX
8
0
10
5.3518
20
3.5378
42
0.0816
0
VERTEX
8
0
10
5.3421
20
3.5269
42
0.0327
0
VERTEX
8
0
10
5.3345
20
3.5143
42
0.0303
0
VERTEX
8
0
10
5.3222
20
3.4877
42
0.0128
0
VERTEX
8
0
10
5.3119
20
3.4603
42
0.0137
0
VERTEX
8
0
10
5.2939
20
3.4044
42
0.0061
0
VERTEX
8
0
10
5.2776
20
3.3480
42
0.0027
0
VERTEX
8
0
10
5.2621
20
3.2914
0
VERTEX
8
0
10
5.2546
20
3.2631
0
VERTEX
8
0
10
5.2509
20
3.2489
0
VERTEX
8
0
10
5.2490
20
3.2418
0
VERTEX
8
0
10
5.2481
20
3.2383
0
VERTEX
8
0
10
5.2474
20
3.2358
0
VERTEX
8
0
10
5.2466
20
3.2324
42
-0.0189
0
VERTEX
8
0
10
5.2127
20
3.1195
42
-0.0146
0
VERTEX
8
0
10
5.1722
20
3.0088
42
-0.0151
0
VERTEX
8
0
10
5.1252
20
2.9007
42
-0.0125
0
VERTEX
8
0
10
5.0984
20
2.8482
42
-0.0237
0
VERTEX
8
0
10
5.0676
20
2.7980
0
VERTEX
8
0
10
4.9641
20
2.6527
0
VERTEX
8
0
10
5.2240
20
2.6776
42
0.0291
0
VERTEX
8
0
10
5.3863
20
2.7027
42
0.0209
0
VERTEX
8
0
10
5.4657
20
2.7234
42
0.0215
0
VERTEX
8
0
10
5.5043
20
2.7375
42
0.0224
0
VERTEX
8
0
10
5.5228
20
2.7464
42
0.0546
0
VERTEX
8
0
10
5.5395
20
2.7582
0
SEQEND
8
0
0
POLYLINE
8
Layer 1
66
1
0
VERTEX
8
0
10
5.7579
20
3.0800
42
0.0551
0
VERTEX
8
0
10
5.7692
20
3.0734
42
0.0585
0
VERTEX
8
0
10
5.7942
20
3.0665
42
0.0354
0
VERTEX
8
0
10
5.8202
20
3.0646
42
0.0791
0
VERTEX
8
0
10
5.8908
20
3.0761
42
0.0568
0
VERTEX
8
0
10
5.9237
20
3.0907
42
0.0473
0
VERTEX
8
0
10
5.9384
20
3.1009
42
0.0867
0
VERTEX
8
0
10
5.9503
20
3.1143
42
0.1197
0
VERTEX
8
0
10
5.9548
20
3.1263
42
0.1515
0
VERTEX
8
0
10
5.9524
20
3.1389
42
0.0957
0
VERTEX
8
0
10
5.9438
20
3.1486
42
0.0544
0
VERTEX
8
0
10
5.9326
20
3.1551
42
0.0581
0
VERTEX
8
0
10
5.9076
20
3.1621
42
0.0354
0
VERTEX
8
0
10
5.8816
20
3.1640
42
0.0791
0
VERTEX
8
0
10
5.8109
20
3.1524
42
0.0560
0
VERTEX
8
0
10
5.7781
20
3.1379
42
0.0462
0
VERTEX
8
0
10
5.7634
20
3.1276
42
0.0874
0
VERTEX
8
0
10
5.7515
20
3.1143
42
0.1208
0
VERTEX
8
0
10
5.7470
20
3.1023
42
0.1518
0
VERTEX
8
0
10
5.7494
20
3.0897
42
0.0969
0
VERTEX
8
0
10
5.7579
20
3.0800
0
SEQEND
8
0
0
POLYLINE
8
Layer 1
66
1
0
VERTEX
8
0
10
4.7745
20
3.2361
42
-0.0274
0
VERTEX
8
0
10
4.7618
20
3.1828
42
-0.0458
0
VERTEX
8
0
10
4.7422
20
3.1318
42
-0.0562
0
VERTEX
8
0
10
4.7127
20
3.0859
42
-0.0407
0
VERTEX
8
0
10
4.6743
20
3.0469
42
-0.0205
0
VERTEX
8
0
10
4.6311
20
3.0134
42
-0.0298
0
VERTEX
8
0
10
4.5600
20
2.9707
42
-0.0210
0
VERTEX
8
0
10
4.4848
20
2.9357
42
-0.0221
0
VERTEX
8
0
10
4.4070
20
2.9071
42
-0.0396
0
VERTEX
8
0
10
4.3266
20
2.8869
0
VERTEX
8
0
10
4.3225
20
2.8862
0
VERTEX
8
0
10
4.3193
20
2.8857
0
VERTEX
8
0
10
4.3169
20
2.8853
0
VERTEX
8
0
10
4.3169
20
2.8853
0
VERTEX
8
0
10
4.3096
20
2.8841
0
VERTEX
8
0
10
4.2977
20
2.8821
42
-0.0025
0
VERTEX
8
0
10
4.2740
20
2.8784
42
-0.0289
0
VERTEX
8
0
10
4.2262
20
2.8727
42
-0.0324
0
VERTEX
8
0
10
4.2142
20
2.8725
42
-0.0561
0
VERTEX
8
0
10
4.2083
20
2.8733
0
VERTEX
8
0
10
4.2055
20
2.8743
0
VERTEX
8
0
10
4.2037
20
2.8766
42
-0.1383
0
VERTEX
8
0
10
4.2061
20
2.8820
0
VERTEX
8
0
10
4.2104
20
2.8862
42
-0.0201
0
VERTEX
8
0
10
4.2199
20
2.8936
42
-0.0114
0
VERTEX
8
0
10
4.2603
20
2.9195
42
0.0326
0
VERTEX
8
0
10
4.3546
20
2.9847
42
0.0486
0
VERTEX
8
0
10
4.4379
20
3.0633
42
0.0345
0
VERTEX
8
0
10
4.4727
20
3.1088
42
0.0466
0
VERTEX
8
0
10
4.5001
20
3.1592
42
0.0638
0
VERTEX
8
0
10
4.5163
20
3.2140
42
0.0801
0
VERTEX
8
0
10
4.5167
20
3.2711
0
VERTEX
8
0
10
4.5164
20
3.2732
0
VERTEX
8
0
10
4.5164
20
3.2732
0
VERTEX
8
0
10
4.5162
20
3.2743
0
VERTEX
8
0
10
4.5163
20
3.2738
0
VERTEX
8
0
10
4.5165
20
3.2727
0
VERTEX
8
0
10
4.5165
20
3.2725
0
VERTEX
8
0
10
4.5165
20
3.2727
0
VERTEX
8
0
10
4.5159
20
3.2760
42
0.0079
0
VERTEX
8
0
10
4.5145
20
3.2838
42
0.0157
0
VERTEX
8
0
10
4.5109
20
3.2994
42
0.0332
0
VERTEX
8
0
10
4.5007
20
3.3296
42
0.0412
0
VERTEX
8
0
10
4.4863
20
3.3580
42
0.0613
0
VERTEX
8
0
10
4.4668
20
3.3832
42
0.0488
0
VERTEX
8
0
10
4.4547
20
3.3935
42
0.0841
0
VERTEX
8
0
10
4.4405
20
3.4007
42
0.3280
0
VERTEX
8
0
10
4.4120
20
3.3923
42
0.0785
0
VERTEX
8
0
10
4.4051
20
3.3780
42
0.0423
0
VERTEX
8
0
10
4.4021
20
3.3623
42
0.0426
0
VERTEX
8
0
10
4.4021
20
3.3305
42
-0.1364
0
VERTEX
8
0
10
4.3915
20
3.2821
42
-0.0817
0
VERTEX
8
0
10
4.3599
20
3.2434
42
-0.0516
0
VERTEX
8
0
10
4.3187
20
3.2148
42
-0.0371
0
VERTEX
8
0
10
4.2730
20
3.1943
42
-0.0182
0
VERTEX
8
0
10
4.2362
20
3.1821
42
-0.0377
0
VERTEX
8
0
10
4.1987
20
3.1737
42
-0.1363
0
VERTEX
8
0
10
4.1229
20
3.1815
42
-0.0432
0
VERTEX
8
0
10
4.0888
20
3.1993
42
-0.0226
0
VERTEX
8
0
10
4.0576
20
3.2218
42
-0.0161
0
VERTEX
8
0
10
3.9996
20
3.2725
42
0.0489
0
VERTEX
8
0
10
3.9097
20
3.3423
42
0.0445
0
VERTEX
8
0
10
3.8595
20
3.3691
42
0.0493
0
VERTEX
8
0
10
3.8326
20
3.3783
42
0.0498
0
VERTEX
8
0
10
3.8185
20
3.3804
42
0.1141
0
VERTEX
8
0
10
3.8045
20
3.3786
42
-0.0865
0
VERTEX
8
0
10
3.7898
20
3.3753
42
-0.2034
0
VERTEX
8
0
10
3.7755
20
3.3793
42
-0.1344
0
VERTEX
8
0
10
3.7678
20
3.3921
42
-0.0544
0
VERTEX
8
0
10
3.7657
20
3.4072
42
-0.0403
0
VERTEX
8
0
10
3.7684
20
3.4374
42
-0.0187
0
VERTEX
8
0
10
3.7750
20
3.4672
42
0.0085
0
VERTEX
8
0
10
3.7783
20
3.4805
42
0.0102
0
VERTEX
8
0
10
3.7811
20
3.4942
42
0.0463
0
VERTEX
8
0
10
3.7844
20
3.5220
42
0.0588
0
VERTEX
8
0
10
3.7835
20
3.5360
42
0.0609
0
VERTEX
8
0
10
3.7816
20
3.5427
42
0.1198
0
VERTEX
8
0
10
3.7778
20
3.5485
42
0.1485
0
VERTEX
8
0
10
3.7715
20
3.5514
42
0.0857
0
VERTEX
8
0
10
3.7646
20
3.5509
42
0.0642
0
VERTEX
8
0
10
3.7518
20
3.5451
42
-0.0729
0
VERTEX
8
0
10
3.7413
20
3.5403
42
-0.1257
0
VERTEX
8
0
10
3.7299
20
3.5394
42
-0.1356
0
VERTEX
8
0
10
3.7196
20
3.5445
42
-0.0857
0
VERTEX
8
0
10
3.7127
20
3.5538
42
-0.0782
0
VERTEX
8
0
10
3.7068
20
3.5762
42
-0.0408
0
VERTEX
8
0
10
3.7067
20
3.5994
0
VERTEX
8
0
10
3.7067
20
3.5994
0
VERTEX
8
0
10
3.7069
20
3.6022
0
VERTEX
8
0
10
3.7071
20
3.6054
42
0.0121
0
VERTEX
8
0
10
3.7072
20
3.6120
42
0.0269
0
VERTEX
8
0
10
3.7064
20
3.6249
42
0.0714
0
VERTEX
8
0
10
3.7002
20
3.6501
42
0.1674
0
VERTEX
8
0
10
3.6667
20
3.6887
42
0.0647
0
VERTEX
8
0
10
3.6426
20
3.6983
42
0.0482
0
VERTEX
8
0
10
3.6169
20
3.7021
42
0.0666
0
VERTEX
8
0
10
3.5653
20
3.6968
42
0.0490
0
VERTEX
8
0
10
3.5163
20
3.6794
42
0.0410
0
VERTEX
8
0
10
3.4713
20
3.6535
42
0.0722
0
VERTEX
8
0
10
3.3959
20
3.5822
42
0.0192
0
VERTEX
8
0
10
3.3620
20
3.5363
42
0.0521
0
VERTEX
8
0
10
3.3335
20
3.4869
42
0.0549
0
VERTEX
8
0
10
3.3244
20
3.4599
42
0.0862
0
VERTEX
8
0
10
3.3226
20
3.4315
42
0.0851
0
VERTEX
8
0
10
3.3308
20
3.4043
42
0.0511
0
VERTEX
8
0
10
3.3466
20
3.3806
0
VERTEX
8
0
10
3.3496
20
3.3770
0
VERTEX
8
0
10
3.3519
20
3.3742
42
-0.0054
0
VERTEX
8
0
10
3.3564
20
3.3684
42
-0.0210
0
VERTEX
8
0
10
3.3648
20
3.3564
42
-0.0491
0
VERTEX
8
0
10
3.3719
20
3.3436
42
-0.0543
0
VERTEX
8
0
10
3.3742
20
3.3367
42
-0.1094
0
VERTEX
8
0
10
3.3745
20
3.3294
42
-0.1431
0
VERTEX
8
0
10
3.3712
20
3.3230
42
-0.0837
0
VERTEX
8
0
10
3.3653
20
3.3188
42
-0.0580
0
VERTEX
8
0
10
3.3512
20
3.3149
42
-0.0313
0
VERTEX
8
0
10
3.3220
20
3.3131
42
-0.0753
0
VERTEX
8
0
10
3.2992
20
3.3161
42
-0.0971
0
VERTEX
8
0
10
3.2786
20
3.3264
42
-0.0817
0
VERTEX
8
0
10
3.2632
20
3.3435
42
-0.0523
0
VERTEX
8
0
10
3.2532
20
3.3643
42
-0.0501
0
VERTEX
8
0
10
3.2436
20
3.4094
42
-0.0246
0
VERTEX
8
0
10
3.2414
20
3.4556
0
VERTEX
8
0
10
3.2414
20
3.4597
0
VERTEX
8
0
10
3.2414
20
3.4623
0
VERTEX
8
0
10
3.2413
20
3.4671
0
VERTEX
8
0
10
3.2413
20
3.4765
42
0.0061
0
VERTEX
8
0
10
3.2410
20
3.4955
42
0.0411
0
VERTEX
8
0
10
3.2381
20
3.5332
42
0.0572
0
VERTEX
8
0
10
3.2335
20
3.5515
42
0.1172
0
VERTEX
8
0
10
3.2237
20
3.5675
42
0.1100
0
VERTEX
8
0
10
3.2075
20
3.5771
42
0.0532
0
VERTEX
8
0
10
3.1890
20
3.5804
42
0.0344
0
VERTEX
8
0
10
3.1511
20
3.5791
42
0.0112
0
VERTEX
8
0
10
3.1136
20
3.5740
42
0.0031
0
VERTEX
8
0
10
3.0390
20
3.5610
0
VERTEX
8
0
10
2.8367
20
3.5240
0
VERTEX
8
0
10
2.9678
20
3.6609
42
-0.0375
0
VERTEX
8
0
10
3.0173
20
3.7047
42
-0.0283
0
VERTEX
8
0
10
3.0723
20
3.7413
42
-0.0376
0
VERTEX
8
0
10
3.1917
20
3.7979
42
-0.0252
0
VERTEX
8
0
10
3.3176
20
3.8382
42
-0.0183
0
VERTEX
8
0
10
3.4466
20
3.8670
42
-0.0250
0
VERTEX
8
0
10
3.7089
20
3.9001
42
-0.0180
0
VERTEX
8
0
10
3.9732
20
3.9096
42
-0.0403
0
VERTEX
8
0
10
4.3870
20
3.8760
42
-0.0128
0
VERTEX
8
0
10
4.4890
20
3.8568
42
-0.0184
0
VERTEX
8
0
10
4.5898
20
3.8319
42
-0.0348
0
VERTEX
8
0
10
4.6879
20
3.7980
42
-0.0372
0
VERTEX
8
0
10
4.7344
20
3.7749
42
-0.0343
0
VERTEX
8
0
10
4.7559
20
3.7604
42
-0.0618
0
VERTEX
8
0
10
4.7746
20
3.7425
42
-0.0660
0
VERTEX
8
0
10
4.7839
20
3.7230
42
-0.0231
0
VERTEX
8
0
10
4.7893
20
3.7020
42
-0.0210
0
VERTEX
8
0
10
4.7957
20
3.6591
42
-0.0194
0
VERTEX
8
0
10
4.8008
20
3.5724
42
-0.0260
0
VERTEX
8
0
10
4.7947
20
3.3990
42
-0.0139
0
VERTEX
8
0
10
4.7831
20
3.2901
42
-0.0153
0
VERTEX
8
0
10
4.7745
20
3.2361
0
SEQEND
8
0
0
POLYLINE
8
Layer 1
66
1
0
VERTEX
8
0
10
4.5782
20
3.5188
42
0.3295
0
VERTEX
8
0
10
4.5796
20
3.5254
42
0.0698
0
VERTEX
8
0
10
4.5698
20
3.5363
42
0.0161
0
VERTEX
8
0
10
4.5581
20
3.5452
42
0.0087
0
VERTEX
8
0
10
4.5337
20
3.5616
0
VERTEX
8
0
10
4.5311
20
3.5633
0
VERTEX
8
0
10
4.5311
20
3.5633
0
VERTEX
8
0
10
4.5306
20
3.5636
0
VERTEX
8
0
10
4.5323
20
3.5626
0
VERTEX
8
0
10
4.5323
20
3.5626
0
VERTEX
8
0
10
4.5322
20
3.5626
0
VERTEX
8
0
10
4.5288
20
3.5648
0
VERTEX
8
0
10
4.5262
20
3.5664
42
0.0053
0
VERTEX
8
0
10
4.5160
20
3.5726
42
0.0140
0
VERTEX
8
0
10
4.4951
20
3.5843
42
0.0483
0
VERTEX
8
0
10
4.4511
20
3.6031
42
0.0557
0
VERTEX
8
0
10
4.4278
20
3.6084
42
0.0589
0
VERTEX
8
0
10
4.4158
20
3.6086
42
0.1430
0
VERTEX
8
0
10
4.4045
20
3.6050
42
0.2024
0
VERTEX
8
0
10
4.3983
20
3.5951
42
0.0905
0
VERTEX
8
0
10
4.3993
20
3.5833
42
0.0578
0
VERTEX
8
0
10
4.4094
20
3.5616
42
0.0909
0
VERTEX
8
0
10
4.4324
20
3.5393
42
0.0517
0
VERTEX
8
0
10
4.4611
20
3.5246
42
0.0980
0
VERTEX
8
0
10
4.5242
20
3.5127
0
VERTEX
8
0
10
4.5282
20
3.5127
0
VERTEX
8
0
10
4.5312
20
3.5128
0
VERTEX
8
0
10
4.5349
20
3.5128
42
0.0030
0
VERTEX
8
0
10
4.5422
20
3.5131
42
0.0142
0
VERTEX
8
0
10
4.5569
20
3.5139
42
0.0524
0
VERTEX
8
0
10
4.5715
20
3.5160
42
0.1321
0
VERTEX
8
0
10
4.5782
20
3.5188
0
SEQEND
8
0
0
POLYLINE
8
Layer 1
66
1
0
VERTEX
8
0
10
4.0915
20
3.6839
0
VERTEX
8
0
10
4.0918
20
3.6883
42
0.0840
0
VERTEX
8
0
10
4.0834
20
3.6929
42
0.0344
0
VERTEX
8
0
10
4.0455
20
3.7000
42
0.0170
0
VERTEX
8
0
10
3.9684
20
3.7050
0
VERTEX
8
0
10
3.9543
20
3.7054
0
VERTEX
8
0
10
3.9405
20
3.7057
42
0.0039
0
VERTEX
8
0
10
3.9129
20
3.7061
42
0.0288
0
VERTEX
8
0
10
3.8578
20
3.7045
42
0.0570
0
VERTEX
8
0
10
3.8306
20
3.7002
42
0.1009
0
VERTEX
8
0
10
3.8180
20
3.6947
42
0.2437
0
VERTEX
8
0
10
3.8111
20
3.6834
42
0.0979
0
VERTEX
8
0
10
3.8143
20
3.6701
42
0.0326
0
VERTEX
8
0
10
3.8211
20
3.6581
42
0.0208
0
VERTEX
8
0
10
3.8378
20
3.6362
0
VERTEX
8
0
10
3.8396
20
3.6341
0
VERTEX
8
0
10
3.8417
20
3.6316
0
VERTEX
8
0
10
3.8459
20
3.6269
42
0.0105
0
VERTEX
8
0
10
3.8545
20
3.6176
42
0.0238
0
VERTEX
8
0
10
3.8730
20
3.6001
42
0.0751
0
VERTEX
8
0
10
3.9153
20
3.5720
42
0.0720
0
VERTEX
8
0
10
3.9394
20
3.5641
42
0.1531
0
VERTEX
8
0
10
3.9645
20
3.5656
42
0.1913
0
VERTEX
8
0
10
3.9823
20
3.5829
42
0.0913
0
VERTEX
8
0
10
3.9869
20
3.6077
42
-0.1041
0
VERTEX
8
0
10
3.9905
20
3.6217
42
-0.0572
0
VERTEX
8
0
10
3.9987
20
3.6338
42
-0.0615
0
VERTEX
8
0
10
4.0207
20
3.6529
42
-0.0812
0
VERTEX
8
0
10
4.0739
20
3.6765
0
VERTEX
8
0
10
4.0763
20
3.6771
0
VERTEX
8
0
10
4.0763
20
3.6771
0
VERTEX
8
0
10
4.0775
20
3.6775
0
VERTEX
8
0
10
4.0751
20
3.6768
0
VERTEX
8
0
10
4.0751
20
3.6768
0
VERTEX
8
0
10
4.0786
20
3.6778
42
0.0535
0
VERTEX
8
0
10
4.0875
20
3.6812
0
VERTEX
8
0
10
4.0915
20
3.6839
0
SEQEND
8
0
0
POLYLINE
8
Layer 1
66
1
0
VERTEX
8
0
10
3.6887
20
3.2883
42
0.4125
0
VERTEX
8
0
10
3.6638
20
3.3131
42
0.2009
0
VERTEX
8
0
10
3.6463
20
3.3058
42
0.1975
0
VERTEX
8
0
10
3.6390
20
3.2883
42
0.2005
0
VERTEX
8
0
10
3.6463
20
3.2707
42
0.1969
0
VERTEX
8
0
10
3.6638
20
3.2634
42
0.4125
0
VERTEX
8
0
10
3.6887
20
3.2883
0
SEQEND
8
0
0
POLYLINE
8
Layer 1
66
1
0
VERTEX
8
0
10
3.5396
20
3.2883
42
0.2005
0
VERTEX
8
0
10
3.5323
20
3.3058
42
0.1969
0
VERTEX
8
0
10
3.5147
20
3.3131
42
0.4124
0
VERTEX
8
0
10
3.4899
20
3.2883
42
0.4124
0
VERTEX
8
0
10
3.5147
20
3.2634
42
0.2009
0
VERTEX
8
0
10
3.5323
20
3.2707
42
0.1975
0
VERTEX
8
0
10
3.5396
20
3.2883
0
SEQEND
8
0
0
POLYLINE
8
Layer 1
66
1
0
VERTEX
8
0
10
3.2968
20
3.0910
42
-0.0373
0
VERTEX
8
0
10
3.3159
20
3.0646
42
-0.0852
0
VERTEX
8
0
10
3.3230
20
3.0485
42
-0.1638
0
VERTEX
8
0
10
3.3228
20
3.0311
42
-0.1893
0
VERTEX
8
0
10
3.3111
20
3.0184
42
-0.1019
0
VERTEX
8
0
10
3.2940
20
3.0149
42
-0.1904
0
VERTEX
8
0
10
3.2573
20
3.0290
42
-0.2144
0
VERTEX
8
0
10
3.2414
20
3.0646
0
VERTEX
8
0
10
3.2414
20
3.0692
0
VERTEX
8
0
10
3.2416
20
3.0733
42
-0.0185
0
VERTEX
8
0
10
3.2423
20
3.0814
42
-0.0689
0
VERTEX
8
0
10
3.2461
20
3.0972
42
-0.0658
0
VERTEX
8
0
10
3.2498
20
3.1045
42
-0.1120
0
VERTEX
8
0
10
3.2557
20
3.1101
42
-0.2021
0
VERTEX
8
0
10
3.2714
20
3.1109
42
-0.0739
0
VERTEX
8
0
10
3.2853
20
3.1025
42
-0.0355
0
VERTEX
8
0
10
3.2968
20
3.0910
0
SEQEND
8
0
0
POLYLINE
8
Layer 1
66
1
0
VERTEX
8
0
10
3.1872
20
3.0344
42
-0.0963
0
VERTEX
8
0
10
3.1916
20
3.0119
42
-0.4125
0
VERTEX
8
0
10
3.1449
20
2.9652
42
-0.0855
0
VERTEX
8
0
10
3.1223
20
2.9696
42
-0.0583
0
VERTEX
8
0
10
3.1021
20
2.9806
42
-0.0821
0
VERTEX
8
0
10
3.0700
20
3.0132
42
-0.0434
0
VERTEX
8
0
10
3.0583
20
3.0329
42
-0.0594
0
VERTEX
8
0
10
3.0506
20
3.0545
42
-0.1026
0
VERTEX
8
0
10
3.0493
20
3.0774
42
-0.1691
0
VERTEX
8
0
10
3.0591
20
3.0977
42
-0.1520
0
VERTEX
8
0
10
3.0796
20
3.1076
42
-0.0835
0
VERTEX
8
0
10
3.1024
20
3.1062
42
-0.0888
0
VERTEX
8
0
10
3.1438
20
3.0867
42
-0.0900
0
VERTEX
8
0
10
3.1763
20
3.0546
42
-0.0662
0
VERTEX
8
0
10
3.1872
20
3.0344
0
SEQEND
8
0
0
POLYLINE
8
Layer 1
66
1
0
VERTEX
8
0
10
3.0444
20
2.9656
42
-0.1060
0
VERTEX
8
0
10
3.0456
20
2.9580
42
-0.2110
0
VERTEX
8
0
10
3.0425
20
2.9511
42
-0.0550
0
VERTEX
8
0
10
3.0340
20
2.9468
42
-0.0155
0
VERTEX
8
0
10
3.0250
20
2.9438
42
-0.0118
0
VERTEX
8
0
10
3.0067
20
2.9388
42
-0.0093
0
VERTEX
8
0
10
2.9696
20
2.9308
42
-0.0082
0
VERTEX
8
0
10
2.8948
20
2.9176
42
-0.0089
0
VERTEX
8
0
10
2.7443
20
2.8969
0
VERTEX
8
0
10
2.4709
20
2.8649
0
VERTEX
8
0
10
2.5879
20
2.9645
42
-0.0627
0
VERTEX
8
0
10
2.6657
20
3.0167
42
-0.0581
0
VERTEX
8
0
10
2.7093
20
3.0339
42
-0.0632
0
VERTEX
8
0
10
2.7324
20
3.0377
42
-0.0585
0
VERTEX
8
0
10
2.7441
20
3.0370
42
-0.1029
0
VERTEX
8
0
10
2.7550
20
3.0331
42
0.2128
0
VERTEX
8
0
10
2.8023
20
3.0282
42
0.1733
0
VERTEX
8
0
10
2.8398
20
3.0582
42
-0.0706
0
VERTEX
8
0
10
2.8516
20
3.0731
42
-0.1106
0
VERTEX
8
0
10
2.8676
20
3.0831
42
-0.0962
0
VERTEX
8
0
10
2.8864
20
3.0853
42
-0.0558
0
VERTEX
8
0
10
2.9049
20
3.0814
42
-0.0456
0
VERTEX
8
0
10
2.9392
20
3.0650
42
-0.0196
0
VERTEX
8
0
10
2.9708
20
3.0438
42
-0.0477
0
VERTEX
8
0
10
3.0178
20
3.0033
42
-0.0544
0
VERTEX
8
0
10
3.0374
20
2.9794
42
-0.0784
0
VERTEX
8
0
10
3.0444
20
2.9656
0
SEQEND
8
0
0
POLYLINE
8
Layer 1
66
1
0
VERTEX
8
0
10
2.6963
20
3.2011
42
-0.0552
0
VERTEX
8
0
10
2.6716
20
3.1730
42
-0.0395
0
VERTEX
8
0
10
2.6643
20
3.1671
42
-0.1359
0
VERTEX
8
0
10
2.6559
20
3.1632
42
-0.3284
0
VERTEX
8
0
10
2.6483
20
3.1673
42
-0.0771
0
VERTEX
8
0
10
2.6465
20
3.1764
0
VERTEX
8
0
10
2.6456
20
3.1796
0
VERTEX
8
0
10
2.6447
20
3.1821
0
VERTEX
8
0
10
2.6437
20
3.1839
0
VERTEX
8
0
10
2.6437
20
3.1839
42
0.1205
0
VERTEX
8
0
10
2.6380
20
3.1859
42
0.0745
0
VERTEX
8
0
10
2.6287
20
3.1834
42
0.0405
0
VERTEX
8
0
10
2.6120
20
3.1737
42
0.0263
0
VERTEX
8
0
10
2.5819
20
3.1492
42
0.0258
0
VERTEX
8
0
10
2.5276
20
3.0939
42
0.0304
0
VERTEX
8
0
10
2.4794
20
3.0333
42
0.0325
0
VERTEX
8
0
10
2.4587
20
3.0005
42
0.0355
0
VERTEX
8
0
10
2.4504
20
2.9830
42
0.1125
0
VERTEX
8
0
10
2.4461
20
2.9642
42
-0.1945
0
VERTEX
8
0
10
2.4385
20
2.9485
42
-0.0795
0
VERTEX
8
0
10
2.4230
20
2.9396
42
-0.0602
0
VERTEX
8
0
10
2.3880
20
2.9325
42
-0.0578
0
VERTEX
8
0
10
2.3166
20
2.9370
0
VERTEX
8
0
10
2.3109
20
2.9380
0
VERTEX
8
0
10
2.3056
20
2.9389
42
0.0039
0
VERTEX
8
0
10
2.2952
20
2.9406
42
0.0118
0
VERTEX
8
0
10
2.2741
20
2.9434
42
0.0237
0
VERTEX
8
0
10
2.2529
20
2.9449
42
0.0576
0
VERTEX
8
0
10
2.2318
20
2.9436
42
0.0586
0
VERTEX
8
0
10
2.2216
20
2.9408
42
0.0969
0
VERTEX
8
0
10
2.2126
20
2.9352
42
0.1039
0
VERTEX
8
0
10
2.2066
20
2.9266
42
0.0661
0
VERTEX
8
0
10
2.2041
20
2.9163
42
0.0529
0
VERTEX
8
0
10
2.2052
20
2.8951
42
0.0226
0
VERTEX
8
0
10
2.2097
20
2.8744
42
-0.0741
0
VERTEX
8
0
10
2.2130
20
2.8342
42
-0.0559
0
VERTEX
8
0
10
2.2057
20
2.7946
42
-0.0577
0
VERTEX
8
0
10
2.1898
20
2.7575
42
-0.0800
0
VERTEX
8
0
10
2.1652
20
2.7256
42
-0.0381
0
VERTEX
8
0
10
2.1329
20
2.6990
42
-0.0533
0
VERTEX
8
0
10
2.1149
20
2.6882
42
-0.1095
0
VERTEX
8
0
10
2.1049
20
2.6851
42
-0.4824
0
VERTEX
8
0
10
2.0981
20
2.6910
0
VERTEX
8
0
10
2.0965
20
2.6947
0
VERTEX
8
0
10
2.0929
20
2.6962
42
0.0611
0
VERTEX
8
0
10
2.0852
20
2.6961
42
0.0352
0
VERTEX
8
0
10
2.0700
20
2.6924
42
0.0260
0
VERTEX
8
0
10
2.0411
20
2.6806
42
0.0238
0
VERTEX
8
0
10
1.9863
20
2.6509
42
-0.0242
0
VERTEX
8
0
10
1.9346
20
2.6250
42
-0.0089
0
VERTEX
8
0
10
1.8812
20
2.6028
42
-0.0094
0
VERTEX
8
0
10
1.7725
20
2.5630
42
-0.0167
0
VERTEX
8
0
10
1.5514
20
2.4950
42
0.0076
0
VERTEX
8
0
10
1.2641
20
2.4109
42
0.0042
0
VERTEX
8
0
10
1.1215
20
2.3657
42
0.0089
0
VERTEX
8
0
10
0.9798
20
2.3176
0
VERTEX
8
0
10
0.9697
20
2.3140
0
VERTEX
8
0
10
0.9608
20
2.3108
0
VERTEX
8
0
10
0.9432
20
2.3047
42
-0.0029
0
VERTEX
8
0
10
0.9079
20
2.2926
42
-0.0055
0
VERTEX
8
0
10
0.8368
20
2.2695
42
-0.0144
0
VERTEX
8
0
10
0.6931
20
2.2288
42
-0.0102
0
VERTEX
8
0
10
0.6204
20
2.2118
42
-0.0164
0
VERTEX
8
0
10
0.5469
20
2.1983
42
-0.0131
0
VERTEX
8
0
10
0.5099
20
2.1936
42
-0.0232
0
VERTEX
8
0
10
0.4726
20
2.1913
42
-0.0623
0
VERTEX
8
0
10
0.4354
20
2.1938
42
-0.1017
0
VERTEX
8
0
10
0.4178
20
2.1998
42
-0.1310
0
VERTEX
8
0
10
0.4109
20
2.2059
42
-0.1139
0
VERTEX
8
0
10
0.4082
20
2.2148
42
-0.1100
0
VERTEX
8
0
10
0.4126
20
2.2264
42
-0.0379
0
VERTEX
8
0
10
0.4204
20
2.2359
42
-0.0325
0
VERTEX
8
0
10
0.4391
20
2.2521
42
-0.0275
0
VERTEX
8
0
10
0.4805
20
2.2791
42
-0.0343
0
VERTEX
8
0
10
0.5697
20
2.3218
42
0.0062
0
VERTEX
8
0
10
0.6857
20
2.3712
42
0.0028
0
VERTEX
8
0
10
0.8009
20
2.4229
42
0.0055
0
VERTEX
8
0
10
1.0295
20
2.5296
42
-0.0096
0
VERTEX
8
0
10
1.2448
20
2.6265
42
-0.0067
0
VERTEX
8
0
10
1.4631
20
2.7162
42
-0.0091
0
VERTEX
8
0
10
1.6839
20
2.7996
42
-0.0100
0
VERTEX
8
0
10
1.7957
20
2.8376
42
-0.0122
0
VERTEX
8
0
10
1.8523
20
2.8544
42
-0.0147
0
VERTEX
8
0
10
1.8809
20
2.8615
42
-0.0550
0
VERTEX
8
0
10
1.9100
20
2.8658
42
-0.1408
0
VERTEX
8
0
10
1.9270
20
2.8605
42
-0.0978
0
VERTEX
8
0
10
1.9395
20
2.8475
42
-0.1366
0
VERTEX
8
0
10
1.9490
20
2.8131
42
-0.1280
0
VERTEX
8
0
10
1.9455
20
2.7959
42
-0.2037
0
VERTEX
8
0
10
1.9328
20
2.7843
42
-0.1310
0
VERTEX
8
0
10
1.9154
20
2.7841
42
-0.0696
0
VERTEX
8
0
10
1.8993
20
2.7912
42
0.0750
0
VERTEX
8
0
10
1.8837
20
2.7983
42
0.1484
0
VERTEX
8
0
10
1.8667
20
2.7991
42
0.2045
0
VERTEX
8
0
10
1.8534
20
2.7890
42
0.1131
0
VERTEX
8
0
10
1.8496
20
2.7724
42
0.1386
0
VERTEX
8
0
10
1.8539
20
2.7584
42
0.0828
0
VERTEX
8
0
10
1.8643
20
2.7478
42
0.0765
0
VERTEX
8
0
10
1.8913
20
2.7354
42
0.0801
0
VERTEX
8
0
10
1.9503
20
2.7304
42
0.0728
0
VERTEX
8
0
10
1.9903
20
2.7379
42
0.0633
0
VERTEX
8
0
10
2.0086
20
2.7465
42
0.0836
0
VERTEX
8
0
10
2.0238
20
2.7599
42
0.0789
0
VERTEX
8
0
10
2.0338
20
2.7775
42
0.0558
0
VERTEX
8
0
10
2.0384
20
2.7972
42
0.0560
0
VERTEX
8
0
10
2.0373
20
2.8378
42
-0.0934
0
VERTEX
8
0
10
2.0386
20
2.8776
42
-0.0837
0
VERTEX
8
0
10
2.0543
20
2.9142
42
-0.0500
0
VERTEX
8
0
10
2.0799
20
2.9450
42
-0.0282
0
VERTEX
8
0
10
2.1102
20
2.9712
42
-0.0257
0
VERTEX
8
0
10
2.1770
20
3.0156
42
-0.0110
0
VERTEX
8
0
10
2.2473
20
3.0544
42
0.0173
0
VERTEX
8
0
10
2.3495
20
3.1137
42
0.0121
0
VERTEX
8
0
10
2.4479
20
3.1792
42
0.0143
0
VERTEX
8
0
10
2.5428
20
3.2496
42
0.0095
0
VERTEX
8
0
10
2.5885
20
3.2870
42
0.0167
0
VERTEX
8
0
10
2.6325
20
3.3265
0
VERTEX
8
0
10
2.6340
20
3.3280
0
VERTEX
8
0
10
2.6340
20
3.3280
0
VERTEX
8
0
10
2.6355
20
3.3294
0
VERTEX
8
0
10
2.6355
20
3.3294
0
VERTEX
8
0
10
2.6351
20
3.3291
0
VERTEX
8
0
10
2.6343
20
3.3283
0
VERTEX
8
0
10
2.6340
20
3.3280
0
VERTEX
8
0
10
2.6339
20
3.3279
0
VERTEX
8
0
10
2.6339
20
3.3279
0
VERTEX
8
0
10
2.6402
20
3.3339
0
VERTEX
8
0
10
2.6501
20
3.3432
42
-0.0056
0
VERTEX
8
0
10
2.6702
20
3.3616
42
-0.0205
0
VERTEX
8
0
10
2.7118
20
3.3967
42
-0.0199
0
VERTEX
8
0
10
2.7338
20
3.4126
42
-0.0474
0
VERTEX
8
0
10
2.7573
20
3.4262
42
-0.0601
0
VERTEX
8
0
10
2.7702
20
3.4307
42
-0.1779
0
VERTEX
8
0
10
2.7836
20
3.4303
42
-0.1968
0
VERTEX
8
0
10
2.7922
20
3.4203
42
-0.0677
0
VERTEX
8
0
10
2.7940
20
3.4069
42
-0.0049
0
VERTEX
8
0
10
2.7936
20
3.4007
0
VERTEX
8
0
10
2.7934
20
3.3984
0
VERTEX
8
0
10
2.7934
20
3.3984
42
-0.0091
0
VERTEX
8
0
10
2.7926
20
3.3921
42
-0.0148
0
VERTEX
8
0
10
2.7906
20
3.3830
42
-0.0191
0
VERTEX
8
0
10
2.7854
20
3.3650
42
-0.0212
0
VERTEX
8
0
10
2.7717
20
3.3302
42
-0.0255
0
VERTEX
8
0
10
2.7374
20
3.2636
42
-0.0344
0
VERTEX
8
0
10
2.6963
20
3.2011
0
SEQEND
8
0
0
POLYLINE
8
Layer 1
66
1
0
VERTEX
8
0
10
2.4388
20
2.8585
42
-0.2008
0
VERTEX
8
0
10
2.4461
20
2.8409
42
-0.1981
0
VERTEX
8
0
10
2.4388
20
2.8234
42
-0.2008
0
VERTEX
8
0
10
2.4212
20
2.8161
42
-0.1972
0
VERTEX
8
0
10
2.4037
20
2.8234
42
-0.2008
0
VERTEX
8
0
10
2.3964
20
2.8409
42
-0.1972
0
VERTEX
8
0
10
2.4037
20
2.8585
42
-0.2008
0
VERTEX
8
0
10
2.4212
20
2.8658
42
-0.1980
0
VERTEX
8
0
10
2.4388
20
2.8585
0
SEQEND
8
0
0
POLYLINE
8
Layer 1
66
1
0
VERTEX
8
0
10
2.3467
20
2.7912
42
0.4125
0
VERTEX
8
0
10
2.3218
20
2.8161
42
0.4125
0
VERTEX
8
0
10
2.2969
20
2.7912
42
0.2009
0
VERTEX
8
0
10
2.3043
20
2.7737
42
0.1975
0
VERTEX
8
0
10
2.3218
20
2.7664
42
0.2005
0
VERTEX
8
0
10
2.3394
20
2.7737
42
0.1978
0
VERTEX
8
0
10
2.3467
20
2.7912
0
SEQEND
8
0
0
POLYLINE
8
Layer 1
66
1
0
VERTEX
8
0
10
2.2907
20
2.6370
42
-0.0136
0
VERTEX
8
0
10
2.4800
20
2.6840
42
-0.0150
0
VERTEX
8
0
10
2.5756
20
2.7028
42
-0.0199
0
VERTEX
8
0
10
2.6239
20
2.7094
42
-0.0273
0
VERTEX
8
0
10
2.6482
20
2.7108
42
-0.0489
0
VERTEX
8
0
10
2.6605
20
2.7103
42
-0.0887
0
VERTEX
8
0
10
2.6718
20
2.7063
0
VERTEX
8
0
10
2.6727
20
2.7031
0
VERTEX
8
0
10
2.6717
20
2.7009
0
VERTEX
8
0
10
2.6684
20
2.6974
42
-0.0321
0
VERTEX
8
0
10
2.6605
20
2.6917
42
-0.0214
0
VERTEX
8
0
10
2.6434
20
2.6825
42
-0.0157
0
VERTEX
8
0
10
2.6076
20
2.6671
42
-0.0129
0
VERTEX
8
0
10
2.5344
20
2.6407
42
-0.0134
0
VERTEX
8
0
10
2.3853
20
2.5960
0
VERTEX
8
0
10
1.9739
20
2.4840
42
-0.0177
0
VERTEX
8
0
10
1.9493
20
2.4780
42
-0.0529
0
VERTEX
8
0
10
1.9248
20
2.4746
42
-0.1337
0
VERTEX
8
0
10
1.9126
20
2.4760
0
VERTEX
8
0
10
1.9083
20
2.4802
42
-0.1354
0
VERTEX
8
0
10
1.9090
20
2.4862
42
-0.0598
0
VERTEX
8
0
10
1.9157
20
2.4966
42
-0.0213
0
VERTEX
8
0
10
1.9242
20
2.5056
42
-0.0364
0
VERTEX
8
0
10
1.9344
20
2.5135
42
-0.0158
0
VERTEX
8
0
10
1.9449
20
2.5196
42
-0.0156
0
VERTEX
8
0
10
1.9668
20
2.5304
42
-0.0129
0
VERTEX
8
0
10
2.0118
20
2.5491
42
-0.0110
0
VERTEX
8
0
10
2.1038
20
2.5814
42
-0.0116
0
VERTEX
8
0
10
2.2907
20
2.6370
0
SEQEND
8
0
0
POLYLINE
8
Layer 1
66
1
0
VERTEX
8
0
10
2.1340
20
2.7717
42
0.0921
0
VERTEX
8
0
10
2.1398
20
2.7801
42
0.0513
0
VERTEX
8
0
10
2.1452
20
2.7999
42
0.0329
0
VERTEX
8
0
10
2.1478
20
2.8409
42
0.1296
0
VERTEX
8
0
10
2.1370
20
2.8879
42
0.1097
0
VERTEX
8
0
10
2.1220
20
2.9069
42
0.1843
0
VERTEX
8
0
10
2.0997
20
2.9155
42
0.2374
0
VERTEX
8
0
10
2.0800
20
2.9062
42
0.1232
0
VERTEX
8
0
10
2.0726
20
2.8851
42
0.0631
0
VERTEX
8
0
10
2.0739
20
2.8626
42
0.0435
0
VERTEX
8
0
10
2.0801
20
2.8409
0
VERTEX
8
0
10
2.0820
20
2.8361
0
VERTEX
8
0
10
2.0831
20
2.8333
0
VERTEX
8
0
10
2.0851
20
2.8286
42
0.0068
0
VERTEX
8
0
10
2.0891
20
2.8191
42
0.0198
0
VERTEX
8
0
10
2.0982
20
2.8006
42
0.0433
0
VERTEX
8
0
10
2.1090
20
2.7832
42
0.0474
0
VERTEX
8
0
10
2.1158
20
2.7755
42
0.1333
0
VERTEX
8
0
10
2.1243
20
2.7699
42
0.2565
0
VERTEX
8
0
10
2.1340
20
2.7717
0
SEQEND
8
0
0
POLYLINE
8
Layer 1
66
1
0
VERTEX
8
0
10
1.7999
20
2.7166
42
0.2055
0
VERTEX
8
0
10
1.7839
20
2.7523
42
0.1863
0
VERTEX
8
0
10
1.7473
20
2.7664
42
0.1279
0
VERTEX
8
0
10
1.7301
20
2.7629
42
0.2037
0
VERTEX
8
0
10
1.7185
20
2.7502
42
0.1322
0
VERTEX
8
0
10
1.7182
20
2.7327
42
0.0698
0
VERTEX
8
0
10
1.7253
20
2.7166
0
VERTEX
8
0
10
1.7278
20
2.7127
0
VERTEX
8
0
10
1.7300
20
2.7093
42
0.0098
0
VERTEX
8
0
10
1.7347
20
2.7026
42
0.0261
0
VERTEX
8
0
10
1.7448
20
2.6898
42
0.0455
0
VERTEX
8
0
10
1.7564
20
2.6784
42
0.1045
0
VERTEX
8
0
10
1.7704
20
2.6701
42
0.2525
0
VERTEX
8
0
10
1.7861
20
2.6714
42
0.1305
0
VERTEX
8
0
10
1.7954
20
2.6845
42
0.0518
0
VERTEX
8
0
10
1.7990
20
2.7004
42
0.0279
0
VERTEX
8
0
10
1.7999
20
2.7166
0
SEQEND
8
0
0
POLYLINE
8
Layer 1
66
1
0
VERTEX
8
0
10
1.5426
20
2.6362
42
0.1095
0
VERTEX
8
0
10
1.5400
20
2.6440
42
0.0562
0
VERTEX
8
0
10
1.5348
20
2.6504
42
0.4126
0
VERTEX
8
0
10
1.4685
20
2.6504
42
0.0666
0
VERTEX
8
0
10
1.4634
20
2.6440
42
0.1394
0
VERTEX
8
0
10
1.4608
20
2.6362
42
0.1717
0
VERTEX
8
0
10
1.4632
20
2.6285
42
0.0925
0
VERTEX
8
0
10
1.4695
20
2.6233
42
0.0715
0
VERTEX
8
0
10
1.4852
20
2.6184
42
0.0364
0
VERTEX
8
0
10
1.5017
20
2.6172
42
0.0445
0
VERTEX
8
0
10
1.5181
20
2.6184
42
0.1007
0
VERTEX
8
0
10
1.5338
20
2.6233
42
0.1170
0
VERTEX
8
0
10
1.5401
20
2.6285
42
0.1805
0
VERTEX
8
0
10
1.5426
20
2.6362
0
SEQEND
8
0
0
POLYLINE
8
Layer 1
66
1
0
VERTEX
8
0
10
1.3857
20
2.6007
42
0.0677
0
VERTEX
8
0
10
1.3793
20
2.6058
42
0.1388
0
VERTEX
8
0
10
1.3716
20
2.6084
42
0.1721
0
VERTEX
8
0
10
1.3639
20
2.6060
42
0.0916
0
VERTEX
8
0
10
1.3587
20
2.5996
42
0.0725
0
VERTEX
8
0
10
1.3537
20
2.5840
42
0.0365
0
VERTEX
8
0
10
1.3525
20
2.5675
42
0.0432
0
VERTEX
8
0
10
1.3537
20
2.5511
42
0.0993
0
VERTEX
8
0
10
1.3586
20
2.5354
42
0.1172
0
VERTEX
8
0
10
1.3638
20
2.5291
42
0.1806
0
VERTEX
8
0
10
1.3715
20
2.5266
42
0.1103
0
VERTEX
8
0
10
1.3793
20
2.5292
42
0.0551
0
VERTEX
8
0
10
1.3857
20
2.5344
42
0.4125
0
VERTEX
8
0
10
1.3857
20
2.6007
0
SEQEND
8
0
0
POLYLINE
8
Layer 1
66
1
0
VERTEX
8
0
10
1.2955
20
2.5602
42
0.2005
0
VERTEX
8
0
10
1.2780
20
2.5675
42
0.1984
0
VERTEX
8
0
10
1.2604
20
2.5602
42
0.2009
0
VERTEX
8
0
10
1.2531
20
2.5427
42
0.1973
0
VERTEX
8
0
10
1.2604
20
2.5251
42
0.2007
0
VERTEX
8
0
10
1.2780
20
2.5178
42
0.4126
0
VERTEX
8
0
10
1.3028
20
2.5427
42
0.1979
0
VERTEX
8
0
10
1.2955
20
2.5602
0
SEQEND
8
0
0
POLYLINE
8
Layer 1
66
1
0
VERTEX
8
0
10
1.1961
20
2.5105
42
0.2008
0
VERTEX
8
0
10
1.1786
20
2.5178
42
0.1981
0
VERTEX
8
0
10
1.1610
20
2.5105
42
0.2008
0
VERTEX
8
0
10
1.1537
20
2.4930
42
0.1982
0
VERTEX
8
0
10
1.1610
20
2.4754
42
0.2007
0
VERTEX
8
0
10
1.1786
20
2.4681
42
0.1980
0
VERTEX
8
0
10
1.1961
20
2.4754
42
0.2008
0
VERTEX
8
0
10
1.2034
20
2.4930
42
0.1981
0
VERTEX
8
0
10
1.1961
20
2.5105
0
SEQEND
8
0
0
POLYLINE
8
Layer 1
66
1
0
VERTEX
8
0
10
1.0543
20
2.4433
42
0.4130
0
VERTEX
8
0
10
1.0295
20
2.4681
42
0.4125
0
VERTEX
8
0
10
1.0046
20
2.4433
42
0.1978
0
VERTEX
8
0
10
1.0119
20
2.4257
42
0.2005
0
VERTEX
8
0
10
1.0295
20
2.4184
42
0.1985
0
VERTEX
8
0
10
1.0470
20
2.4257
42
0.2008
0
VERTEX
8
0
10
1.0543
20
2.4433
0
SEQEND
8
0
0
POLYLINE
8
Layer 1
66
1
0
VERTEX
8
0
10
0.9549
20
2.3936
42
0.1972
0
VERTEX
8
0
10
0.9476
20
2.4111
42
0.2008
0
VERTEX
8
0
10
0.9301
20
2.4184
42
0.1972
0
VERTEX
8
0
10
0.9125
20
2.4111
42
0.2008
0
VERTEX
8
0
10
0.9052
20
2.3936
42
0.1980
0
VERTEX
8
0
10
0.9125
20
2.3760
42
0.2008
0
VERTEX
8
0
10
0.9301
20
2.3687
42
0.1981
0
VERTEX
8
0
10
0.9476
20
2.3760
42
0.2008
0
VERTEX
8
0
10
0.9549
20
2.3936
0
SEQEND
8
0
0
POLYLINE
8
Layer 1
66
1
0
VERTEX
8
0
10
0.8555
20
2.3439
42
0.4126
0
VERTEX
8
0
10
0.8306
20
2.3687
42
0.1981
0
VERTEX
8
0
10
0.8131
20
2.3614
42
0.2006
0
VERTEX
8
0
10
0.8058
20
2.3439
42
0.1979
0
VERTEX
8
0
10
0.8131
20
2.3263
42
0.2006
0
VERTEX
8
0
10
0.8306
20
2.3190
42
0.1975
0
VERTEX
8
0
10
0.8482
20
2.3263
42
0.2009
0
VERTEX
8
0
10
0.8555
20
2.3439
0
SEQEND
8
0
0
ENDSEC
0
EOF
