  0
SECTION
  2
HEADER
  9
$ACADVER
  1
AC1009
  9
$EXTMIN
 10
-0.00000000
 20
0.00000000
 30
0.0
  9
$EXTMAX
 10
93.91122445
 20
22.26535862
 30
0.0
  0
ENDSEC
  0
SECTION
  2
TABLES
  0
TABLE
  2
LAYER
 70
2
 0
LAYER
 2
Default_Layer
 70
0
 62
1
 6
CONTINUOUS
 0
LAYER
 2
Layer_1
 70
0
 62
1
 6
CONTINUOUS
 0
ENDTAB
 0
ENDSEC
  0
SECTION
  2
ENTITIES
  0
POLYLINE
  8
Default_Layer
 66
   1
 39
0.000000
 70
    0
  0
VERTEX
  8
0
 10
91.50038193
 20
2.16535433
  0
VERTEX
  8
0
 10
91.60014033
 20
2.24336023
  0
VERTEX
  8
0
 10
91.65696289
 20
2.34237795
  0
VERTEX
  8
0
 10
91.68563129
 20
2.45736712
  0
VERTEX
  8
0
 10
91.70092721
 20
2.58328740
  0
VERTEX
  8
0
 10
91.71763233
 20
2.71509842
  0
VERTEX
  8
0
 10
91.75052834
 20
2.84775984
  0
VERTEX
  8
0
 10
91.81439691
 20
2.97623130
  0
VERTEX
  8
0
 10
91.92401973
 20
3.09547244
  0
VERTEX
  8
0
 10
91.99984247
 20
3.16995731
  0
VERTEX
  8
0
 10
92.04939544
 20
3.24670214
  0
VERTEX
  8
0
 10
92.07630850
 20
3.32795604
  0
VERTEX
  8
0
 10
92.08421147
 20
3.41596807
  0
VERTEX
  8
0
 10
92.05750656
 20
3.62126288
  0
VERTEX
  8
0
 10
91.99831943
 20
3.88057923
  0
VERTEX
  8
0
 10
91.93568884
 20
4.21190979
  0
VERTEX
  8
0
 10
91.89865353
 20
4.63324723
  0
VERTEX
  8
0
 10
91.89880870
 20
4.88329123
  0
VERTEX
  8
0
 10
91.91625222
 20
5.16258420
  0
VERTEX
  8
0
 10
91.95461393
 20
5.47337523
  0
VERTEX
  8
0
 10
92.01752367
 20
5.81791338
  0
VERTEX
  8
0
 10
92.09389298
 20
5.88281084
  0
VERTEX
  8
0
 10
92.15978874
 20
5.97159941
  0
VERTEX
  8
0
 10
92.21212147
 20
6.07736928
  0
VERTEX
  8
0
 10
92.24780172
 20
6.19321063
  0
VERTEX
  8
0
 10
92.26374002
 20
6.31221364
  0
VERTEX
  8
0
 10
92.25684693
 20
6.42746850
  0
VERTEX
  8
0
 10
92.22403298
 20
6.53206539
  0
VERTEX
  8
0
 10
92.16220871
 20
6.61909448
  0
VERTEX
  8
0
 10
92.06094000
 20
6.73332332
  0
VERTEX
  8
0
 10
91.96831107
 20
6.85531496
  0
VERTEX
  8
0
 10
91.86162346
 20
6.85995276
  0
VERTEX
  8
0
 10
91.75966441
 20
6.88054748
  0
VERTEX
  8
0
 10
91.57180073
 20
6.96411091
  0
VERTEX
  8
0
 10
91.40845748
 20
7.09501172
  0
VERTEX
  8
0
 10
91.27337209
 20
7.26225639
  0
VERTEX
  8
0
 10
91.17028203
 20
7.45485140
  0
VERTEX
  8
0
 10
91.10292475
 20
7.66180321
  0
VERTEX
  8
0
 10
91.07503769
 20
7.87211830
  0
VERTEX
  8
0
 10
91.09035831
 20
8.07480315
  0
VERTEX
  8
0
 10
91.14845654
 20
8.25005196
  0
VERTEX
  8
0
 10
91.24496449
 20
8.42087487
  0
VERTEX
  8
0
 10
91.50927662
 20
8.78182775
  0
VERTEX
  8
0
 10
91.65511432
 20
8.98825010
  0
VERTEX
  8
0
 10
91.79542881
 20
9.22283132
  0
VERTEX
  8
0
 10
91.91923683
 20
9.49371759
  0
VERTEX
  8
0
 10
92.01555516
 20
9.80905511
  0
VERTEX
  8
0
 10
92.05886225
 20
9.92814567
  0
VERTEX
  8
0
 10
92.22852022
 20
9.24495546
  0
VERTEX
  8
0
 10
92.32340473
 20
8.90248892
  0
VERTEX
  8
0
 10
92.43273725
 20
8.56218602
  0
VERTEX
  8
0
 10
92.56232605
 20
8.22610519
  0
VERTEX
  8
0
 10
92.71797937
 20
7.89630487
  0
VERTEX
  8
0
 10
92.90550549
 20
7.57484350
  0
VERTEX
  8
0
 10
93.13071264
 20
7.26377952
  0
VERTEX
  8
0
 10
93.18080226
 20
7.19090781
  0
VERTEX
  8
0
 10
93.20974377
 20
7.12431348
  0
VERTEX
  8
0
 10
93.22298823
 20
6.99559547
  0
VERTEX
  8
0
 10
93.20805750
 20
6.84890256
  0
VERTEX
  8
0
 10
93.20256304
 20
6.65551181
  0
VERTEX
  8
0
 10
93.22316257
 20
6.37033267
  0
VERTEX
  8
0
 10
93.26315654
 20
6.04663484
  0
VERTEX
  8
0
 10
93.32895612
 20
5.72939320
  0
VERTEX
  8
0
 10
93.37353651
 20
5.58724812
  0
VERTEX
  8
0
 10
93.42697248
 20
5.46358267
  0
VERTEX
  8
0
 10
93.46571141
 20
5.51041338
  0
VERTEX
  8
0
 10
93.48720182
 20
5.56250000
  0
VERTEX
  8
0
 10
93.50177563
 20
5.68208661
  0
VERTEX
  8
0
 10
93.53991263
 20
5.56430456
  0
VERTEX
  8
0
 10
93.58991786
 20
5.34812155
  0
VERTEX
  8
0
 10
93.64580276
 20
5.11240532
  0
VERTEX
  8
0
 10
93.70157878
 20
4.93602362
  0
VERTEX
  8
0
 10
93.76752367
 20
4.76574803
  0
VERTEX
  8
0
 10
93.83625165
 20
4.91335433
  0
VERTEX
  8
0
 10
93.87930916
 20
5.08994568
  0
VERTEX
  8
0
 10
93.89951981
 20
5.28620136
  0
VERTEX
  8
0
 10
93.89970723
 20
5.49280069
  0
VERTEX
  8
0
 10
93.88269503
 20
5.70042296
  0
VERTEX
  8
0
 10
93.85130682
 20
5.89974747
  0
VERTEX
  8
0
 10
93.80836624
 20
6.08145354
  0
VERTEX
  8
0
 10
93.75669689
 20
6.23622047
  0
VERTEX
  8
0
 10
93.69241245
 20
6.39287401
  0
VERTEX
  8
0
 10
93.66867450
 20
6.47667925
  0
VERTEX
  8
0
 10
93.66516146
 20
6.55413385
  0
VERTEX
  8
0
 10
93.78033272
 20
6.47374360
  0
VERTEX
  8
0
 10
93.91122445
 20
6.42421259
  0
VERTEX
  8
0
 10
93.76072362
 20
6.64358284
  0
VERTEX
  8
0
 10
93.65733715
 20
6.82815071
  0
VERTEX
  8
0
 10
93.53777071
 20
7.12444685
  0
VERTEX
  8
0
 10
93.44425201
 20
7.37623609
  0
VERTEX
  8
0
 10
93.37342521
 20
7.50517035
  0
VERTEX
  8
0
 10
93.26850792
 20
7.64665354
  0
VERTEX
  8
0
 10
93.16691854
 20
7.78506483
  0
VERTEX
  8
0
 10
93.05989867
 20
7.96124477
  0
VERTEX
  8
0
 10
92.84743902
 20
8.38216584
  0
VERTEX
  8
0
 10
92.66687209
 20
8.81992722
  0
VERTEX
  8
0
 10
92.55394099
 20
9.18503937
  0
VERTEX
  8
0
 10
92.48322085
 20
9.55029599
  0
VERTEX
  8
0
 10
92.44244733
 20
9.84992753
  0
VERTEX
  8
0
 10
92.38549069
 20
10.34069389
  0
VERTEX
  8
0
 10
92.33668286
 20
10.57601801
  0
VERTEX
  8
0
 10
92.25257220
 20
10.83409559
  0
VERTEX
  8
0
 10
92.11684635
 20
11.13702130
  0
VERTEX
  8
0
 10
91.91319296
 20
11.50688976
  0
VERTEX
  8
0
 10
91.80707780
 20
11.67786891
  0
VERTEX
  8
0
 10
91.72917327
 20
11.76367175
  0
VERTEX
  8
0
 10
91.43287800
 20
11.93503937
  0
VERTEX
  8
0
 10
90.62066294
 20
12.46330610
  0
VERTEX
  8
0
 10
90.18035161
 20
12.72011663
  0
VERTEX
  8
0
 10
89.98041745
 20
12.81161734
  0
VERTEX
  8
0
 10
89.80492524
 20
12.86515354
  0
VERTEX
  8
0
 10
89.51611576
 20
12.89256539
  0
VERTEX
  8
0
 10
89.23790113
 20
12.86639320
  0
VERTEX
  8
0
 10
88.96539344
 20
12.79654017
  0
VERTEX
  8
0
 10
88.69370477
 20
12.69290945
  0
VERTEX
  8
0
 10
88.59260025
 20
13.47017722
  0
VERTEX
  8
0
 10
88.53016281
 20
13.74134100
  0
VERTEX
  8
0
 10
88.48698481
 20
13.84998596
  0
VERTEX
  8
0
 10
88.43240998
 20
13.94159891
  0
VERTEX
  8
0
 10
88.36387033
 20
14.01687431
  0
VERTEX
  8
0
 10
88.27879785
 20
14.07650662
  0
VERTEX
  8
0
 10
88.17462456
 20
14.12119028
  0
VERTEX
  8
0
 10
88.04878246
 20
14.15161977
  0
VERTEX
  8
0
 10
87.72181989
 20
14.17249402
  0
VERTEX
  8
0
 10
87.27736619
 20
14.14468504
  0
VERTEX
  8
0
 10
86.85921818
 20
14.07613096
  0
VERTEX
  8
0
 10
86.43930811
 20
13.98562647
  0
VERTEX
  8
0
 10
86.01790543
 20
13.92248591
  0
VERTEX
  8
0
 10
85.80672856
 20
13.91658783
  0
VERTEX
  8
0
 10
85.59527957
 20
13.93602362
  0
VERTEX
  8
0
 10
85.34642481
 20
13.99538835
  0
VERTEX
  8
0
 10
85.13739719
 20
14.06229478
  0
VERTEX
  8
0
 10
84.85612966
 20
14.11823099
  0
VERTEX
  8
0
 10
84.39055516
 20
14.14468504
  0
VERTEX
  8
0
 10
84.14610101
 20
14.13945773
  0
VERTEX
  8
0
 10
83.94217389
 20
14.11450049
  0
VERTEX
  8
0
 10
83.77430970
 20
14.06334122
  0
VERTEX
  8
0
 10
83.63804434
 20
13.97950787
  0
VERTEX
  8
0
 10
83.52891369
 20
13.85652836
  0
VERTEX
  8
0
 10
83.44245366
 20
13.68793061
  0
VERTEX
  8
0
 10
83.37420014
 20
13.46724255
  0
VERTEX
  8
0
 10
83.31968902
 20
13.18799212
  0
VERTEX
  8
0
 10
83.28130319
 20
12.72145669
  0
VERTEX
  8
0
 10
82.78480811
 20
13.06301132
  0
VERTEX
  8
0
 10
82.58007718
 20
13.23788982
  0
VERTEX
  8
0
 10
82.32559453
 20
13.51968504
  0
VERTEX
  8
0
 10
82.24903843
 20
13.60522145
  0
VERTEX
  8
0
 10
82.15433469
 20
13.66633858
  0
VERTEX
  8
0
 10
82.16122445
 20
13.73129921
  0
VERTEX
  8
0
 10
81.80590949
 20
13.75491732
  0
VERTEX
  8
0
 10
81.96831107
 20
13.86318897
  0
VERTEX
  8
0
 10
81.73837209
 20
14.18426771
  0
VERTEX
  8
0
 10
81.60639990
 20
14.35394365
  0
VERTEX
  8
0
 10
81.49783863
 20
14.46062992
  0
VERTEX
  8
0
 10
81.36316491
 20
14.50895521
  0
VERTEX
  8
0
 10
81.22027957
 20
14.54724409
  0
VERTEX
  8
0
 10
81.30492524
 20
14.58759842
  0
VERTEX
  8
0
 10
81.20526795
 20
14.73871426
  0
VERTEX
  8
0
 10
81.08352219
 20
14.85113828
  0
VERTEX
  8
0
 10
80.93763544
 20
14.93169396
  0
VERTEX
  8
0
 10
80.76555516
 20
14.98720472
  0
VERTEX
  8
0
 10
80.85807485
 20
15.04921259
  0
VERTEX
  8
0
 10
80.57143607
 20
15.19411614
  0
VERTEX
  8
0
 10
80.42629852
 20
15.24854133
  0
VERTEX
  8
0
 10
80.26752367
 20
15.28543307
  0
VERTEX
  8
0
 10
80.21021719
 20
15.39479238
  0
VERTEX
  8
0
 10
80.14196560
 20
15.47815600
  0
VERTEX
  8
0
 10
80.08394383
 20
15.51016890
  0
VERTEX
  8
0
 10
79.99943594
 20
15.53577823
  0
VERTEX
  8
0
 10
79.71929532
 20
15.56791338
  0
VERTEX
  8
0
 10
79.70945280
 20
15.60137795
  0
VERTEX
  8
0
 10
79.72716934
 20
15.63287401
  0
VERTEX
  8
0
 10
79.34921658
 20
15.63287401
  0
VERTEX
  8
0
 10
79.42500398
 20
15.77657480
  0
VERTEX
  8
0
 10
79.28228745
 20
15.70078740
  0
VERTEX
  8
0
 10
79.27604938
 20
15.93776205
  0
VERTEX
  8
0
 10
79.28253252
 20
16.24757972
  0
VERTEX
  8
0
 10
79.29806508
 20
16.40295952
  0
VERTEX
  8
0
 10
79.32580258
 20
16.54433587
  0
VERTEX
  8
0
 10
79.36875323
 20
16.66097071
  0
VERTEX
  8
0
 10
79.42992524
 20
16.74212598
  0
VERTEX
  8
0
 10
79.50472839
 20
16.80118110
  0
VERTEX
  8
0
 10
79.48991300
 20
16.89008864
  0
VERTEX
  8
0
 10
79.45448774
 20
16.94707431
  0
VERTEX
  8
0
 10
79.39423202
 20
16.98007991
  0
VERTEX
  8
0
 10
79.30492524
 20
16.99704724
  0
VERTEX
  8
0
 10
79.13480825
 20
16.82327413
  0
VERTEX
  8
0
 10
79.02572919
 20
16.68749643
  0
VERTEX
  8
0
 10
78.96096113
 20
16.58253498
  0
VERTEX
  8
0
 10
78.92377711
 20
16.50121063
  0
VERTEX
  8
0
 10
78.86525343
 20
16.38075652
  0
VERTEX
  8
0
 10
78.81045987
 20
16.32726844
  0
VERTEX
  8
0
 10
78.71634256
 20
16.26870078
  0
VERTEX
  8
0
 10
78.60319261
 20
16.19751777
  0
VERTEX
  8
0
 10
78.50205387
 20
16.11303660
  0
VERTEX
  8
0
 10
78.32898971
 20
15.91422490
  0
VERTEX
  8
0
 10
78.18350946
 20
15.69235586
  0
VERTEX
  8
0
 10
78.05197248
 20
15.46751968
  0
VERTEX
  8
0
 10
77.94838784
 20
16.20055167
  0
VERTEX
  8
0
 10
77.87744800
 20
16.49427872
  0
VERTEX
  8
0
 10
77.73799611
 20
16.93503937
  0
VERTEX
  8
0
 10
77.66591072
 20
17.09973609
  0
VERTEX
  8
0
 10
77.62348085
 20
17.15444689
  0
VERTEX
  8
0
 10
77.57507977
 20
17.18869685
  0
VERTEX
  8
0
 10
77.51942266
 20
17.20095910
  0
VERTEX
  8
0
 10
77.45522470
 20
17.18970681
  0
VERTEX
  8
0
 10
77.38120108
 20
17.15341312
  0
VERTEX
  8
0
 10
77.29606697
 20
17.09055118
  0
VERTEX
  8
0
 10
77.32179557
 20
16.85531711
  0
VERTEX
  8
0
 10
77.36691934
 20
16.62534006
  0
VERTEX
  8
0
 10
77.39039645
 20
16.39543903
  0
VERTEX
  8
0
 10
77.38119194
 20
16.27889798
  0
VERTEX
  8
0
 10
77.35118508
 20
16.16043307
  0
VERTEX
  8
0
 10
77.33073524
 20
16.07322287
  0
VERTEX
  8
0
 10
77.33023493
 20
15.99050072
  0
VERTEX
  8
0
 10
77.34640481
 20
15.91203549
  0
VERTEX
  8
0
 10
77.37596553
 20
15.83759608
  0
VERTEX
  8
0
 10
77.46214215
 20
15.69987027
  0
VERTEX
  8
0
 10
77.56253006
 20
15.57547441
  0
VERTEX
  8
0
 10
77.65089454
 20
15.46255959
  0
VERTEX
  8
0
 10
77.70100084
 20
15.35927694
  0
VERTEX
  8
0
 10
77.70350883
 20
15.31066990
  0
VERTEX
  8
0
 10
77.68661426
 20
15.26377757
  0
VERTEX
  8
0
 10
77.64703777
 20
15.21836884
  0
VERTEX
  8
0
 10
77.58150004
 20
15.17421259
  0
VERTEX
  8
0
 10
77.34085268
 20
15.01914001
  0
VERTEX
  8
0
 10
77.15787572
 20
14.85284768
  0
VERTEX
  8
0
 10
77.01870834
 20
14.67330745
  0
VERTEX
  8
0
 10
76.90948971
 20
14.47849114
  0
VERTEX
  8
0
 10
76.72545532
 20
14.03491757
  0
VERTEX
  8
0
 10
76.62291790
 20
13.78210396
  0
VERTEX
  8
0
 10
76.49488587
 20
13.50590157
  0
VERTEX
  8
0
 10
76.41811422
 20
13.30807086
  0
VERTEX
  8
0
 10
74.44187111
 20
13.86531305
  0
VERTEX
  8
0
 10
73.56036951
 20
14.13265565
  0
VERTEX
  8
0
 10
72.71166934
 20
14.40580167
  0
VERTEX
  8
0
 10
71.86706168
 20
14.69474290
  0
VERTEX
  8
0
 10
70.99783764
 20
15.00947115
  0
VERTEX
  8
0
 10
69.07070477
 20
15.75625590
  0
VERTEX
  8
0
 10
69.32266072
 20
16.22278371
  0
VERTEX
  8
0
 10
69.39502505
 20
16.36763887
  0
VERTEX
  8
0
 10
69.43678351
 20
16.48311023
  0
VERTEX
  8
0
 10
69.45178852
 20
16.59136432
  0
VERTEX
  8
0
 10
69.44389251
 20
16.71456766
  0
VERTEX
  8
0
 10
69.37480713
 20
17.09448819
  0
VERTEX
  8
0
 10
69.27557029
 20
17.71643620
  0
VERTEX
  8
0
 10
69.25248068
 20
17.86989700
  0
VERTEX
  8
0
 10
69.22250497
 20
17.96913435
  0
VERTEX
  8
0
 10
69.16721416
 20
18.05223729
  0
VERTEX
  8
0
 10
69.06817930
 20
18.15729484
  0
VERTEX
  8
0
 10
68.66516146
 20
18.58562992
  0
VERTEX
  8
0
 10
68.35200989
 20
18.96057135
  0
VERTEX
  8
0
 10
68.18195182
 20
19.19812432
  0
VERTEX
  8
0
 10
68.13258229
 20
19.29080515
  0
VERTEX
  8
0
 10
68.12185437
 20
19.35137795
  0
VERTEX
  8
0
 10
68.15236619
 20
19.42027559
  0
VERTEX
  8
0
 10
68.12068809
 20
19.46885837
  0
VERTEX
  8
0
 10
68.07313113
 20
19.50627079
  0
VERTEX
  8
0
 10
67.95211865
 20
19.56163779
  0
VERTEX
  8
0
 10
67.83280473
 20
19.61448314
  0
VERTEX
  8
0
 10
67.78737099
 20
19.64874349
  0
VERTEX
  8
0
 10
67.75866540
 20
19.69291338
  0
VERTEX
  8
0
 10
67.86791737
 20
19.71358267
  0
VERTEX
  8
0
 10
67.89103578
 20
19.76342252
  0
VERTEX
  8
0
 10
67.89535948
 20
19.81955708
  0
VERTEX
  8
0
 10
67.86771313
 20
19.94338681
  0
VERTEX
  8
0
 10
67.82515906
 20
20.07042470
  0
VERTEX
  8
0
 10
67.80787800
 20
20.18602362
  0
VERTEX
  8
0
 10
67.88862188
 20
20.18875728
  0
VERTEX
  8
0
 10
68.00976930
 20
20.14784713
  0
VERTEX
  8
0
 10
68.29898577
 20
20.02089124
  0
VERTEX
  8
0
 10
68.42991036
 20
19.97774341
  0
VERTEX
  8
0
 10
68.52694954
 20
19.97674760
  0
VERTEX
  8
0
 10
68.55695828
 20
19.99875950
  0
VERTEX
  8
0
 10
68.57153107
 20
20.03935277
  0
VERTEX
  8
0
 10
68.56834640
 20
20.10120852
  0
VERTEX
  8
0
 10
68.54508272
 20
20.18700787
  0
VERTEX
  8
0
 10
68.46845042
 20
20.33804293
  0
VERTEX
  8
0
 10
68.35855209
 20
20.47087198
  0
VERTEX
  8
0
 10
68.22887232
 20
20.58720537
  0
VERTEX
  8
0
 10
68.09289571
 20
20.68875344
  0
VERTEX
  8
0
 10
67.85599032
 20
20.85433495
  0
VERTEX
  8
0
 10
67.78203072
 20
20.92178907
  0
VERTEX
  8
0
 10
67.75571264
 20
20.98129921
  0
VERTEX
  8
0
 10
67.77030160
 20
21.15153085
  0
VERTEX
  8
0
 10
67.78891521
 20
21.27337623
  0
VERTEX
  8
0
 10
67.79510114
 20
21.36110436
  0
VERTEX
  8
0
 10
67.77240703
 20
21.42898425
  0
VERTEX
  8
0
 10
67.70438056
 20
21.49128491
  0
VERTEX
  8
0
 10
67.57456937
 20
21.56227534
  0
VERTEX
  8
0
 10
67.06378351
 20
21.78740157
  0
VERTEX
  8
0
 10
66.90728253
 20
21.84634263
  0
VERTEX
  8
0
 10
66.77677011
 20
21.87716266
  0
VERTEX
  8
0
 10
66.66955459
 20
21.88304005
  0
VERTEX
  8
0
 10
66.58294431
 20
21.86715317
  0
VERTEX
  8
0
 10
66.51424762
 20
21.83268040
  0
VERTEX
  8
0
 10
66.46077285
 20
21.78280012
  0
VERTEX
  8
0
 10
66.38872248
 20
21.64953051
  0
VERTEX
  8
0
 10
66.34525996
 20
21.49277136
  0
VERTEX
  8
0
 10
66.30885204
 20
21.33794968
  0
VERTEX
  8
0
 10
66.25796546
 20
21.21049248
  0
VERTEX
  8
0
 10
66.22036353
 20
21.16497150
  0
VERTEX
  8
0
 10
66.17106697
 20
21.13582677
  0
VERTEX
  8
0
 10
65.92939639
 20
21.03676365
  0
VERTEX
  8
0
 10
65.80389212
 20
20.97047405
  0
VERTEX
  8
0
 10
65.68485684
 20
20.89183169
  0
VERTEX
  8
0
 10
65.57947675
 20
20.79995101
  0
VERTEX
  8
0
 10
65.49493810
 20
20.69394648
  0
VERTEX
  8
0
 10
65.43842709
 20
20.57293253
  0
VERTEX
  8
0
 10
65.41712997
 20
20.43602362
  0
VERTEX
  8
0
 10
65.42249395
 20
20.36999606
  0
VERTEX
  8
0
 10
65.43913616
 20
20.32471660
  0
VERTEX
  8
0
 10
65.46581354
 20
20.29760463
  0
VERTEX
  8
0
 10
65.50128308
 20
20.28607954
  0
VERTEX
  8
0
 10
65.59362645
 20
20.29946754
  0
VERTEX
  8
0
 10
65.70622199
 20
20.34423572
  0
VERTEX
  8
0
 10
65.95239245
 20
20.44533310
  0
VERTEX
  8
0
 10
66.06607881
 20
20.46037253
  0
VERTEX
  8
0
 10
66.11622164
 20
20.44998279
  0
VERTEX
  8
0
 10
66.16024020
 20
20.42421259
  0
VERTEX
  8
0
 10
66.17598823
 20
20.39566929
  0
VERTEX
  8
0
 10
66.07936071
 20
20.18048831
  0
VERTEX
  8
0
 10
66.03237750
 20
20.08674901
  0
VERTEX
  8
0
 10
66.03573506
 20
20.05998223
  0
VERTEX
  8
0
 10
66.06138273
 20
20.03305056
  0
VERTEX
  8
0
 10
66.19272052
 20
19.93799212
  0
VERTEX
  8
0
 10
66.24145420
 20
19.87734423
  0
VERTEX
  8
0
 10
66.27383727
 20
19.79212346
  0
VERTEX
  8
0
 10
66.32386225
 20
19.59260580
  0
VERTEX
  8
0
 10
66.35865948
 20
19.50063019
  0
VERTEX
  8
0
 10
66.41141675
 20
19.42872422
  0
VERTEX
  8
0
 10
66.49071174
 20
19.38804854
  0
VERTEX
  8
0
 10
66.60512209
 20
19.38976378
  0
VERTEX
  8
0
 10
66.67992524
 20
19.40846456
  0
VERTEX
  8
0
 10
66.69764178
 20
19.39370078
  0
VERTEX
  8
0
 10
66.68752144
 20
19.28216725
  0
VERTEX
  8
0
 10
66.66407522
 20
19.20445195
  0
VERTEX
  8
0
 10
66.63150996
 20
19.15138875
  0
VERTEX
  8
0
 10
66.59403252
 20
19.11381151
  0
VERTEX
  8
0
 10
66.52116847
 20
19.04845035
  0
VERTEX
  8
0
 10
66.49419556
 20
19.00233416
  0
VERTEX
  8
0
 10
66.47913784
 20
18.93503937
  0
VERTEX
  8
0
 10
66.46950398
 20
18.63228002
  0
VERTEX
  8
0
 10
66.44852810
 20
18.48532006
  0
VERTEX
  8
0
 10
66.38957091
 20
18.34448819
  0
VERTEX
  8
0
 10
66.27904194
 20
18.16499674
  0
VERTEX
  8
0
 10
66.23187061
 20
18.05336368
  0
VERTEX
  8
0
 10
66.22688606
 20
17.92612161
  0
VERTEX
  8
0
 10
66.24291737
 20
17.69980315
  0
VERTEX
  8
0
 10
66.02249808
 20
17.69174501
  0
VERTEX
  8
0
 10
65.84417623
 20
17.70987155
  0
VERTEX
  8
0
 10
65.70380762
 20
17.71828869
  0
VERTEX
  8
0
 10
65.64656073
 20
17.70763934
  0
VERTEX
  8
0
 10
65.59724808
 20
17.68110236
  0
VERTEX
  8
0
 10
65.47294394
 20
17.61504675
  0
VERTEX
  8
0
 10
65.41065863
 20
17.58018620
  0
VERTEX
  8
0
 10
65.36890162
 20
17.53740157
  0
VERTEX
  8
0
 10
65.29084792
 20
17.42236386
  0
VERTEX
  8
0
 10
65.23498085
 20
17.36501525
  0
VERTEX
  8
0
 10
65.20768834
 20
17.31708815
  0
VERTEX
  8
0
 10
65.21535831
 20
17.23031496
  0
VERTEX
  8
0
 10
65.23175398
 20
17.17098819
  0
VERTEX
  8
0
 10
65.22815359
 20
17.11220472
  0
VERTEX
  8
0
 10
64.93620046
 20
17.01253654
  0
VERTEX
  8
0
 10
64.63259650
 20
16.94169389
  0
VERTEX
  8
0
 10
64.02441343
 20
16.81496063
  0
VERTEX
  8
0
 10
63.58986074
 20
16.69325262
  0
VERTEX
  8
0
 10
63.26216589
 20
16.58720257
  0
VERTEX
  8
0
 10
62.84187111
 20
16.44533317
  0
VERTEX
  8
0
 10
62.70653188
 20
16.42114223
  0
VERTEX
  8
0
 10
62.59257189
 20
16.43586608
  0
VERTEX
  8
0
 10
62.47862151
 20
16.49531892
  0
VERTEX
  8
0
 10
62.34331107
 20
16.60531496
  0
VERTEX
  8
0
 10
62.34626382
 20
16.61515748
  0
VERTEX
  8
0
 10
62.48519148
 20
16.55026132
  0
VERTEX
  8
0
 10
62.62775989
 20
16.50196850
  0
VERTEX
  8
0
 10
62.64941343
 20
16.53346456
  0
VERTEX
  8
0
 10
62.60056678
 20
16.61922879
  0
VERTEX
  8
0
 10
62.51964245
 20
16.68557246
  0
VERTEX
  8
0
 10
62.41686210
 20
16.73781027
  0
VERTEX
  8
0
 10
62.30244739
 20
16.78125689
  0
VERTEX
  8
0
 10
62.07960148
 20
16.86303531
  0
VERTEX
  8
0
 10
61.99161361
 20
16.91199647
  0
VERTEX
  8
0
 10
61.93287800
 20
16.97342519
  0
VERTEX
  8
0
 10
62.00782208
 20
17.07809707
  0
VERTEX
  8
0
 10
62.03280664
 20
17.13995177
  0
VERTEX
  8
0
 10
62.01595113
 20
17.16340620
  0
VERTEX
  8
0
 10
61.97387018
 20
17.18645657
  0
VERTEX
  8
0
 10
61.79705123
 20
17.24507874
  0
VERTEX
  8
0
 10
61.66256008
 20
17.27710728
  0
VERTEX
  8
0
 10
61.60175632
 20
17.30480007
  0
VERTEX
  8
0
 10
61.55689374
 20
17.35433070
  0
VERTEX
  8
0
 10
61.61314860
 20
17.43362260
  0
VERTEX
  8
0
 10
61.68887061
 20
17.50291683
  0
VERTEX
  8
0
 10
61.75864356
 20
17.57567390
  0
VERTEX
  8
0
 10
61.79705123
 20
17.66535433
  0
VERTEX
  8
0
 10
61.73763037
 20
17.68227739
  0
VERTEX
  8
0
 10
61.66720920
 20
17.67261060
  0
VERTEX
  8
0
 10
61.50742032
 20
17.61371259
  0
VERTEX
  8
0
 10
61.42507980
 20
17.58458392
  0
VERTEX
  8
0
 10
61.34579335
 20
17.56907049
  0
VERTEX
  8
0
 10
61.27307457
 20
17.57722359
  0
VERTEX
  8
0
 10
61.21043705
 20
17.61909448
  0
VERTEX
  8
0
 10
61.25375263
 20
17.69527805
  0
VERTEX
  8
0
 10
61.32222052
 20
17.75737696
  0
VERTEX
  8
0
 10
61.47815359
 20
17.85629921
  0
VERTEX
  8
0
 10
61.48012209
 20
17.87696850
  0
VERTEX
  8
0
 10
61.41183633
 20
17.89123602
  0
VERTEX
  8
0
 10
61.32136895
 20
17.88463595
  0
VERTEX
  8
0
 10
61.11185684
 20
17.84586023
  0
VERTEX
  8
0
 10
61.01179582
 20
17.83219818
  0
VERTEX
  8
0
 10
60.92752065
 20
17.83469574
  0
VERTEX
  8
0
 10
60.86852320
 20
17.86260969
  0
VERTEX
  8
0
 10
60.84429532
 20
17.92519685
  0
VERTEX
  8
0
 10
60.84087357
 20
18.03269586
  0
VERTEX
  8
0
 10
60.82024457
 20
18.06888349
  0
VERTEX
  8
0
 10
60.76850792
 20
18.09547244
  0
VERTEX
  8
0
 10
60.61995526
 20
17.93802608
  0
VERTEX
  8
0
 10
60.53355178
 20
17.86738367
  0
VERTEX
  8
0
 10
60.44468902
 20
17.83956693
  0
VERTEX
  8
0
 10
60.40671018
 20
18.02179921
  0
VERTEX
  8
0
 10
60.36904329
 20
18.10079392
  0
VERTEX
  8
0
 10
60.33610252
 20
18.12419566
  0
VERTEX
  8
0
 10
60.29016146
 20
18.13188976
  0
VERTEX
  8
0
 10
60.26074262
 20
18.07669207
  0
VERTEX
  8
0
 10
60.23858733
 20
18.01009245
  0
VERTEX
  8
0
 10
60.21519733
 20
17.94219722
  0
VERTEX
  8
0
 10
60.18207436
 20
17.88311269
  0
VERTEX
  8
0
 10
60.13072014
 20
17.84294518
  0
VERTEX
  8
0
 10
60.05263642
 20
17.83180099
  0
VERTEX
  8
0
 10
59.93932495
 20
17.85978645
  0
VERTEX
  8
0
 10
59.78228745
 20
17.93700787
  0
VERTEX
  8
0
 10
59.73264978
 20
17.97577726
  0
VERTEX
  8
0
 10
59.72178923
 20
18.01347748
  0
VERTEX
  8
0
 10
59.77993459
 20
18.11465649
  0
VERTEX
  8
0
 10
59.83070807
 20
18.19262833
  0
VERTEX
  8
0
 10
59.88379378
 20
18.29851710
  0
VERTEX
  8
0
 10
59.93007552
 20
18.43956931
  0
VERTEX
  8
0
 10
59.96043705
 20
18.62303149
  0
VERTEX
  8
0
 10
59.95645045
 20
18.79787480
  0
VERTEX
  8
0
 10
59.93620161
 20
18.83747059
  0
VERTEX
  8
0
 10
59.90557325
 20
18.85038496
  0
VERTEX
  8
0
 10
59.86590848
 20
18.84051979
  0
VERTEX
  8
0
 10
59.81855044
 20
18.81177696
  0
VERTEX
  8
0
 10
59.70612701
 20
18.71326574
  0
VERTEX
  8
0
 10
59.44805824
 20
18.46139357
  0
VERTEX
  8
0
 10
59.32390286
 20
18.37046255
  0
VERTEX
  8
0
 10
59.26774586
 20
18.34740485
  0
VERTEX
  8
0
 10
59.21732682
 20
18.34448819
  0
VERTEX
  8
0
 10
59.20551579
 20
18.36712598
  0
VERTEX
  8
0
 10
59.29621067
 20
18.51374975
  0
VERTEX
  8
0
 10
59.36883174
 20
18.63182480
  0
VERTEX
  8
0
 10
59.38295443
 20
18.70408264
  0
VERTEX
  8
0
 10
59.37406648
 20
18.79791461
  0
VERTEX
  8
0
 10
59.33600383
 20
18.92289114
  0
VERTEX
  8
0
 10
59.26260241
 20
19.08858267
  0
VERTEX
  8
0
 10
59.22480304
 20
19.14658320
  0
VERTEX
  8
0
 10
59.18378019
 20
19.17660307
  0
VERTEX
  8
0
 10
59.14020080
 20
19.18192290
  0
VERTEX
  8
0
 10
59.09473184
 20
19.16582332
  0
VERTEX
  8
0
 10
59.00079298
 20
19.08248846
  0
VERTEX
  8
0
 10
58.90729926
 20
18.95284350
  0
VERTEX
  8
0
 10
58.74298971
 20
18.65960334
  0
VERTEX
  8
0
 10
58.64448823
 20
18.49606299
  0
VERTEX
  8
0
 10
58.48926038
 20
18.53788318
  0
VERTEX
  8
0
 10
58.43722885
 20
18.53069155
  0
VERTEX
  8
0
 10
58.39824906
 20
18.50331742
  0
VERTEX
  8
0
 10
58.36931860
 20
18.45467477
  0
VERTEX
  8
0
 10
58.34743508
 20
18.38367759
  0
VERTEX
  8
0
 10
58.31279926
 20
18.17027559
  0
VERTEX
  8
0
 10
58.27011286
 20
18.02093110
  0
VERTEX
  8
0
 10
58.19705516
 20
17.93304232
  0
VERTEX
  8
0
 10
58.09894628
 20
17.85894734
  0
VERTEX
  8
0
 10
57.98110634
 20
17.75098425
  0
VERTEX
  8
0
 10
57.89953122
 20
17.67345454
  0
VERTEX
  8
0
 10
57.80926278
 20
17.60546333
  0
VERTEX
  8
0
 10
57.62699561
 20
17.47685137
  0
VERTEX
  8
0
 10
57.54717176
 20
17.40560808
  0
VERTEX
  8
0
 10
57.48300429
 20
17.32265821
  0
VERTEX
  8
0
 10
57.44058064
 20
17.22269051
  0
VERTEX
  8
0
 10
57.42598823
 20
17.10039370
  0
VERTEX
  8
0
 10
57.41290970
 20
16.99839060
  0
VERTEX
  8
0
 10
57.37511785
 20
16.89718091
  0
VERTEX
  8
0
 10
57.24629876
 20
16.70209891
  0
VERTEX
  8
0
 10
57.08134016
 20
16.52506194
  0
VERTEX
  8
0
 10
56.92205123
 20
16.37598425
  0
VERTEX
  8
0
 10
56.82977607
 20
16.32590059
  0
VERTEX
  8
0
 10
56.72305565
 20
16.29263287
  0
VERTEX
  8
0
 10
56.63217161
 20
16.24370817
  0
VERTEX
  8
0
 10
56.60213123
 20
16.20322665
  0
VERTEX
  8
0
 10
56.58740556
 20
16.14665354
  0
VERTEX
  8
0
 10
56.57232585
 20
16.08293806
  0
VERTEX
  8
0
 10
56.54073688
 20
16.02401921
  0
VERTEX
  8
0
 10
56.43962381
 20
15.91504521
  0
VERTEX
  8
0
 10
56.16680615
 20
15.69386860
  0
VERTEX
  8
0
 10
56.04147236
 20
15.55956120
  0
VERTEX
  8
0
 10
55.99171785
 20
15.48164230
  0
VERTEX
  8
0
 10
55.95443582
 20
15.39470454
  0
VERTEX
  8
0
 10
55.93252446
 20
15.29736636
  0
VERTEX
  8
0
 10
55.92888193
 20
15.18824622
  0
VERTEX
  8
0
 10
55.94640642
 20
15.06596257
  0
VERTEX
  8
0
 10
55.98799611
 20
14.92913385
  0
VERTEX
  8
0
 10
56.13648171
 20
14.58663213
  0
VERTEX
  8
0
 10
56.19194457
 20
14.51550396
  0
VERTEX
  8
0
 10
56.24695575
 20
14.49013779
  0
VERTEX
  8
0
 10
56.31056647
 20
14.49479376
  0
VERTEX
  8
0
 10
56.39182792
 20
14.51373203
  0
VERTEX
  8
0
 10
56.49979134
 20
14.53121275
  0
VERTEX
  8
0
 10
56.64350792
 20
14.53149606
  0
VERTEX
  8
0
 10
56.79979360
 20
14.49694863
  0
VERTEX
  8
0
 10
56.91625398
 20
14.46169439
  0
VERTEX
  8
0
 10
56.96721070
 20
14.46161944
  0
VERTEX
  8
0
 10
57.01740433
 20
14.48274846
  0
VERTEX
  8
0
 10
57.06989925
 20
14.53220834
  0
VERTEX
  8
0
 10
57.12775989
 20
14.61712598
  0
VERTEX
  8
0
 10
57.22621953
 20
14.49662198
  0
VERTEX
  8
0
 10
57.30906500
 20
14.34843553
  0
VERTEX
  8
0
 10
57.45551579
 20
14.05019685
  0
VERTEX
  8
0
 10
57.30513489
 20
13.92050639
  0
VERTEX
  8
0
 10
57.27722793
 20
13.88182336
  0
VERTEX
  8
0
 10
57.26864621
 20
13.84238798
  0
VERTEX
  8
0
 10
57.28711468
 20
13.80307615
  0
VERTEX
  8
0
 10
57.34035831
 20
13.76476378
  0
VERTEX
  8
0
 10
57.38251346
 20
13.75606353
  0
VERTEX
  8
0
 10
57.43109164
 20
13.76939628
  0
VERTEX
  8
0
 10
57.56830172
 20
13.84858661
  0
VERTEX
  8
0
 10
57.79355781
 20
13.97518639
  0
VERTEX
  8
0
 10
58.14842918
 20
14.12204724
  0
VERTEX
  8
0
 10
58.80855369
 20
14.34620275
  0
VERTEX
  8
0
 10
59.16851019
 20
14.45065354
  0
VERTEX
  8
0
 10
59.46338981
 20
14.50590551
  0
VERTEX
  8
0
 10
59.56933518
 20
14.14740502
  0
VERTEX
  8
0
 10
59.69465980
 20
13.80239573
  0
VERTEX
  8
0
 10
59.86239374
 20
13.43799606
  0
VERTEX
  8
0
 10
58.48110634
 20
13.43799212
  0
VERTEX
  8
0
 10
58.48110634
 20
12.72342519
  0
VERTEX
  8
0
 10
58.13858666
 20
13.10137795
  0
VERTEX
  8
0
 10
57.94738696
 20
13.25373471
  0
VERTEX
  8
0
 10
57.75060678
 20
13.37638733
  0
VERTEX
  8
0
 10
57.54967901
 20
13.47024324
  0
VERTEX
  8
0
 10
57.34603652
 20
13.53620989
  0
VERTEX
  8
0
 10
57.14111219
 20
13.57519471
  0
VERTEX
  8
0
 10
56.93633890
 20
13.58810516
  0
VERTEX
  8
0
 10
56.73314951
 20
13.57584866
  0
VERTEX
  8
0
 10
56.53297691
 20
13.53933267
  0
VERTEX
  8
0
 10
56.33725398
 20
13.47946463
  0
VERTEX
  8
0
 10
56.14741359
 20
13.39715197
  0
VERTEX
  8
0
 10
55.96488862
 20
13.29330214
  0
VERTEX
  8
0
 10
55.79111194
 20
13.16882258
  0
VERTEX
  8
0
 10
55.62751644
 20
13.02462074
  0
VERTEX
  8
0
 10
55.47553498
 20
12.86160405
  0
VERTEX
  8
0
 10
55.33660044
 20
12.68067996
  0
VERTEX
  8
0
 10
55.21214571
 20
12.48275590
  0
VERTEX
  8
0
 10
55.25294265
 20
13.36426697
  0
VERTEX
  8
0
 10
55.26129876
 20
14.24859645
  0
VERTEX
  8
0
 10
55.24783863
 20
16.01574803
  0
VERTEX
  8
0
 10
52.70059453
 20
16.01574803
  0
VERTEX
  8
0
 10
52.70059060
 20
13.58070866
  0
VERTEX
  8
0
 10
49.89350792
 20
13.58070866
  0
VERTEX
  8
0
 10
49.89350792
 20
10.81397637
  0
VERTEX
  8
0
 10
50.47027957
 20
10.81397637
  0
VERTEX
  8
0
 10
50.47027957
 20
7.54232283
  0
VERTEX
  8
0
 10
47.88858666
 20
13.58070866
  0
VERTEX
  8
0
 10
44.52441343
 20
13.58070866
  0
VERTEX
  8
0
 10
44.52441343
 20
10.81397637
  0
VERTEX
  8
0
 10
45.14645674
 20
10.81397637
  0
VERTEX
  8
0
 10
45.14645674
 20
4.79232283
  0
VERTEX
  8
0
 10
44.52441343
 20
4.79232283
  0
VERTEX
  8
0
 10
44.52441343
 20
2.16535433
  0
VERTEX
  8
0
 10
41.54887800
 20
2.16535433
  0
VERTEX
  8
0
 10
41.71491188
 20
2.24558491
  0
VERTEX
  8
0
 10
41.87148839
 20
2.34153126
  0
VERTEX
  8
0
 10
42.01873958
 20
2.45181844
  0
VERTEX
  8
0
 10
42.15679753
 20
2.57507148
  0
VERTEX
  8
0
 10
42.40586197
 20
2.85497531
  0
VERTEX
  8
0
 10
42.61973823
 20
3.17024311
  0
VERTEX
  8
0
 10
42.79948285
 20
3.50987520
  0
VERTEX
  8
0
 10
42.94615236
 20
3.86287192
  0
VERTEX
  8
0
 10
43.06080329
 20
4.21823362
  0
VERTEX
  8
0
 10
43.14449217
 20
4.56496063
  0
VERTEX
  8
0
 10
43.19424635
 20
4.85663031
  0
VERTEX
  8
0
 10
43.23527510
 20
5.19026416
  0
VERTEX
  8
0
 10
43.29420046
 20
5.95878531
  0
VERTEX
  8
0
 10
43.32735657
 20
6.82124598
  0
VERTEX
  8
0
 10
43.34083174
 20
7.72836811
  0
VERTEX
  8
0
 10
43.33309244
 20
9.47948437
  0
VERTEX
  8
0
 10
43.31968902
 20
10.81790945
  0
VERTEX
  8
0
 10
43.92992524
 20
10.81790945
  0
VERTEX
  8
0
 10
43.92992524
 20
13.58070866
  0
VERTEX
  8
0
 10
41.02638193
 20
13.58070866
  0
VERTEX
  8
0
 10
41.02638193
 20
10.81790945
  0
VERTEX
  8
0
 10
41.41417721
 20
10.81790945
  0
VERTEX
  8
0
 10
41.43590211
 20
8.16894783
  0
VERTEX
  8
0
 10
41.42671553
 20
6.73991400
  0
VERTEX
  8
0
 10
41.40651003
 20
6.11292798
  0
VERTEX
  8
0
 10
41.37185831
 20
5.58759842
  0
VERTEX
  8
0
 10
41.33816622
 20
5.34136986
  0
VERTEX
  8
0
 10
41.28753649
 20
5.13097757
  0
VERTEX
  8
0
 10
41.22219729
 20
4.95478443
  0
VERTEX
  8
0
 10
41.14437677
 20
4.81115329
  0
VERTEX
  8
0
 10
41.05630307
 20
4.69844701
  0
VERTEX
  8
0
 10
40.96020437
 20
4.61502845
  0
VERTEX
  8
0
 10
40.85830880
 20
4.55926046
  0
VERTEX
  8
0
 10
40.75284453
 20
4.52950590
  0
VERTEX
  8
0
 10
40.64603971
 20
4.52412764
  0
VERTEX
  8
0
 10
40.54012249
 20
4.54148852
  0
VERTEX
  8
0
 10
40.43732103
 20
4.57995142
  0
VERTEX
  8
0
 10
40.33986348
 20
4.63787918
  0
VERTEX
  8
0
 10
40.24997799
 20
4.71363467
  0
VERTEX
  8
0
 10
40.16989273
 20
4.80558074
  0
VERTEX
  8
0
 10
40.10183584
 20
4.91208025
  0
VERTEX
  8
0
 10
40.04803548
 20
5.03149606
  0
VERTEX
  8
0
 10
39.99835654
 20
5.21818250
  0
VERTEX
  8
0
 10
39.95736060
 20
5.47532308
  0
VERTEX
  8
0
 10
39.89839430
 20
6.16057332
  0
VERTEX
  8
0
 10
39.86508976
 20
7.00646013
  0
VERTEX
  8
0
 10
39.85140014
 20
7.93219685
  0
VERTEX
  8
0
 10
39.85867838
 20
9.70007332
  0
VERTEX
  8
0
 10
39.87185437
 20
10.81790945
  0
VERTEX
  8
0
 10
40.23701186
 20
10.81790945
  0
VERTEX
  8
0
 10
40.23701186
 20
13.58070866
  0
VERTEX
  8
0
 10
36.28228745
 20
13.58070866
  0
VERTEX
  8
0
 10
36.28228745
 20
10.81790945
  0
VERTEX
  8
0
 10
36.87579138
 20
10.81790945
  0
VERTEX
  8
0
 10
36.87579138
 20
7.12007874
  0
VERTEX
  8
0
 10
36.88759677
 20
6.49359549
  0
VERTEX
  8
0
 10
36.91872218
 20
5.79515299
  0
VERTEX
  8
0
 10
36.99044456
 20
5.06175123
  0
VERTEX
  8
0
 10
37.04817868
 20
4.69350315
  0
VERTEX
  8
0
 10
37.12404089
 20
4.33039025
  0
VERTEX
  8
0
 10
37.22069083
 20
3.97703755
  0
VERTEX
  8
0
 10
37.34078811
 20
3.63807006
  0
VERTEX
  8
0
 10
37.48699236
 20
3.31811276
  0
VERTEX
  8
0
 10
37.66196320
 20
3.02179066
  0
VERTEX
  8
0
 10
37.86836023
 20
2.75372876
  0
VERTEX
  8
0
 10
38.10884309
 20
2.51855208
  0
VERTEX
  8
0
 10
38.38607140
 20
2.32088560
  0
VERTEX
  8
0
 10
38.70270477
 20
2.16535433
  0
VERTEX
  8
0
 10
36.79999611
 20
2.16535433
  0
VERTEX
  8
0
 10
36.80000398
 20
4.79724409
  0
VERTEX
  8
0
 10
36.27933469
 20
4.79724409
  0
VERTEX
  8
0
 10
34.92205123
 20
10.81496063
  0
VERTEX
  8
0
 10
35.49390162
 20
10.81496063
  0
VERTEX
  8
0
 10
35.49390162
 20
13.58070866
  0
VERTEX
  8
0
 10
30.38858666
 20
13.58070866
  0
VERTEX
  8
0
 10
30.38858666
 20
10.81496063
  0
VERTEX
  8
0
 10
30.96043705
 20
10.81496063
  0
VERTEX
  8
0
 10
29.62874414
 20
4.79724409
  0
VERTEX
  8
0
 10
29.08740556
 20
4.79724409
  0
VERTEX
  8
0
 10
29.08740162
 20
3.80018110
  0
VERTEX
  8
0
 10
28.78237997
 20
3.79242519
  0
VERTEX
  8
0
 10
28.62343656
 20
3.81116978
  0
VERTEX
  8
0
 10
28.55567420
 20
3.83604275
  0
VERTEX
  8
0
 10
28.50079138
 20
3.87500000
  0
VERTEX
  8
0
 10
28.46513143
 20
3.93464334
  0
VERTEX
  8
0
 10
28.43456786
 20
4.03369054
  0
VERTEX
  8
0
 10
28.38692543
 20
4.32868971
  0
VERTEX
  8
0
 10
28.35425522
 20
4.71738389
  0
VERTEX
  8
0
 10
28.33294837
 20
5.15715945
  0
VERTEX
  8
0
 10
28.30998928
 20
6.01950024
  0
VERTEX
  8
0
 10
28.28917721
 20
6.57480315
  0
VERTEX
  8
0
 10
28.25007835
 20
6.89988422
  0
VERTEX
  8
0
 10
28.19778400
 20
7.18388502
  0
VERTEX
  8
0
 10
28.12379058
 20
7.43031007
  0
VERTEX
  8
0
 10
28.01959453
 20
7.64266387
  0
VERTEX
  8
0
 10
27.87669228
 20
7.82445093
  0
VERTEX
  8
0
 10
27.68658026
 20
7.97917575
  0
VERTEX
  8
0
 10
27.44075490
 20
8.11034283
  0
VERTEX
  8
0
 10
27.13071264
 20
8.22145669
  0
VERTEX
  8
0
 10
27.45370222
 20
8.38548944
  0
VERTEX
  8
0
 10
27.73236010
 20
8.57335919
  0
VERTEX
  8
0
 10
27.96881100
 20
8.78648303
  0
VERTEX
  8
0
 10
28.16517967
 20
9.02627805
  0
VERTEX
  8
0
 10
28.32359085
 20
9.29416134
  0
VERTEX
  8
0
 10
28.44616927
 20
9.59155001
  0
VERTEX
  8
0
 10
28.53503968
 20
9.91986113
  0
VERTEX
  8
0
 10
28.59232682
 20
10.28051181
  0
VERTEX
  8
0
 10
28.61575697
 20
10.55604036
  0
VERTEX
  8
0
 10
28.62394575
 20
10.83107975
  0
VERTEX
  8
0
 10
28.61606594
 20
11.10369073
  0
VERTEX
  8
0
 10
28.59129034
 20
11.37193405
  0
VERTEX
  8
0
 10
28.54879171
 20
11.63387047
  0
VERTEX
  8
0
 10
28.48774285
 20
11.88756074
  0
VERTEX
  8
0
 10
28.40731655
 20
12.13106562
  0
VERTEX
  8
0
 10
28.30668558
 20
12.36244586
  0
VERTEX
  8
0
 10
28.18502272
 20
12.57976222
  0
VERTEX
  8
0
 10
28.04150077
 20
12.78107545
  0
VERTEX
  8
0
 10
27.87529251
 20
12.96444630
  0
VERTEX
  8
0
 10
27.68557073
 20
13.12793553
  0
VERTEX
  8
0
 10
27.47150819
 20
13.26960389
  0
VERTEX
  8
0
 10
27.23227770
 20
13.38751215
  0
VERTEX
  8
0
 10
26.96705204
 20
13.47972104
  0
VERTEX
  8
0
 10
26.67500398
 20
13.54429133
  0
VERTEX
  8
0
 10
26.33248734
 20
13.57979080
  0
VERTEX
  8
0
 10
25.86650177
 20
13.60057788
  0
VERTEX
  8
0
 10
24.72043902
 20
13.61031791
  0
VERTEX
  8
0
 10
22.66615359
 20
13.58858267
  0
VERTEX
  8
0
 10
23.00559109
 20
13.79015698
  0
VERTEX
  8
0
 10
23.13601659
 20
13.90054706
  0
VERTEX
  8
0
 10
23.28031894
 20
14.06358661
  0
VERTEX
  8
0
 10
22.30295674
 20
14.16299606
  0
VERTEX
  8
0
 10
22.16024020
 20
14.00453149
  0
VERTEX
  8
0
 10
22.08604203
 20
13.96953730
  0
VERTEX
  8
0
 10
21.99923061
 20
13.94785648
  0
VERTEX
  8
0
 10
21.90556916
 20
13.94516068
  0
VERTEX
  8
0
 10
21.81082091
 20
13.96712155
  0
VERTEX
  8
0
 10
21.72074909
 20
14.01941073
  0
VERTEX
  8
0
 10
21.64111692
 20
14.10769986
  0
VERTEX
  8
0
 10
21.57768764
 20
14.23766059
  0
VERTEX
  8
0
 10
21.53622445
 20
14.41496456
  0
VERTEX
  8
0
 10
23.33445280
 20
14.41496456
  0
VERTEX
  8
0
 10
23.29803548
 20
14.67677559
  0
VERTEX
  8
0
 10
23.25719888
 20
14.80267624
  0
VERTEX
  8
0
 10
23.20157537
 20
14.91809193
  0
VERTEX
  8
0
 10
23.13233605
 20
15.02315498
  0
VERTEX
  8
0
 10
23.05065202
 20
15.11799771
  0
VERTEX
  8
0
 10
22.85463423
 20
15.27755158
  0
VERTEX
  8
0
 10
22.62289080
 20
15.39781219
  0
VERTEX
  8
0
 10
22.36479051
 20
15.47983818
  0
VERTEX
  8
0
 10
22.08970218
 20
15.52468821
  0
VERTEX
  8
0
 10
21.80699458
 20
15.53342093
  0
VERTEX
  8
0
 10
21.52603651
 20
15.50709498
  0
VERTEX
  8
0
 10
21.25619678
 20
15.44676901
  0
VERTEX
  8
0
 10
21.00684417
 20
15.35350168
  0
VERTEX
  8
0
 10
20.78734749
 20
15.22835163
  0
VERTEX
  8
0
 10
20.60707551
 20
15.07237752
  0
VERTEX
  8
0
 10
20.53457655
 20
14.98316226
  0
VERTEX
  8
0
 10
20.47539705
 20
14.88663799
  0
VERTEX
  8
0
 10
20.43070814
 20
14.78293702
  0
VERTEX
  8
0
 10
20.40168090
 20
14.67219169
  0
VERTEX
  8
0
 10
20.38948644
 20
14.55453433
  0
VERTEX
  8
0
 10
20.39529585
 20
14.43009727
  0
VERTEX
  8
0
 10
20.42028024
 20
14.29901284
  0
VERTEX
  8
0
 10
20.46561070
 20
14.16141338
  0
VERTEX
  8
0
 10
20.46556697
 20
14.16141338
  0
VERTEX
  8
0
 10
20.37934256
 20
14.16141338
  0
VERTEX
  8
0
 10
20.29311422
 20
14.16141338
  0
VERTEX
  8
0
 10
20.29765740
 20
14.43941892
  0
VERTEX
  8
0
 10
20.28825103
 20
14.76483169
  0
VERTEX
  8
0
 10
20.26751867
 20
14.92595332
  0
VERTEX
  8
0
 10
20.23034121
 20
15.07569180
  0
VERTEX
  8
0
 10
20.17239942
 20
15.20630215
  0
VERTEX
  8
0
 10
20.08937406
 20
15.31003937
  0
VERTEX
  8
0
 10
19.93052816
 20
15.42153242
  0
VERTEX
  8
0
 10
19.76287381
 20
15.48348603
  0
VERTEX
  8
0
 10
19.58930547
 20
15.50345930
  0
VERTEX
  8
0
 10
19.41271756
 20
15.48901132
  0
VERTEX
  8
0
 10
19.23600453
 20
15.44770119
  0
VERTEX
  8
0
 10
19.06206082
 20
15.38708803
  0
VERTEX
  8
0
 10
18.73405910
 20
15.23818897
  0
VERTEX
  8
0
 10
18.73405910
 20
16.29724409
  0
VERTEX
  8
0
 10
17.45157878
 20
16.29724409
  0
VERTEX
  8
0
 10
17.45157878
 20
15.69685039
  0
VERTEX
  8
0
 10
17.71043705
 20
15.69685039
  0
VERTEX
  8
0
 10
17.71043705
 20
14.16141338
  0
VERTEX
  8
0
 10
17.45157878
 20
14.16141338
  0
VERTEX
  8
0
 10
17.44859060
 20
13.56102362
  0
VERTEX
  8
0
 10
16.68287800
 20
13.57574409
  0
VERTEX
  8
0
 10
16.68287800
 20
14.23125196
  0
VERTEX
  8
0
 10
16.41024020
 20
14.23125196
  0
VERTEX
  8
0
 10
16.41024020
 20
15.65645275
  0
VERTEX
  8
0
 10
16.76358666
 20
15.65645275
  0
VERTEX
  8
0
 10
16.76358666
 20
15.15940551
  0
VERTEX
  8
0
 10
17.34232682
 20
15.15940551
  0
VERTEX
  8
0
 10
17.34232682
 20
16.31196456
  0
VERTEX
  8
0
 10
14.28228745
 20
16.31196456
  0
VERTEX
  8
0
 10
14.27592086
 20
15.53931892
  0
VERTEX
  8
0
 10
14.23220770
 20
15.50192980
  0
VERTEX
  8
0
 10
14.18016916
 20
15.42057266
  0
VERTEX
  8
0
 10
14.03941805
 20
15.17201935
  0
VERTEX
  8
0
 10
13.94485656
 20
15.02785570
  0
VERTEX
  8
0
 10
13.83027181
 20
14.88578905
  0
VERTEX
  8
0
 10
13.69273934
 20
14.75733567
  0
VERTEX
  8
0
 10
13.52933469
 20
14.65401181
  0
VERTEX
  8
0
 10
13.52146067
 20
14.66779133
  0
VERTEX
  8
0
 10
13.64665646
 20
14.86566454
  0
VERTEX
  8
0
 10
13.75685696
 20
15.07319279
  0
VERTEX
  8
0
 10
13.84578746
 20
15.28835520
  0
VERTEX
  8
0
 10
13.90717327
 20
15.50913090
  0
VERTEX
  8
0
 10
13.93473969
 20
15.73349900
  0
VERTEX
  8
0
 10
13.92221203
 20
15.95943860
  0
VERTEX
  8
0
 10
13.86331557
 20
16.18492884
  0
VERTEX
  8
0
 10
13.75177563
 20
16.40794882
  0
VERTEX
  8
0
 10
13.66550201
 20
16.49098720
  0
VERTEX
  8
0
 10
13.60992487
 20
16.51384830
  0
VERTEX
  8
0
 10
13.55394099
 20
16.51326378
  0
VERTEX
  8
0
 10
13.55054441
 20
16.43799960
  0
VERTEX
  8
0
 10
13.56750460
 20
16.29601261
  0
VERTEX
  8
0
 10
13.61205221
 20
15.88800049
  0
VERTEX
  8
0
 10
13.61441812
 20
15.66004054
  0
VERTEX
  8
0
 10
13.58669776
 20
15.44148812
  0
VERTEX
  8
0
 10
13.55761436
 20
15.34168742
  0
VERTEX
  8
0
 10
13.51628036
 20
15.25137582
  0
VERTEX
  8
0
 10
13.46111941
 20
15.17293239
  0
VERTEX
  8
0
 10
13.39055516
 20
15.10873622
  0
VERTEX
  8
0
 10
13.35104815
 20
15.17005505
  0
VERTEX
  8
0
 10
13.33086619
 20
15.23828887
  0
VERTEX
  8
0
 10
13.30115863
 20
15.29661841
  0
VERTEX
  8
0
 10
13.23307485
 20
15.32822441
  0
VERTEX
  8
0
 10
13.17973171
 20
15.26246325
  0
VERTEX
  8
0
 10
13.15984035
 20
15.19177712
  0
VERTEX
  8
0
 10
13.15544788
 20
15.04038336
  0
VERTEX
  8
0
 10
13.13846424
 20
14.96205242
  0
VERTEX
  8
0
 10
13.08996732
 20
14.88354989
  0
VERTEX
  8
0
 10
12.99371584
 20
14.80606412
  0
VERTEX
  8
0
 10
12.83346855
 20
14.73078346
  0
VERTEX
  8
0
 10
12.40647987
 20
14.58514271
  0
VERTEX
  8
0
 10
12.16271996
 20
14.51885162
  0
VERTEX
  8
0
 10
11.98701186
 20
14.49653149
  0
VERTEX
  8
0
 10
12.01063501
 20
14.62342409
  0
VERTEX
  8
0
 10
12.08523233
 20
14.87024212
  0
VERTEX
  8
0
 10
12.16534539
 20
15.14255721
  0
VERTEX
  8
0
 10
12.20551579
 20
15.34594094
  0
VERTEX
  8
0
 10
12.18980153
 20
15.53241627
  0
VERTEX
  8
0
 10
12.13879187
 20
15.76298179
  0
VERTEX
  8
0
 10
12.10228302
 20
15.85084463
  0
VERTEX
  8
0
 10
12.05962843
 20
15.89698554
  0
VERTEX
  8
0
 10
12.03627544
 20
15.89891605
  0
VERTEX
  8
0
 10
12.01172079
 20
15.88382302
  0
VERTEX
  8
0
 10
11.95945280
 20
15.79377559
  0
VERTEX
  8
0
 10
11.88947470
 20
15.49043891
  0
VERTEX
  8
0
 10
11.84255412
 20
15.26814570
  0
VERTEX
  8
0
 10
11.77975103
 20
15.02911171
  0
VERTEX
  8
0
 10
11.69511932
 20
14.79609377
  0
VERTEX
  8
0
 10
11.58271289
 20
14.59184873
  0
VERTEX
  8
0
 10
11.51423599
 20
14.50762756
  0
VERTEX
  8
0
 10
11.43658561
 20
14.43913343
  0
VERTEX
  8
0
 10
11.34901850
 20
14.38921095
  0
VERTEX
  8
0
 10
11.25079138
 20
14.36070472
  0
VERTEX
  8
0
 10
10.99891435
 20
14.32595257
  0
VERTEX
  8
0
 10
10.79650447
 20
14.32675049
  0
VERTEX
  8
0
 10
10.70462824
 20
14.34613399
  0
VERTEX
  8
0
 10
10.61405301
 20
14.38118891
  0
VERTEX
  8
0
 10
10.42205123
 20
14.50735826
  0
VERTEX
  8
0
 10
10.31019380
 20
14.62970254
  0
VERTEX
  8
0
 10
10.23494899
 20
14.77823277
  0
VERTEX
  8
0
 10
10.19536110
 20
14.94360996
  0
VERTEX
  8
0
 10
10.19047445
 20
15.11649508
  0
VERTEX
  8
0
 10
10.21933338
 20
15.28754912
  0
VERTEX
  8
0
 10
10.28098220
 20
15.44743307
  0
VERTEX
  8
0
 10
10.37446524
 20
15.58680791
  0
VERTEX
  8
0
 10
10.49882682
 20
15.69633464
  0
VERTEX
  8
0
 10
10.73846270
 20
15.83852087
  0
VERTEX
  8
0
 10
10.96013809
 20
15.95242679
  0
VERTEX
  8
0
 10
11.16369794
 20
16.05819142
  0
VERTEX
  8
0
 10
11.34898725
 20
16.17595374
  0
VERTEX
  8
0
 10
11.51585099
 20
16.32585274
  0
VERTEX
  8
0
 10
11.66413415
 20
16.52802743
  0
VERTEX
  8
0
 10
11.79368170
 20
16.80261680
  0
VERTEX
  8
0
 10
11.90433863
 20
17.16975984
  0
VERTEX
  8
0
 10
11.93070077
 20
17.30092279
  0
VERTEX
  8
0
 10
11.94569739
 20
17.46945915
  0
VERTEX
  8
0
 10
11.94048632
 20
17.55198859
  0
VERTEX
  8
0
 10
11.92229710
 20
17.62495687
  0
VERTEX
  8
0
 10
11.88775082
 20
17.68206249
  0
VERTEX
  8
0
 10
11.83346855
 20
17.71700393
  0
VERTEX
  8
0
 10
11.78817078
 20
17.67843583
  0
VERTEX
  8
0
 10
11.74883165
 20
17.62073386
  0
VERTEX
  8
0
 10
11.67888200
 20
17.45756526
  0
VERTEX
  8
0
 10
11.60532490
 20
17.24677213
  0
VERTEX
  8
0
 10
11.50986569
 20
17.00762844
  0
VERTEX
  8
0
 10
11.37420970
 20
16.75940816
  0
VERTEX
  8
0
 10
11.28559082
 20
16.63791742
  0
VERTEX
  8
0
 10
11.18006224
 20
16.52138527
  0
VERTEX
  8
0
 10
11.05533712
 20
16.41222096
  0
VERTEX
  8
0
 10
10.90912863
 20
16.31283374
  0
VERTEX
  8
0
 10
10.73914995
 20
16.22563286
  0
VERTEX
  8
0
 10
10.54311422
 20
16.15302756
  0
VERTEX
  8
0
 10
10.43113250
 20
16.12916433
  0
VERTEX
  8
0
 10
10.33817733
 20
16.13123308
  0
VERTEX
  8
0
 10
10.26223391
 20
16.15705315
  0
VERTEX
  8
0
 10
10.20128745
 20
16.20444389
  0
VERTEX
  8
0
 10
10.15332314
 20
16.27122464
  0
VERTEX
  8
0
 10
10.11632620
 20
16.35521475
  0
VERTEX
  8
0
 10
10.06717524
 20
16.56610039
  0
VERTEX
  8
0
 10
10.01183075
 20
17.09843504
  0
VERTEX
  8
0
 10
9.97340051
 20
17.38499354
  0
VERTEX
  8
0
 10
9.90630713
 20
17.66188582
  0
VERTEX
  8
0
 10
9.75051592
 20
18.11559184
  0
VERTEX
  8
0
 10
9.69578362
 20
18.29761844
  0
VERTEX
  8
0
 10
9.66379630
 20
18.46678297
  0
VERTEX
  8
0
 10
9.66003106
 20
18.63585209
  0
VERTEX
  8
0
 10
9.68996498
 20
18.81759245
  0
VERTEX
  8
0
 10
9.75907514
 20
19.02477072
  0
VERTEX
  8
0
 10
9.87283863
 20
19.27015354
  0
VERTEX
  8
0
 10
10.08309047
 20
19.66755056
  0
VERTEX
  8
0
 10
10.23437209
 20
19.97730315
  0
VERTEX
  8
0
 10
10.29220663
 20
20.13201293
  0
VERTEX
  8
0
 10
10.34046769
 20
20.30405179
  0
VERTEX
  8
0
 10
10.41516146
 20
20.75243700
  0
VERTEX
  8
0
 10
10.46944099
 20
21.50023819
  0
VERTEX
  8
0
 10
10.49531328
 20
21.98108538
  0
VERTEX
  8
0
 10
10.49587012
 20
22.23964173
  0
VERTEX
  8
0
 10
10.43878351
 20
22.26535862
  0
VERTEX
  8
0
 10
10.36358553
 20
22.21973514
  0
VERTEX
  8
0
 10
10.30120810
 20
22.15067456
  0
VERTEX
  8
0
 10
10.24984852
 20
22.06060584
  0
VERTEX
  8
0
 10
10.20770409
 20
21.95195795
  0
VERTEX
  8
0
 10
10.14384991
 20
21.68864042
  0
VERTEX
  8
0
 10
10.09522396
 20
21.38015358
  0
VERTEX
  8
0
 10
10.04740467
 20
21.04592907
  0
VERTEX
  8
0
 10
9.98597045
 20
20.70539850
  0
VERTEX
  8
0
 10
9.89649973
 20
20.37799349
  0
VERTEX
  8
0
 10
9.83674393
 20
20.22528545
  0
VERTEX
  8
0
 10
9.76457091
 20
20.08314567
  0
VERTEX
  8
0
 10
9.42008272
 20
19.55066535
  0
VERTEX
  8
0
 10
9.27777271
 20
19.26932042
  0
VERTEX
  8
0
 10
9.16900250
 20
19.03551291
  0
VERTEX
  8
0
 10
9.07001921
 20
18.85315220
  0
VERTEX
  8
0
 10
9.01677487
 20
18.78248606
  0
VERTEX
  8
0
 10
8.95706993
 20
18.72614763
  0
VERTEX
  8
0
 10
8.88793526
 20
18.68462558
  0
VERTEX
  8
0
 10
8.80640177
 20
18.65840857
  0
VERTEX
  8
0
 10
8.70950034
 20
18.64798527
  0
VERTEX
  8
0
 10
8.59426186
 20
18.65384436
  0
VERTEX
  8
0
 10
8.29689728
 20
18.71636437
  0
VERTEX
  8
0
 10
7.89055516
 20
18.84987795
  0
VERTEX
  8
0
 10
7.69997338
 20
18.93960350
  0
VERTEX
  8
0
 10
7.52352957
 20
19.06026827
  0
VERTEX
  8
0
 10
7.36507026
 20
19.20314670
  0
VERTEX
  8
0
 10
7.22844197
 20
19.35951328
  0
VERTEX
  8
0
 10
7.11749122
 20
19.52064247
  0
VERTEX
  8
0
 10
7.03606451
 20
19.67780874
  0
VERTEX
  8
0
 10
6.98800838
 20
19.82228656
  0
VERTEX
  8
0
 10
6.97716934
 20
19.94535039
  0
VERTEX
  8
0
 10
7.00951647
 20
20.24282105
  0
VERTEX
  8
0
 10
7.05213439
 20
20.80126328
  0
VERTEX
  8
0
 10
7.05645110
 20
21.07824697
  0
VERTEX
  8
0
 10
7.03832294
 20
21.30035144
  0
VERTEX
  8
0
 10
7.01823656
 20
21.37831123
  0
VERTEX
  8
0
 10
6.98941239
 20
21.42753596
  0
VERTEX
  8
0
 10
6.95080825
 20
21.44302052
  0
VERTEX
  8
0
 10
6.90138193
 20
21.41975984
  0
VERTEX
  8
0
 10
6.86817447
 20
21.35878255
  0
VERTEX
  8
0
 10
6.83743976
 20
21.24219574
  0
VERTEX
  8
0
 10
6.77963193
 20
20.90543897
  0
VERTEX
  8
0
 10
6.72044517
 20
20.53598043
  0
VERTEX
  8
0
 10
6.65236619
 20
20.26031102
  0
VERTEX
  8
0
 10
6.61988587
 20
20.24751574
  0
VERTEX
  8
0
 10
6.56344982
 20
20.33146386
  0
VERTEX
  8
0
 10
6.52760462
 20
20.44735728
  0
VERTEX
  8
0
 10
6.48295280
 20
20.72315846
  0
VERTEX
  8
0
 10
6.45677917
 20
20.85715542
  0
VERTEX
  8
0
 10
6.41646240
 20
20.97127608
  0
VERTEX
  8
0
 10
6.35331897
 20
21.05256505
  0
VERTEX
  8
0
 10
6.31047367
 20
21.07684909
  0
VERTEX
  8
0
 10
6.25866540
 20
21.08806693
  0
VERTEX
  8
0
 10
6.20351076
 20
21.00863258
  0
VERTEX
  8
0
 10
6.17160991
 20
20.89762930
  0
VERTEX
  8
0
 10
6.15949640
 20
20.76484189
  0
VERTEX
  8
0
 10
6.16370378
 20
20.62005511
  0
VERTEX
  8
0
 10
6.20721547
 20
20.33362266
  0
VERTEX
  8
0
 10
6.27441343
 20
20.11661023
  0
VERTEX
  8
0
 10
6.36641638
 20
19.92631250
  0
VERTEX
  8
0
 10
6.41930713
 20
19.78943307
  0
VERTEX
  8
0
 10
6.42489756
 20
19.72424157
  0
VERTEX
  8
0
 10
6.41328449
 20
19.65226427
  0
VERTEX
  8
0
 10
6.32854729
 20
19.46109842
  0
VERTEX
  8
0
 10
6.19681357
 20
19.23502034
  0
VERTEX
  8
0
 10
6.09215027
 20
19.08523289
  0
VERTEX
  8
0
 10
6.00129866
 20
18.99328569
  0
VERTEX
  8
0
 10
5.91100004
 20
18.94072834
  0
VERTEX
  8
0
 10
5.67902699
 20
18.87998166
  0
VERTEX
  8
0
 10
5.51083514
 20
18.83489156
  0
VERTEX
  8
0
 10
5.29016146
 20
18.75538976
  0
VERTEX
  8
0
 10
4.17500398
 20
18.26424803
  0
VERTEX
  8
0
 10
4.05430356
 20
18.22772238
  0
VERTEX
  8
0
 10
3.85216245
 20
18.15512254
  0
VERTEX
  8
0
 10
3.76315043
 20
18.11024285
  0
VERTEX
  8
0
 10
3.70489682
 20
18.06228229
  0
VERTEX
  8
0
 10
3.69444113
 20
18.01322008
  0
VERTEX
  8
0
 10
3.74882288
 20
17.96503543
  0
VERTEX
  8
0
 10
3.82580729
 20
17.94133514
  0
VERTEX
  8
0
 10
3.92256741
 20
17.93590172
  0
VERTEX
  8
0
 10
4.16328382
 20
17.97007154
  0
VERTEX
  8
0
 10
4.44671008
 20
18.04801698
  0
VERTEX
  8
0
 10
4.74858420
 20
18.15021013
  0
VERTEX
  8
0
 10
5.31062794
 20
18.34922791
  0
VERTEX
  8
0
 10
5.52227354
 20
18.40699671
  0
VERTEX
  8
0
 10
5.60013764
 20
18.41690263
  0
VERTEX
  8
0
 10
5.65531894
 20
18.41090157
  0
VERTEX
  8
0
 10
5.61461139
 20
18.31550326
  0
VERTEX
  8
0
 10
5.52356304
 20
18.15912647
  0
VERTEX
  8
0
 10
5.35807485
 20
17.87743700
  0
VERTEX
  8
0
 10
5.18755147
 20
17.50953894
  0
VERTEX
  8
0
 10
5.08899666
 20
17.35978994
  0
VERTEX
  8
0
 10
4.96432583
 20
17.24869340
  0
VERTEX
  8
0
 10
4.88815302
 20
17.21135521
  0
VERTEX
  8
0
 10
4.80059853
 20
17.18813863
  0
VERTEX
  8
0
 10
4.70004481
 20
17.18052982
  0
VERTEX
  8
0
 10
4.58487431
 20
17.19001494
  0
VERTEX
  8
0
 10
4.45346946
 20
17.21808017
  0
VERTEX
  8
0
 10
4.30421270
 20
17.26621166
  0
VERTEX
  8
0
 10
3.94567327
 20
17.42861811
  0
VERTEX
  8
0
 10
3.75142652
 20
17.54326359
  0
VERTEX
  8
0
 10
3.59135875
 20
17.66565413
  0
VERTEX
  8
0
 10
3.46256040
 20
17.79552969
  0
VERTEX
  8
0
 10
3.36212191
 20
17.93263023
  0
VERTEX
  8
0
 10
3.28713370
 20
18.07669569
  0
VERTEX
  8
0
 10
3.23468621
 20
18.22746603
  0
VERTEX
  8
0
 10
3.20186988
 20
18.38468122
  0
VERTEX
  8
0
 10
3.18577514
 20
18.54808120
  0
VERTEX
  8
0
 10
3.19211216
 20
18.89239537
  0
VERTEX
  8
0
 10
3.23042075
 20
19.25832818
  0
VERTEX
  8
0
 10
3.27742437
 20
19.64379929
  0
VERTEX
  8
0
 10
3.30984650
 20
20.04672834
  0
VERTEX
  8
0
 10
3.29790851
 20
20.25681637
  0
VERTEX
  8
0
 10
3.25307386
 20
20.42540009
  0
VERTEX
  8
0
 10
3.22247676
 20
20.47607393
  0
VERTEX
  8
0
 10
3.18864325
 20
20.49470700
  0
VERTEX
  8
0
 10
3.15323593
 20
20.47407773
  0
VERTEX
  8
0
 10
3.11791737
 20
20.40696456
  0
VERTEX
  8
0
 10
3.04916189
 20
20.08391498
  0
VERTEX
  8
0
 10
2.94929581
 20
19.48662303
  0
VERTEX
  8
0
 10
2.86139799
 20
18.86155893
  0
VERTEX
  8
0
 10
2.82854729
 20
18.45519291
  0
VERTEX
  8
0
 10
2.84483248
 20
18.33582826
  0
VERTEX
  8
0
 10
2.87764947
 20
18.19878039
  0
VERTEX
  8
0
 10
2.95100152
 20
17.90497637
  0
VERTEX
  8
0
 10
2.97059795
 20
17.76489094
  0
VERTEX
  8
0
 10
2.96484890
 20
17.64046370
  0
VERTEX
  8
0
 10
2.92328504
 20
17.54003000
  0
VERTEX
  8
0
 10
2.88580089
 20
17.50141553
  0
VERTEX
  8
0
 10
2.83543705
 20
17.47192519
  0
VERTEX
  8
0
 10
2.53360191
 20
17.36095374
  0
VERTEX
  8
0
 10
2.38438901
 20
17.30342655
  0
VERTEX
  8
0
 10
2.23898036
 20
17.23078346
  0
VERTEX
  8
0
 10
1.98134515
 20
17.06481846
  0
VERTEX
  8
0
 10
1.72924709
 20
16.88738238
  0
VERTEX
  8
0
 10
1.47340346
 20
16.71629250
  0
VERTEX
  8
0
 10
1.20453154
 20
16.56936614
  0
VERTEX
  8
0
 10
0.99779243
 20
16.49700627
  0
VERTEX
  8
0
 10
0.55659306
 20
16.32395669
  0
VERTEX
  8
0
 10
0.32907605
 20
16.21896421
  0
VERTEX
  8
0
 10
0.14015033
 20
16.11194845
  0
VERTEX
  8
0
 10
0.02221799
 20
16.01062578
  0
VERTEX
  8
0
 10
-0.00000000
 20
15.96451073
  0
VERTEX
  8
0
 10
0.00768115
 20
15.92271259
  0
VERTEX
  8
0
 10
0.06267689
 20
15.88261748
  0
VERTEX
  8
0
 10
0.14585333
 20
15.87985543
  0
VERTEX
  8
0
 10
0.24770733
 20
15.90509087
  0
VERTEX
  8
0
 10
0.35873577
 20
15.94898819
  0
VERTEX
  8
0
 10
0.70453154
 20
16.12448425
  0
VERTEX
  8
0
 10
1.13693459
 20
16.25052756
  0
VERTEX
  8
0
 10
1.35306580
 20
16.31326168
  0
VERTEX
  8
0
 10
1.56378351
 20
16.39416929
  0
VERTEX
  8
0
 10
2.19745575
 20
16.72278297
  0
VERTEX
  8
0
 10
2.38626182
 20
16.80878062
  0
VERTEX
  8
0
 10
2.56775743
 20
16.87678598
  0
VERTEX
  8
0
 10
2.73220972
 20
16.91703405
  0
VERTEX
  8
0
 10
2.86988587
 20
16.91975984
  0
VERTEX
  8
0
 10
3.07681950
 20
16.86211251
  0
VERTEX
  8
0
 10
3.34030467
 20
16.76677805
  0
VERTEX
  8
0
 10
3.64638556
 20
16.66697976
  0
VERTEX
  8
0
 10
3.98110634
 20
16.59594094
  0
VERTEX
  8
0
 10
4.61843607
 20
16.50240145
  0
VERTEX
  8
0
 10
4.79855006
 20
16.45243354
  0
VERTEX
  8
0
 10
4.92937997
 20
16.38160433
  0
VERTEX
  8
0
 10
5.04323817
 20
16.27586689
  0
VERTEX
  8
0
 10
5.17243705
 20
16.12117433
  0
VERTEX
  8
0
 10
5.34928898
 20
15.90347974
  0
VERTEX
  8
0
 10
5.60610634
 20
15.60873622
  0
VERTEX
  8
0
 10
5.83095249
 20
15.38694346
  0
VERTEX
  8
0
 10
6.06962160
 20
15.17991191
  0
VERTEX
  8
0
 10
6.30783229
 20
14.97247951
  0
VERTEX
  8
0
 10
6.53130319
 20
14.74948425
  0
VERTEX
  8
0
 10
6.90012119
 20
14.36645369
  0
VERTEX
  8
0
 10
7.20271898
 20
14.11290858
  0
VERTEX
  8
0
 10
7.46546185
 20
13.95724161
  0
VERTEX
  8
0
 10
7.71471510
 20
13.86784547
  0
VERTEX
  8
0
 10
7.97684403
 20
13.81311283
  0
VERTEX
  8
0
 10
8.27821393
 20
13.76143639
  0
VERTEX
  8
0
 10
8.64519010
 20
13.68120883
  0
VERTEX
  8
0
 10
9.10413784
 20
13.54082283
  0
VERTEX
  8
0
 10
9.25240457
 20
13.48785088
  0
VERTEX
  8
0
 10
9.32460573
 20
13.45302356
  0
VERTEX
  8
0
 10
9.38464965
 20
13.40893307
  0
VERTEX
  8
0
 10
9.21507762
 20
13.34916400
  0
VERTEX
  8
0
 10
8.81524266
 20
13.22934842
  0
VERTEX
  8
0
 10
8.32338876
 20
13.11197182
  0
VERTEX
  8
0
 10
8.08615595
 20
13.07372485
  0
VERTEX
  8
0
 10
7.87775989
 20
13.05951968
  0
VERTEX
  8
0
 10
7.45811782
 20
13.08428475
  0
VERTEX
  8
0
 10
7.29235870
 20
13.11301047
  0
VERTEX
  8
0
 10
7.15066152
 20
13.15137131
  0
VERTEX
  8
0
 10
6.92351511
 20
13.25321733
  0
VERTEX
  8
0
 10
6.74480270
 20
13.38226082
  0
VERTEX
  8
0
 10
6.40517641
 20
13.69169217
  0
VERTEX
  8
0
 10
6.18051077
 20
13.85695601
  0
VERTEX
  8
0
 10
5.87677563
 20
14.01916929
  0
VERTEX
  8
0
 10
5.80105485
 20
14.04142815
  0
VERTEX
  8
0
 10
5.72512554
 20
14.04977067
  0
VERTEX
  8
0
 10
5.64923387
 20
14.05782234
  0
VERTEX
  8
0
 10
5.57362603
 20
14.07920866
  0
VERTEX
  8
0
 10
5.37695809
 20
14.15688472
  0
VERTEX
  8
0
 10
5.11846461
 20
14.23629330
  0
VERTEX
  8
0
 10
4.98588343
 20
14.26324940
  0
VERTEX
  8
0
 10
4.86166601
 20
14.27456114
  0
VERTEX
  8
0
 10
4.75375243
 20
14.26486938
  0
VERTEX
  8
0
 10
4.67008272
 20
14.22881496
  0
VERTEX
  8
0
 10
4.53905172
 20
14.13938927
  0
VERTEX
  8
0
 10
4.49742567
 20
14.14315495
  0
VERTEX
  8
0
 10
4.36102760
 20
14.11956299
  0
VERTEX
  8
0
 10
4.16205387
 20
14.04347447
  0
VERTEX
  8
0
 10
3.93138046
 20
13.92393651
  0
VERTEX
  8
0
 10
3.69825700
 20
13.79566652
  0
VERTEX
  8
0
 10
3.49193311
 20
13.69338189
  0
VERTEX
  8
0
 10
3.37240119
 20
13.66191332
  0
VERTEX
  8
0
 10
3.24285979
 20
13.63440403
  0
VERTEX
  8
0
 10
3.18600780
 20
13.61288772
  0
VERTEX
  8
0
 10
3.14066017
 20
13.58126556
  0
VERTEX
  8
0
 10
3.11148580
 20
13.53583899
  0
VERTEX
  8
0
 10
3.10315359
 20
13.47290945
  0
VERTEX
  8
0
 10
2.87016441
 20
13.27735826
  0
VERTEX
  8
0
 10
2.74526296
 20
13.17278912
  0
VERTEX
  8
0
 10
2.67697248
 20
13.10283070
  0
VERTEX
  8
0
 10
2.57464778
 20
12.89394360
  0
VERTEX
  8
0
 10
2.50601241
 20
12.69476414
  0
VERTEX
  8
0
 10
2.46432250
 20
12.50741324
  0
VERTEX
  8
0
 10
2.44283420
 20
12.33401181
  0
VERTEX
  8
0
 10
2.43348694
 20
12.03754097
  0
VERTEX
  8
0
 10
2.42401973
 20
11.82231889
  0
VERTEX
  8
0
 10
2.37443851
 20
11.59825013
  0
VERTEX
  8
0
 10
2.30971320
 20
11.39046887
  0
VERTEX
  8
0
 10
2.17699955
 20
10.97342322
  0
VERTEX
  8
0
 10
2.13009583
 20
10.73898605
  0
VERTEX
  8
0
 10
2.11021726
 20
10.47049077
  0
VERTEX
  8
0
 10
2.12790613
 20
10.15535099
  0
VERTEX
  8
0
 10
2.19370477
 20
9.78098031
  0
VERTEX
  8
0
 10
2.33257860
 20
9.26343243
  0
VERTEX
  8
0
 10
2.48426186
 20
8.83589031
  0
VERTEX
  8
0
 10
2.63938359
 20
8.48960370
  0
VERTEX
  8
0
 10
2.78857288
 20
8.21582234
  0
VERTEX
  8
0
 10
3.03167032
 20
7.85077430
  0
VERTEX
  8
0
 10
3.10683660
 20
7.74200709
  0
VERTEX
  8
0
 10
3.13858666
 20
7.67074409
  0
VERTEX
  8
0
 10
3.15124174
 20
7.37591677
  0
VERTEX
  8
0
 10
3.13774463
 20
7.07662450
  0
VERTEX
  8
0
 10
3.13032798
 20
6.77394912
  0
VERTEX
  8
0
 10
3.16122445
 20
6.46897244
  0
VERTEX
  8
0
 10
3.33270772
 20
5.75697441
  0
VERTEX
  8
0
 10
3.40304741
 20
5.39988029
  0
VERTEX
  8
0
 10
3.43090949
 20
5.03393307
  0
VERTEX
  8
0
 10
3.40335044
 20
4.51227952
  0
VERTEX
  8
0
 10
3.44743558
 20
3.79010137
  0
VERTEX
  8
0
 10
3.44659484
 20
3.35576734
  0
VERTEX
  8
0
 10
3.42411764
 20
3.20358343
  0
VERTEX
  8
0
 10
3.40532283
 20
3.15414904
  0
VERTEX
  8
0
 10
3.38071264
 20
3.12645275
  0
VERTEX
  8
0
 10
3.24734812
 20
3.19432786
  0
VERTEX
  8
0
 10
3.15623473
 20
3.20134510
  0
VERTEX
  8
0
 10
3.09675706
 20
3.16521390
  0
VERTEX
  8
0
 10
3.05829975
 20
3.10364370
  0
VERTEX
  8
0
 10
3.00198460
 20
2.97502399
  0
VERTEX
  8
0
 10
2.96289600
 20
2.94339334
  0
VERTEX
  8
0
 10
2.90236619
 20
2.95716141
  0
VERTEX
  8
0
 10
2.83759533
 20
3.01711872
  0
VERTEX
  8
0
 10
2.80660880
 20
3.07420669
  0
VERTEX
  8
0
 10
2.76543010
 20
3.10795903
  0
VERTEX
  8
0
 10
2.67008272
 20
3.09790945
  0
VERTEX
  8
0
 10
2.65035413
 20
3.13431188
  0
VERTEX
  8
0
 10
2.64391737
 20
3.18316830
  0
VERTEX
  8
0
 10
2.64449217
 20
3.27999606
  0
VERTEX
  8
0
 10
2.61545969
 20
3.30011122
  0
VERTEX
  8
0
 10
2.58051579
 20
3.30263385
  0
VERTEX
  8
0
 10
2.53943957
 20
3.23704509
  0
VERTEX
  8
0
 10
2.50694443
 20
3.16370718
  0
VERTEX
  8
0
 10
2.47112670
 20
3.09437986
  0
VERTEX
  8
0
 10
2.42008272
 20
3.04082283
  0
VERTEX
  8
0
 10
2.34590606
 20
3.07492442
  0
VERTEX
  8
0
 10
2.27011139
 20
3.13828389
  0
VERTEX
  8
0
 10
2.11675693
 20
3.31168356
  0
VERTEX
  8
0
 10
1.96619726
 20
3.47883593
  0
VERTEX
  8
0
 10
1.89389607
 20
3.53438629
  0
VERTEX
  8
0
 10
1.82461028
 20
3.55755511
  0
VERTEX
  8
0
 10
1.81032508
 20
3.50101884
  0
VERTEX
  8
0
 10
1.83401222
 20
3.42678168
  0
VERTEX
  8
0
 10
1.95472937
 20
3.24763730
  0
VERTEX
  8
0
 10
2.10561336
 20
3.06498726
  0
VERTEX
  8
0
 10
2.20551579
 20
2.92369685
  0
VERTEX
  8
0
 10
2.14993624
 20
2.89867921
  0
VERTEX
  8
0
 10
2.06450097
 20
2.90661036
  0
VERTEX
  8
0
 10
1.84083813
 20
2.98616830
  0
VERTEX
  8
0
 10
1.60807712
 20
3.09206926
  0
VERTEX
  8
0
 10
1.43976776
 20
3.15401181
  0
VERTEX
  8
0
 10
1.41909847
 20
3.13235826
  0
VERTEX
  8
0
 10
1.44605233
 20
3.06320441
  0
VERTEX
  8
0
 10
1.49426678
 20
2.99670620
  0
VERTEX
  8
0
 10
1.60216934
 20
2.87645275
  0
VERTEX
  8
0
 10
1.58740556
 20
2.86168897
  0
VERTEX
  8
0
 10
1.39373153
 20
2.89944838
  0
VERTEX
  8
0
 10
1.18617475
 20
2.95635679
  0
VERTEX
  8
0
 10
0.97918416
 20
2.98930727
  0
VERTEX
  8
0
 10
0.88041648
 20
2.98332738
  0
VERTEX
  8
0
 10
0.78720871
 20
2.95519291
  0
VERTEX
  8
0
 10
0.77835044
 20
2.92664960
  0
VERTEX
  8
0
 10
0.83605073
 20
2.86619405
  0
VERTEX
  8
0
 10
0.91124162
 20
2.82563730
  0
VERTEX
  8
0
 10
1.09106648
 20
2.77893208
  0
VERTEX
  8
0
 10
1.27176758
 20
2.73595767
  0
VERTEX
  8
0
 10
1.34805375
 20
2.70006443
  0
VERTEX
  8
0
 10
1.40728745
 20
2.64613779
  0
VERTEX
  8
0
 10
1.30567266
 20
2.56109553
  0
VERTEX
  8
0
 10
1.17389178
 20
2.49940108
  0
VERTEX
  8
0
 10
0.90630319
 20
2.40794882
  0
VERTEX
  8
0
 10
0.90433469
 20
2.38038976
  0
VERTEX
  8
0
 10
0.97872050
 20
2.34738468
  0
VERTEX
  8
0
 10
1.08574525
 20
2.33754226
  0
VERTEX
  8
0
 10
1.34631107
 20
2.35074065
  0
VERTEX
  8
0
 10
1.47415191
 20
2.35547907
  0
VERTEX
  8
0
 10
1.58323122
 20
2.34677540
  0
VERTEX
  8
0
 10
1.66069888
 20
2.31547844
  0
VERTEX
  8
0
 10
1.68356268
 20
2.28849773
  0
VERTEX
  8
0
 10
1.69370477
 20
2.25243700
  0
VERTEX
  8
0
 10
1.69122551
 20
2.16525959
  0
VERTEX
  8
0
 10
0.44772839
 20
2.16535433
  0
VERTEX
  8
0
 10
0.44772839
 20
0.00000000
  0
VERTEX
  8
0
 10
92.46347642
 20
0.00000000
  0
VERTEX
  8
0
 10
92.46347642
 20
2.16535433
  0
VERTEX
  8
0
 10
91.48668902
 20
2.16535433
  0
SEQEND
  0
POLYLINE
  8
Default_Layer
 66
   1
 39
0.000000
 70
    0
  0
VERTEX
  8
0
 10
14.27592086
 20
15.53931892
  0
VERTEX
  8
0
 10
14.28228745
 20
16.31196456
  0
VERTEX
  8
0
 10
17.34232682
 20
16.31196456
  0
VERTEX
  8
0
 10
17.34232682
 20
15.15940551
  0
VERTEX
  8
0
 10
16.76358666
 20
15.15940551
  0
VERTEX
  8
0
 10
16.76358666
 20
15.65645275
  0
VERTEX
  8
0
 10
16.41024020
 20
15.65645275
  0
VERTEX
  8
0
 10
16.41024020
 20
14.23125196
  0
VERTEX
  8
0
 10
16.68287800
 20
14.23125196
  0
VERTEX
  8
0
 10
16.68287800
 20
13.57574409
  0
SEQEND
  0
POLYLINE
  8
Default_Layer
 66
   1
 39
0.000000
 70
    0
  0
VERTEX
  8
0
 10
83.01480998
 20
2.16549525
  0
VERTEX
  8
0
 10
73.46692918
 20
2.16535433
  0
VERTEX
  8
0
 10
83.01480998
 20
2.16549525
  0
VERTEX
  8
0
 10
83.29016146
 20
2.70570866
  0
VERTEX
  8
0
 10
83.37245664
 20
2.87433075
  0
VERTEX
  8
0
 10
83.43303074
 20
3.04967507
  0
VERTEX
  8
0
 10
83.47441516
 20
3.23040946
  0
VERTEX
  8
0
 10
83.49914128
 20
3.41520177
  0
VERTEX
  8
0
 10
83.50874420
 20
3.79163152
  0
VERTEX
  8
0
 10
83.48209060
 20
4.16830708
  0
VERTEX
  8
0
 10
83.45154874
 20
4.33021116
  0
VERTEX
  8
0
 10
83.39579907
 20
4.51058200
  0
VERTEX
  8
0
 10
83.24068951
 20
4.89295718
  0
VERTEX
  8
0
 10
83.08078837
 20
5.24789905
  0
VERTEX
  8
0
 10
82.98012209
 20
5.50787401
  0
VERTEX
  8
0
 10
82.95862191
 20
5.70140471
  0
VERTEX
  8
0
 10
82.96871215
 20
5.89786565
  0
VERTEX
  8
0
 10
82.97245028
 20
6.09372053
  0
VERTEX
  8
0
 10
82.96008025
 20
6.19031561
  0
VERTEX
  8
0
 10
82.93189374
 20
6.28543307
  0
VERTEX
  8
0
 10
82.81143804
 20
6.62678475
  0
VERTEX
  8
0
 10
82.71383666
 20
6.97916683
  0
VERTEX
  8
0
 10
82.56772052
 20
7.69389763
  0
VERTEX
  8
0
 10
82.38301235
 20
7.55951624
  0
VERTEX
  8
0
 10
82.20748430
 20
7.41338582
  0
VERTEX
  8
0
 10
82.00221436
 20
7.24384768
  0
VERTEX
  8
0
 10
81.74698823
 20
7.06015551
  0
VERTEX
  8
0
 10
81.48185265
 20
6.89092298
  0
VERTEX
  8
0
 10
81.24685437
 20
6.76476378
  0
VERTEX
  8
0
 10
80.87445477
 20
6.61397883
  0
VERTEX
  8
0
 10
80.67395588
 20
6.53093596
  0
VERTEX
  8
0
 10
80.34429532
 20
6.37303149
  0
VERTEX
  8
0
 10
80.30520182
 20
6.23165945
  0
VERTEX
  8
0
 10
80.29311422
 20
6.08661417
  0
VERTEX
  8
0
 10
80.33108435
 20
5.82759916
  0
VERTEX
  8
0
 10
80.38239522
 20
5.63027460
  0
VERTEX
  8
0
 10
80.44528680
 20
5.47981176
  0
VERTEX
  8
0
 10
80.51799906
 20
5.36138189
  0
VERTEX
  8
0
 10
80.68584552
 20
5.16130610
  0
VERTEX
  8
0
 10
80.77745966
 20
5.05000270
  0
VERTEX
  8
0
 10
80.87185437
 20
4.91141732
  0
VERTEX
  8
0
 10
81.01623651
 20
4.69890588
  0
VERTEX
  8
0
 10
81.12168508
 20
4.54114665
  0
VERTEX
  8
0
 10
81.15570080
 20
4.46087467
  0
VERTEX
  8
0
 10
81.17505295
 20
4.36798142
  0
VERTEX
  8
0
 10
81.17809813
 20
4.25369711
  0
VERTEX
  8
0
 10
81.16319296
 20
4.10925196
  0
VERTEX
  8
0
 10
81.56279926
 20
4.22834645
  0
VERTEX
  8
0
 10
81.75499463
 20
3.81364468
  0
VERTEX
  8
0
 10
81.83903603
 20
3.57541793
  0
VERTEX
  8
0
 10
81.85579846
 20
3.47904922
  0
VERTEX
  8
0
 10
81.84724808
 20
3.40944882
  0
VERTEX
  8
0
 10
81.72877244
 20
3.42564548
  0
VERTEX
  8
0
 10
81.61152367
 20
3.46489911
  0
VERTEX
  8
0
 10
81.49181230
 20
3.50103389
  0
VERTEX
  8
0
 10
81.36594886
 20
3.50787401
  0
VERTEX
  8
0
 10
81.23297661
 20
3.47832904
  0
VERTEX
  8
0
 10
81.13375546
 20
3.44728592
  0
VERTEX
  8
0
 10
81.03375109
 20
3.43964708
  0
VERTEX
  8
0
 10
80.89842918
 20
3.48031496
  0
VERTEX
  8
0
 10
80.70996961
 20
3.57520140
  0
VERTEX
  8
0
 10
80.58680627
 20
3.66239074
  0
VERTEX
  8
0
 10
80.51421496
 20
3.74709830
  0
VERTEX
  8
0
 10
80.47747150
 20
3.83453937
  0
VERTEX
  8
0
 10
80.45263132
 20
4.03848326
  0
VERTEX
  8
0
 10
80.43508621
 20
4.16541670
  0
VERTEX
  8
0
 10
80.39449217
 20
4.31594488
  0
VERTEX
  8
0
 10
80.22505510
 20
4.78725178
  0
VERTEX
  8
0
 10
80.09387947
 20
5.08969832
  0
VERTEX
  8
0
 10
79.93363027
 20
5.37731539
  0
VERTEX
  8
0
 10
79.67697248
 20
5.80413385
  0
VERTEX
  8
0
 10
79.60070205
 20
5.96365086
  0
VERTEX
  8
0
 10
79.55535942
 20
6.13205807
  0
VERTEX
  8
0
 10
79.54129773
 20
6.30410971
  0
VERTEX
  8
0
 10
79.55887012
 20
6.47456004
  0
VERTEX
  8
0
 10
79.60842972
 20
6.63816329
  0
VERTEX
  8
0
 10
79.69032965
 20
6.78967372
  0
VERTEX
  8
0
 10
79.80492304
 20
6.92384556
  0
VERTEX
  8
0
 10
79.95256304
 20
7.03543307
  0
VERTEX
  8
0
 10
80.09794000
 20
7.14555658
  0
VERTEX
  8
0
 10
80.26420766
 20
7.30702626
  0
VERTEX
  8
0
 10
80.62616687
 20
7.72194143
  0
VERTEX
  8
0
 10
81.23504335
 20
8.48523622
  0
VERTEX
  8
0
 10
81.02314178
 20
8.90949188
  0
VERTEX
  8
0
 10
80.88688686
 20
9.30230807
  0
VERTEX
  8
0
 10
80.80438538
 20
9.71178518
  0
VERTEX
  8
0
 10
80.75374414
 20
10.18602362
  0
VERTEX
  8
0
 10
80.63126456
 20
10.26293867
  0
VERTEX
  8
0
 10
80.50809256
 20
10.36910482
  0
VERTEX
  8
0
 10
80.40292352
 20
10.49150596
  0
VERTEX
  8
0
 10
80.33445280
 20
10.61712598
  0
VERTEX
  8
0
 10
80.21810157
 20
10.69037415
  0
VERTEX
  8
0
 10
80.08650613
 20
10.82418491
  0
VERTEX
  8
0
 10
79.94665064
 20
11.00134711
  0
VERTEX
  8
0
 10
79.80551924
 20
11.20464960
  0
VERTEX
  8
0
 10
79.54736526
 20
11.62083083
  0
VERTEX
  8
0
 10
79.36791737
 20
11.93503937
  0
VERTEX
  8
0
 10
79.24271646
 20
12.23020933
  0
VERTEX
  8
0
 10
79.16333775
 20
12.41876757
  0
VERTEX
  8
0
 10
79.07134847
 20
12.59948277
  0
VERTEX
  8
0
 10
78.96567981
 20
12.74598606
  0
VERTEX
  8
0
 10
78.90738171
 20
12.79816795
  0
VERTEX
  8
0
 10
78.84526296
 20
12.83190852
  0
VERTEX
  8
0
 10
78.77918997
 20
12.84391167
  0
VERTEX
  8
0
 10
78.70902913
 20
12.83088128
  0
VERTEX
  8
0
 10
78.63464683
 20
12.78952124
  0
VERTEX
  8
0
 10
78.55590949
 20
12.71653543
  0
VERTEX
  8
0
 10
78.36390763
 20
12.52909801
  0
VERTEX
  8
0
 10
78.15120760
 20
12.36072330
  0
VERTEX
  8
0
 10
77.93173671
 20
12.21266263
  0
VERTEX
  8
0
 10
77.71942229
 20
12.08616732
  0
VERTEX
  8
0
 10
77.37197212
 20
11.90287807
  0
VERTEX
  8
0
 10
77.22027563
 20
11.82086614
  0
VERTEX
  8
0
 10
77.19812517
 20
11.70215194
  0
VERTEX
  8
0
 10
77.17464670
 20
11.52455315
  0
VERTEX
  8
0
 10
77.14288736
 20
11.43069766
  0
VERTEX
  8
0
 10
77.08736951
 20
11.34255179
  0
VERTEX
  8
0
 10
77.00028429
 20
11.26692579
  0
VERTEX
  8
0
 10
76.87382288
 20
11.21062992
  0
VERTEX
  8
0
 10
76.73089491
 20
11.18998382
  0
VERTEX
  8
0
 10
76.60725250
 20
11.21279084
  0
VERTEX
  8
0
 10
76.49804686
 20
11.26822804
  0
VERTEX
  8
0
 10
76.39842918
 20
11.34547244
  0
VERTEX
  8
0
 10
76.24032436
 20
11.29390379
  0
VERTEX
  8
0
 10
76.15729993
 20
11.29128281
  0
VERTEX
  8
0
 10
76.08203941
 20
11.32233267
  0
VERTEX
  8
0
 10
76.14004415
 20
11.03348914
  0
VERTEX
  8
0
 10
76.20249758
 20
10.66764493
  0
VERTEX
  8
0
 10
76.29021701
 20
10.32119922
  0
VERTEX
  8
0
 10
76.35005688
 20
10.18537554
  0
VERTEX
  8
0
 10
76.42401973
 20
10.09055118
  0
VERTEX
  8
0
 10
76.55336562
 20
10.00818446
  0
VERTEX
  8
0
 10
76.67097162
 20
9.98337014
  0
VERTEX
  8
0
 10
76.77561891
 20
10.00231501
  0
VERTEX
  8
0
 10
76.86608863
 20
10.05122588
  0
VERTEX
  8
0
 10
76.94116194
 20
10.11630955
  0
VERTEX
  8
0
 10
76.99962000
 20
10.18377282
  0
VERTEX
  8
0
 10
77.06181500
 20
10.27066535
  0
VERTEX
  8
0
 10
77.07952760
 20
10.26279527
  0
VERTEX
  8
0
 10
77.08874463
 20
10.18674754
  0
VERTEX
  8
0
 10
77.07952760
 20
10.11023622
  0
VERTEX
  8
0
 10
77.02256367
 20
9.97138823
  0
VERTEX
  8
0
 10
76.94316927
 20
9.87930345
  0
VERTEX
  8
0
 10
76.84705849
 20
9.82591870
  0
VERTEX
  8
0
 10
76.73994542
 20
9.80317076
  0
VERTEX
  8
0
 10
76.62754414
 20
9.80299647
  0
VERTEX
  8
0
 10
76.51556876
 20
9.81733261
  0
VERTEX
  8
0
 10
76.31575201
 20
9.85728346
  0
VERTEX
  8
0
 10
76.31339571
 20
9.79462345
  0
VERTEX
  8
0
 10
76.32480107
 20
9.74295667
  0
VERTEX
  8
0
 10
76.38219320
 20
9.66765557
  0
VERTEX
  8
0
 10
76.47452124
 20
9.62148572
  0
VERTEX
  8
0
 10
76.58837800
 20
9.59455265
  0
VERTEX
  8
0
 10
76.82704901
 20
9.55881908
  0
VERTEX
  8
0
 10
76.92504892
 20
9.53022966
  0
VERTEX
  8
0
 10
76.99094886
 20
9.48129921
  0
VERTEX
  8
0
 10
76.94764178
 20
9.38779527
  0
VERTEX
  8
0
 10
76.97481169
 20
9.35120522
  0
VERTEX
  8
0
 10
77.02256528
 20
9.32337474
  0
VERTEX
  8
0
 10
77.16782805
 20
9.29022311
  0
VERTEX
  8
0
 10
77.35943911
 20
9.28080158
  0
VERTEX
  8
0
 10
77.57340752
 20
9.28757135
  0
VERTEX
  8
0
 10
77.97245255
 20
9.31952959
  0
VERTEX
  8
0
 10
78.17303548
 20
9.32578740
  0
VERTEX
  8
0
 10
78.15446756
 20
9.26225295
  0
VERTEX
  8
0
 10
78.11496461
 20
9.20767716
  0
VERTEX
  8
0
 10
77.95083732
 20
9.08104523
  0
VERTEX
  8
0
 10
77.77484835
 20
9.01150602
  0
VERTEX
  8
0
 10
77.59039807
 20
8.98739073
  0
VERTEX
  8
0
 10
77.40088686
 20
8.99703051
  0
VERTEX
  8
0
 10
77.02028314
 20
9.07089997
  0
VERTEX
  8
0
 10
76.66024020
 20
9.13976378
  0
VERTEX
  8
0
 10
76.65728351
 20
9.12500000
  0
VERTEX
  8
0
 10
76.81809136
 20
8.97629238
  0
VERTEX
  8
0
 10
76.97057632
 20
8.88708169
  0
VERTEX
  8
0
 10
77.11591118
 20
8.84476814
  0
VERTEX
  8
0
 10
77.25526874
 20
8.83675196
  0
VERTEX
  8
0
 10
77.52074315
 20
8.87321259
  0
VERTEX
  8
0
 10
77.64920560
 20
8.89248985
  0
VERTEX
  8
0
 10
77.77638193
 20
8.89566535
  0
VERTEX
  8
0
 10
77.78917721
 20
8.87893700
  0
VERTEX
  8
0
 10
77.72202711
 20
8.80316880
  0
VERTEX
  8
0
 10
77.63563390
 20
8.74507874
  0
VERTEX
  8
0
 10
77.48227256
 20
8.66822785
  0
VERTEX
  8
0
 10
77.33031431
 20
8.62685933
  0
VERTEX
  8
0
 10
77.18062035
 20
8.61679585
  0
VERTEX
  8
0
 10
77.03405184
 20
8.63386011
  0
VERTEX
  8
0
 10
76.89146997
 20
8.67387481
  0
VERTEX
  8
0
 10
76.75373591
 20
8.73266263
  0
VERTEX
  8
0
 10
76.49625595
 20
8.88984842
  0
VERTEX
  8
0
 10
76.26850138
 20
9.07199903
  0
VERTEX
  8
0
 10
76.07736163
 20
9.24569599
  0
VERTEX
  8
0
 10
75.92972613
 20
9.37752083
  0
VERTEX
  8
0
 10
75.83248430
 20
9.43405511
  0
VERTEX
  8
0
 10
75.94003256
 20
9.22263885
  0
VERTEX
  8
0
 10
76.07185714
 20
9.05442698
  0
VERTEX
  8
0
 10
76.21931481
 20
8.92060189
  0
VERTEX
  8
0
 10
76.37376235
 20
8.81234596
  0
VERTEX
  8
0
 10
76.66905412
 20
8.63727110
  0
VERTEX
  8
0
 10
76.79261190
 20
8.55281692
  0
VERTEX
  8
0
 10
76.88858666
 20
8.45866141
  0
VERTEX
  8
0
 10
76.85964178
 20
8.42325984
  0
VERTEX
  8
0
 10
76.81673626
 20
8.40354330
  0
VERTEX
  8
0
 10
76.70054298
 20
8.38743137
  0
VERTEX
  8
0
 10
76.58455179
 20
8.39677347
  0
VERTEX
  8
0
 10
76.46973499
 20
8.42821710
  0
VERTEX
  8
0
 10
76.35706488
 20
8.47840975
  0
VERTEX
  8
0
 10
76.14205392
 20
8.62163212
  0
VERTEX
  8
0
 10
75.94729729
 20
8.79962057
  0
VERTEX
  8
0
 10
75.78057339
 20
8.98555506
  0
VERTEX
  8
0
 10
75.64966060
 20
9.15261558
  0
VERTEX
  8
0
 10
75.52638193
 20
9.32283464
  0
VERTEX
  8
0
 10
75.51302580
 20
9.23439990
  0
VERTEX
  8
0
 10
75.52817284
 20
9.14882671
  0
VERTEX
  8
0
 10
75.56471713
 20
9.06592861
  0
VERTEX
  8
0
 10
75.61555270
 20
8.98551919
  0
VERTEX
  8
0
 10
75.73167395
 20
8.83142058
  0
VERTEX
  8
0
 10
75.81968902
 20
8.68503937
  0
VERTEX
  8
0
 10
75.80492524
 20
8.67027559
  0
VERTEX
  8
0
 10
75.74882288
 20
8.67618110
  0
VERTEX
  8
0
 10
75.56721345
 20
8.76011161
  0
VERTEX
  8
0
 10
75.43378455
 20
8.87573862
  0
VERTEX
  8
0
 10
75.34060034
 20
9.01134092
  0
VERTEX
  8
0
 10
75.27972495
 20
9.15519734
  0
VERTEX
  8
0
 10
75.24322252
 20
9.29558666
  0
VERTEX
  8
0
 10
75.22315722
 20
9.42078771
  0
VERTEX
  8
0
 10
75.20059453
 20
9.57874015
  0
VERTEX
  8
0
 10
75.13250917
 20
9.56742788
  0
VERTEX
  8
0
 10
75.07646307
 20
9.52842532
  0
VERTEX
  8
0
 10
75.03015212
 20
9.46910871
  0
VERTEX
  8
0
 10
74.99127219
 20
9.39685433
  0
VERTEX
  8
0
 10
74.92658893
 20
9.24303727
  0
VERTEX
  8
0
 10
74.86398036
 20
9.12598425
  0
VERTEX
  8
0
 10
74.84035831
 20
9.13385826
  0
VERTEX
  8
0
 10
74.80337931
 20
9.25078019
  0
VERTEX
  8
0
 10
74.79816435
 20
9.36982837
  0
VERTEX
  8
0
 10
74.81653961
 20
9.49028520
  0
VERTEX
  8
0
 10
74.85033124
 20
9.61143307
  0
VERTEX
  8
0
 10
74.93146836
 20
9.85293147
  0
VERTEX
  8
0
 10
74.96246619
 20
9.97184678
  0
VERTEX
  8
0
 10
74.97618508
 20
10.08858267
  0
VERTEX
  8
0
 10
74.77092278
 20
9.87778543
  0
VERTEX
  8
0
 10
74.64548768
 20
9.78919426
  0
VERTEX
  8
0
 10
74.58058179
 20
9.76518480
  0
VERTEX
  8
0
 10
74.51555516
 20
9.76082677
  0
VERTEX
  8
0
 10
74.52429876
 20
9.81218504
  0
VERTEX
  8
0
 10
74.55197248
 20
9.86023622
  0
VERTEX
  8
0
 10
74.64698300
 20
10.05977261
  0
VERTEX
  8
0
 10
74.71950397
 20
10.24549734
  0
VERTEX
  8
0
 10
74.80552385
 20
10.57086651
  0
VERTEX
  8
0
 10
74.82692516
 20
10.82705316
  0
VERTEX
  8
0
 10
74.80060093
 20
11.00476673
  0
VERTEX
  8
0
 10
74.77482082
 20
11.06129280
  0
VERTEX
  8
0
 10
74.74344421
 20
11.09471664
  0
VERTEX
  8
0
 10
74.70858274
 20
11.10387692
  0
VERTEX
  8
0
 10
74.67234804
 20
11.08761232
  0
VERTEX
  8
0
 10
74.63685173
 20
11.04476153
  0
VERTEX
  8
0
 10
74.60420545
 20
10.97416321
  0
VERTEX
  8
0
 10
74.55590949
 20
10.74507874
  0
VERTEX
  8
0
 10
74.54016146
 20
10.74114173
  0
VERTEX
  8
0
 10
74.49052514
 20
10.84372982
  0
VERTEX
  8
0
 10
74.45059453
 20
10.95177165
  0
VERTEX
  8
0
 10
74.43136877
 20
10.92084448
  0
VERTEX
  8
0
 10
74.42270280
 20
10.87645275
  0
VERTEX
  8
0
 10
74.41516146
 20
10.78937008
  0
VERTEX
  8
0
 10
74.34904766
 20
10.52546389
  0
VERTEX
  8
0
 10
74.25308666
 20
10.26662647
  0
VERTEX
  8
0
 10
74.13432448
 20
10.01694629
  0
VERTEX
  8
0
 10
73.99980713
 20
9.78051181
  0
VERTEX
  8
0
 10
73.66062910
 20
9.25267022
  0
VERTEX
  8
0
 10
73.44158241
 20
8.94201827
  0
VERTEX
  8
0
 10
73.32179290
 20
8.77002118
  0
VERTEX
  8
0
 10
73.28038636
 20
8.65814419
  0
VERTEX
  8
0
 10
73.29648863
 20
8.52785252
  0
VERTEX
  8
0
 10
73.34922550
 20
8.30061140
  0
VERTEX
  8
0
 10
73.41772280
 20
7.89788606
  0
VERTEX
  8
0
 10
73.48110634
 20
7.24114173
  0
VERTEX
  8
0
 10
73.48996941
 20
6.85299058
  0
VERTEX
  8
0
 10
73.47704630
 20
6.68416092
  0
VERTEX
  8
0
 10
73.49420440
 20
6.55710906
  0
VERTEX
  8
0
 10
73.59331107
 20
6.29429133
  0
VERTEX
  8
0
 10
73.65649704
 20
6.10431028
  0
VERTEX
  8
0
 10
73.68389528
 20
5.94377263
  0
VERTEX
  8
0
 10
73.68277369
 20
5.80616757
  0
VERTEX
  8
0
 10
73.66040014
 20
5.68498425
  0
VERTEX
  8
0
 10
73.58096873
 20
5.46583956
  0
VERTEX
  8
0
 10
73.50374414
 20
5.23425196
  0
VERTEX
  8
0
 10
73.46032863
 20
4.98036407
  0
VERTEX
  8
0
 10
73.45310856
 20
4.77141947
  0
VERTEX
  8
0
 10
73.47976730
 20
4.59617053
  0
VERTEX
  8
0
 10
73.53798823
 20
4.44336958
  0
VERTEX
  8
0
 10
73.62545474
 20
4.30176900
  0
VERTEX
  8
0
 10
73.73985019
 20
4.16012112
  0
VERTEX
  8
0
 10
74.04016146
 20
3.83169291
  0
VERTEX
  8
0
 10
74.11684192
 20
3.72991848
  0
VERTEX
  8
0
 10
74.14717352
 20
3.65198935
  0
VERTEX
  8
0
 10
74.14562606
 20
3.59052138
  0
VERTEX
  8
0
 10
74.12666934
 20
3.53813041
  0
VERTEX
  8
0
 10
74.10477314
 20
3.48743229
  0
VERTEX
  8
0
 10
74.09440728
 20
3.43104287
  0
VERTEX
  8
0
 10
74.11004154
 20
3.36157801
  0
VERTEX
  8
0
 10
74.16614571
 20
3.27165354
  0
VERTEX
  8
0
 10
74.23545456
 20
3.17036286
  0
VERTEX
  8
0
 10
74.28398900
 20
3.06988724
  0
VERTEX
  8
0
 10
74.31327133
 20
2.97111286
  0
VERTEX
  8
0
 10
74.32482386
 20
2.87492593
  0
VERTEX
  8
0
 10
74.32016890
 20
2.78221264
  0
VERTEX
  8
0
 10
74.30082875
 20
2.69385919
  0
VERTEX
  8
0
 10
74.22418213
 20
2.53377657
  0
VERTEX
  8
0
 10
74.10706245
 20
2.40176765
  0
VERTEX
  8
0
 10
73.96164817
 20
2.30492199
  0
VERTEX
  8
0
 10
73.80011775
 20
2.25032917
  0
VERTEX
  8
0
 10
73.63464965
 20
2.24507874
  0
VERTEX
  8
0
 10
73.58112750
 20
2.32259596
  0
VERTEX
  8
0
 10
73.51555516
 20
2.38681102
  0
VERTEX
  8
0
 10
73.50434502
 20
2.27178149
  0
VERTEX
  8
0
 10
73.49156974
 20
2.21382455
  0
VERTEX
  8
0
 10
73.46692918
 20
2.16535039
  0
SEQEND
  0
POLYLINE
  8
Default_Layer
 66
   1
 39
0.000000
 70
    0
  0
VERTEX
  8
0
 10
59.21590556
 20
2.16535433
  0
VERTEX
  8
0
 10
59.45263968
 20
2.40759438
  0
VERTEX
  8
0
 10
59.66069252
 20
2.67345884
  0
VERTEX
  8
0
 10
59.84076697
 20
2.96018627
  0
VERTEX
  8
0
 10
59.99356593
 20
3.26501525
  0
VERTEX
  8
0
 10
60.11979227
 20
3.58518435
  0
VERTEX
  8
0
 10
60.22014889
 20
3.91793214
  0
VERTEX
  8
0
 10
60.29533867
 20
4.26049721
  0
VERTEX
  8
0
 10
60.34606451
 20
4.61011811
  0
VERTEX
  8
0
 10
60.37302929
 20
4.96403342
  0
VERTEX
  8
0
 10
60.37693591
 20
5.31948173
  0
VERTEX
  8
0
 10
60.35848724
 20
5.67370159
  0
VERTEX
  8
0
 10
60.31838618
 20
6.02393159
  0
VERTEX
  8
0
 10
60.25733562
 20
6.36741030
  0
VERTEX
  8
0
 10
60.17603844
 20
6.70137629
  0
VERTEX
  8
0
 10
60.07519753
 20
7.02306813
  0
VERTEX
  8
0
 10
59.95551579
 20
7.32972441
  0
VERTEX
  8
0
 10
59.82317092
 20
7.60009232
  0
VERTEX
  8
0
 10
59.66936165
 20
7.85407660
  0
VERTEX
  8
0
 10
59.49736472
 20
8.09269910
  0
VERTEX
  8
0
 10
59.31045686
 20
8.31698166
  0
VERTEX
  8
0
 10
59.11191482
 20
8.52794615
  0
VERTEX
  8
0
 10
58.90501535
 20
8.72661440
  0
VERTEX
  8
0
 10
58.47925103
 20
9.09114960
  0
VERTEX
  8
0
 10
57.67160967
 20
9.71762660
  0
VERTEX
  8
0
 10
57.34216046
 20
9.99591798
  0
VERTEX
  8
0
 10
57.20749732
 20
10.12990337
  0
VERTEX
  8
0
 10
57.09724414
 20
10.26181102
  0
VERTEX
  8
0
 10
57.00938753
 20
10.42326001
  0
VERTEX
  8
0
 10
56.95667942
 20
10.61359387
  0
VERTEX
  8
0
 10
56.94075786
 20
10.81760988
  0
VERTEX
  8
0
 10
56.96326087
 20
11.02010531
  0
VERTEX
  8
0
 10
57.02582651
 20
11.20587744
  0
VERTEX
  8
0
 10
57.13009281
 20
11.35972354
  0
VERTEX
  8
0
 10
57.19837560
 20
11.41992348
  0
VERTEX
  8
0
 10
57.27769782
 20
11.46644090
  0
VERTEX
  8
0
 10
57.36826422
 20
11.49737544
  0
VERTEX
  8
0
 10
57.47027957
 20
11.51082677
  0
VERTEX
  8
0
 10
57.59372707
 20
11.50512389
  0
VERTEX
  8
0
 10
57.70639202
 20
11.47957497
  0
VERTEX
  8
0
 10
57.80889987
 20
11.43615789
  0
VERTEX
  8
0
 10
57.90187603
 20
11.37685051
  0
VERTEX
  8
0
 10
58.06173503
 20
11.21847639
  0
VERTEX
  8
0
 10
58.19097248
 20
11.02027559
  0
VERTEX
  8
0
 10
58.29459183
 20
10.79807109
  0
VERTEX
  8
0
 10
58.37759650
 20
10.56768590
  0
VERTEX
  8
0
 10
58.50177563
 20
10.14566535
  0
VERTEX
  8
0
 10
60.08838981
 20
10.14566535
  0
VERTEX
  8
0
 10
60.08838587
 20
13.03290157
  0
VERTEX
  8
0
 10
60.36629556
 20
12.53338999
  0
VERTEX
  8
0
 10
60.52487695
 20
12.19867532
  0
VERTEX
  8
0
 10
60.59470874
 20
11.98600340
  0
VERTEX
  8
0
 10
60.60636963
 20
11.85262008
  0
VERTEX
  8
0
 10
60.59043831
 20
11.75577120
  0
VERTEX
  8
0
 10
60.57749346
 20
11.65270263
  0
VERTEX
  8
0
 10
60.59811379
 20
11.50066020
  0
VERTEX
  8
0
 10
60.68287800
 20
11.25688976
  0
VERTEX
  8
0
 10
60.80832386
 20
10.92172080
  0
VERTEX
  8
0
 10
60.87952686
 20
10.66382523
  0
VERTEX
  8
0
 10
60.91521375
 20
10.46487101
  0
VERTEX
  8
0
 10
60.93411126
 20
10.30652608
  0
VERTEX
  8
0
 10
60.95494616
 20
10.17045840
  0
VERTEX
  8
0
 10
60.99644517
 20
10.03833593
  0
VERTEX
  8
0
 10
61.07733506
 20
9.89182662
  0
VERTEX
  8
0
 10
61.21634256
 20
9.71259842
  0
VERTEX
  8
0
 10
61.39670777
 20
9.49570935
  0
VERTEX
  8
0
 10
61.50209982
 20
9.34848437
  0
VERTEX
  8
0
 10
61.55111103
 20
9.24832208
  0
VERTEX
  8
0
 10
61.56233371
 20
9.17262106
  0
VERTEX
  8
0
 10
61.54578265
 20
9.00419722
  0
VERTEX
  8
0
 10
61.55519353
 20
8.86627157
  0
VERTEX
  8
0
 10
61.60118508
 20
8.66240157
  0
VERTEX
  8
0
 10
61.67575355
 20
8.46204300
  0
VERTEX
  8
0
 10
61.76179680
 20
8.27372982
  0
VERTEX
  8
0
 10
61.83593970
 20
8.08167181
  0
VERTEX
  8
0
 10
61.87480713
 20
7.87007874
  0
VERTEX
  8
0
 10
61.92890556
 20
7.19124557
  0
VERTEX
  8
0
 10
61.94493471
 20
6.82937124
  0
VERTEX
  8
0
 10
61.92697248
 20
6.56102362
  0
VERTEX
  8
0
 10
61.89738938
 20
6.38675706
  0
VERTEX
  8
0
 10
61.88434355
 20
6.22280991
  0
VERTEX
  8
0
 10
61.89844296
 20
5.91278838
  0
VERTEX
  8
0
 10
61.95042918
 20
5.60478801
  0
VERTEX
  8
0
 10
62.02146067
 20
5.27263779
  0
VERTEX
  8
0
 10
62.10852397
 20
4.85408058
  0
VERTEX
  8
0
 10
62.21394936
 20
4.29052460
  0
VERTEX
  8
0
 10
62.29325835
 20
3.72122404
  0
VERTEX
  8
0
 10
62.30921968
 20
3.47793647
  0
VERTEX
  8
0
 10
62.30197248
 20
3.28543307
  0
VERTEX
  8
0
 10
62.23348196
 20
2.86785734
  0
VERTEX
  8
0
 10
62.17331599
 20
2.66632037
  0
VERTEX
  8
0
 10
62.12112984
 20
2.55682006
  0
VERTEX
  8
0
 10
62.07657878
 20
2.41535433
  0
VERTEX
  8
0
 10
62.06472421
 20
2.29041486
  0
VERTEX
  8
0
 10
62.07295871
 20
2.16535433
  0
VERTEX
  8
0
 10
59.21590556
 20
2.16535433
  0
VERTEX
  8
0
 10
62.07295871
 20
2.16535433
  0
SEQEND
  0
POLYLINE
  8
Default_Layer
 66
   1
 39
0.000000
 70
    0
  0
VERTEX
  8
0
 10
10.61537085
 20
2.32687085
  0
VERTEX
  8
0
 10
10.61543649
 20
2.32681858
  0
VERTEX
  8
0
 10
10.61550676
 20
2.32676261
  0
VERTEX
  8
0
 10
10.61906741
 20
2.32392673
  0
VERTEX
  8
0
 10
10.61912446
 20
2.32388130
  0
VERTEX
  8
0
 10
10.61917610
 20
2.32384016
  0
VERTEX
  8
0
 10
10.67884994
 20
2.28830662
  0
VERTEX
  8
0
 10
10.67888352
 20
2.28829157
  0
VERTEX
  8
0
 10
10.83769207
 20
2.24297098
  0
VERTEX
  8
0
 10
11.00933549
 20
2.21309369
  0
VERTEX
  8
0
 10
11.00940806
 20
2.21307935
  0
VERTEX
  8
0
 10
11.15883154
 20
2.16535433
  0
SEQEND
  0
POLYLINE
  8
Default_Layer
 66
   1
 39
0.000000
 70
    1
  0
VERTEX
  8
0
 10
20.46561070
 20
14.16141338
  0
VERTEX
  8
0
 10
20.46556697
 20
14.16141338
  0
VERTEX
  8
0
 10
20.46561070
 20
14.16141338
  0
SEQEND
  0
POLYLINE
  8
Default_Layer
 66
   1
 39
0.000000
 70
    1
  0
VERTEX
  8
0
 10
57.73341837
 20
5.47277231
  0
VERTEX
  8
0
 10
57.74234089
 20
5.46062992
  0
VERTEX
  8
0
 10
57.84272372
 20
5.27992608
  0
VERTEX
  8
0
 10
57.91018452
 20
5.06679152
  0
VERTEX
  8
0
 10
57.94021784
 20
4.83831619
  0
VERTEX
  8
0
 10
57.92831825
 20
4.61159006
  0
VERTEX
  8
0
 10
57.86998030
 20
4.40370305
  0
VERTEX
  8
0
 10
57.82198899
 20
4.31216484
  0
VERTEX
  8
0
 10
57.76069854
 20
4.23174514
  0
VERTEX
  8
0
 10
57.68554579
 20
4.16458020
  0
VERTEX
  8
0
 10
57.59596754
 20
4.11280626
  0
VERTEX
  8
0
 10
57.49140061
 20
4.07855957
  0
VERTEX
  8
0
 10
57.37128184
 20
4.06397637
  0
VERTEX
  8
0
 10
57.23756839
 20
4.07139617
  0
VERTEX
  8
0
 10
57.11611431
 20
4.10098849
  0
VERTEX
  8
0
 10
57.00618842
 20
4.15049854
  0
VERTEX
  8
0
 10
56.90705952
 20
4.21767150
  0
VERTEX
  8
0
 10
56.81799642
 20
4.30025260
  0
VERTEX
  8
0
 10
56.73826795
 20
4.39598702
  0
VERTEX
  8
0
 10
56.60389010
 20
4.61789665
  0
VERTEX
  8
0
 10
56.49807648
 20
4.86536202
  0
VERTEX
  8
0
 10
56.41497758
 20
5.12034473
  0
VERTEX
  8
0
 10
56.29352593
 20
5.58070866
  0
VERTEX
  8
0
 10
54.70652062
 20
5.58070866
  0
VERTEX
  8
0
 10
54.69608499
 20
5.58070866
  0
VERTEX
  8
0
 10
54.69608499
 20
2.16535433
  0
VERTEX
  8
0
 10
52.09667554
 20
2.16535433
  0
VERTEX
  8
0
 10
52.09667554
 20
10.81397637
  0
VERTEX
  8
0
 10
52.65769916
 20
10.81397637
  0
VERTEX
  8
0
 10
54.72334464
 20
11.16804013
  0
VERTEX
  8
0
 10
54.71222377
 20
11.10482072
  0
VERTEX
  8
0
 10
54.69786666
 20
11.02379785
  0
VERTEX
  8
0
 10
54.68033695
 20
10.92519685
  0
VERTEX
  8
0
 10
54.67673828
 20
10.89335585
  0
VERTEX
  8
0
 10
54.67328605
 20
10.86166658
  0
VERTEX
  8
0
 10
54.66997958
 20
10.83012856
  0
VERTEX
  8
0
 10
54.66681820
 20
10.79874134
  0
VERTEX
  8
0
 10
54.66380124
 20
10.76750445
  0
VERTEX
  8
0
 10
54.66092803
 20
10.73641742
  0
VERTEX
  8
0
 10
54.65819788
 20
10.70547980
  0
VERTEX
  8
0
 10
54.65561012
 20
10.67469112
  0
VERTEX
  8
0
 10
54.65316410
 20
10.64405092
  0
VERTEX
  8
0
 10
54.65085912
 20
10.61355874
  0
VERTEX
  8
0
 10
54.64869452
 20
10.58321410
  0
VERTEX
  8
0
 10
54.64667274
 20
10.55301636
  0
VERTEX
  8
0
 10
54.64478600
 20
10.52296548
  0
VERTEX
  8
0
 10
54.64303632
 20
10.49306085
  0
VERTEX
  8
0
 10
54.64144877
 20
10.46371284
  0
VERTEX
  8
0
 10
54.63262497
 20
10.11035420
  0
VERTEX
  8
0
 10
54.64318694
 20
9.77813463
  0
VERTEX
  8
0
 10
54.67189257
 20
9.46625854
  0
VERTEX
  8
0
 10
54.71749972
 20
9.17393032
  0
VERTEX
  8
0
 10
54.77527740
 20
8.91329879
  0
VERTEX
  8
0
 10
54.84605454
 20
8.66804465
  0
VERTEX
  8
0
 10
54.92880666
 20
8.43740063
  0
VERTEX
  8
0
 10
55.02250924
 20
8.22059947
  0
VERTEX
  8
0
 10
55.23866778
 20
7.82545668
  0
VERTEX
  8
0
 10
55.48633412
 20
7.47647814
  0
VERTEX
  8
0
 10
55.75731226
 20
7.16752575
  0
VERTEX
  8
0
 10
56.04340614
 20
6.89246138
  0
VERTEX
  8
0
 10
56.33641976
 20
6.64514691
  0
VERTEX
  8
0
 10
56.62815707
 20
6.41944423
  0
VERTEX
  8
0
 10
57.25154199
 20
5.94763191
  0
VERTEX
  8
0
 10
57.51367060
 20
5.71890015
  0
VERTEX
  8
0
 10
57.72616551
 20
5.48247526
  0
VERTEX
  8
0
 10
57.73341837
 20
5.47277231
  0
SEQEND
  0
POLYLINE
  8
Default_Layer
 66
   1
 39
0.000000
 70
    1
  0
VERTEX
  8
0
 10
11.15883154
 20
2.16535433
  0
VERTEX
  8
0
 10
11.00933560
 20
2.21309425
  0
VERTEX
  8
0
 10
10.84030664
 20
2.24248443
  0
VERTEX
  8
0
 10
10.68325450
 20
2.28633024
  0
VERTEX
  8
0
 10
10.61906657
 20
2.32392566
  0
VERTEX
  8
0
 10
10.56968902
 20
2.37743700
  0
VERTEX
  8
0
 10
10.69117463
 20
2.45281176
  0
VERTEX
  8
0
 10
10.83236323
 20
2.52102460
  0
VERTEX
  8
0
 10
10.96180135
 20
2.59987475
  0
VERTEX
  8
0
 10
11.01228475
 20
2.64885107
  0
VERTEX
  8
0
 10
11.04803548
 20
2.70716141
  0
VERTEX
  8
0
 10
11.03327170
 20
2.73472047
  0
VERTEX
  8
0
 10
10.90682774
 20
2.73262032
  0
VERTEX
  8
0
 10
10.77945920
 20
2.70329724
  0
VERTEX
  8
0
 10
10.65153628
 20
2.67344562
  0
VERTEX
  8
0
 10
10.52342918
 20
2.66975984
  0
VERTEX
  8
0
 10
10.55828345
 20
2.74859878
  0
VERTEX
  8
0
 10
10.62037511
 20
2.82086854
  0
VERTEX
  8
0
 10
10.79525644
 20
2.95083809
  0
VERTEX
  8
0
 10
10.98604501
 20
3.06994371
  0
VERTEX
  8
0
 10
11.06802071
 20
3.12863355
  0
VERTEX
  8
0
 10
11.13071264
 20
3.18846063
  0
VERTEX
  8
0
 10
11.12775989
 20
3.21700393
  0
VERTEX
  8
0
 10
11.05695231
 20
3.23323952
  0
VERTEX
  8
0
 10
10.96794394
 20
3.21375996
  0
VERTEX
  8
0
 10
10.76381894
 20
3.10681889
  0
VERTEX
  8
0
 10
10.57237308
 20
2.97450775
  0
VERTEX
  8
0
 10
10.45059453
 20
2.89515354
  0
VERTEX
  8
0
 10
10.44284074
 20
2.95402467
  0
VERTEX
  8
0
 10
10.45772587
 20
3.03277565
  0
VERTEX
  8
0
 10
10.51779975
 20
3.21792569
  0
VERTEX
  8
0
 10
10.55558992
 20
3.38662075
  0
VERTEX
  8
0
 10
10.54262041
 20
3.44480302
  0
VERTEX
  8
0
 10
10.49587012
 20
3.47487795
  0
VERTEX
  8
0
 10
10.45278101
 20
3.39835018
  0
VERTEX
  8
0
 10
10.42212794
 20
3.31457142
  0
VERTEX
  8
0
 10
10.38135880
 20
3.13421013
  0
VERTEX
  8
0
 10
10.34002053
 20
2.95169260
  0
VERTEX
  8
0
 10
10.30865602
 20
2.86521852
  0
VERTEX
  8
0
 10
10.26457091
 20
2.78491732
  0
VERTEX
  8
0
 10
10.16811422
 20
2.77901181
  0
VERTEX
  8
0
 10
10.11773873
 20
2.70781348
  0
VERTEX
  8
0
 10
10.08781900
 20
2.67613465
  0
VERTEX
  8
0
 10
10.05295674
 20
2.65794882
  0
VERTEX
  8
0
 10
10.00076668
 20
2.76416015
  0
VERTEX
  8
0
 10
9.97351204
 20
2.89539739
  0
VERTEX
  8
0
 10
9.96166884
 20
3.19785236
  0
VERTEX
  8
0
 10
9.95314676
 20
3.49511934
  0
VERTEX
  8
0
 10
9.93004351
 20
3.61987158
  0
VERTEX
  8
0
 10
9.88366540
 20
3.71700393
  0
VERTEX
  8
0
 10
9.75923380
 20
3.85118700
  0
VERTEX
  8
0
 10
9.67866349
 20
3.90032578
  0
VERTEX
  8
0
 10
9.63978816
 20
3.90683630
  0
VERTEX
  8
0
 10
9.60413784
 20
3.89613779
  0
VERTEX
  8
0
 10
9.68925103
 20
3.71162401
  0
VERTEX
  8
0
 10
9.75565408
 20
3.55616080
  0
VERTEX
  8
0
 10
9.79901973
 20
3.39318504
  0
VERTEX
  8
0
 10
9.86224365
 20
2.94998991
  0
VERTEX
  8
0
 10
9.86926776
 20
2.78882578
  0
VERTEX
  8
0
 10
9.84952539
 20
2.76524520
  0
VERTEX
  8
0
 10
9.81311766
 20
2.75366018
  0
VERTEX
  8
0
 10
9.75917278
 20
2.73456668
  0
VERTEX
  8
0
 10
9.68681894
 20
2.68846063
  0
VERTEX
  8
0
 10
9.59428560
 20
2.75812979
  0
VERTEX
  8
0
 10
9.52580615
 20
2.85249508
  0
VERTEX
  8
0
 10
9.46106045
 20
2.94899667
  0
VERTEX
  8
0
 10
9.37972839
 20
3.02507480
  0
VERTEX
  8
0
 10
9.33285802
 20
2.99011695
  0
VERTEX
  8
0
 10
9.31727108
 20
2.94181969
  0
VERTEX
  8
0
 10
9.32606044
 20
2.88458786
  0
VERTEX
  8
0
 10
9.35231894
 20
2.82282628
  0
VERTEX
  8
0
 10
9.42961483
 20
2.70333310
  0
VERTEX
  8
0
 10
9.49390162
 20
2.61857874
  0
VERTEX
  8
0
 10
9.43386965
 20
2.56316729
  0
VERTEX
  8
0
 10
9.36545643
 20
2.52548695
  0
VERTEX
  8
0
 10
9.29601518
 20
2.51047604
  0
VERTEX
  8
0
 10
9.23289916
 20
2.52307283
  0
VERTEX
  8
0
 10
9.18346159
 20
2.56821564
  0
VERTEX
  8
0
 10
9.15505572
 20
2.65084276
  0
VERTEX
  8
0
 10
9.15503478
 20
2.77589250
  0
VERTEX
  8
0
 10
9.19075201
 20
2.94830315
  0
VERTEX
  8
0
 10
9.33445360
 20
3.42208410
  0
VERTEX
  8
0
 10
9.45932509
 20
3.77470577
  0
VERTEX
  8
0
 10
9.56574740
 20
4.02534082
  0
VERTEX
  8
0
 10
9.65410142
 20
4.19316191
  0
VERTEX
  8
0
 10
9.72476807
 20
4.29734169
  0
VERTEX
  8
0
 10
9.77812824
 20
4.35705284
  0
VERTEX
  8
0
 10
9.83445280
 20
4.41975984
  0
VERTEX
  8
0
 10
9.80024422
 20
4.44480781
  0
VERTEX
  8
0
 10
9.75829544
 20
4.44703974
  0
VERTEX
  8
0
 10
9.66377859
 20
4.40249311
  0
VERTEX
  8
0
 10
9.57610474
 20
4.32499520
  0
VERTEX
  8
0
 10
9.52047642
 20
4.25342126
  0
VERTEX
  8
0
 10
9.29811323
 20
3.68337549
  0
VERTEX
  8
0
 10
9.06575201
 20
3.06050787
  0
VERTEX
  8
0
 10
8.99037061
 20
2.75807824
  0
VERTEX
  8
0
 10
8.88169689
 20
2.46208267
  0
VERTEX
  8
0
 10
8.86004335
 20
2.45420866
  0
VERTEX
  8
0
 10
8.83585629
 20
2.52215761
  0
VERTEX
  8
0
 10
8.82736337
 20
2.60856816
  0
VERTEX
  8
0
 10
8.84908506
 20
2.82546629
  0
VERTEX
  8
0
 10
8.90845863
 20
3.08228752
  0
VERTEX
  8
0
 10
8.98873430
 20
3.35641633
  0
VERTEX
  8
0
 10
9.14499279
 20
3.86613459
  0
VERTEX
  8
0
 10
9.18747604
 20
4.05649298
  0
VERTEX
  8
0
 10
9.18386225
 20
4.17369685
  0
VERTEX
  8
0
 10
9.14465693
 20
4.15971815
  0
VERTEX
  8
0
 10
9.10826795
 20
4.12214923
  0
VERTEX
  8
0
 10
9.04460979
 20
4.00244389
  0
VERTEX
  8
0
 10
8.95846855
 20
3.76818504
  0
VERTEX
  8
0
 10
8.92260886
 20
3.79317276
  0
VERTEX
  8
0
 10
8.89631013
 20
3.83654669
  0
VERTEX
  8
0
 10
8.86831980
 20
3.96777516
  0
VERTEX
  8
0
 10
8.86634602
 20
4.14051429
  0
VERTEX
  8
0
 10
8.88223725
 20
4.33340797
  0
VERTEX
  8
0
 10
8.96142130
 20
4.87940551
  0
VERTEX
  8
0
 10
8.88399339
 20
4.87793401
  0
VERTEX
  8
0
 10
8.83433315
 20
4.83046499
  0
VERTEX
  8
0
 10
8.80585663
 20
4.74980248
  0
VERTEX
  8
0
 10
8.79197987
 20
4.64875049
  0
VERTEX
  8
0
 10
8.78168982
 20
4.43669420
  0
VERTEX
  8
0
 10
8.77210863
 20
4.35129796
  0
VERTEX
  8
0
 10
8.75079138
 20
4.29672834
  0
VERTEX
  8
0
 10
8.72288372
 20
4.38407628
  0
VERTEX
  8
0
 10
8.69846215
 20
4.49076476
  0
VERTEX
  8
0
 10
8.66304969
 20
4.58704921
  0
VERTEX
  8
0
 10
8.63669781
 20
4.62199474
  0
VERTEX
  8
0
 10
8.60216934
 20
4.64318504
  0
VERTEX
  8
0
 10
8.57367813
 20
4.61175981
  0
VERTEX
  8
0
 10
8.56143851
 20
4.56882049
  0
VERTEX
  8
0
 10
8.57572919
 20
4.44893842
  0
VERTEX
  8
0
 10
8.68949660
 20
4.07693258
  0
VERTEX
  8
0
 10
8.74903407
 20
3.82696422
  0
VERTEX
  8
0
 10
8.78371455
 20
3.53578918
  0
VERTEX
  8
0
 10
8.77356841
 20
3.20448518
  0
VERTEX
  8
0
 10
8.74544485
 20
3.02412160
  0
VERTEX
  8
0
 10
8.69862603
 20
2.83412992
  0
VERTEX
  8
0
 10
8.64127219
 20
2.62563090
  0
VERTEX
  8
0
 10
8.60032528
 20
2.52003678
  0
VERTEX
  8
0
 10
8.54606697
 20
2.44042913
  0
VERTEX
  8
0
 10
8.48437671
 20
2.48829673
  0
VERTEX
  8
0
 10
8.42759878
 20
2.57327516
  0
VERTEX
  8
0
 10
8.32474955
 20
2.81232628
  0
VERTEX
  8
0
 10
8.22945864
 20
3.07310599
  0
VERTEX
  8
0
 10
8.13366540
 20
3.27113779
  0
VERTEX
  8
0
 10
8.10315359
 20
3.27409055
  0
VERTEX
  8
0
 10
8.08791069
 20
3.20750795
  0
VERTEX
  8
0
 10
8.08891294
 20
3.13486749
  0
VERTEX
  8
0
 10
8.12592623
 20
2.98037795
  0
VERTEX
  8
0
 10
8.24390162
 20
2.69731889
  0
VERTEX
  8
0
 10
8.23209060
 20
2.69042913
  0
VERTEX
  8
0
 10
8.15107731
 20
2.74301082
  0
VERTEX
  8
0
 10
8.10741546
 20
2.76332824
  0
VERTEX
  8
0
 10
8.06378351
 20
2.76818504
  0
VERTEX
  8
0
 10
8.06329157
 20
2.70964714
  0
VERTEX
  8
0
 10
8.08385684
 20
2.65128346
  0
VERTEX
  8
0
 10
8.10718072
 20
2.59206939
  0
VERTEX
  8
0
 10
8.11496461
 20
2.53098031
  0
VERTEX
  8
0
 10
8.05077225
 20
2.50731059
  0
VERTEX
  8
0
 10
7.97140014
 20
2.50303198
  0
VERTEX
  8
0
 10
7.81673626
 20
2.51227952
  0
VERTEX
  8
0
 10
7.80295674
 20
2.53393307
  0
VERTEX
  8
0
 10
7.87270772
 20
2.68183563
  0
VERTEX
  8
0
 10
7.90538599
 20
2.75618368
  0
VERTEX
  8
0
 10
7.92008272
 20
2.83314567
  0
VERTEX
  8
0
 10
7.88858666
 20
2.85775196
  0
VERTEX
  8
0
 10
7.79894640
 20
2.80493399
  0
VERTEX
  8
0
 10
7.72756304
 20
2.73539124
  0
VERTEX
  8
0
 10
7.61496461
 20
2.56542913
  0
VERTEX
  8
0
 10
7.51318178
 20
2.56896381
  0
VERTEX
  8
0
 10
7.45077926
 20
2.58429023
  0
VERTEX
  8
0
 10
7.41851211
 20
2.61028034
  0
VERTEX
  8
0
 10
7.40713538
 20
2.64580610
  0
VERTEX
  8
0
 10
7.41007343
 20
2.74095238
  0
VERTEX
  8
0
 10
7.40589834
 20
2.79831682
  0
VERTEX
  8
0
 10
7.38563390
 20
2.86070472
  0
VERTEX
  8
0
 10
7.33967002
 20
2.86701260
  0
VERTEX
  8
0
 10
7.29690882
 20
2.85664954
  0
VERTEX
  8
0
 10
7.21751333
 20
2.80664911
  0
VERTEX
  8
0
 10
7.14048522
 20
2.75218042
  0
VERTEX
  8
0
 10
7.10068323
 20
2.73623204
  0
VERTEX
  8
0
 10
7.05886225
 20
2.73472047
  0
VERTEX
  8
0
 10
7.05525141
 20
2.78696324
  0
VERTEX
  8
0
 10
7.06783647
 20
2.85074926
  0
VERTEX
  8
0
 10
7.12757632
 20
2.99614763
  0
VERTEX
  8
0
 10
7.21004575
 20
3.13730881
  0
VERTEX
  8
0
 10
7.28720871
 20
3.24062598
  0
VERTEX
  8
0
 10
7.38929440
 20
3.33184153
  0
VERTEX
  8
0
 10
7.51159207
 20
3.42638189
  0
VERTEX
  8
0
 10
7.62086145
 20
3.52819193
  0
VERTEX
  8
0
 10
7.66022294
 20
3.58305585
  0
VERTEX
  8
0
 10
7.68386225
 20
3.64121653
  0
VERTEX
  8
0
 10
7.66024020
 20
3.65696456
  0
VERTEX
  8
0
 10
7.50832239
 20
3.58702756
  0
VERTEX
  8
0
 10
7.37087012
 20
3.48964173
  0
VERTEX
  8
0
 10
7.33642130
 20
3.51424803
  0
VERTEX
  8
0
 10
7.21988587
 20
3.38915188
  0
VERTEX
  8
0
 10
7.12197052
 20
3.23932234
  0
VERTEX
  8
0
 10
7.01932189
 20
3.09457375
  0
VERTEX
  8
0
 10
6.95892469
 20
3.03342180
  0
VERTEX
  8
0
 10
6.88858666
 20
2.98472047
  0
VERTEX
  8
0
 10
6.82862191
 20
3.18674071
  0
VERTEX
  8
0
 10
6.77530270
 20
3.48323179
  0
VERTEX
  8
0
 10
6.71437406
 20
4.01031102
  0
VERTEX
  8
0
 10
6.73209060
 20
4.42074409
  0
VERTEX
  8
0
 10
6.71191724
 20
4.74588226
  0
VERTEX
  8
0
 10
6.67668115
 20
5.07801181
  0
VERTEX
  8
0
 10
6.65758481
 20
5.40950947
  0
VERTEX
  8
0
 10
6.66383984
 20
5.57263907
  0
VERTEX
  8
0
 10
6.68583075
 20
5.73275196
  0
VERTEX
  8
0
 10
6.74757546
 20
5.98212998
  0
VERTEX
  8
0
 10
6.82529827
 20
6.23925049
  0
VERTEX
  8
0
 10
6.90341528
 20
6.50763945
  0
VERTEX
  8
0
 10
6.96634256
 20
6.79082283
  0
VERTEX
  8
0
 10
7.02117967
 20
7.07691240
  0
VERTEX
  8
0
 10
7.07717001
 20
7.20331360
  0
VERTEX
  8
0
 10
7.17598823
 20
7.31641338
  0
VERTEX
  8
0
 10
7.19721590
 20
7.25784289
  0
VERTEX
  8
0
 10
7.19515408
 20
7.18879232
  0
VERTEX
  8
0
 10
7.19359792
 20
7.11859165
  0
VERTEX
  8
0
 10
7.21634256
 20
7.05657086
  0
VERTEX
  8
0
 10
7.25472839
 20
7.05657086
  0
VERTEX
  8
0
 10
7.31449414
 20
7.16641929
  0
VERTEX
  8
0
 10
7.35099783
 20
7.21899274
  0
VERTEX
  8
0
 10
7.39449217
 20
7.25440551
  0
VERTEX
  8
0
 10
7.44418804
 20
7.18317913
  0
VERTEX
  8
0
 10
7.49980713
 20
7.11857874
  0
VERTEX
  8
0
 10
7.55670071
 20
7.15654718
  0
VERTEX
  8
0
 10
7.60522544
 20
7.22013041
  0
VERTEX
  8
0
 10
7.68386225
 20
7.35578346
  0
VERTEX
  8
0
 10
7.72594050
 20
7.29575000
  0
VERTEX
  8
0
 10
7.74882288
 20
7.22094094
  0
VERTEX
  8
0
 10
7.77835044
 20
7.21503543
  0
VERTEX
  8
0
 10
7.82575275
 20
7.27016929
  0
VERTEX
  8
0
 10
7.85850792
 20
7.33992224
  0
VERTEX
  8
0
 10
7.89203080
 20
7.40702509
  0
VERTEX
  8
0
 10
7.94173626
 20
7.45420866
  0
VERTEX
  8
0
 10
7.99390162
 20
7.41975984
  0
VERTEX
  8
0
 10
8.22909896
 20
7.49540206
  0
VERTEX
  8
0
 10
8.40630713
 20
7.54968110
  0
VERTEX
  8
0
 10
8.43156893
 20
7.65387204
  0
VERTEX
  8
0
 10
8.46854274
 20
7.69971278
  0
VERTEX
  8
0
 10
8.51453039
 20
7.70358554
  0
VERTEX
  8
0
 10
8.56683371
 20
7.68187254
  0
VERTEX
  8
0
 10
8.67959466
 20
7.62721807
  0
VERTEX
  8
0
 10
8.73465594
 20
7.62704103
  0
VERTEX
  8
0
 10
8.78524020
 20
7.66680708
  0
VERTEX
  8
0
 10
8.84269067
 20
7.72986810
  0
VERTEX
  8
0
 10
8.91080239
 20
7.78243128
  0
VERTEX
  8
0
 10
9.05804187
 20
7.86696702
  0
VERTEX
  8
0
 10
9.18502324
 20
7.94222004
  0
VERTEX
  8
0
 10
9.22781231
 20
7.98317981
  0
VERTEX
  8
0
 10
9.24981107
 20
8.02999606
  0
VERTEX
  8
0
 10
9.27440359
 20
8.22725098
  0
VERTEX
  8
0
 10
9.30678191
 20
8.32378494
  0
VERTEX
  8
0
 10
9.33464936
 20
8.35953066
  0
VERTEX
  8
0
 10
9.37283863
 20
8.38235826
  0
VERTEX
  8
0
 10
9.41089867
 20
8.32840600
  0
VERTEX
  8
0
 10
9.46240556
 20
8.29180708
  0
VERTEX
  8
0
 10
9.52572821
 20
8.35419832
  0
VERTEX
  8
0
 10
9.56968262
 20
8.43412598
  0
VERTEX
  8
0
 10
9.62446701
 20
8.51769734
  0
VERTEX
  8
0
 10
9.72027957
 20
8.59101968
  0
VERTEX
  8
0
 10
9.83660548
 20
8.65515908
  0
VERTEX
  8
0
 10
9.86441441
 20
8.68374508
  0
VERTEX
  8
0
 10
9.86395514
 20
8.70361601
  0
VERTEX
  8
0
 10
9.89547642
 20
8.74161023
  0
VERTEX
  8
0
 10
10.01161815
 20
8.78491732
  0
VERTEX
  8
0
 10
10.08344345
 20
8.84453807
  0
VERTEX
  8
0
 10
10.14702170
 20
8.91079773
  0
VERTEX
  8
0
 10
10.21548676
 20
8.97021955
  0
VERTEX
  8
0
 10
10.30197248
 20
9.00932677
  0
VERTEX
  8
0
 10
10.34444050
 20
8.93050738
  0
VERTEX
  8
0
 10
10.36502619
 20
8.89251667
  0
VERTEX
  8
0
 10
10.39646067
 20
8.86464173
  0
VERTEX
  8
0
 10
10.42598823
 20
8.87743700
  0
VERTEX
  8
0
 10
10.44592426
 20
8.96842322
  0
VERTEX
  8
0
 10
10.46208014
 20
9.01124335
  0
VERTEX
  8
0
 10
10.48898036
 20
9.04574409
  0
VERTEX
  8
0
 10
10.54037953
 20
9.01648929
  0
VERTEX
  8
0
 10
10.57664030
 20
8.96772047
  0
VERTEX
  8
0
 10
10.61188606
 20
8.91662487
  0
VERTEX
  8
0
 10
10.66024020
 20
8.88038976
  0
VERTEX
  8
0
 10
10.76689055
 20
8.97286109
  0
VERTEX
  8
0
 10
10.77928745
 20
9.00406791
  0
VERTEX
  8
0
 10
10.79613710
 20
8.99361282
  0
VERTEX
  8
0
 10
10.91614571
 20
8.96109842
  0
VERTEX
  8
0
 10
10.98869694
 20
8.96039316
  0
VERTEX
  8
0
 10
11.03166109
 20
8.98648314
  0
VERTEX
  8
0
 10
11.05196303
 20
9.03299641
  0
VERTEX
  8
0
 10
11.05652760
 20
9.09356102
  0
VERTEX
  8
0
 10
11.04614411
 20
9.23135642
  0
VERTEX
  8
0
 10
11.04504577
 20
9.29584330
  0
VERTEX
  8
0
 10
11.05590949
 20
9.34889370
  0
VERTEX
  8
0
 10
11.19272052
 20
9.57625590
  0
VERTEX
  8
0
 10
11.38074266
 20
9.59706207
  0
VERTEX
  8
0
 10
11.56543410
 20
9.60945620
  0
VERTEX
  8
0
 10
11.74782386
 20
9.63453168
  0
VERTEX
  8
0
 10
11.92894099
 20
9.69338189
  0
VERTEX
  8
0
 10
12.23649844
 20
9.82718903
  0
VERTEX
  8
0
 10
12.39777563
 20
9.86378592
  0
VERTEX
  8
0
 10
12.57365125
 20
9.85233630
  0
VERTEX
  8
0
 10
12.92500398
 20
9.84200393
  0
VERTEX
  8
0
 10
13.05883301
 20
9.86363282
  0
VERTEX
  8
0
 10
13.22468268
 20
9.92142821
  0
VERTEX
  8
0
 10
13.40361169
 20
10.00924436
  0
VERTEX
  8
0
 10
13.57667869
 20
10.12093553
  0
VERTEX
  8
0
 10
13.72494235
 20
10.25035596
  0
VERTEX
  8
0
 10
13.82946135
 20
10.39135992
  0
VERTEX
  8
0
 10
13.85939744
 20
10.46428518
  0
VERTEX
  8
0
 10
13.87129436
 20
10.53780166
  0
VERTEX
  8
0
 10
13.86278445
 20
10.61114115
  0
VERTEX
  8
0
 10
13.83150004
 20
10.68353543
  0
VERTEX
  8
0
 10
13.74593311
 20
10.78497244
  0
VERTEX
  8
0
 10
13.70236225
 20
10.83169291
  0
VERTEX
  8
0
 10
14.05197248
 20
10.83169291
  0
VERTEX
  8
0
 10
14.05197248
 20
4.86023622
  0
VERTEX
  8
0
 10
13.43583075
 20
4.86023622
  0
VERTEX
  8
0
 10
13.43504532
 20
2.16535236
  0
VERTEX
  8
0
 10
11.15883154
 20
2.16535433
  0
SEQEND
  0
POLYLINE
  8
Layer_1
 66
   1
 39
0.000000
 70
    0
  0
VERTEX
  8
0
 10
41.54888587
 20
2.16535039
  0
VERTEX
  8
0
 10
41.71491837
 20
2.24558166
  0
VERTEX
  8
0
 10
41.87149366
 20
2.34152862
  0
VERTEX
  8
0
 10
42.01874381
 20
2.45181633
  0
VERTEX
  8
0
 10
42.15680086
 20
2.57506982
  0
VERTEX
  8
0
 10
42.40586389
 20
2.85497435
  0
VERTEX
  8
0
 10
42.61973922
 20
3.17024261
  0
VERTEX
  8
0
 10
42.79948327
 20
3.50987499
  0
VERTEX
  8
0
 10
42.94615248
 20
3.86287186
  0
VERTEX
  8
0
 10
43.06080330
 20
4.21823361
  0
VERTEX
  8
0
 10
43.14449217
 20
4.56496063
  0
VERTEX
  8
0
 10
43.19424635
 20
4.85663031
  0
VERTEX
  8
0
 10
43.23527510
 20
5.19026416
  0
VERTEX
  8
0
 10
43.29420046
 20
5.95878531
  0
VERTEX
  8
0
 10
43.32735657
 20
6.82124598
  0
VERTEX
  8
0
 10
43.34083174
 20
7.72836811
  0
VERTEX
  8
0
 10
43.33309244
 20
9.47948437
  0
VERTEX
  8
0
 10
43.31968902
 20
10.81790945
  0
VERTEX
  8
0
 10
43.92992524
 20
10.81790945
  0
VERTEX
  8
0
 10
43.92992524
 20
13.58070866
  0
VERTEX
  8
0
 10
41.02638193
 20
13.58070866
  0
VERTEX
  8
0
 10
41.02638193
 20
10.81790945
  0
VERTEX
  8
0
 10
41.41417721
 20
10.81790945
  0
VERTEX
  8
0
 10
41.43590211
 20
8.16894783
  0
VERTEX
  8
0
 10
41.42671553
 20
6.73991400
  0
VERTEX
  8
0
 10
41.40651003
 20
6.11292798
  0
VERTEX
  8
0
 10
41.37185831
 20
5.58759842
  0
VERTEX
  8
0
 10
41.33816622
 20
5.34136986
  0
VERTEX
  8
0
 10
41.28753649
 20
5.13097757
  0
VERTEX
  8
0
 10
41.22219729
 20
4.95478443
  0
VERTEX
  8
0
 10
41.14437677
 20
4.81115329
  0
VERTEX
  8
0
 10
41.05630307
 20
4.69844701
  0
VERTEX
  8
0
 10
40.96020437
 20
4.61502845
  0
VERTEX
  8
0
 10
40.85830880
 20
4.55926046
  0
VERTEX
  8
0
 10
40.75284453
 20
4.52950590
  0
VERTEX
  8
0
 10
40.64603971
 20
4.52412764
  0
VERTEX
  8
0
 10
40.54012249
 20
4.54148852
  0
VERTEX
  8
0
 10
40.43732103
 20
4.57995142
  0
VERTEX
  8
0
 10
40.33986348
 20
4.63787918
  0
VERTEX
  8
0
 10
40.24997799
 20
4.71363467
  0
VERTEX
  8
0
 10
40.16989273
 20
4.80558074
  0
VERTEX
  8
0
 10
40.10183584
 20
4.91208025
  0
VERTEX
  8
0
 10
40.04803548
 20
5.03149606
  0
VERTEX
  8
0
 10
39.99835654
 20
5.21818250
  0
VERTEX
  8
0
 10
39.95736060
 20
5.47532308
  0
VERTEX
  8
0
 10
39.89839430
 20
6.16057332
  0
VERTEX
  8
0
 10
39.86508976
 20
7.00646013
  0
VERTEX
  8
0
 10
39.85140014
 20
7.93219685
  0
VERTEX
  8
0
 10
39.85867838
 20
9.70007332
  0
VERTEX
  8
0
 10
39.87185437
 20
10.81790945
  0
VERTEX
  8
0
 10
40.23701186
 20
10.81790945
  0
VERTEX
  8
0
 10
40.23701186
 20
13.58070866
  0
VERTEX
  8
0
 10
36.28228745
 20
13.58070866
  0
VERTEX
  8
0
 10
36.28228745
 20
10.81790945
  0
VERTEX
  8
0
 10
36.87579138
 20
10.81790945
  0
VERTEX
  8
0
 10
36.87579138
 20
7.12007874
  0
VERTEX
  8
0
 10
36.88759678
 20
6.49359549
  0
VERTEX
  8
0
 10
36.91872224
 20
5.79515299
  0
VERTEX
  8
0
 10
36.99044477
 20
5.06175123
  0
VERTEX
  8
0
 10
37.04817900
 20
4.69350315
  0
VERTEX
  8
0
 10
37.12404138
 20
4.33039025
  0
VERTEX
  8
0
 10
37.22069153
 20
3.97703755
  0
VERTEX
  8
0
 10
37.34078908
 20
3.63807006
  0
VERTEX
  8
0
 10
37.48699364
 20
3.31811276
  0
VERTEX
  8
0
 10
37.66196486
 20
3.02179066
  0
VERTEX
  8
0
 10
37.86836234
 20
2.75372876
  0
VERTEX
  8
0
 10
38.10884573
 20
2.51855208
  0
VERTEX
  8
0
 10
38.38607464
 20
2.32088560
  0
VERTEX
  8
0
 10
38.70270871
 20
2.16535433
  0
SEQEND
  0
POLYLINE
  8
Layer_1
 66
   1
 39
0.000000
 70
    0
  0
VERTEX
  8
0
 10
20.52361028
 20
14.08771259
  0
VERTEX
  8
0
 10
20.52539768
 20
13.56102362
  0
VERTEX
  8
0
 10
19.26949217
 20
13.56102362
  0
VERTEX
  8
0
 10
19.28662344
 20
14.15642384
  0
VERTEX
  8
0
 10
19.28906410
 20
14.40895846
  0
VERTEX
  8
0
 10
19.27055615
 20
14.61666830
  0
VERTEX
  8
0
 10
19.24949364
 20
14.70026524
  0
VERTEX
  8
0
 10
19.21845063
 20
14.76851754
  0
VERTEX
  8
0
 10
19.17584599
 20
14.82004574
  0
VERTEX
  8
0
 10
19.12009859
 20
14.85347035
  0
VERTEX
  8
0
 10
19.04962733
 20
14.86741188
  0
VERTEX
  8
0
 10
18.96285107
 20
14.86049088
  0
VERTEX
  8
0
 10
18.85818870
 20
14.83132784
  0
VERTEX
  8
0
 10
18.73405910
 20
14.77854330
  0
VERTEX
  8
0
 10
18.73405910
 20
14.16141338
  0
VERTEX
  8
0
 10
19.01063390
 20
14.16141338
  0
VERTEX
  8
0
 10
19.01063390
 20
13.56102362
  0
VERTEX
  8
0
 10
18.38424414
 20
13.56102362
  0
SEQEND
  0
POLYLINE
  8
Layer_1
 66
   1
 39
0.000000
 70
    0
  0
VERTEX
  8
0
 10
83.72321658
 20
2.16535433
  0
VERTEX
  8
0
 10
83.90958426
 20
2.25445737
  0
VERTEX
  8
0
 10
83.96087055
 20
2.30241837
  0
VERTEX
  8
0
 10
83.99087554
 20
2.35653887
  0
VERTEX
  8
0
 10
84.00699285
 20
2.49491787
  0
VERTEX
  8
0
 10
83.99783863
 20
2.69291338
  0
VERTEX
  8
0
 10
84.11374906
 20
2.76269635
  0
VERTEX
  8
0
 10
84.17517229
 20
2.78518276
  0
VERTEX
  8
0
 10
84.24291737
 20
2.79429133
  0
VERTEX
  8
0
 10
84.12969197
 20
3.63412057
  0
VERTEX
  8
0
 10
84.06772630
 20
4.05288010
  0
VERTEX
  8
0
 10
83.99094886
 20
4.46948819
  0
VERTEX
  8
0
 10
83.89262947
 20
5.05170177
  0
VERTEX
  8
0
 10
83.85669351
 20
5.38405339
  0
VERTEX
  8
0
 10
83.86102760
 20
5.61122047
  0
VERTEX
  8
0
 10
83.92717597
 20
5.95211346
  0
VERTEX
  8
0
 10
83.96526130
 20
6.25623007
  0
VERTEX
  8
0
 10
83.98206234
 20
6.52737435
  0
VERTEX
  8
0
 10
83.98435782
 20
6.76935039
  0
VERTEX
  8
0
 10
83.97254710
 20
7.18101402
  0
VERTEX
  8
0
 10
83.97199839
 20
7.35830976
  0
VERTEX
  8
0
 10
83.98405910
 20
7.52165354
  0
VERTEX
  8
0
 10
84.83126038
 20
7.54382086
  0
VERTEX
  8
0
 10
85.25391669
 20
7.56714739
  0
VERTEX
  8
0
 10
85.67205123
 20
7.61811023
  0
VERTEX
  8
0
 10
86.05896756
 20
7.67149366
  0
VERTEX
  8
0
 10
86.29112997
 20
7.69282529
  0
VERTEX
  8
0
 10
86.55824119
 20
7.73954546
  0
VERTEX
  8
0
 10
87.05000398
 20
7.86909448
  0
VERTEX
  8
0
 10
87.44633666
 20
7.97176722
  0
VERTEX
  8
0
 10
87.83937406
 20
8.07775590
  0
VERTEX
  8
0
 10
87.97412634
 20
8.11120719
  0
VERTEX
  8
0
 10
88.10960831
 20
8.12872102
  0
VERTEX
  8
0
 10
88.24414983
 20
8.12926915
  0
VERTEX
  8
0
 10
88.37608075
 20
8.11182332
  0
VERTEX
  8
0
 10
88.50373091
 20
8.07535529
  0
VERTEX
  8
0
 10
88.62543016
 20
8.01883680
  0
VERTEX
  8
0
 10
88.73950835
 20
7.94123959
  0
VERTEX
  8
0
 10
88.84429532
 20
7.84153543
  0
VERTEX
  8
0
 10
88.94964387
 20
7.64455327
  0
VERTEX
  8
0
 10
89.03832529
 20
7.47581147
  0
VERTEX
  8
0
 10
89.16192130
 20
7.27429527
  0
VERTEX
  8
0
 10
89.32861426
 20
7.05054926
  0
VERTEX
  8
0
 10
89.54658654
 20
6.81511798
  0
VERTEX
  8
0
 10
89.82402048
 20
6.57854603
  0
VERTEX
  8
0
 10
90.16909847
 20
6.35137795
  0
VERTEX
  8
0
 10
90.30351172
 20
6.28600672
  0
VERTEX
  8
0
 10
90.42185671
 20
6.24528481
  0
VERTEX
  8
0
 10
90.62085930
 20
6.18338189
  0
VERTEX
  8
0
 10
90.70677556
 20
6.13499730
  0
VERTEX
  8
0
 10
90.78714092
 20
6.05685494
  0
VERTEX
  8
0
 10
90.86458471
 20
5.93535302
  0
VERTEX
  8
0
 10
90.94173626
 20
5.75688976
  0
VERTEX
  8
0
 10
90.95562434
 20
5.69559451
  0
VERTEX
  8
0
 10
90.95554021
 20
5.62907213
  0
VERTEX
  8
0
 10
90.92048374
 20
5.48527220
  0
VERTEX
  8
0
 10
90.85062379
 20
5.33534245
  0
VERTEX
  8
0
 10
90.76001727
 20
5.18913533
  0
VERTEX
  8
0
 10
90.57279218
 20
4.94729890
  0
VERTEX
  8
0
 10
90.47126382
 20
4.83858267
  0
VERTEX
  8
0
 10
90.34056008
 20
4.75213632
  0
VERTEX
  8
0
 10
90.15531894
 20
4.56102362
  0
VERTEX
  8
0
 10
90.09912139
 20
4.47360747
  0
VERTEX
  8
0
 10
90.07374346
 20
4.38481133
  0
VERTEX
  8
0
 10
90.07088962
 20
4.29496520
  0
VERTEX
  8
0
 10
90.08226432
 20
4.20439911
  0
VERTEX
  8
0
 10
90.11451721
 20
4.02242710
  0
VERTEX
  8
0
 10
90.11880432
 20
3.93168121
  0
VERTEX
  8
0
 10
90.10413784
 20
3.84153543
  0
VERTEX
  8
0
 10
90.09261835
 20
3.73253913
  0
VERTEX
  8
0
 10
90.11956857
 20
3.63005296
  0
VERTEX
  8
0
 10
90.17615210
 20
3.53368537
  0
VERTEX
  8
0
 10
90.25353252
 20
3.44304478
  0
VERTEX
  8
0
 10
90.43533850
 20
3.27737838
  0
VERTEX
  8
0
 10
90.59429532
 20
3.12992126
  0
VERTEX
  8
0
 10
90.78228745
 20
2.91732283
  0
VERTEX
  8
0
 10
90.90376038
 20
3.36797047
  0
VERTEX
  8
0
 10
90.96066361
 20
3.63051636
  0
VERTEX
  8
0
 10
90.97057269
 20
3.72537597
  0
VERTEX
  8
0
 10
90.96142130
 20
3.77854330
  0
VERTEX
  8
0
 10
90.85823503
 20
3.87578174
  0
VERTEX
  8
0
 10
90.74463292
 20
3.96527657
  0
VERTEX
  8
0
 10
90.70213796
 20
4.01350455
  0
VERTEX
  8
0
 10
90.67889350
 20
4.06745792
  0
VERTEX
  8
0
 10
90.68218435
 20
4.12969045
  0
VERTEX
  8
0
 10
90.71929532
 20
4.20275590
  0
VERTEX
  8
0
 10
90.87775989
 20
4.20767716
  0
VERTEX
  8
0
 10
91.01735388
 20
4.50094439
  0
VERTEX
  8
0
 10
91.09284915
 20
4.64377245
  0
VERTEX
  8
0
 10
91.18090949
 20
4.77952756
  0
VERTEX
  8
0
 10
91.24074857
 20
4.00624704
  0
VERTEX
  8
0
 10
91.29016146
 20
3.23326771
  0
VERTEX
  8
0
 10
91.09809773
 20
2.99796776
  0
VERTEX
  8
0
 10
90.95072248
 20
2.74016633
  0
VERTEX
  8
0
 10
90.83808641
 20
2.46364591
  0
VERTEX
  8
0
 10
90.75024020
 20
2.17218897
  0
SEQEND
  0
POLYLINE
  8
Layer_1
 66
   1
 39
0.000000
 70
    0
  0
VERTEX
  8
0
 10
83.00674808
 20
2.16535433
  0
VERTEX
  8
0
 10
73.46692918
 20
2.16535039
  0
VERTEX
  8
0
 10
73.49156974
 20
2.21382455
  0
VERTEX
  8
0
 10
73.50434502
 20
2.27178149
  0
VERTEX
  8
0
 10
73.51555516
 20
2.38681102
  0
VERTEX
  8
0
 10
73.58112750
 20
2.32259596
  0
VERTEX
  8
0
 10
73.63464965
 20
2.24507874
  0
VERTEX
  8
0
 10
73.80011775
 20
2.25032917
  0
VERTEX
  8
0
 10
73.96164817
 20
2.30492199
  0
VERTEX
  8
0
 10
74.10706245
 20
2.40176765
  0
VERTEX
  8
0
 10
74.22418213
 20
2.53377657
  0
VERTEX
  8
0
 10
74.30082875
 20
2.69385919
  0
VERTEX
  8
0
 10
74.32016890
 20
2.78221264
  0
VERTEX
  8
0
 10
74.32482386
 20
2.87492593
  0
VERTEX
  8
0
 10
74.31327133
 20
2.97111286
  0
VERTEX
  8
0
 10
74.28398900
 20
3.06988724
  0
VERTEX
  8
0
 10
74.23545456
 20
3.17036286
  0
VERTEX
  8
0
 10
74.16614571
 20
3.27165354
  0
VERTEX
  8
0
 10
74.11004154
 20
3.36157801
  0
VERTEX
  8
0
 10
74.09440728
 20
3.43104287
  0
VERTEX
  8
0
 10
74.10477314
 20
3.48743229
  0
VERTEX
  8
0
 10
74.12666934
 20
3.53813041
  0
VERTEX
  8
0
 10
74.14562606
 20
3.59052138
  0
VERTEX
  8
0
 10
74.14717352
 20
3.65198935
  0
VERTEX
  8
0
 10
74.11684192
 20
3.72991848
  0
VERTEX
  8
0
 10
74.04016146
 20
3.83169291
  0
VERTEX
  8
0
 10
73.73985019
 20
4.16012112
  0
VERTEX
  8
0
 10
73.62545474
 20
4.30176900
  0
VERTEX
  8
0
 10
73.53798823
 20
4.44336958
  0
VERTEX
  8
0
 10
73.47976730
 20
4.59617053
  0
VERTEX
  8
0
 10
73.45310856
 20
4.77141947
  0
VERTEX
  8
0
 10
73.46032863
 20
4.98036407
  0
VERTEX
  8
0
 10
73.50374414
 20
5.23425196
  0
VERTEX
  8
0
 10
73.58096873
 20
5.46583956
  0
VERTEX
  8
0
 10
73.66040014
 20
5.68498425
  0
VERTEX
  8
0
 10
73.68277369
 20
5.80616757
  0
VERTEX
  8
0
 10
73.68389528
 20
5.94377263
  0
VERTEX
  8
0
 10
73.65649704
 20
6.10431028
  0
VERTEX
  8
0
 10
73.59331107
 20
6.29429133
  0
VERTEX
  8
0
 10
73.49420440
 20
6.55710906
  0
VERTEX
  8
0
 10
73.47704630
 20
6.68416092
  0
VERTEX
  8
0
 10
73.48996941
 20
6.85299058
  0
VERTEX
  8
0
 10
73.48110634
 20
7.24114173
  0
VERTEX
  8
0
 10
73.41772280
 20
7.89788606
  0
VERTEX
  8
0
 10
73.34922550
 20
8.30061140
  0
VERTEX
  8
0
 10
73.29648863
 20
8.52785252
  0
VERTEX
  8
0
 10
73.28038636
 20
8.65814419
  0
VERTEX
  8
0
 10
73.32179290
 20
8.77002118
  0
VERTEX
  8
0
 10
73.44158241
 20
8.94201827
  0
VERTEX
  8
0
 10
73.66062910
 20
9.25267022
  0
VERTEX
  8
0
 10
73.99980713
 20
9.78051181
  0
VERTEX
  8
0
 10
74.13432448
 20
10.01694629
  0
VERTEX
  8
0
 10
74.25308666
 20
10.26662647
  0
VERTEX
  8
0
 10
74.34904766
 20
10.52546389
  0
VERTEX
  8
0
 10
74.41516146
 20
10.78937008
  0
VERTEX
  8
0
 10
74.42270280
 20
10.87645275
  0
VERTEX
  8
0
 10
74.43136877
 20
10.92084448
  0
VERTEX
  8
0
 10
74.45059453
 20
10.95177165
  0
VERTEX
  8
0
 10
74.49052514
 20
10.84372982
  0
VERTEX
  8
0
 10
74.54016146
 20
10.74114173
  0
VERTEX
  8
0
 10
74.55590949
 20
10.74507874
  0
VERTEX
  8
0
 10
74.60420545
 20
10.97416321
  0
VERTEX
  8
0
 10
74.63685173
 20
11.04476153
  0
VERTEX
  8
0
 10
74.67234804
 20
11.08761232
  0
VERTEX
  8
0
 10
74.70858274
 20
11.10387692
  0
VERTEX
  8
0
 10
74.74344421
 20
11.09471664
  0
VERTEX
  8
0
 10
74.77482082
 20
11.06129280
  0
VERTEX
  8
0
 10
74.80060093
 20
11.00476673
  0
VERTEX
  8
0
 10
74.82692516
 20
10.82705316
  0
VERTEX
  8
0
 10
74.80552385
 20
10.57086651
  0
VERTEX
  8
0
 10
74.71950397
 20
10.24549734
  0
VERTEX
  8
0
 10
74.64698300
 20
10.05977261
  0
VERTEX
  8
0
 10
74.55197248
 20
9.86023622
  0
VERTEX
  8
0
 10
74.52429876
 20
9.81218504
  0
VERTEX
  8
0
 10
74.51555516
 20
9.76082677
  0
VERTEX
  8
0
 10
74.58058179
 20
9.76518480
  0
VERTEX
  8
0
 10
74.64548768
 20
9.78919426
  0
VERTEX
  8
0
 10
74.77092278
 20
9.87778543
  0
VERTEX
  8
0
 10
74.97618508
 20
10.08858267
  0
VERTEX
  8
0
 10
74.96246619
 20
9.97184678
  0
VERTEX
  8
0
 10
74.93146836
 20
9.85293147
  0
VERTEX
  8
0
 10
74.85033124
 20
9.61143307
  0
VERTEX
  8
0
 10
74.81653961
 20
9.49028520
  0
VERTEX
  8
0
 10
74.79816435
 20
9.36982837
  0
VERTEX
  8
0
 10
74.80337931
 20
9.25078019
  0
VERTEX
  8
0
 10
74.84035831
 20
9.13385826
  0
VERTEX
  8
0
 10
74.86398036
 20
9.12598425
  0
VERTEX
  8
0
 10
74.92658893
 20
9.24303727
  0
VERTEX
  8
0
 10
74.99127219
 20
9.39685433
  0
VERTEX
  8
0
 10
75.03015212
 20
9.46910871
  0
VERTEX
  8
0
 10
75.07646307
 20
9.52842532
  0
VERTEX
  8
0
 10
75.13250917
 20
9.56742788
  0
VERTEX
  8
0
 10
75.20059453
 20
9.57874015
  0
VERTEX
  8
0
 10
75.22315722
 20
9.42078771
  0
VERTEX
  8
0
 10
75.24322252
 20
9.29558666
  0
VERTEX
  8
0
 10
75.27972495
 20
9.15519734
  0
VERTEX
  8
0
 10
75.34060034
 20
9.01134092
  0
VERTEX
  8
0
 10
75.43378455
 20
8.87573862
  0
VERTEX
  8
0
 10
75.56721345
 20
8.76011161
  0
VERTEX
  8
0
 10
75.74882288
 20
8.67618110
  0
VERTEX
  8
0
 10
75.80492524
 20
8.67027559
  0
VERTEX
  8
0
 10
75.81968902
 20
8.68503937
  0
VERTEX
  8
0
 10
75.73167395
 20
8.83142058
  0
VERTEX
  8
0
 10
75.61555270
 20
8.98551919
  0
VERTEX
  8
0
 10
75.56471713
 20
9.06592861
  0
VERTEX
  8
0
 10
75.52817284
 20
9.14882671
  0
VERTEX
  8
0
 10
75.51302580
 20
9.23439990
  0
VERTEX
  8
0
 10
75.52638193
 20
9.32283464
  0
VERTEX
  8
0
 10
75.64966060
 20
9.15261558
  0
VERTEX
  8
0
 10
75.78057339
 20
8.98555506
  0
VERTEX
  8
0
 10
75.94729729
 20
8.79962057
  0
VERTEX
  8
0
 10
76.14205392
 20
8.62163212
  0
VERTEX
  8
0
 10
76.35706488
 20
8.47840975
  0
VERTEX
  8
0
 10
76.46973499
 20
8.42821710
  0
VERTEX
  8
0
 10
76.58455179
 20
8.39677347
  0
VERTEX
  8
0
 10
76.70054298
 20
8.38743137
  0
VERTEX
  8
0
 10
76.81673626
 20
8.40354330
  0
VERTEX
  8
0
 10
76.85964178
 20
8.42325984
  0
VERTEX
  8
0
 10
76.88858666
 20
8.45866141
  0
VERTEX
  8
0
 10
76.79261190
 20
8.55281692
  0
VERTEX
  8
0
 10
76.66905412
 20
8.63727110
  0
VERTEX
  8
0
 10
76.37376235
 20
8.81234596
  0
VERTEX
  8
0
 10
76.21931481
 20
8.92060189
  0
VERTEX
  8
0
 10
76.07185714
 20
9.05442698
  0
VERTEX
  8
0
 10
75.94003256
 20
9.22263885
  0
VERTEX
  8
0
 10
75.83248430
 20
9.43405511
  0
VERTEX
  8
0
 10
75.92972613
 20
9.37752083
  0
VERTEX
  8
0
 10
76.07736163
 20
9.24569599
  0
VERTEX
  8
0
 10
76.26850138
 20
9.07199903
  0
VERTEX
  8
0
 10
76.49625595
 20
8.88984842
  0
VERTEX
  8
0
 10
76.75373591
 20
8.73266263
  0
VERTEX
  8
0
 10
76.89146997
 20
8.67387481
  0
VERTEX
  8
0
 10
77.03405184
 20
8.63386011
  0
VERTEX
  8
0
 10
77.18062035
 20
8.61679585
  0
VERTEX
  8
0
 10
77.33031431
 20
8.62685933
  0
VERTEX
  8
0
 10
77.48227256
 20
8.66822785
  0
VERTEX
  8
0
 10
77.63563390
 20
8.74507874
  0
VERTEX
  8
0
 10
77.72202711
 20
8.80316880
  0
VERTEX
  8
0
 10
77.78917721
 20
8.87893700
  0
VERTEX
  8
0
 10
77.77638193
 20
8.89566535
  0
VERTEX
  8
0
 10
77.64920560
 20
8.89248985
  0
VERTEX
  8
0
 10
77.52074315
 20
8.87321259
  0
VERTEX
  8
0
 10
77.25526874
 20
8.83675196
  0
VERTEX
  8
0
 10
77.11591118
 20
8.84476814
  0
VERTEX
  8
0
 10
76.97057632
 20
8.88708169
  0
VERTEX
  8
0
 10
76.81809136
 20
8.97629238
  0
VERTEX
  8
0
 10
76.65728351
 20
9.12500000
  0
VERTEX
  8
0
 10
76.66024020
 20
9.13976378
  0
VERTEX
  8
0
 10
77.02028314
 20
9.07089997
  0
VERTEX
  8
0
 10
77.40088686
 20
8.99703051
  0
VERTEX
  8
0
 10
77.59039807
 20
8.98739073
  0
VERTEX
  8
0
 10
77.77484835
 20
9.01150602
  0
VERTEX
  8
0
 10
77.95083732
 20
9.08104523
  0
VERTEX
  8
0
 10
78.11496461
 20
9.20767716
  0
VERTEX
  8
0
 10
78.15446756
 20
9.26225295
  0
VERTEX
  8
0
 10
78.17303548
 20
9.32578740
  0
VERTEX
  8
0
 10
77.97245255
 20
9.31952959
  0
VERTEX
  8
0
 10
77.57340752
 20
9.28757135
  0
VERTEX
  8
0
 10
77.35943911
 20
9.28080158
  0
VERTEX
  8
0
 10
77.16782805
 20
9.29022311
  0
VERTEX
  8
0
 10
77.02256528
 20
9.32337474
  0
VERTEX
  8
0
 10
76.97481169
 20
9.35120522
  0
VERTEX
  8
0
 10
76.94764178
 20
9.38779527
  0
VERTEX
  8
0
 10
76.99094886
 20
9.48129921
  0
VERTEX
  8
0
 10
76.92504892
 20
9.53022966
  0
VERTEX
  8
0
 10
76.82704901
 20
9.55881908
  0
VERTEX
  8
0
 10
76.58837800
 20
9.59455265
  0
VERTEX
  8
0
 10
76.47452124
 20
9.62148572
  0
VERTEX
  8
0
 10
76.38219320
 20
9.66765557
  0
VERTEX
  8
0
 10
76.32480107
 20
9.74295667
  0
VERTEX
  8
0
 10
76.31339571
 20
9.79462345
  0
VERTEX
  8
0
 10
76.31575201
 20
9.85728346
  0
VERTEX
  8
0
 10
76.51556876
 20
9.81733261
  0
VERTEX
  8
0
 10
76.62754414
 20
9.80299647
  0
VERTEX
  8
0
 10
76.73994542
 20
9.80317076
  0
VERTEX
  8
0
 10
76.84705849
 20
9.82591870
  0
VERTEX
  8
0
 10
76.94316927
 20
9.87930345
  0
VERTEX
  8
0
 10
77.02256367
 20
9.97138823
  0
VERTEX
  8
0
 10
77.07952760
 20
10.11023622
  0
VERTEX
  8
0
 10
77.08874463
 20
10.18674754
  0
VERTEX
  8
0
 10
77.07952760
 20
10.26279527
  0
VERTEX
  8
0
 10
77.06181500
 20
10.27066535
  0
VERTEX
  8
0
 10
76.99962000
 20
10.18377282
  0
VERTEX
  8
0
 10
76.94116194
 20
10.11630955
  0
VERTEX
  8
0
 10
76.86608863
 20
10.05122588
  0
VERTEX
  8
0
 10
76.77561891
 20
10.00231501
  0
VERTEX
  8
0
 10
76.67097162
 20
9.98337014
  0
VERTEX
  8
0
 10
76.55336562
 20
10.00818446
  0
VERTEX
  8
0
 10
76.42401973
 20
10.09055118
  0
VERTEX
  8
0
 10
76.35005688
 20
10.18537553
  0
VERTEX
  8
0
 10
76.29021701
 20
10.32119918
  0
VERTEX
  8
0
 10
76.20249758
 20
10.66764468
  0
VERTEX
  8
0
 10
76.14004415
 20
11.03348831
  0
VERTEX
  8
0
 10
76.08203941
 20
11.32233070
  0
VERTEX
  8
0
 10
76.15729993
 20
11.29128198
  0
VERTEX
  8
0
 10
76.24032436
 20
11.29390354
  0
VERTEX
  8
0
 10
76.39842918
 20
11.34547244
  0
VERTEX
  8
0
 10
76.49804686
 20
11.26822804
  0
VERTEX
  8
0
 10
76.60725250
 20
11.21279084
  0
VERTEX
  8
0
 10
76.73089491
 20
11.18998382
  0
VERTEX
  8
0
 10
76.87382288
 20
11.21062992
  0
VERTEX
  8
0
 10
77.00028429
 20
11.26692579
  0
VERTEX
  8
0
 10
77.08736951
 20
11.34255179
  0
VERTEX
  8
0
 10
77.14288736
 20
11.43069766
  0
VERTEX
  8
0
 10
77.17464670
 20
11.52455315
  0
VERTEX
  8
0
 10
77.19812517
 20
11.70215194
  0
VERTEX
  8
0
 10
77.22027563
 20
11.82086614
  0
VERTEX
  8
0
 10
77.37197212
 20
11.90287807
  0
VERTEX
  8
0
 10
77.71942229
 20
12.08616732
  0
VERTEX
  8
0
 10
77.93173671
 20
12.21266263
  0
VERTEX
  8
0
 10
78.15120760
 20
12.36072330
  0
VERTEX
  8
0
 10
78.36390763
 20
12.52909801
  0
VERTEX
  8
0
 10
78.55590949
 20
12.71653543
  0
VERTEX
  8
0
 10
78.63464683
 20
12.78952124
  0
VERTEX
  8
0
 10
78.70902913
 20
12.83088128
  0
VERTEX
  8
0
 10
78.77918997
 20
12.84391167
  0
VERTEX
  8
0
 10
78.84526296
 20
12.83190852
  0
VERTEX
  8
0
 10
78.90738171
 20
12.79816795
  0
VERTEX
  8
0
 10
78.96567981
 20
12.74598606
  0
VERTEX
  8
0
 10
79.07134847
 20
12.59948277
  0
VERTEX
  8
0
 10
79.16333775
 20
12.41876757
  0
VERTEX
  8
0
 10
79.24271646
 20
12.23020933
  0
VERTEX
  8
0
 10
79.36791737
 20
11.93503937
  0
VERTEX
  8
0
 10
79.54736526
 20
11.62083083
  0
VERTEX
  8
0
 10
79.80551924
 20
11.20464960
  0
VERTEX
  8
0
 10
79.94665064
 20
11.00134711
  0
VERTEX
  8
0
 10
80.08650613
 20
10.82418491
  0
VERTEX
  8
0
 10
80.21810157
 20
10.69037415
  0
VERTEX
  8
0
 10
80.33445280
 20
10.61712598
  0
VERTEX
  8
0
 10
80.40292352
 20
10.49150596
  0
VERTEX
  8
0
 10
80.50809256
 20
10.36910482
  0
VERTEX
  8
0
 10
80.63126456
 20
10.26293867
  0
VERTEX
  8
0
 10
80.75374414
 20
10.18602362
  0
VERTEX
  8
0
 10
80.80438538
 20
9.71178518
  0
VERTEX
  8
0
 10
80.88688686
 20
9.30230807
  0
VERTEX
  8
0
 10
81.02314178
 20
8.90949188
  0
VERTEX
  8
0
 10
81.23504335
 20
8.48523622
  0
VERTEX
  8
0
 10
80.62616687
 20
7.72194143
  0
VERTEX
  8
0
 10
80.26420766
 20
7.30702626
  0
VERTEX
  8
0
 10
80.09794000
 20
7.14555658
  0
VERTEX
  8
0
 10
79.95256304
 20
7.03543307
  0
VERTEX
  8
0
 10
79.80492304
 20
6.92384556
  0
VERTEX
  8
0
 10
79.69032965
 20
6.78967372
  0
VERTEX
  8
0
 10
79.60842972
 20
6.63816329
  0
VERTEX
  8
0
 10
79.55887012
 20
6.47456004
  0
VERTEX
  8
0
 10
79.54129773
 20
6.30410971
  0
VERTEX
  8
0
 10
79.55535942
 20
6.13205807
  0
VERTEX
  8
0
 10
79.60070205
 20
5.96365086
  0
VERTEX
  8
0
 10
79.67697248
 20
5.80413385
  0
VERTEX
  8
0
 10
79.93363027
 20
5.37731539
  0
VERTEX
  8
0
 10
80.09387947
 20
5.08969832
  0
VERTEX
  8
0
 10
80.22505510
 20
4.78725178
  0
VERTEX
  8
0
 10
80.39449217
 20
4.31594488
  0
VERTEX
  8
0
 10
80.43508621
 20
4.16541670
  0
VERTEX
  8
0
 10
80.45263132
 20
4.03848326
  0
VERTEX
  8
0
 10
80.47747150
 20
3.83453937
  0
VERTEX
  8
0
 10
80.51421496
 20
3.74709830
  0
VERTEX
  8
0
 10
80.58680627
 20
3.66239074
  0
VERTEX
  8
0
 10
80.70996961
 20
3.57520140
  0
VERTEX
  8
0
 10
80.89842918
 20
3.48031496
  0
VERTEX
  8
0
 10
81.03375109
 20
3.43964708
  0
VERTEX
  8
0
 10
81.13375546
 20
3.44728592
  0
VERTEX
  8
0
 10
81.23297661
 20
3.47832904
  0
VERTEX
  8
0
 10
81.36594886
 20
3.50787401
  0
VERTEX
  8
0
 10
81.49181230
 20
3.50103389
  0
VERTEX
  8
0
 10
81.61152367
 20
3.46489911
  0
VERTEX
  8
0
 10
81.72877244
 20
3.42564548
  0
VERTEX
  8
0
 10
81.84724808
 20
3.40944882
  0
VERTEX
  8
0
 10
81.85579846
 20
3.47904922
  0
VERTEX
  8
0
 10
81.83903603
 20
3.57541793
  0
VERTEX
  8
0
 10
81.75499463
 20
3.81364468
  0
VERTEX
  8
0
 10
81.56279926
 20
4.22834645
  0
VERTEX
  8
0
 10
81.16319296
 20
4.10925196
  0
VERTEX
  8
0
 10
81.17809813
 20
4.25369711
  0
VERTEX
  8
0
 10
81.17505295
 20
4.36798142
  0
VERTEX
  8
0
 10
81.15570080
 20
4.46087467
  0
VERTEX
  8
0
 10
81.12168508
 20
4.54114665
  0
VERTEX
  8
0
 10
81.01623651
 20
4.69890588
  0
VERTEX
  8
0
 10
80.87185437
 20
4.91141732
  0
VERTEX
  8
0
 10
80.77745966
 20
5.05000270
  0
VERTEX
  8
0
 10
80.68584552
 20
5.16130610
  0
VERTEX
  8
0
 10
80.51799906
 20
5.36138189
  0
VERTEX
  8
0
 10
80.44528680
 20
5.47981176
  0
VERTEX
  8
0
 10
80.38239522
 20
5.63027460
  0
VERTEX
  8
0
 10
80.33108435
 20
5.82759916
  0
VERTEX
  8
0
 10
80.29311422
 20
6.08661417
  0
VERTEX
  8
0
 10
80.30520182
 20
6.23165945
  0
VERTEX
  8
0
 10
80.34429532
 20
6.37303149
  0
VERTEX
  8
0
 10
80.67395588
 20
6.53093596
  0
VERTEX
  8
0
 10
80.87445477
 20
6.61397883
  0
VERTEX
  8
0
 10
81.24685437
 20
6.76476378
  0
VERTEX
  8
0
 10
81.48185265
 20
6.89092298
  0
VERTEX
  8
0
 10
81.74698823
 20
7.06015551
  0
VERTEX
  8
0
 10
82.00221436
 20
7.24384768
  0
VERTEX
  8
0
 10
82.20748430
 20
7.41338582
  0
VERTEX
  8
0
 10
82.38301235
 20
7.55951624
  0
VERTEX
  8
0
 10
82.56772052
 20
7.69389763
  0
VERTEX
  8
0
 10
82.71383666
 20
6.97916683
  0
VERTEX
  8
0
 10
82.81143804
 20
6.62678475
  0
VERTEX
  8
0
 10
82.93189374
 20
6.28543307
  0
VERTEX
  8
0
 10
82.96008025
 20
6.19031561
  0
VERTEX
  8
0
 10
82.97245028
 20
6.09372053
  0
VERTEX
  8
0
 10
82.96871215
 20
5.89786565
  0
VERTEX
  8
0
 10
82.95862191
 20
5.70140471
  0
VERTEX
  8
0
 10
82.98012209
 20
5.50787401
  0
VERTEX
  8
0
 10
83.08078837
 20
5.24789905
  0
VERTEX
  8
0
 10
83.24068951
 20
4.89295718
  0
VERTEX
  8
0
 10
83.39579907
 20
4.51058200
  0
VERTEX
  8
0
 10
83.45154874
 20
4.33021116
  0
VERTEX
  8
0
 10
83.48209060
 20
4.16830708
  0
VERTEX
  8
0
 10
83.50874420
 20
3.79163152
  0
VERTEX
  8
0
 10
83.49914128
 20
3.41520177
  0
VERTEX
  8
0
 10
83.47441516
 20
3.23040946
  0
VERTEX
  8
0
 10
83.43303074
 20
3.04967507
  0
VERTEX
  8
0
 10
83.37245664
 20
2.87433075
  0
VERTEX
  8
0
 10
83.29016146
 20
2.70570866
  0
VERTEX
  8
0
 10
83.01885044
 20
2.17233858
  0
SEQEND
  0
POLYLINE
  8
Layer_1
 66
   1
 39
0.000000
 70
    0
  0
VERTEX
  8
0
 10
62.88266540
 20
2.16535433
  0
VERTEX
  8
0
 10
63.65872839
 20
2.16535039
  0
VERTEX
  8
0
 10
63.63614518
 20
2.21151600
  0
VERTEX
  8
0
 10
63.62487449
 20
2.26994445
  0
VERTEX
  8
0
 10
63.63087652
 20
2.40621899
  0
VERTEX
  8
0
 10
63.66594622
 20
2.53943227
  0
VERTEX
  8
0
 10
63.71929532
 20
2.63484252
  0
VERTEX
  8
0
 10
63.88585610
 20
2.78862284
  0
VERTEX
  8
0
 10
63.98481796
 20
2.87388041
  0
VERTEX
  8
0
 10
64.00596424
 20
2.91832235
  0
VERTEX
  8
0
 10
64.00662873
 20
2.97864462
  0
VERTEX
  8
0
 10
63.94173626
 20
3.19094488
  0
VERTEX
  8
0
 10
63.88591653
 20
3.40474855
  0
VERTEX
  8
0
 10
63.86300983
 20
3.63964468
  0
VERTEX
  8
0
 10
63.87265605
 20
4.14769783
  0
VERTEX
  8
0
 10
63.88411600
 20
4.66507135
  0
VERTEX
  8
0
 10
63.86347646
 20
4.91161795
  0
VERTEX
  8
0
 10
63.81083075
 20
5.14173228
  0
VERTEX
  8
0
 10
63.76738218
 20
5.31844020
  0
VERTEX
  8
0
 10
63.73943705
 20
5.49539763
  0
VERTEX
  8
0
 10
63.70708051
 20
5.67071924
  0
VERTEX
  8
0
 10
63.65039768
 20
5.84251968
  0
VERTEX
  8
0
 10
63.59140104
 20
6.00587046
  0
VERTEX
  8
0
 10
63.54188298
 20
6.19408132
  0
VERTEX
  8
0
 10
63.44701924
 20
6.60501476
  0
VERTEX
  8
0
 10
63.38954188
 20
6.80770308
  0
VERTEX
  8
0
 10
63.31727976
 20
6.99518294
  0
VERTEX
  8
0
 10
63.22416702
 20
7.15743723
  0
VERTEX
  8
0
 10
63.10413784
 20
7.28444882
  0
VERTEX
  8
0
 10
63.08051579
 20
7.27952756
  0
VERTEX
  8
0
 10
62.93186028
 20
6.85128887
  0
VERTEX
  8
0
 10
62.85137012
 20
6.60557006
  0
VERTEX
  8
0
 10
62.81673626
 20
6.46358267
  0
VERTEX
  8
0
 10
62.80487763
 20
6.24705296
  0
VERTEX
  8
0
 10
62.77767130
 20
6.08042372
  0
VERTEX
  8
0
 10
62.75818644
 20
5.89917316
  0
VERTEX
  8
0
 10
62.76949217
 20
5.63877952
  0
VERTEX
  8
0
 10
62.78410425
 20
5.39760168
  0
VERTEX
  8
0
 10
62.78246363
 20
5.15578494
  0
VERTEX
  8
0
 10
62.76653941
 20
4.67224409
  0
VERTEX
  8
0
 10
62.77859410
 20
4.26491609
  0
VERTEX
  8
0
 10
62.80225349
 20
3.78561909
  0
VERTEX
  8
0
 10
62.80534915
 20
3.32099286
  0
VERTEX
  8
0
 10
62.78913294
 20
3.12125621
  0
VERTEX
  8
0
 10
62.75571264
 20
2.95767716
  0
VERTEX
  8
0
 10
62.74489740
 20
2.86934225
  0
VERTEX
  8
0
 10
62.76100743
 20
2.78269402
  0
VERTEX
  8
0
 10
62.83533174
 20
2.60475590
  0
VERTEX
  8
0
 10
62.87421027
 20
2.50861520
  0
VERTEX
  8
0
 10
62.90134256
 20
2.40445952
  0
VERTEX
  8
0
 10
62.90706073
 20
2.28986345
  0
VERTEX
  8
0
 10
62.88169689
 20
2.16240157
  0
SEQEND
  0
POLYLINE
  8
Layer_1
 66
   1
 39
0.000000
 70
    0
  0
VERTEX
  8
0
 10
90.75418902
 20
2.16535433
  0
VERTEX
  8
0
 10
83.70952367
 20
2.16535433
  0
SEQEND
  0
POLYLINE
  8
Layer_1
 66
   1
 39
0.000000
 70
    0
  0
VERTEX
  8
0
 10
13.45345674
 20
11.09026771
  0
VERTEX
  8
0
 10
13.03602570
 20
11.43715120
  0
VERTEX
  8
0
 10
12.78119148
 20
11.62179921
  0
VERTEX
  8
0
 10
12.54779796
 20
11.77290686
  0
VERTEX
  8
0
 10
12.19468902
 20
12.01916929
  0
VERTEX
  8
0
 10
12.11574172
 20
12.09238454
  0
VERTEX
  8
0
 10
12.04992776
 20
12.18059430
  0
VERTEX
  8
0
 10
11.94174561
 20
12.37621998
  0
VERTEX
  8
0
 10
11.83823399
 20
12.55449157
  0
VERTEX
  8
0
 10
11.77825819
 20
12.62100872
  0
VERTEX
  8
0
 10
11.70748430
 20
12.66385433
  0
VERTEX
  8
0
 10
11.56678948
 20
12.69703703
  0
VERTEX
  8
0
 10
11.42127022
 20
12.72211811
  0
VERTEX
  8
0
 10
11.29164344
 20
12.77416966
  0
VERTEX
  8
0
 10
11.23926375
 20
12.82126939
  0
VERTEX
  8
0
 10
11.19862603
 20
12.88826378
  0
VERTEX
  8
0
 10
11.15039411
 20
13.02804029
  0
VERTEX
  8
0
 10
11.11404926
 20
13.16682726
  0
VERTEX
  8
0
 10
11.07078019
 20
13.30314351
  0
VERTEX
  8
0
 10
11.00177563
 20
13.43550787
  0
VERTEX
  8
0
 10
11.03897244
 20
13.47387126
  0
VERTEX
  8
0
 10
11.09635640
 20
13.49991436
  0
VERTEX
  8
0
 10
11.26296190
 20
13.52335279
  0
VERTEX
  8
0
 10
11.74245575
 20
13.51383021
  0
VERTEX
  8
0
 10
12.02044843
 20
13.51412157
  0
VERTEX
  8
0
 10
12.30067450
 20
13.53994961
  0
VERTEX
  8
0
 10
12.56568613
 20
13.60794052
  0
VERTEX
  8
0
 10
12.68703408
 20
13.66294273
  0
VERTEX
  8
0
 10
12.79803548
 20
13.73472047
  0
VERTEX
  8
0
 10
13.05075097
 20
13.94039474
  0
VERTEX
  8
0
 10
13.11816884
 20
14.00253297
  0
VERTEX
  8
0
 10
13.49193311
 20
14.16680708
  0
VERTEX
  8
0
 10
13.64399814
 20
14.24961171
  0
VERTEX
  8
0
 10
13.77976659
 20
14.34943011
  0
VERTEX
  8
0
 10
13.90051483
 20
14.46413484
  0
VERTEX
  8
0
 10
14.00751924
 20
14.59159842
  0
VERTEX
  8
0
 10
14.18540205
 20
14.87629232
  0
VERTEX
  8
0
 10
14.32362603
 20
15.18649212
  0
SEQEND
  0
POLYLINE
  8
Layer_1
 66
   1
 39
0.000000
 70
    0
  0
VERTEX
  8
0
 10
6.74390162
 20
19.17913385
  0
VERTEX
  8
0
 10
6.69619837
 20
19.11246309
  0
VERTEX
  8
0
 10
6.68762338
 20
19.07578832
  0
VERTEX
  8
0
 10
6.69370477
 20
19.03346456
  0
VERTEX
  8
0
 10
6.75258813
 20
19.02231200
  0
VERTEX
  8
0
 10
6.81378351
 20
19.03051181
  0
VERTEX
  8
0
 10
6.82684822
 20
19.07499022
  0
VERTEX
  8
0
 10
6.81547150
 20
19.11883120
  0
VERTEX
  8
0
 10
6.78578031
 20
19.15517587
  0
VERTEX
  8
0
 10
6.74390162
 20
19.17716535
  0
SEQEND
  0
POLYLINE
  8
Layer_1
 66
   1
 39
0.000000
 70
    0
  0
VERTEX
  8
0
 10
14.94961028
 20
13.57574409
  0
VERTEX
  8
0
 10
14.94961028
 20
14.23125196
  0
VERTEX
  8
0
 10
15.21634256
 20
14.23125196
  0
VERTEX
  8
0
 10
15.21634256
 20
15.65645275
  0
VERTEX
  8
0
 10
14.86102760
 20
15.65645275
  0
VERTEX
  8
0
 10
14.86102760
 20
15.15940551
  0
VERTEX
  8
0
 10
14.28820477
 20
15.17309842
  0
VERTEX
  8
0
 10
14.86102760
 20
15.15940551
  0
VERTEX
  8
0
 10
14.86102760
 20
15.65645275
  0
VERTEX
  8
0
 10
15.21634256
 20
15.65645275
  0
VERTEX
  8
0
 10
15.21634256
 20
14.23125196
  0
VERTEX
  8
0
 10
14.94961028
 20
14.23125196
  0
VERTEX
  8
0
 10
14.94961028
 20
13.57574409
  0
VERTEX
  8
0
 10
14.58866934
 20
13.57578740
  0
VERTEX
  8
0
 10
13.43583075
 20
13.57578740
  0
VERTEX
  8
0
 10
13.43583469
 20
11.08235039
  0
VERTEX
  8
0
 10
13.43583075
 20
13.57578740
  0
VERTEX
  8
0
 10
14.58866934
 20
13.57578740
  0
SEQEND
  0
POLYLINE
  8
Layer_1
 66
   1
 39
0.000000
 70
    0
  0
VERTEX
  8
0
 10
29.08740556
 20
3.80018110
  0
VERTEX
  8
0
 10
29.08740556
 20
4.79724409
  0
VERTEX
  8
0
 10
29.62874414
 20
4.79724409
  0
VERTEX
  8
0
 10
30.96043705
 20
10.81496063
  0
VERTEX
  8
0
 10
30.38858666
 20
10.81496063
  0
VERTEX
  8
0
 10
30.38858666
 20
13.58070866
  0
VERTEX
  8
0
 10
35.49390162
 20
13.58070866
  0
VERTEX
  8
0
 10
35.49390162
 20
10.81496063
  0
VERTEX
  8
0
 10
34.92205123
 20
10.81496063
  0
VERTEX
  8
0
 10
36.27933469
 20
4.79724409
  0
VERTEX
  8
0
 10
36.80000398
 20
4.79724409
  0
VERTEX
  8
0
 10
36.80000398
 20
2.16535433
  0
SEQEND
  0
POLYLINE
  8
Layer_1
 66
   1
 39
0.000000
 70
    0
  0
VERTEX
  8
0
 10
21.24685437
 20
2.16535039
  0
VERTEX
  8
0
 10
21.24685437
 20
3.78051181
  0
VERTEX
  8
0
 10
21.54280021
 20
3.78489595
  0
VERTEX
  8
0
 10
21.76639965
 20
3.80431354
  0
VERTEX
  8
0
 10
21.92813959
 20
3.84816233
  0
VERTEX
  8
0
 10
22.03850693
 20
3.92584006
  0
VERTEX
  8
0
 10
22.10798857
 20
4.04674447
  0
VERTEX
  8
0
 10
22.14707140
 20
4.22027331
  0
VERTEX
  8
0
 10
22.16624232
 20
4.45582433
  0
VERTEX
  8
0
 10
22.17598823
 20
4.76279527
  0
VERTEX
  8
0
 10
22.19783912
 20
8.26003592
  0
VERTEX
  8
0
 10
22.18815451
 20
10.39123173
  0
VERTEX
  8
0
 10
22.17345694
 20
11.14589643
  0
VERTEX
  8
0
 10
22.15039768
 20
11.53838582
  0
VERTEX
  8
0
 10
22.10554926
 20
11.70980934
  0
VERTEX
  8
0
 10
22.03655842
 20
11.83068928
  0
VERTEX
  8
0
 10
21.94576858
 20
11.90955935
  0
VERTEX
  8
0
 10
21.83552317
 20
11.95495324
  0
VERTEX
  8
0
 10
21.70816562
 20
11.97540465
  0
VERTEX
  8
0
 10
21.56603935
 20
11.97944728
  0
VERTEX
  8
0
 10
21.24685437
 20
11.97244094
  0
VERTEX
  8
0
 10
21.24685437
 20
13.58858267
  0
VERTEX
  8
0
 10
21.24802760
 20
13.58857874
  0
VERTEX
  8
0
 10
21.03052133
 20
13.66738564
  0
VERTEX
  8
0
 10
20.83610930
 20
13.76758710
  0
VERTEX
  8
0
 10
20.66518791
 20
13.90070367
  0
VERTEX
  8
0
 10
20.51815359
 20
14.07825590
  0
VERTEX
  8
0
 10
20.66518791
 20
13.90070367
  0
VERTEX
  8
0
 10
20.83610930
 20
13.76758710
  0
VERTEX
  8
0
 10
21.03052133
 20
13.66738564
  0
VERTEX
  8
0
 10
21.24802760
 20
13.58857874
  0
VERTEX
  8
0
 10
21.24685437
 20
13.58858267
  0
VERTEX
  8
0
 10
21.24685437
 20
11.97244094
  0
VERTEX
  8
0
 10
21.56603935
 20
11.97944728
  0
VERTEX
  8
0
 10
21.70816562
 20
11.97540465
  0
VERTEX
  8
0
 10
21.83552317
 20
11.95495324
  0
VERTEX
  8
0
 10
21.94576858
 20
11.90955935
  0
VERTEX
  8
0
 10
22.03655842
 20
11.83068928
  0
VERTEX
  8
0
 10
22.10554926
 20
11.70980934
  0
VERTEX
  8
0
 10
22.15039768
 20
11.53838582
  0
VERTEX
  8
0
 10
22.17345694
 20
11.14589643
  0
VERTEX
  8
0
 10
22.18815451
 20
10.39123173
  0
VERTEX
  8
0
 10
22.19783912
 20
8.26003592
  0
VERTEX
  8
0
 10
22.17598823
 20
4.76279527
  0
VERTEX
  8
0
 10
22.16624232
 20
4.45582433
  0
VERTEX
  8
0
 10
22.14707140
 20
4.22027331
  0
VERTEX
  8
0
 10
22.10798857
 20
4.04674447
  0
VERTEX
  8
0
 10
22.03850693
 20
3.92584006
  0
VERTEX
  8
0
 10
21.92813959
 20
3.84816233
  0
VERTEX
  8
0
 10
21.76639965
 20
3.80431354
  0
VERTEX
  8
0
 10
21.54280021
 20
3.78489595
  0
VERTEX
  8
0
 10
21.24685437
 20
3.78051181
  0
VERTEX
  8
0
 10
21.24685437
 20
2.16535039
  0
VERTEX
  8
0
 10
18.57050792
 20
2.16535039
  0
VERTEX
  8
0
 10
19.17470182
 20
2.23403937
  0
VERTEX
  8
0
 10
19.47406673
 20
2.29307332
  0
VERTEX
  8
0
 10
19.76555516
 20
2.37500000
  0
VERTEX
  8
0
 10
20.01766532
 20
2.47625939
  0
VERTEX
  8
0
 10
20.24771678
 20
2.60363766
  0
VERTEX
  8
0
 10
20.45625809
 20
2.75485259
  0
VERTEX
  8
0
 10
20.64383777
 20
2.92762198
  0
VERTEX
  8
0
 10
20.81100435
 20
3.11966362
  0
VERTEX
  8
0
 10
20.95830638
 20
3.32869529
  0
VERTEX
  8
0
 10
21.08629237
 20
3.55243478
  0
VERTEX
  8
0
 10
21.19551087
 20
3.78859990
  0
VERTEX
  8
0
 10
21.28651040
 20
4.03490842
  0
VERTEX
  8
0
 10
21.35983950
 20
4.28907814
  0
VERTEX
  8
0
 10
21.41604670
 20
4.54882686
  0
VERTEX
  8
0
 10
21.45568053
 20
4.81187235
  0
VERTEX
  8
0
 10
21.47928952
 20
5.07593242
  0
VERTEX
  8
0
 10
21.48742221
 20
5.33872484
  0
VERTEX
  8
0
 10
21.45945280
 20
5.85137795
  0
VERTEX
  8
0
 10
21.39667299
 20
6.24436931
  0
VERTEX
  8
0
 10
21.29966829
 20
6.60713096
  0
VERTEX
  8
0
 10
21.16710125
 20
6.94127533
  0
VERTEX
  8
0
 10
20.99763439
 20
7.24841486
  0
VERTEX
  8
0
 10
20.78993028
 20
7.53016197
  0
VERTEX
  8
0
 10
20.54265143
 20
7.78812912
  0
VERTEX
  8
0
 10
20.25446040
 20
8.02392872
  0
VERTEX
  8
0
 10
19.92401973
 20
8.23917322
  0
VERTEX
  8
0
 10
20.14483231
 20
8.36841196
  0
VERTEX
  8
0
 10
20.34325443
 20
8.51354421
  0
VERTEX
  8
0
 10
20.51992115
 20
8.67337369
  0
VERTEX
  8
0
 10
20.67546750
 20
8.84670411
  0
VERTEX
  8
0
 10
20.81052853
 20
9.03233916
  0
VERTEX
  8
0
 10
20.92573929
 20
9.22908257
  0
VERTEX
  8
0
 10
21.02173481
 20
9.43573803
  0
VERTEX
  8
0
 10
21.09915014
 20
9.65110925
  0
VERTEX
  8
0
 10
21.15862033
 20
9.87399994
  0
VERTEX
  8
0
 10
21.20078043
 20
10.10321381
  0
VERTEX
  8
0
 10
21.22626546
 20
10.33755456
  0
VERTEX
  8
0
 10
21.23571049
 20
10.57582591
  0
VERTEX
  8
0
 10
21.20902069
 20
11.05937520
  0
VERTEX
  8
0
 10
21.12579138
 20
11.54429133
  0
VERTEX
  8
0
 10
21.05065778
 20
11.83150109
  0
VERTEX
  8
0
 10
20.96294806
 20
12.08916048
  0
VERTEX
  8
0
 10
20.86259308
 20
12.31899704
  0
VERTEX
  8
0
 10
20.74952367
 20
12.52273831
  0
VERTEX
  8
0
 10
20.62367067
 20
12.70211182
  0
VERTEX
  8
0
 10
20.48496492
 20
12.85884512
  0
VERTEX
  8
0
 10
20.33333727
 20
12.99466572
  0
VERTEX
  8
0
 10
20.16871855
 20
13.11130118
  0
VERTEX
  8
0
 10
19.99103961
 20
13.21047902
  0
VERTEX
  8
0
 10
19.80023128
 20
13.29392678
  0
VERTEX
  8
0
 10
19.59622442
 20
13.36337199
  0
VERTEX
  8
0
 10
19.37894985
 20
13.42054220
  0
VERTEX
  8
0
 10
18.90432097
 20
13.50496772
  0
VERTEX
  8
0
 10
18.37579138
 20
13.56102362
  0
VERTEX
  8
0
 10
18.90432097
 20
13.50496772
  0
VERTEX
  8
0
 10
19.37894985
 20
13.42054220
  0
VERTEX
  8
0
 10
19.59622442
 20
13.36337199
  0
VERTEX
  8
0
 10
19.80023128
 20
13.29392678
  0
VERTEX
  8
0
 10
19.99103961
 20
13.21047902
  0
VERTEX
  8
0
 10
20.16871855
 20
13.11130118
  0
VERTEX
  8
0
 10
20.33333727
 20
12.99466572
  0
VERTEX
  8
0
 10
20.48496492
 20
12.85884512
  0
VERTEX
  8
0
 10
20.62367067
 20
12.70211182
  0
VERTEX
  8
0
 10
20.74952367
 20
12.52273831
  0
VERTEX
  8
0
 10
20.86259308
 20
12.31899704
  0
VERTEX
  8
0
 10
20.96294806
 20
12.08916048
  0
VERTEX
  8
0
 10
21.05065778
 20
11.83150109
  0
VERTEX
  8
0
 10
21.12579138
 20
11.54429133
  0
VERTEX
  8
0
 10
21.20902069
 20
11.05937520
  0
VERTEX
  8
0
 10
21.23571049
 20
10.57582591
  0
VERTEX
  8
0
 10
21.22626546
 20
10.33755456
  0
VERTEX
  8
0
 10
21.20078043
 20
10.10321381
  0
VERTEX
  8
0
 10
21.15862033
 20
9.87399994
  0
VERTEX
  8
0
 10
21.09915014
 20
9.65110925
  0
VERTEX
  8
0
 10
21.02173481
 20
9.43573803
  0
VERTEX
  8
0
 10
20.92573929
 20
9.22908257
  0
VERTEX
  8
0
 10
20.81052853
 20
9.03233916
  0
VERTEX
  8
0
 10
20.67546750
 20
8.84670411
  0
VERTEX
  8
0
 10
20.51992115
 20
8.67337369
  0
VERTEX
  8
0
 10
20.34325443
 20
8.51354421
  0
VERTEX
  8
0
 10
20.14483231
 20
8.36841196
  0
VERTEX
  8
0
 10
19.92401973
 20
8.23917322
  0
VERTEX
  8
0
 10
20.25446040
 20
8.02392872
  0
VERTEX
  8
0
 10
20.54265143
 20
7.78812912
  0
VERTEX
  8
0
 10
20.78993028
 20
7.53016197
  0
VERTEX
  8
0
 10
20.99763439
 20
7.24841486
  0
VERTEX
  8
0
 10
21.16710125
 20
6.94127533
  0
VERTEX
  8
0
 10
21.29966829
 20
6.60713096
  0
VERTEX
  8
0
 10
21.39667299
 20
6.24436931
  0
VERTEX
  8
0
 10
21.45945280
 20
5.85137795
  0
VERTEX
  8
0
 10
21.48742221
 20
5.33872484
  0
VERTEX
  8
0
 10
21.47928952
 20
5.07593242
  0
VERTEX
  8
0
 10
21.45568053
 20
4.81187235
  0
VERTEX
  8
0
 10
21.41604670
 20
4.54882686
  0
VERTEX
  8
0
 10
21.35983950
 20
4.28907814
  0
VERTEX
  8
0
 10
21.28651040
 20
4.03490842
  0
VERTEX
  8
0
 10
21.19551087
 20
3.78859990
  0
VERTEX
  8
0
 10
21.08629237
 20
3.55243478
  0
VERTEX
  8
0
 10
20.95830638
 20
3.32869529
  0
VERTEX
  8
0
 10
20.81100435
 20
3.11966362
  0
VERTEX
  8
0
 10
20.64383777
 20
2.92762198
  0
VERTEX
  8
0
 10
20.45625809
 20
2.75485259
  0
VERTEX
  8
0
 10
20.24771678
 20
2.60363766
  0
VERTEX
  8
0
 10
20.01766532
 20
2.47625939
  0
VERTEX
  8
0
 10
19.76555516
 20
2.37500000
  0
VERTEX
  8
0
 10
19.47406673
 20
2.29307332
  0
VERTEX
  8
0
 10
19.17470182
 20
2.23403937
  0
VERTEX
  8
0
 10
18.57050792
 20
2.16535039
  0
SEQEND
  0
POLYLINE
  8
Layer_1
 66
   1
 39
0.000000
 70
    1
  0
VERTEX
  8
0
 10
68.97017721
 20
15.55109842
  0
VERTEX
  8
0
 10
69.86301422
 20
15.19149917
  0
VERTEX
  8
0
 10
70.76734939
 20
14.84383667
  0
VERTEX
  8
0
 10
71.68114437
 20
14.50987431
  0
VERTEX
  8
0
 10
72.60236077
 20
14.19137549
  0
VERTEX
  8
0
 10
73.52896024
 20
13.89010360
  0
VERTEX
  8
0
 10
74.45890439
 20
13.60782203
  0
VERTEX
  8
0
 10
75.39015486
 20
13.34629419
  0
VERTEX
  8
0
 10
76.32067327
 20
13.10728346
  0
VERTEX
  8
0
 10
76.16565367
 20
12.76738038
  0
VERTEX
  8
0
 10
76.06583783
 20
12.48829503
  0
VERTEX
  8
0
 10
76.00922551
 20
12.26187171
  0
VERTEX
  8
0
 10
75.98381648
 20
12.07995472
  0
VERTEX
  8
0
 10
75.97860739
 20
11.81701697
  0
VERTEX
  8
0
 10
75.97480686
 20
11.71968482
  0
VERTEX
  8
0
 10
75.95420871
 20
11.63423622
  0
VERTEX
  8
0
 10
75.81516770
 20
11.84638535
  0
VERTEX
  8
0
 10
75.67680855
 20
12.02061528
  0
VERTEX
  8
0
 10
75.39813243
 20
12.29876476
  0
VERTEX
  8
0
 10
75.11017358
 20
12.55557911
  0
VERTEX
  8
0
 10
74.96021102
 20
12.70314011
  0
VERTEX
  8
0
 10
74.80492524
 20
12.87795275
  0
VERTEX
  8
0
 10
74.59799678
 20
13.10274943
  0
VERTEX
  8
0
 10
74.40679138
 20
13.26146296
  0
VERTEX
  8
0
 10
74.22471147
 20
13.37047036
  0
VERTEX
  8
0
 10
74.04515949
 20
13.44614862
  0
VERTEX
  8
0
 10
73.66724906
 20
13.56302571
  0
VERTEX
  8
0
 10
73.45569548
 20
13.63697854
  0
VERTEX
  8
0
 10
73.22027957
 20
13.74311023
  0
VERTEX
  8
0
 10
72.52960241
 20
14.10190120
  0
VERTEX
  8
0
 10
72.15351161
 20
14.28276213
  0
VERTEX
  8
0
 10
71.76419689
 20
14.44458858
  0
VERTEX
  8
0
 10
71.36711643
 20
14.57237197
  0
VERTEX
  8
0
 10
70.96772839
 20
14.65110371
  0
VERTEX
  8
0
 10
70.76887471
 20
14.66738504
  0
VERTEX
  8
0
 10
70.57149094
 20
14.66577523
  0
VERTEX
  8
0
 10
70.37625936
 20
14.64439823
  0
VERTEX
  8
0
 10
70.18386225
 20
14.60137795
  0
VERTEX
  8
0
 10
69.74003332
 20
14.48912317
  0
VERTEX
  8
0
 10
69.42224611
 20
14.43644851
  0
VERTEX
  8
0
 10
69.20668182
 20
14.42851058
  0
VERTEX
  8
0
 10
69.06952170
 20
14.45046604
  0
VERTEX
  8
0
 10
68.98694696
 20
14.48747151
  0
VERTEX
  8
0
 10
68.93513882
 20
14.52468362
  0
VERTEX
  8
0
 10
68.89027853
 20
14.54725902
  0
VERTEX
  8
0
 10
68.82854729
 20
14.54035433
  0
VERTEX
  8
0
 10
68.57549414
 20
14.43876624
  0
VERTEX
  8
0
 10
68.50433823
 20
14.42360363
  0
VERTEX
  8
0
 10
68.43820994
 20
14.42383876
  0
VERTEX
  8
0
 10
68.38120160
 20
14.44512364
  0
VERTEX
  8
0
 10
68.33740556
 20
14.49311023
  0
VERTEX
  8
0
 10
68.43417967
 20
14.68100935
  0
VERTEX
  8
0
 10
68.45028922
 20
14.73037897
  0
VERTEX
  8
0
 10
68.45146738
 20
14.77586116
  0
VERTEX
  8
0
 10
68.43186524
 20
14.81503321
  0
VERTEX
  8
0
 10
68.38563390
 20
14.84547244
  0
VERTEX
  8
0
 10
68.24886914
 20
14.89157726
  0
VERTEX
  8
0
 10
68.20040088
 20
14.93681391
  0
VERTEX
  8
0
 10
68.20083020
 20
14.96795290
  0
VERTEX
  8
0
 10
68.22520083
 20
15.00590551
  0
VERTEX
  8
0
 10
68.28655176
 20
15.04370231
  0
VERTEX
  8
0
 10
68.36683235
 20
15.05594623
  0
VERTEX
  8
0
 10
68.55872052
 20
15.04762500
  0
VERTEX
  8
0
 10
68.65759710
 20
15.04898460
  0
VERTEX
  8
0
 10
68.74994136
 20
15.06864087
  0
VERTEX
  8
0
 10
68.82938779
 20
15.11755618
  0
VERTEX
  8
0
 10
68.88957091
 20
15.20669291
  0
VERTEX
  8
0
 10
68.97017721
 20
15.55109842
  0
SEQEND
  0
POLYLINE
  8
Layer_1
 66
   1
 39
0.000000
 70
    1
  0
VERTEX
  8
0
 10
59.21590556
 20
2.16535433
  0
VERTEX
  8
0
 10
62.07295674
 20
2.16535433
  0
VERTEX
  8
0
 10
62.06472396
 20
2.29041486
  0
VERTEX
  8
0
 10
62.07657878
 20
2.41535433
  0
VERTEX
  8
0
 10
62.12112984
 20
2.55682006
  0
VERTEX
  8
0
 10
62.17331599
 20
2.66632037
  0
VERTEX
  8
0
 10
62.23348196
 20
2.86785734
  0
VERTEX
  8
0
 10
62.30197248
 20
3.28543307
  0
VERTEX
  8
0
 10
62.30921968
 20
3.47793647
  0
VERTEX
  8
0
 10
62.29325835
 20
3.72122404
  0
VERTEX
  8
0
 10
62.21394936
 20
4.29052460
  0
VERTEX
  8
0
 10
62.10852397
 20
4.85408058
  0
VERTEX
  8
0
 10
62.02146067
 20
5.27263779
  0
VERTEX
  8
0
 10
61.95042918
 20
5.60478801
  0
VERTEX
  8
0
 10
61.89844296
 20
5.91278838
  0
VERTEX
  8
0
 10
61.88434355
 20
6.22280991
  0
VERTEX
  8
0
 10
61.89738938
 20
6.38675706
  0
VERTEX
  8
0
 10
61.92697248
 20
6.56102362
  0
VERTEX
  8
0
 10
61.94493471
 20
6.82937124
  0
VERTEX
  8
0
 10
61.92890556
 20
7.19124557
  0
VERTEX
  8
0
 10
61.87480713
 20
7.87007874
  0
VERTEX
  8
0
 10
61.83593970
 20
8.08167181
  0
VERTEX
  8
0
 10
61.76179680
 20
8.27372982
  0
VERTEX
  8
0
 10
61.67575355
 20
8.46204300
  0
VERTEX
  8
0
 10
61.60118508
 20
8.66240157
  0
VERTEX
  8
0
 10
61.55519353
 20
8.86627157
  0
VERTEX
  8
0
 10
61.54578265
 20
9.00419722
  0
VERTEX
  8
0
 10
61.56233371
 20
9.17262106
  0
VERTEX
  8
0
 10
61.55111103
 20
9.24832208
  0
VERTEX
  8
0
 10
61.50209982
 20
9.34848437
  0
VERTEX
  8
0
 10
61.39670777
 20
9.49570935
  0
VERTEX
  8
0
 10
61.21634256
 20
9.71259842
  0
VERTEX
  8
0
 10
61.07733506
 20
9.89182662
  0
VERTEX
  8
0
 10
60.99644517
 20
10.03833593
  0
VERTEX
  8
0
 10
60.95494616
 20
10.17045840
  0
VERTEX
  8
0
 10
60.93411126
 20
10.30652608
  0
VERTEX
  8
0
 10
60.91521375
 20
10.46487101
  0
VERTEX
  8
0
 10
60.87952686
 20
10.66382523
  0
VERTEX
  8
0
 10
60.80832386
 20
10.92172080
  0
VERTEX
  8
0
 10
60.68287800
 20
11.25688976
  0
VERTEX
  8
0
 10
60.59811379
 20
11.50066020
  0
VERTEX
  8
0
 10
60.57749340
 20
11.65270263
  0
VERTEX
  8
0
 10
60.59043810
 20
11.75577120
  0
VERTEX
  8
0
 10
60.60636914
 20
11.85262008
  0
VERTEX
  8
0
 10
60.59470778
 20
11.98600340
  0
VERTEX
  8
0
 10
60.52487529
 20
12.19867532
  0
VERTEX
  8
0
 10
60.36629292
 20
12.53338999
  0
VERTEX
  8
0
 10
60.08838193
 20
13.03290157
  0
VERTEX
  8
0
 10
60.08838981
 20
10.14566535
  0
VERTEX
  8
0
 10
58.50177563
 20
10.14566535
  0
VERTEX
  8
0
 10
58.37759650
 20
10.56768590
  0
VERTEX
  8
0
 10
58.29459183
 20
10.79807109
  0
VERTEX
  8
0
 10
58.19097248
 20
11.02027559
  0
VERTEX
  8
0
 10
58.06173503
 20
11.21847639
  0
VERTEX
  8
0
 10
57.90187603
 20
11.37685051
  0
VERTEX
  8
0
 10
57.80889987
 20
11.43615789
  0
VERTEX
  8
0
 10
57.70639202
 20
11.47957497
  0
VERTEX
  8
0
 10
57.59372707
 20
11.50512389
  0
VERTEX
  8
0
 10
57.47027957
 20
11.51082677
  0
VERTEX
  8
0
 10
57.36826422
 20
11.49737544
  0
VERTEX
  8
0
 10
57.27769782
 20
11.46644090
  0
VERTEX
  8
0
 10
57.19837560
 20
11.41992348
  0
VERTEX
  8
0
 10
57.13009281
 20
11.35972354
  0
VERTEX
  8
0
 10
57.02582651
 20
11.20587744
  0
VERTEX
  8
0
 10
56.96326087
 20
11.02010531
  0
VERTEX
  8
0
 10
56.94075786
 20
10.81760988
  0
VERTEX
  8
0
 10
56.95667942
 20
10.61359387
  0
VERTEX
  8
0
 10
57.00938753
 20
10.42326001
  0
VERTEX
  8
0
 10
57.09724414
 20
10.26181102
  0
VERTEX
  8
0
 10
57.20749732
 20
10.12990337
  0
VERTEX
  8
0
 10
57.34216046
 20
9.99591798
  0
VERTEX
  8
0
 10
57.67160967
 20
9.71762660
  0
VERTEX
  8
0
 10
58.47925103
 20
9.09114960
  0
VERTEX
  8
0
 10
58.90501535
 20
8.72661440
  0
VERTEX
  8
0
 10
59.11191482
 20
8.52794615
  0
VERTEX
  8
0
 10
59.31045686
 20
8.31698166
  0
VERTEX
  8
0
 10
59.49736472
 20
8.09269910
  0
VERTEX
  8
0
 10
59.66936165
 20
7.85407660
  0
VERTEX
  8
0
 10
59.82317092
 20
7.60009232
  0
VERTEX
  8
0
 10
59.95551579
 20
7.32972441
  0
VERTEX
  8
0
 10
60.07519753
 20
7.02306813
  0
VERTEX
  8
0
 10
60.17603844
 20
6.70137629
  0
VERTEX
  8
0
 10
60.25733562
 20
6.36741030
  0
VERTEX
  8
0
 10
60.31838618
 20
6.02393159
  0
VERTEX
  8
0
 10
60.35848724
 20
5.67370159
  0
VERTEX
  8
0
 10
60.37693591
 20
5.31948173
  0
VERTEX
  8
0
 10
60.37302929
 20
4.96403342
  0
VERTEX
  8
0
 10
60.34606451
 20
4.61011811
  0
VERTEX
  8
0
 10
60.29533867
 20
4.26049721
  0
VERTEX
  8
0
 10
60.22014889
 20
3.91793214
  0
VERTEX
  8
0
 10
60.11979227
 20
3.58518435
  0
VERTEX
  8
0
 10
59.99356593
 20
3.26501525
  0
VERTEX
  8
0
 10
59.84076697
 20
2.96018627
  0
VERTEX
  8
0
 10
59.66069252
 20
2.67345884
  0
VERTEX
  8
0
 10
59.45263968
 20
2.40759438
  0
VERTEX
  8
0
 10
59.21590556
 20
2.16535433
  0
SEQEND
  0
POLYLINE
  8
Layer_1
 66
   1
 39
0.000000
 70
    1
  0
VERTEX
  8
0
 10
56.33642130
 20
2.16535433
  0
VERTEX
  8
0
 10
56.82288587
 20
2.16535039
  0
VERTEX
  8
0
 10
56.69126468
 20
2.26853795
  0
VERTEX
  8
0
 10
56.56925693
 20
2.38449950
  0
VERTEX
  8
0
 10
56.33642130
 20
2.62795275
  0
VERTEX
  8
0
 10
56.33642130
 20
2.16535433
  0
SEQEND
  0
POLYLINE
  8
Layer_1
 66
   1
 39
0.000000
 70
    1
  0
VERTEX
  8
0
 10
47.43878351
 20
2.16535433
  0
VERTEX
  8
0
 10
49.68029138
 20
2.16535039
  0
VERTEX
  8
0
 10
46.81181500
 20
8.86318897
  0
VERTEX
  8
0
 10
46.81181500
 20
4.79527559
  0
VERTEX
  8
0
 10
47.43878351
 20
4.79527559
  0
VERTEX
  8
0
 10
47.43878351
 20
2.16535433
  0
SEQEND
  0
POLYLINE
  8
Layer_1
 66
   1
 39
0.000000
 70
    1
  0
VERTEX
  8
0
 10
31.89941343
 20
2.16535433
  0
VERTEX
  8
0
 10
33.09429926
 20
2.16535433
  0
VERTEX
  8
0
 10
33.09429926
 20
4.56496063
  0
VERTEX
  8
0
 10
33.71634256
 20
4.56496063
  0
VERTEX
  8
0
 10
33.44665752
 20
6.01771653
  0
VERTEX
  8
0
 10
31.62874414
 20
6.01771653
  0
VERTEX
  8
0
 10
31.31772052
 20
4.56496063
  0
VERTEX
  8
0
 10
31.89941343
 20
4.56496063
  0
VERTEX
  8
0
 10
31.89941343
 20
2.16535433
  0
SEQEND
  0
POLYLINE
  8
Layer_1
 66
   1
 39
0.000000
 70
    1
  0
VERTEX
  8
0
 10
64.56830713
 20
2.16535433
  0
VERTEX
  8
0
 10
64.60563177
 20
2.20138129
  0
VERTEX
  8
0
 10
64.63011872
 20
2.24542310
  0
VERTEX
  8
0
 10
64.64690562
 20
2.35284916
  0
VERTEX
  8
0
 10
64.63132007
 20
2.47822834
  0
VERTEX
  8
0
 10
64.59601432
 20
2.61215649
  0
VERTEX
  8
0
 10
64.51685111
 20
2.86804306
  0
VERTEX
  8
0
 10
64.49829814
 20
2.97119316
  0
VERTEX
  8
0
 10
64.51063390
 20
3.04527559
  0
VERTEX
  8
0
 10
64.59581181
 20
3.23870540
  0
VERTEX
  8
0
 10
64.60901189
 20
3.32048293
  0
VERTEX
  8
0
 10
64.60867524
 20
3.40692569
  0
VERTEX
  8
0
 10
64.58555935
 20
3.63767722
  0
VERTEX
  8
0
 10
64.56279926
 20
4.01870078
  0
VERTEX
  8
0
 10
64.54967678
 20
4.61702134
  0
VERTEX
  8
0
 10
64.55391687
 20
4.82036761
  0
VERTEX
  8
0
 10
64.58154501
 20
4.99394346
  0
VERTEX
  8
0
 10
64.63858666
 20
5.50295275
  0
VERTEX
  8
0
 10
64.64127274
 20
5.64288351
  0
VERTEX
  8
0
 10
64.62537308
 20
5.76865003
  0
VERTEX
  8
0
 10
64.55847839
 20
5.99333907
  0
VERTEX
  8
0
 10
64.47922642
 20
6.20831723
  0
VERTEX
  8
0
 10
64.44788015
 20
6.32194516
  0
VERTEX
  8
0
 10
64.42894099
 20
6.44488189
  0
VERTEX
  8
0
 10
64.42031544
 20
6.71120884
  0
VERTEX
  8
0
 10
64.42813046
 20
6.97869439
  0
VERTEX
  8
0
 10
64.43487437
 20
7.24649809
  0
VERTEX
  8
0
 10
64.42303548
 20
7.51377952
  0
VERTEX
  8
0
 10
64.38555861
 20
7.74523277
  0
VERTEX
  8
0
 10
64.37001155
 20
7.86139290
  0
VERTEX
  8
0
 10
64.36890162
 20
7.97736220
  0
VERTEX
  8
0
 10
64.71777496
 20
7.95742938
  0
VERTEX
  8
0
 10
64.88287042
 20
7.94683024
  0
VERTEX
  8
0
 10
65.03685093
 20
7.95491338
  0
VERTEX
  8
0
 10
65.17605086
 20
7.99600686
  0
VERTEX
  8
0
 10
65.29680461
 20
8.08443873
  0
VERTEX
  8
0
 10
65.39544655
 20
8.23453706
  0
VERTEX
  8
0
 10
65.46831107
 20
8.46062992
  0
VERTEX
  8
0
 10
65.52185789
 20
8.65356761
  0
VERTEX
  8
0
 10
65.58676290
 20
8.76095552
  0
VERTEX
  8
0
 10
65.62866871
 20
8.79071101
  0
VERTEX
  8
0
 10
65.67964684
 20
8.80885029
  0
VERTEX
  8
0
 10
65.81713046
 20
8.82330856
  0
VERTEX
  8
0
 10
66.01583448
 20
8.83038697
  0
VERTEX
  8
0
 10
66.29237966
 20
8.85614216
  0
VERTEX
  8
0
 10
66.66338672
 20
8.92663077
  0
VERTEX
  8
0
 10
67.14547642
 20
9.06790945
  0
VERTEX
  8
0
 10
67.72893638
 20
9.26822496
  0
VERTEX
  8
0
 10
68.07835271
 20
9.37769795
  0
VERTEX
  8
0
 10
68.44546117
 20
9.47627116
  0
VERTEX
  8
0
 10
68.81468767
 20
9.55111215
  0
VERTEX
  8
0
 10
69.17045815
 20
9.58938847
  0
VERTEX
  8
0
 10
69.49719852
 20
9.57826767
  0
VERTEX
  8
0
 10
69.64481551
 20
9.55017322
  0
VERTEX
  8
0
 10
69.77933469
 20
9.50491732
  0
VERTEX
  8
0
 10
69.95265007
 20
9.44160773
  0
VERTEX
  8
0
 10
70.08870342
 20
9.41240735
  0
VERTEX
  8
0
 10
70.19744839
 20
9.40825133
  0
VERTEX
  8
0
 10
70.28883863
 20
9.42007480
  0
VERTEX
  8
0
 10
70.45936951
 20
9.45540071
  0
VERTEX
  8
0
 10
70.55841744
 20
9.46077342
  0
VERTEX
  8
0
 10
70.67992524
 20
9.44586614
  0
VERTEX
  8
0
 10
70.71409678
 20
9.43083755
  0
VERTEX
  8
0
 10
70.74161262
 20
9.40205681
  0
VERTEX
  8
0
 10
70.78237160
 20
9.30705610
  0
VERTEX
  8
0
 10
70.84665949
 20
8.99401870
  0
VERTEX
  8
0
 10
70.89296596
 20
8.79125107
  0
VERTEX
  8
0
 10
70.96389916
 20
8.56783021
  0
VERTEX
  8
0
 10
71.07084785
 20
8.33139065
  0
VERTEX
  8
0
 10
71.22520083
 20
8.08956693
  0
VERTEX
  8
0
 10
71.58828548
 20
7.63635974
  0
VERTEX
  8
0
 10
71.75844972
 20
7.40577122
  0
VERTEX
  8
0
 10
71.90827170
 20
7.15255905
  0
VERTEX
  8
0
 10
72.07815420
 20
6.83173702
  0
VERTEX
  8
0
 10
72.19582977
 20
6.63241978
  0
VERTEX
  8
0
 10
72.35315359
 20
6.37696850
  0
VERTEX
  8
0
 10
72.38703595
 20
6.29230253
  0
VERTEX
  8
0
 10
72.39560936
 20
6.21906742
  0
VERTEX
  8
0
 10
72.37961569
 20
6.06611220
  0
VERTEX
  8
0
 10
72.37644180
 20
5.96600332
  0
VERTEX
  8
0
 10
72.39074531
 20
5.83654773
  0
VERTEX
  8
0
 10
72.43322282
 20
5.66755105
  0
VERTEX
  8
0
 10
72.51457091
 20
5.44881889
  0
VERTEX
  8
0
 10
72.55045767
 20
5.34106378
  0
VERTEX
  8
0
 10
72.57061403
 20
5.23053045
  0
VERTEX
  8
0
 10
72.57679876
 20
5.00386171
  0
VERTEX
  8
0
 10
72.54409847
 20
4.54724409
  0
VERTEX
  8
0
 10
72.55467229
 20
3.65369734
  0
VERTEX
  8
0
 10
72.54636397
 20
3.09516640
  0
VERTEX
  8
0
 10
72.53117241
 20
2.89275339
  0
VERTEX
  8
0
 10
72.50571264
 20
2.78149606
  0
VERTEX
  8
0
 10
72.40218865
 20
2.64505444
  0
VERTEX
  8
0
 10
72.27512603
 20
2.49847195
  0
VERTEX
  8
0
 10
72.21911193
 20
2.42063334
  0
VERTEX
  8
0
 10
72.17682620
 20
2.33936608
  0
VERTEX
  8
0
 10
72.15480653
 20
2.25437234
  0
VERTEX
  8
0
 10
72.15959060
 20
2.16535433
  0
VERTEX
  8
0
 10
64.56830713
 20
2.16535433
  0
SEQEND
  0
POLYLINE
  8
Layer_1
 66
   1
 39
0.000000
 70
    1
  0
VERTEX
  8
0
 10
52.75767721
 20
11.90270078
  0
VERTEX
  8
0
 10
52.75768115
 20
13.39566535
  0
VERTEX
  8
0
 10
53.65039768
 20
13.39566535
  0
VERTEX
  8
0
 10
53.63263046
 20
12.81913066
  0
VERTEX
  8
0
 10
53.60551062
 20
12.57938124
  0
VERTEX
  8
0
 10
53.54857091
 20
12.37320669
  0
VERTEX
  8
0
 10
53.50477897
 20
12.28299817
  0
VERTEX
  8
0
 10
53.44856451
 20
12.20152919
  0
VERTEX
  8
0
 10
53.37827168
 20
12.12891501
  0
VERTEX
  8
0
 10
53.29224463
 20
12.06527091
  0
VERTEX
  8
0
 10
53.18882751
 20
12.01071217
  0
VERTEX
  8
0
 10
53.06636446
 20
11.96535405
  0
VERTEX
  8
0
 10
52.75767721
 20
11.90270078
  0
SEQEND
  0
POLYLINE
  8
Layer_1
 66
   1
 39
0.000000
 70
    1
  0
VERTEX
  8
0
 10
25.46733469
 20
2.16535433
  0
VERTEX
  8
0
 10
25.46732682
 20
3.78051181
  0
VERTEX
  8
0
 10
25.26122322
 20
3.77225602
  0
VERTEX
  8
0
 10
25.00595477
 20
3.77170177
  0
VERTEX
  8
0
 10
24.87982359
 20
3.78566260
  0
VERTEX
  8
0
 10
24.76532903
 20
3.81516867
  0
VERTEX
  8
0
 10
24.67044705
 20
3.86475995
  0
VERTEX
  8
0
 10
24.60315359
 20
3.93897637
  0
VERTEX
  8
0
 10
24.56926814
 20
4.02924751
  0
VERTEX
  8
0
 10
24.54165295
 20
4.16675446
  0
VERTEX
  8
0
 10
24.50297919
 20
4.55684873
  0
VERTEX
  8
0
 10
24.48262405
 20
5.05600497
  0
VERTEX
  8
0
 10
24.47607928
 20
5.61096899
  0
VERTEX
  8
0
 10
24.48638778
 20
6.67530358
  0
VERTEX
  8
0
 10
24.49783863
 20
7.32381889
  0
VERTEX
  8
0
 10
25.06061126
 20
7.33670817
  0
VERTEX
  8
0
 10
25.34652490
 20
7.31617366
  0
VERTEX
  8
0
 10
25.48324365
 20
7.28847317
  0
VERTEX
  8
0
 10
25.61299611
 20
7.24507874
  0
VERTEX
  8
0
 10
25.70716974
 20
7.19383218
  0
VERTEX
  8
0
 10
25.78827287
 20
7.12490209
  0
VERTEX
  8
0
 10
25.85726554
 20
7.03936331
  0
VERTEX
  8
0
 10
25.91510783
 20
6.93829067
  0
VERTEX
  8
0
 10
26.00118151
 20
6.69384316
  0
VERTEX
  8
0
 10
26.05417438
 20
6.40015828
  0
VERTEX
  8
0
 10
26.08176696
 20
6.06583473
  0
VERTEX
  8
0
 10
26.09163973
 20
5.69947123
  0
VERTEX
  8
0
 10
26.08894788
 20
4.90501919
  0
VERTEX
  8
0
 10
26.09174425
 20
4.49412807
  0
VERTEX
  8
0
 10
26.10754281
 20
4.08559182
  0
VERTEX
  8
0
 10
26.14402407
 20
3.68800915
  0
VERTEX
  8
0
 10
26.20886852
 20
3.30997877
  0
VERTEX
  8
0
 10
26.30975667
 20
2.96009940
  0
VERTEX
  8
0
 10
26.37611728
 20
2.79840343
  0
VERTEX
  8
0
 10
26.45436900
 20
2.64696972
  0
VERTEX
  8
0
 10
26.54547189
 20
2.50687312
  0
VERTEX
  8
0
 10
26.65038602
 20
2.37918846
  0
VERTEX
  8
0
 10
26.77007145
 20
2.26499059
  0
VERTEX
  8
0
 10
26.90548823
 20
2.16535433
  0
VERTEX
  8
0
 10
25.46733469
 20
2.16535433
  0
SEQEND
  0
POLYLINE
  8
Layer_1
 66
   1
 39
0.000000
 70
    1
  0
VERTEX
  8
0
 10
21.55000398
 20
14.54921259
  0
VERTEX
  8
0
 10
22.21535831
 20
14.54921259
  0
VERTEX
  8
0
 10
22.21428323
 20
14.64716540
  0
VERTEX
  8
0
 10
22.19700340
 20
14.73201084
  0
VERTEX
  8
0
 10
22.16583385
 20
14.80375898
  0
VERTEX
  8
0
 10
22.12308961
 20
14.86241990
  0
VERTEX
  8
0
 10
22.07108572
 20
14.90800367
  0
VERTEX
  8
0
 10
22.01213719
 20
14.94052034
  0
VERTEX
  8
0
 10
21.88266638
 20
14.96639271
  0
VERTEX
  8
0
 10
21.75319742
 20
14.94011757
  0
VERTEX
  8
0
 10
21.69425120
 20
14.90744985
  0
VERTEX
  8
0
 10
21.64225054
 20
14.86177546
  0
VERTEX
  8
0
 10
21.59951045
 20
14.80310448
  0
VERTEX
  8
0
 10
21.56834598
 20
14.73144695
  0
VERTEX
  8
0
 10
21.55107214
 20
14.64681297
  0
VERTEX
  8
0
 10
21.55000398
 20
14.54921259
  0
SEQEND
  0
POLYLINE
  8
Layer_1
 66
   1
 39
0.000000
 70
    1
  0
VERTEX
  8
0
 10
20.37934256
 20
14.16141338
  0
VERTEX
  8
0
 10
20.46556697
 20
14.16141338
  0
VERTEX
  8
0
 10
20.37934256
 20
14.16141338
  0
SEQEND
  0
POLYLINE
  8
Layer_1
 66
   1
 39
0.000000
 70
    1
  0
VERTEX
  8
0
 10
83.72321658
 20
2.16535433
  0
VERTEX
  8
0
 10
83.90958426
 20
2.25445737
  0
VERTEX
  8
0
 10
83.96087055
 20
2.30241837
  0
VERTEX
  8
0
 10
83.99087554
 20
2.35653887
  0
VERTEX
  8
0
 10
84.00699285
 20
2.49491787
  0
VERTEX
  8
0
 10
83.99783863
 20
2.69291338
  0
VERTEX
  8
0
 10
84.11374906
 20
2.76269635
  0
VERTEX
  8
0
 10
84.17517229
 20
2.78518276
  0
VERTEX
  8
0
 10
84.24291737
 20
2.79429133
  0
VERTEX
  8
0
 10
84.12969197
 20
3.63412057
  0
VERTEX
  8
0
 10
84.06772630
 20
4.05288010
  0
VERTEX
  8
0
 10
83.99094886
 20
4.46948819
  0
VERTEX
  8
0
 10
83.89262947
 20
5.05170177
  0
VERTEX
  8
0
 10
83.85669351
 20
5.38405339
  0
VERTEX
  8
0
 10
83.86102760
 20
5.61122047
  0
VERTEX
  8
0
 10
83.92717597
 20
5.95211346
  0
VERTEX
  8
0
 10
83.96526130
 20
6.25623007
  0
VERTEX
  8
0
 10
83.98206234
 20
6.52737435
  0
VERTEX
  8
0
 10
83.98435782
 20
6.76935039
  0
VERTEX
  8
0
 10
83.97254710
 20
7.18101402
  0
VERTEX
  8
0
 10
83.97199839
 20
7.35830976
  0
VERTEX
  8
0
 10
83.98405910
 20
7.52165354
  0
VERTEX
  8
0
 10
84.83126038
 20
7.54382086
  0
VERTEX
  8
0
 10
85.25391669
 20
7.56714739
  0
VERTEX
  8
0
 10
85.67205123
 20
7.61811023
  0
VERTEX
  8
0
 10
86.05896756
 20
7.67149366
  0
VERTEX
  8
0
 10
86.29112997
 20
7.69282529
  0
VERTEX
  8
0
 10
86.55824119
 20
7.73954546
  0
VERTEX
  8
0
 10
87.05000398
 20
7.86909448
  0
VERTEX
  8
0
 10
87.44633666
 20
7.97176722
  0
VERTEX
  8
0
 10
87.83937406
 20
8.07775590
  0
VERTEX
  8
0
 10
87.97412634
 20
8.11120719
  0
VERTEX
  8
0
 10
88.10960831
 20
8.12872102
  0
VERTEX
  8
0
 10
88.24414983
 20
8.12926915
  0
VERTEX
  8
0
 10
88.37608075
 20
8.11182332
  0
VERTEX
  8
0
 10
88.50373091
 20
8.07535529
  0
VERTEX
  8
0
 10
88.62543016
 20
8.01883680
  0
VERTEX
  8
0
 10
88.73950835
 20
7.94123959
  0
VERTEX
  8
0
 10
88.84429532
 20
7.84153543
  0
VERTEX
  8
0
 10
88.94964387
 20
7.64455327
  0
VERTEX
  8
0
 10
89.03832529
 20
7.47581147
  0
VERTEX
  8
0
 10
89.16192130
 20
7.27429527
  0
VERTEX
  8
0
 10
89.32861426
 20
7.05054926
  0
VERTEX
  8
0
 10
89.54658654
 20
6.81511798
  0
VERTEX
  8
0
 10
89.82402048
 20
6.57854603
  0
VERTEX
  8
0
 10
90.16909847
 20
6.35137795
  0
VERTEX
  8
0
 10
90.30351172
 20
6.28600672
  0
VERTEX
  8
0
 10
90.42185671
 20
6.24528481
  0
VERTEX
  8
0
 10
90.62085930
 20
6.18338189
  0
VERTEX
  8
0
 10
90.70677556
 20
6.13499730
  0
VERTEX
  8
0
 10
90.78714092
 20
6.05685494
  0
VERTEX
  8
0
 10
90.86458471
 20
5.93535302
  0
VERTEX
  8
0
 10
90.94173626
 20
5.75688976
  0
VERTEX
  8
0
 10
90.95562434
 20
5.69559451
  0
VERTEX
  8
0
 10
90.95554021
 20
5.62907213
  0
VERTEX
  8
0
 10
90.92048374
 20
5.48527220
  0
VERTEX
  8
0
 10
90.85062379
 20
5.33534245
  0
VERTEX
  8
0
 10
90.76001727
 20
5.18913533
  0
VERTEX
  8
0
 10
90.57279218
 20
4.94729890
  0
VERTEX
  8
0
 10
90.47126382
 20
4.83858267
  0
VERTEX
  8
0
 10
90.34056008
 20
4.75213632
  0
VERTEX
  8
0
 10
90.15531894
 20
4.56102362
  0
VERTEX
  8
0
 10
90.09912139
 20
4.47360747
  0
VERTEX
  8
0
 10
90.07374346
 20
4.38481133
  0
VERTEX
  8
0
 10
90.07088962
 20
4.29496520
  0
VERTEX
  8
0
 10
90.08226432
 20
4.20439911
  0
VERTEX
  8
0
 10
90.11451721
 20
4.02242710
  0
VERTEX
  8
0
 10
90.11880432
 20
3.93168121
  0
VERTEX
  8
0
 10
90.10413784
 20
3.84153543
  0
VERTEX
  8
0
 10
90.09261835
 20
3.73253913
  0
VERTEX
  8
0
 10
90.11956857
 20
3.63005296
  0
VERTEX
  8
0
 10
90.17615210
 20
3.53368537
  0
VERTEX
  8
0
 10
90.25353252
 20
3.44304478
  0
VERTEX
  8
0
 10
90.43533850
 20
3.27737838
  0
VERTEX
  8
0
 10
90.59429532
 20
3.12992126
  0
VERTEX
  8
0
 10
90.78228745
 20
2.91732283
  0
VERTEX
  8
0
 10
90.90376038
 20
3.36797047
  0
VERTEX
  8
0
 10
90.96066361
 20
3.63051636
  0
VERTEX
  8
0
 10
90.97057269
 20
3.72537597
  0
VERTEX
  8
0
 10
90.96142130
 20
3.77854330
  0
VERTEX
  8
0
 10
90.85823503
 20
3.87578174
  0
VERTEX
  8
0
 10
90.74463292
 20
3.96527657
  0
VERTEX
  8
0
 10
90.70213796
 20
4.01350455
  0
VERTEX
  8
0
 10
90.67889350
 20
4.06745792
  0
VERTEX
  8
0
 10
90.68218435
 20
4.12969045
  0
VERTEX
  8
0
 10
90.71929532
 20
4.20275590
  0
VERTEX
  8
0
 10
90.87775989
 20
4.20767716
  0
VERTEX
  8
0
 10
91.01735388
 20
4.50094439
  0
VERTEX
  8
0
 10
91.09284915
 20
4.64377245
  0
VERTEX
  8
0
 10
91.18090949
 20
4.77952756
  0
VERTEX
  8
0
 10
91.24074857
 20
4.00624704
  0
VERTEX
  8
0
 10
91.29016146
 20
3.23326771
  0
VERTEX
  8
0
 10
91.09809773
 20
2.99796776
  0
VERTEX
  8
0
 10
90.95072248
 20
2.74016633
  0
VERTEX
  8
0
 10
90.83808641
 20
2.46364591
  0
VERTEX
  8
0
 10
90.75024020
 20
2.17218897
  0
VERTEX
  8
0
 10
83.72321658
 20
2.16535433
  0
SEQEND
  0
POLYLINE
  8
Layer_1
 66
   1
 39
0.000000
 70
    1
  0
VERTEX
  8
0
 10
72.15959060
 20
2.16535433
  0
VERTEX
  8
0
 10
64.56830713
 20
2.16535433
  0
VERTEX
  8
0
 10
72.15959060
 20
2.16535433
  0
SEQEND
  0
POLYLINE
  8
Layer_1
 66
   1
 39
0.000000
 70
    1
  0
VERTEX
  8
0
 10
63.65873233
 20
2.16535433
  0
VERTEX
  8
0
 10
62.88266540
 20
2.16535433
  0
VERTEX
  8
0
 10
63.65873233
 20
2.16535433
  0
SEQEND
  0
POLYLINE
  8
Layer_1
 66
   1
 39
0.000000
 70
    1
  0
VERTEX
  8
0
 10
56.82288587
 20
2.16535433
  0
VERTEX
  8
0
 10
56.33641737
 20
2.16535433
  0
VERTEX
  8
0
 10
56.82288587
 20
2.16535433
  0
SEQEND
  0
POLYLINE
  8
Layer_1
 66
   1
 39
0.000000
 70
    1
  0
VERTEX
  8
0
 10
49.68029532
 20
2.16535433
  0
VERTEX
  8
0
 10
47.43878351
 20
2.16535433
  0
VERTEX
  8
0
 10
49.68029532
 20
2.16535433
  0
SEQEND
  0
POLYLINE
  8
Layer_1
 66
   1
 39
0.000000
 70
    1
  0
VERTEX
  8
0
 10
38.70270477
 20
2.16535433
  0
VERTEX
  8
0
 10
36.79999611
 20
2.16535433
  0
VERTEX
  8
0
 10
38.70270477
 20
2.16535433
  0
SEQEND
  0
POLYLINE
  8
Layer_1
 66
   1
 39
0.000000
 70
    1
  0
VERTEX
  8
0
 10
33.09430319
 20
2.16535433
  0
VERTEX
  8
0
 10
31.89943705
 20
2.16535433
  0
VERTEX
  8
0
 10
33.09430319
 20
2.16535433
  0
SEQEND
  0
POLYLINE
  8
Layer_1
 66
   1
 39
0.000000
 70
    1
  0
VERTEX
  8
0
 10
26.90548823
 20
2.16535433
  0
VERTEX
  8
0
 10
25.46733469
 20
2.16535433
  0
VERTEX
  8
0
 10
26.90548823
 20
2.16535433
  0
SEQEND
  0
POLYLINE
  8
Layer_1
 66
   1
 39
0.000000
 70
    1
  0
VERTEX
  8
0
 10
21.24685831
 20
2.16535433
  0
VERTEX
  8
0
 10
18.57053154
 20
2.16535433
  0
VERTEX
  8
0
 10
21.24685831
 20
2.16535433
  0
SEQEND
  0
POLYLINE
  8
Layer_1
 66
   1
 39
0.000000
 70
    1
  0
VERTEX
  8
0
 10
62.88169689
 20
2.16240157
  0
VERTEX
  8
0
 10
62.90706073
 20
2.28986345
  0
VERTEX
  8
0
 10
62.90134256
 20
2.40445952
  0
VERTEX
  8
0
 10
62.87421027
 20
2.50861520
  0
VERTEX
  8
0
 10
62.83533174
 20
2.60475590
  0
VERTEX
  8
0
 10
62.76100743
 20
2.78269402
  0
VERTEX
  8
0
 10
62.74489740
 20
2.86934225
  0
VERTEX
  8
0
 10
62.75571264
 20
2.95767716
  0
VERTEX
  8
0
 10
62.78913294
 20
3.12125621
  0
VERTEX
  8
0
 10
62.80534915
 20
3.32099286
  0
VERTEX
  8
0
 10
62.80225349
 20
3.78561909
  0
VERTEX
  8
0
 10
62.77859410
 20
4.26491609
  0
VERTEX
  8
0
 10
62.76653941
 20
4.67224409
  0
VERTEX
  8
0
 10
62.78246363
 20
5.15578494
  0
VERTEX
  8
0
 10
62.78410425
 20
5.39760168
  0
VERTEX
  8
0
 10
62.76949217
 20
5.63877952
  0
VERTEX
  8
0
 10
62.75818644
 20
5.89917316
  0
VERTEX
  8
0
 10
62.77767130
 20
6.08042372
  0
VERTEX
  8
0
 10
62.80487763
 20
6.24705296
  0
VERTEX
  8
0
 10
62.81673626
 20
6.46358267
  0
VERTEX
  8
0
 10
62.85137012
 20
6.60557006
  0
VERTEX
  8
0
 10
62.93186028
 20
6.85128887
  0
VERTEX
  8
0
 10
63.08051579
 20
7.27952756
  0
VERTEX
  8
0
 10
63.10413784
 20
7.28444882
  0
VERTEX
  8
0
 10
63.22416702
 20
7.15743723
  0
VERTEX
  8
0
 10
63.31727976
 20
6.99518294
  0
VERTEX
  8
0
 10
63.38954188
 20
6.80770308
  0
VERTEX
  8
0
 10
63.44701924
 20
6.60501476
  0
VERTEX
  8
0
 10
63.54188298
 20
6.19408132
  0
VERTEX
  8
0
 10
63.59140104
 20
6.00587046
  0
VERTEX
  8
0
 10
63.65039768
 20
5.84251968
  0
VERTEX
  8
0
 10
63.70708051
 20
5.67071924
  0
VERTEX
  8
0
 10
63.73943705
 20
5.49539763
  0
VERTEX
  8
0
 10
63.76738218
 20
5.31844020
  0
VERTEX
  8
0
 10
63.81083075
 20
5.14173228
  0
VERTEX
  8
0
 10
63.86347646
 20
4.91161795
  0
VERTEX
  8
0
 10
63.88411600
 20
4.66507135
  0
VERTEX
  8
0
 10
63.87265605
 20
4.14769783
  0
VERTEX
  8
0
 10
63.86300983
 20
3.63964468
  0
VERTEX
  8
0
 10
63.88591653
 20
3.40474855
  0
VERTEX
  8
0
 10
63.94173626
 20
3.19094488
  0
VERTEX
  8
0
 10
64.00662873
 20
2.97864462
  0
VERTEX
  8
0
 10
64.00596424
 20
2.91832235
  0
VERTEX
  8
0
 10
63.98481796
 20
2.87388041
  0
VERTEX
  8
0
 10
63.88585610
 20
2.78862284
  0
VERTEX
  8
0
 10
63.71929532
 20
2.63484252
  0
VERTEX
  8
0
 10
63.66594622
 20
2.53943227
  0
VERTEX
  8
0
 10
63.63087652
 20
2.40621899
  0
VERTEX
  8
0
 10
63.62487449
 20
2.26994445
  0
VERTEX
  8
0
 10
63.63614518
 20
2.21151600
  0
VERTEX
  8
0
 10
63.65872839
 20
2.16535039
  0
VERTEX
  8
0
 10
62.88169689
 20
2.16240157
  0
SEQEND
  0
POLYLINE
  8
Layer_1
 66
   1
 39
0.000000
 70
    1
  0
VERTEX
  8
0
 10
65.88366540
 20
17.02460630
  0
VERTEX
  8
0
 10
65.57482743
 20
17.00006717
  0
VERTEX
  8
0
 10
65.47514571
 20
17.00978740
  0
VERTEX
  8
0
 10
65.36712541
 20
16.97942692
  0
VERTEX
  8
0
 10
65.03327170
 20
16.83464567
  0
VERTEX
  8
0
 10
64.51719936
 20
16.63689074
  0
VERTEX
  8
0
 10
64.25884816
 20
16.53912500
  0
VERTEX
  8
0
 10
64.00571264
 20
16.42716535
  0
VERTEX
  8
0
 10
63.42547101
 20
16.19066437
  0
VERTEX
  8
0
 10
62.94862603
 20
15.99311023
  0
VERTEX
  8
0
 10
63.05471904
 20
15.94669045
  0
VERTEX
  8
0
 10
63.10289221
 20
15.92208298
  0
VERTEX
  8
0
 10
63.14153941
 20
15.87598425
  0
VERTEX
  8
0
 10
63.19104214
 20
15.79668252
  0
VERTEX
  8
0
 10
63.23614024
 20
15.75492624
  0
VERTEX
  8
0
 10
63.27978548
 20
15.74174239
  0
VERTEX
  8
0
 10
63.32492967
 20
15.74815797
  0
VERTEX
  8
0
 10
63.43152201
 20
15.78389536
  0
VERTEX
  8
0
 10
63.49887373
 20
15.79527115
  0
VERTEX
  8
0
 10
63.57953154
 20
15.79035433
  0
VERTEX
  8
0
 10
63.59686057
 20
15.74271296
  0
VERTEX
  8
0
 10
63.59918102
 20
15.69084768
  0
VERTEX
  8
0
 10
63.57848922
 20
15.57883169
  0
VERTEX
  8
0
 10
63.55684219
 20
15.46307898
  0
VERTEX
  8
0
 10
63.55796862
 20
15.40654281
  0
VERTEX
  8
0
 10
63.57362603
 20
15.35236220
  0
VERTEX
  8
0
 10
63.61880707
 20
15.34652418
  0
VERTEX
  8
0
 10
63.66470157
 20
15.35497717
  0
VERTEX
  8
0
 10
63.75838292
 20
15.39133809
  0
VERTEX
  8
0
 10
63.85417401
 20
15.41460869
  0
VERTEX
  8
0
 10
63.90270569
 20
15.40669881
  0
VERTEX
  8
0
 10
63.95157878
 20
15.37795275
  0
VERTEX
  8
0
 10
63.93461637
 20
15.30027257
  0
VERTEX
  8
0
 10
63.92110979
 20
15.15171998
  0
VERTEX
  8
0
 10
63.93348189
 20
15.07883546
  0
VERTEX
  8
0
 10
63.96811329
 20
15.02179558
  0
VERTEX
  8
0
 10
64.03213579
 20
14.99178790
  0
VERTEX
  8
0
 10
64.13268115
 20
15.00000000
  0
VERTEX
  8
0
 10
64.17718918
 20
15.02555040
  0
VERTEX
  8
0
 10
64.18975970
 20
15.06677971
  0
VERTEX
  8
0
 10
64.15703794
 20
15.17942273
  0
VERTEX
  8
0
 10
64.11041534
 20
15.30422447
  0
VERTEX
  8
0
 10
64.10560981
 20
15.36065216
  0
VERTEX
  8
0
 10
64.12579138
 20
15.40748031
  0
VERTEX
  8
0
 10
64.18935585
 20
15.46236319
  0
VERTEX
  8
0
 10
64.27259453
 20
15.54469488
  0
VERTEX
  8
0
 10
64.29750367
 20
15.58735943
  0
VERTEX
  8
0
 10
64.29842573
 20
15.62633267
  0
VERTEX
  8
0
 10
64.26572550
 20
15.65809676
  0
VERTEX
  8
0
 10
64.18976776
 20
15.67913385
  0
VERTEX
  8
0
 10
64.09769203
 20
15.69049698
  0
VERTEX
  8
0
 10
63.99897298
 20
15.71519734
  0
VERTEX
  8
0
 10
63.96524578
 20
15.73750995
  0
VERTEX
  8
0
 10
63.95160604
 20
15.76911005
  0
VERTEX
  8
0
 10
63.96530319
 20
15.81198201
  0
VERTEX
  8
0
 10
64.01358666
 20
15.86811023
  0
VERTEX
  8
0
 10
64.08869344
 20
15.91222551
  0
VERTEX
  8
0
 10
64.21041238
 20
15.95422071
  0
VERTEX
  8
0
 10
64.35957710
 20
15.98563730
  0
VERTEX
  8
0
 10
64.51702121
 20
15.99801673
  0
VERTEX
  8
0
 10
64.66357832
 20
15.98290046
  0
VERTEX
  8
0
 10
64.78008204
 20
15.93182997
  0
VERTEX
  8
0
 10
64.82107440
 20
15.89016859
  0
VERTEX
  8
0
 10
64.84736601
 20
15.83634670
  0
VERTEX
  8
0
 10
64.85656108
 20
15.76930698
  0
VERTEX
  8
0
 10
64.84626382
 20
15.68799212
  0
VERTEX
  8
0
 10
64.82900173
 20
15.55512946
  0
VERTEX
  8
0
 10
64.83775761
 20
15.42896758
  0
VERTEX
  8
0
 10
64.86919463
 20
15.31698123
  0
VERTEX
  8
0
 10
64.91997593
 20
15.22664517
  0
VERTEX
  8
0
 10
64.98676468
 20
15.16543418
  0
VERTEX
  8
0
 10
65.06622402
 20
15.14082302
  0
VERTEX
  8
0
 10
65.15501712
 20
15.16028644
  0
VERTEX
  8
0
 10
65.24980713
 20
15.23129921
  0
VERTEX
  8
0
 10
65.42124801
 20
15.38694783
  0
VERTEX
  8
0
 10
65.52540113
 20
15.44988582
  0
VERTEX
  8
0
 10
65.59215094
 20
15.47661122
  0
VERTEX
  8
0
 10
65.65138193
 20
15.52362204
  0
VERTEX
  8
0
 10
65.61770031
 20
15.61956629
  0
VERTEX
  8
0
 10
65.55717942
 20
15.72917507
  0
VERTEX
  8
0
 10
65.49031787
 20
15.85370394
  0
VERTEX
  8
0
 10
65.43761422
 20
15.99440846
  0
VERTEX
  8
0
 10
65.41956707
 20
16.15254421
  0
VERTEX
  8
0
 10
65.42994548
 20
16.23854116
  0
VERTEX
  8
0
 10
65.45667499
 20
16.32936675
  0
VERTEX
  8
0
 10
65.50231792
 20
16.42517794
  0
VERTEX
  8
0
 10
65.56943659
 20
16.52613166
  0
VERTEX
  8
0
 10
65.66059332
 20
16.63238486
  0
VERTEX
  8
0
 10
65.77835044
 20
16.74409448
  0
VERTEX
  8
0
 10
65.89015211
 20
16.84793553
  0
VERTEX
  8
0
 10
65.92827053
 20
16.90805382
  0
VERTEX
  8
0
 10
65.94665752
 20
16.98326771
  0
VERTEX
  8
0
 10
65.88366540
 20
17.02460630
  0
SEQEND
  0
POLYLINE
  8
Layer_1
 66
   1
 39
0.000000
 70
    1
  0
VERTEX
  8
0
 10
64.55886225
 20
16.80216535
  0
VERTEX
  8
0
 10
64.15755159
 20
16.70786312
  0
VERTEX
  8
0
 10
63.53669099
 20
16.52898179
  0
VERTEX
  8
0
 10
62.97096129
 20
16.33585562
  0
VERTEX
  8
0
 10
62.79460830
 20
16.25593018
  0
VERTEX
  8
0
 10
62.74808137
 20
16.22397328
  0
VERTEX
  8
0
 10
62.73504335
 20
16.19881889
  0
VERTEX
  8
0
 10
62.75927539
 20
16.17059566
  0
VERTEX
  8
0
 10
62.81124714
 20
16.16016541
  0
VERTEX
  8
0
 10
62.98309096
 20
16.18418750
  0
VERTEX
  8
0
 10
63.21993731
 20
16.25389241
  0
VERTEX
  8
0
 10
63.49114867
 20
16.35228740
  0
VERTEX
  8
0
 10
64.01411631
 20
16.56717667
  0
VERTEX
  8
0
 10
64.30689374
 20
16.69291338
  0
VERTEX
  8
0
 10
64.55689374
 20
16.77952756
  0
VERTEX
  8
0
 10
64.55886225
 20
16.80216535
  0
SEQEND
  0
POLYLINE
  8
Layer_1
 66
   1
 39
0.000000
 70
    1
  0
VERTEX
  8
0
 10
65.85020083
 20
16.65846456
  0
VERTEX
  8
0
 10
65.78513902
 20
16.56102576
  0
VERTEX
  8
0
 10
65.72668367
 20
16.43895244
  0
VERTEX
  8
0
 10
65.67959579
 20
16.30081789
  0
VERTEX
  8
0
 10
65.64863636
 20
16.15519537
  0
VERTEX
  8
0
 10
65.63856640
 20
16.01065818
  0
VERTEX
  8
0
 10
65.65414688
 20
15.87577959
  0
VERTEX
  8
0
 10
65.70013882
 20
15.75913288
  0
VERTEX
  8
0
 10
65.78130319
 20
15.66929133
  0
VERTEX
  8
0
 10
65.88401979
 20
15.76950646
  0
VERTEX
  8
0
 10
66.03523873
 20
15.95367470
  0
VERTEX
  8
0
 10
66.09427167
 20
16.05024717
  0
VERTEX
  8
0
 10
66.12371233
 20
16.13541504
  0
VERTEX
  8
0
 10
66.10965475
 20
16.19838068
  0
VERTEX
  8
0
 10
66.08196850
 20
16.21816340
  0
VERTEX
  8
0
 10
66.03819296
 20
16.22834645
  0
VERTEX
  8
0
 10
65.90652397
 20
16.24340428
  0
VERTEX
  8
0
 10
65.87498457
 20
16.25927150
  0
VERTEX
  8
0
 10
65.86180073
 20
16.28962992
  0
VERTEX
  8
0
 10
65.87697636
 20
16.42061737
  0
VERTEX
  8
0
 10
65.92500398
 20
16.68996063
  0
VERTEX
  8
0
 10
65.85020083
 20
16.65846456
  0
SEQEND
  0
POLYLINE
  8
Layer_1
 66
   1
 39
0.000000
 70
    1
  0
VERTEX
  8
0
 10
59.08248430
 20
15.32972441
  0
VERTEX
  8
0
 10
58.94421018
 20
15.21450012
  0
VERTEX
  8
0
 10
58.86305418
 20
15.16645767
  0
VERTEX
  8
0
 10
58.59429532
 20
15.12007874
  0
VERTEX
  8
0
 10
58.40188729
 20
15.06418891
  0
VERTEX
  8
0
 10
58.21649758
 20
14.98530265
  0
VERTEX
  8
0
 10
58.03029218
 20
14.90564499
  0
VERTEX
  8
0
 10
57.83543705
 20
14.84744094
  0
VERTEX
  8
0
 10
57.71420034
 20
14.82535383
  0
VERTEX
  8
0
 10
57.68059841
 20
14.79444912
  0
VERTEX
  8
0
 10
57.67401973
 20
14.72834645
  0
VERTEX
  8
0
 10
57.70030073
 20
14.48600246
  0
VERTEX
  8
0
 10
57.72847759
 20
14.35806920
  0
VERTEX
  8
0
 10
57.77441343
 20
14.26574803
  0
VERTEX
  8
0
 10
59.22618508
 20
15.16043307
  0
VERTEX
  8
0
 10
59.22705178
 20
15.21640391
  0
VERTEX
  8
0
 10
59.18913439
 20
15.26802460
  0
VERTEX
  8
0
 10
59.13381716
 20
15.30817236
  0
VERTEX
  8
0
 10
59.08248430
 20
15.32972441
  0
SEQEND
  0
POLYLINE
  8
Layer_1
 66
   1
 39
0.000000
 70
    1
  0
VERTEX
  8
0
 10
59.35905910
 20
14.98818897
  0
VERTEX
  8
0
 10
58.66817229
 20
14.62965649
  0
VERTEX
  8
0
 10
58.26850115
 20
14.39899569
  0
VERTEX
  8
0
 10
58.12900234
 20
14.30594895
  0
VERTEX
  8
0
 10
58.05787800
 20
14.24114173
  0
VERTEX
  8
0
 10
59.43386225
 20
14.76279527
  0
VERTEX
  8
0
 10
59.44882546
 20
14.82162087
  0
VERTEX
  8
0
 10
59.43192623
 20
14.88429576
  0
VERTEX
  8
0
 10
59.35905910
 20
14.98818897
  0
SEQEND
  0
POLYLINE
  8
Layer_1
 66
   1
 39
0.000000
 70
    1
  0
VERTEX
  8
0
 10
57.49586619
 20
14.81102362
  0
VERTEX
  8
0
 10
57.38255184
 20
14.80814979
  0
VERTEX
  8
0
 10
57.29773823
 20
14.78539025
  0
VERTEX
  8
0
 10
57.27215333
 20
14.76147080
  0
VERTEX
  8
0
 10
57.26105455
 20
14.72648086
  0
VERTEX
  8
0
 10
57.26689554
 20
14.67838743
  0
VERTEX
  8
0
 10
57.29212997
 20
14.61515748
  0
VERTEX
  8
0
 10
57.43245378
 20
14.34368061
  0
VERTEX
  8
0
 10
57.52153917
 20
14.20789031
  0
VERTEX
  8
0
 10
57.61693311
 20
14.11220472
  0
VERTEX
  8
0
 10
57.63760241
 20
14.12500000
  0
VERTEX
  8
0
 10
57.63866866
 20
14.27177325
  0
VERTEX
  8
0
 10
57.60934404
 20
14.48938385
  0
VERTEX
  8
0
 10
57.55871455
 20
14.69630844
  0
VERTEX
  8
0
 10
57.52824985
 20
14.77028741
  0
VERTEX
  8
0
 10
57.49586619
 20
14.81102362
  0
SEQEND
  0
POLYLINE
  8
Layer_1
 66
   1
 39
0.000000
 70
    1
  0
VERTEX
  8
0
 10
73.41220871
 20
3.57381889
  0
VERTEX
  8
0
 10
73.39737997
 20
3.47238502
  0
VERTEX
  8
0
 10
73.40092032
 20
3.36642273
  0
VERTEX
  8
0
 10
73.40567573
 20
3.25908962
  0
VERTEX
  8
0
 10
73.39449217
 20
3.15354330
  0
VERTEX
  8
0
 10
73.37064128
 20
3.03080690
  0
VERTEX
  8
0
 10
73.36948823
 20
2.92941781
  0
VERTEX
  8
0
 10
73.39633912
 20
2.83182375
  0
VERTEX
  8
0
 10
73.45650004
 20
2.72047244
  0
VERTEX
  8
0
 10
73.47027563
 20
2.73129921
  0
VERTEX
  8
0
 10
73.50029034
 20
2.92742888
  0
VERTEX
  8
0
 10
73.52827613
 20
3.16979133
  0
VERTEX
  8
0
 10
73.52854316
 20
3.29116956
  0
VERTEX
  8
0
 10
73.51274494
 20
3.40353764
  0
VERTEX
  8
0
 10
73.47569546
 20
3.50003946
  0
VERTEX
  8
0
 10
73.41220871
 20
3.57381889
  0
SEQEND
  0
POLYLINE
  8
Layer_1
 66
   1
 39
0.000000
 70
    1
  0
VERTEX
  8
0
 10
56.82288587
 20
2.16535039
  0
VERTEX
  8
0
 10
56.69126468
 20
2.26853795
  0
VERTEX
  8
0
 10
56.56925693
 20
2.38449950
  0
VERTEX
  8
0
 10
56.33642130
 20
2.62795275
  0
VERTEX
  8
0
 10
56.33642130
 20
2.16535433
  0
VERTEX
  8
0
 10
56.82288587
 20
2.16535039
  0
SEQEND
  0
POLYLINE
  8
Layer_1
 66
   1
 39
0.000000
 70
    1
  0
VERTEX
  8
0
 10
52.75767721
 20
11.90270078
  0
VERTEX
  8
0
 10
53.06636446
 20
11.96535405
  0
VERTEX
  8
0
 10
53.18882751
 20
12.01071217
  0
VERTEX
  8
0
 10
53.29224463
 20
12.06527091
  0
VERTEX
  8
0
 10
53.37827168
 20
12.12891501
  0
VERTEX
  8
0
 10
53.44856451
 20
12.20152919
  0
VERTEX
  8
0
 10
53.50477897
 20
12.28299817
  0
VERTEX
  8
0
 10
53.54857091
 20
12.37320669
  0
VERTEX
  8
0
 10
53.60551062
 20
12.57938124
  0
VERTEX
  8
0
 10
53.63263046
 20
12.81913066
  0
VERTEX
  8
0
 10
53.65039768
 20
13.39566535
  0
VERTEX
  8
0
 10
52.75768115
 20
13.39566535
  0
VERTEX
  8
0
 10
52.75767721
 20
11.90270078
  0
SEQEND
  0
POLYLINE
  8
Layer_1
 66
   1
 39
0.000000
 70
    1
  0
VERTEX
  8
0
 10
52.75768115
 20
13.39566929
  0
VERTEX
  8
0
 10
52.75768115
 20
11.90270078
  0
VERTEX
  8
0
 10
52.75768115
 20
13.39566929
  0
SEQEND
  0
POLYLINE
  8
Layer_1
 66
   1
 39
0.000000
 70
    1
  0
VERTEX
  8
0
 10
49.68029138
 20
2.16535039
  0
VERTEX
  8
0
 10
46.81181500
 20
8.86318897
  0
VERTEX
  8
0
 10
46.81181500
 20
4.79527559
  0
VERTEX
  8
0
 10
47.43878351
 20
4.79527559
  0
VERTEX
  8
0
 10
47.43878351
 20
2.16535433
  0
VERTEX
  8
0
 10
49.68029138
 20
2.16535039
  0
SEQEND
  0
POLYLINE
  8
Layer_1
 66
   1
 39
0.000000
 70
    1
  0
VERTEX
  8
0
 10
32.56870477
 20
10.65059055
  0
VERTEX
  8
0
 10
31.89941343
 20
7.45472441
  0
VERTEX
  8
0
 10
33.17106697
 20
7.45472441
  0
VERTEX
  8
0
 10
32.56870477
 20
10.65059055
  0
SEQEND
  0
POLYLINE
  8
Layer_1
 66
   1
 39
0.000000
 70
    1
  0
VERTEX
  8
0
 10
26.90556304
 20
2.16535433
  0
VERTEX
  8
0
 10
26.77013946
 20
2.26499059
  0
VERTEX
  8
0
 10
26.65044766
 20
2.37918846
  0
VERTEX
  8
0
 10
26.54552757
 20
2.50687312
  0
VERTEX
  8
0
 10
26.45441911
 20
2.64696972
  0
VERTEX
  8
0
 10
26.37616221
 20
2.79840343
  0
VERTEX
  8
0
 10
26.30979679
 20
2.96009940
  0
VERTEX
  8
0
 10
26.20890008
 20
3.30997877
  0
VERTEX
  8
0
 10
26.14404838
 20
3.68800915
  0
VERTEX
  8
0
 10
26.10756108
 20
4.08559182
  0
VERTEX
  8
0
 10
26.09175756
 20
4.49412807
  0
VERTEX
  8
0
 10
26.08895723
 20
4.90501919
  0
VERTEX
  8
0
 10
26.09164368
 20
5.69947123
  0
VERTEX
  8
0
 10
26.08176924
 20
6.06583473
  0
VERTEX
  8
0
 10
26.05417555
 20
6.40015828
  0
VERTEX
  8
0
 10
26.00118200
 20
6.69384316
  0
VERTEX
  8
0
 10
25.91510798
 20
6.93829067
  0
VERTEX
  8
0
 10
25.85726561
 20
7.03936331
  0
VERTEX
  8
0
 10
25.78827289
 20
7.12490209
  0
VERTEX
  8
0
 10
25.70716975
 20
7.19383218
  0
VERTEX
  8
0
 10
25.61299611
 20
7.24507874
  0
VERTEX
  8
0
 10
25.48324365
 20
7.28847317
  0
VERTEX
  8
0
 10
25.34652490
 20
7.31617366
  0
VERTEX
  8
0
 10
25.06061126
 20
7.33670817
  0
VERTEX
  8
0
 10
24.49783863
 20
7.32381889
  0
VERTEX
  8
0
 10
24.48638778
 20
6.67530358
  0
VERTEX
  8
0
 10
24.47607928
 20
5.61096899
  0
VERTEX
  8
0
 10
24.48262405
 20
5.05600497
  0
VERTEX
  8
0
 10
24.50297919
 20
4.55684873
  0
VERTEX
  8
0
 10
24.54165295
 20
4.16675446
  0
VERTEX
  8
0
 10
24.56926814
 20
4.02924751
  0
VERTEX
  8
0
 10
24.60315359
 20
3.93897637
  0
VERTEX
  8
0
 10
24.67044705
 20
3.86475995
  0
VERTEX
  8
0
 10
24.76532903
 20
3.81516867
  0
VERTEX
  8
0
 10
24.87982359
 20
3.78566260
  0
VERTEX
  8
0
 10
25.00595477
 20
3.77170177
  0
VERTEX
  8
0
 10
25.26122322
 20
3.77225602
  0
VERTEX
  8
0
 10
25.46732682
 20
3.78051181
  0
VERTEX
  8
0
 10
25.46732682
 20
2.16535433
  0
VERTEX
  8
0
 10
26.90556304
 20
2.16535433
  0
SEQEND
  0
POLYLINE
  8
Layer_1
 66
   1
 39
0.000000
 70
    1
  0
VERTEX
  8
0
 10
24.47716934
 20
8.87204724
  0
VERTEX
  8
0
 10
24.91969187
 20
8.87627117
  0
VERTEX
  8
0
 10
25.30497015
 20
8.90315612
  0
VERTEX
  8
0
 10
25.47521261
 20
8.93175889
  0
VERTEX
  8
0
 10
25.63002790
 20
8.97402182
  0
VERTEX
  8
0
 10
25.76904398
 20
9.03260986
  0
VERTEX
  8
0
 10
25.89188882
 20
9.11018799
  0
VERTEX
  8
0
 10
25.99819039
 20
9.20942117
  0
VERTEX
  8
0
 10
26.08757665
 20
9.33297436
  0
VERTEX
  8
0
 10
26.15967555
 20
9.48351254
  0
VERTEX
  8
0
 10
26.21411508
 20
9.66370066
  0
VERTEX
  8
0
 10
26.25052318
 20
9.87620370
  0
VERTEX
  8
0
 10
26.26852783
 20
10.12368662
  0
VERTEX
  8
0
 10
26.26775699
 20
10.40881439
  0
VERTEX
  8
0
 10
26.24783863
 20
10.73425196
  0
VERTEX
  8
0
 10
26.22221127
 20
10.95164360
  0
VERTEX
  8
0
 10
26.18509220
 20
11.14024599
  0
VERTEX
  8
0
 10
26.13651424
 20
11.30209631
  0
VERTEX
  8
0
 10
26.07651019
 20
11.43923173
  0
VERTEX
  8
0
 10
26.00511287
 20
11.55368940
  0
VERTEX
  8
0
 10
25.92235507
 20
11.64750649
  0
VERTEX
  8
0
 10
25.82826962
 20
11.72272018
  0
VERTEX
  8
0
 10
25.72288932
 20
11.78136761
  0
VERTEX
  8
0
 10
25.60624697
 20
11.82548597
  0
VERTEX
  8
0
 10
25.47837539
 20
11.85711241
  0
VERTEX
  8
0
 10
25.18907577
 20
11.89103820
  0
VERTEX
  8
0
 10
24.85525293
 20
11.89944230
  0
VERTEX
  8
0
 10
24.47716934
 20
11.89862204
  0
VERTEX
  8
0
 10
24.47716934
 20
8.87204724
  0
SEQEND
  0
POLYLINE
  8
Layer_1
 66
   1
 39
0.000000
 70
    1
  0
VERTEX
  8
0
 10
16.80000398
 20
6.88681102
  0
VERTEX
  8
0
 10
16.80000398
 20
4.63188976
  0
VERTEX
  8
0
 10
17.20498749
 20
4.63453741
  0
VERTEX
  8
0
 10
17.56744099
 20
4.65340237
  0
VERTEX
  8
0
 10
17.88132165
 20
4.70486770
  0
VERTEX
  8
0
 10
18.01815879
 20
4.74794520
  0
VERTEX
  8
0
 10
18.14058666
 20
4.80531643
  0
VERTEX
  8
0
 10
18.24784991
 20
4.87902928
  0
VERTEX
  8
0
 10
18.33919320
 20
4.97113162
  0
VERTEX
  8
0
 10
18.41386117
 20
5.08367133
  0
VERTEX
  8
0
 10
18.47109847
 20
5.21869629
  0
VERTEX
  8
0
 10
18.51014974
 20
5.37825439
  0
VERTEX
  8
0
 10
18.53025964
 20
5.56439350
  0
VERTEX
  8
0
 10
18.53067281
 20
5.77916151
  0
VERTEX
  8
0
 10
18.51063390
 20
6.02460630
  0
VERTEX
  8
0
 10
18.48116599
 20
6.19614318
  0
VERTEX
  8
0
 10
18.43645271
 20
6.34363964
  0
VERTEX
  8
0
 10
18.37754815
 20
6.46888582
  0
VERTEX
  8
0
 10
18.30550644
 20
6.57367181
  0
VERTEX
  8
0
 10
18.22138168
 20
6.65978773
  0
VERTEX
  8
0
 10
18.12622799
 20
6.72902370
  0
VERTEX
  8
0
 10
18.02109947
 20
6.78316983
  0
VERTEX
  8
0
 10
17.90705024
 20
6.82401624
  0
VERTEX
  8
0
 10
17.65640608
 20
6.87297032
  0
VERTEX
  8
0
 10
17.38272839
 20
6.89020687
  0
VERTEX
  8
0
 10
16.80000398
 20
6.88681102
  0
SEQEND
  0
POLYLINE
  8
Layer_1
 66
   1
 39
0.000000
 70
    1
  0
VERTEX
  8
0
 10
16.80000398
 20
11.06200787
  0
VERTEX
  8
0
 10
16.80000398
 20
8.97342126
  0
VERTEX
  8
0
 10
17.42242087
 20
8.97686109
  0
VERTEX
  8
0
 10
17.69466791
 20
9.00436969
  0
VERTEX
  8
0
 10
17.93214325
 20
9.06970078
  0
VERTEX
  8
0
 10
18.03577964
 20
9.12138493
  0
VERTEX
  8
0
 10
18.12824882
 20
9.18832691
  0
VERTEX
  8
0
 10
18.20872604
 20
9.27246077
  0
VERTEX
  8
0
 10
18.27638655
 20
9.37572059
  0
VERTEX
  8
0
 10
18.33040557
 20
9.50004044
  0
VERTEX
  8
0
 10
18.36995836
 20
9.64735437
  0
VERTEX
  8
0
 10
18.39422015
 20
9.81959647
  0
VERTEX
  8
0
 10
18.40236619
 20
10.01870078
  0
VERTEX
  8
0
 10
18.39392015
 20
10.21721979
  0
VERTEX
  8
0
 10
18.36949201
 20
10.38898130
  0
VERTEX
  8
0
 10
18.32988646
 20
10.53591012
  0
VERTEX
  8
0
 10
18.27590820
 20
10.65993110
  0
VERTEX
  8
0
 10
18.20836191
 20
10.76296905
  0
VERTEX
  8
0
 10
18.12805228
 20
10.84694882
  0
VERTEX
  8
0
 10
18.03578400
 20
10.91379521
  0
VERTEX
  8
0
 10
17.93236176
 20
10.96543307
  0
VERTEX
  8
0
 10
17.69527415
 20
11.03078248
  0
VERTEX
  8
0
 10
17.42322698
 20
11.05839567
  0
VERTEX
  8
0
 10
16.80000398
 20
11.06200787
  0
SEQEND
  0
POLYLINE
  8
Layer_1
 66
   1
 39
0.000000
 70
    1
  0
VERTEX
  8
0
 10
14.58866934
 20
13.57578740
  0
VERTEX
  8
0
 10
14.94961028
 20
13.57574409
  0
VERTEX
  8
0
 10
14.58866934
 20
13.57578740
  0
SEQEND
  0
POLYLINE
  8
Layer_1
 66
   1
 39
0.000000
 70
    1
  0
VERTEX
  8
0
 10
6.74390162
 20
19.17913385
  0
VERTEX
  8
0
 10
6.69619837
 20
19.11246309
  0
VERTEX
  8
0
 10
6.68762338
 20
19.07578832
  0
VERTEX
  8
0
 10
6.69370477
 20
19.03346456
  0
VERTEX
  8
0
 10
6.75258813
 20
19.02231200
  0
VERTEX
  8
0
 10
6.81378351
 20
19.03051181
  0
VERTEX
  8
0
 10
6.82684822
 20
19.07499022
  0
VERTEX
  8
0
 10
6.81547150
 20
19.11883120
  0
VERTEX
  8
0
 10
6.78578031
 20
19.15517587
  0
VERTEX
  8
0
 10
6.74390162
 20
19.17716535
  0
VERTEX
  8
0
 10
6.74390162
 20
19.17913385
  0
SEQEND
  0
POLYLINE
  8
Layer_1
 66
   1
 39
0.000000
 70
    1
  0
VERTEX
  8
0
 10
6.38071264
 20
18.53149606
  0
VERTEX
  8
0
 10
6.29373356
 20
18.41329024
  0
VERTEX
  8
0
 10
6.19697495
 20
18.23006182
  0
VERTEX
  8
0
 10
6.09866540
 20
18.00085503
  0
VERTEX
  8
0
 10
6.00703351
 20
17.74471407
  0
VERTEX
  8
0
 10
5.93030787
 20
17.48068317
  0
VERTEX
  8
0
 10
5.87671707
 20
17.22780653
  0
VERTEX
  8
0
 10
5.85448971
 20
17.00512837
  0
VERTEX
  8
0
 10
5.87185437
 20
16.83169291
  0
VERTEX
  8
0
 10
5.92922701
 20
16.67203201
  0
VERTEX
  8
0
 10
6.02865709
 20
16.45178807
  0
VERTEX
  8
0
 10
6.16120242
 20
16.20172232
  0
VERTEX
  8
0
 10
6.31792081
 20
15.95259596
  0
VERTEX
  8
0
 10
6.48987007
 20
15.73517020
  0
VERTEX
  8
0
 10
6.57876184
 20
15.64795793
  0
VERTEX
  8
0
 10
6.66810800
 20
15.58020626
  0
VERTEX
  8
0
 10
6.75679079
 20
15.53576035
  0
VERTEX
  8
0
 10
6.84369243
 20
15.51846534
  0
VERTEX
  8
0
 10
6.92769514
 20
15.53216639
  0
VERTEX
  8
0
 10
7.00768115
 20
15.58070866
  0
VERTEX
  8
0
 10
7.12986167
 20
15.70200039
  0
VERTEX
  8
0
 10
7.23329314
 20
15.83512450
  0
VERTEX
  8
0
 10
7.31980647
 20
15.97751785
  0
VERTEX
  8
0
 10
7.39123257
 20
16.12661731
  0
VERTEX
  8
0
 10
7.49614679
 20
16.43468200
  0
VERTEX
  8
0
 10
7.56268311
 20
16.73881348
  0
VERTEX
  8
0
 10
7.63921141
 20
17.25325646
  0
VERTEX
  8
0
 10
7.67849804
 20
17.42255777
  0
VERTEX
  8
0
 10
7.70480519
 20
17.47625740
  0
VERTEX
  8
0
 10
7.73799611
 20
17.50590551
  0
VERTEX
  8
0
 10
7.79117129
 20
17.50860626
  0
VERTEX
  8
0
 10
7.83081390
 20
17.46990772
  0
VERTEX
  8
0
 10
7.85881803
 20
17.40142362
  0
VERTEX
  8
0
 10
7.87707780
 20
17.31476771
  0
VERTEX
  8
0
 10
7.89194062
 20
17.13339542
  0
VERTEX
  8
0
 10
7.89055516
 20
17.01870078
  0
VERTEX
  8
0
 10
7.85560173
 20
16.71017497
  0
VERTEX
  8
0
 10
7.81034412
 20
16.44238898
  0
VERTEX
  8
0
 10
7.75658471
 20
16.21186174
  0
VERTEX
  8
0
 10
7.69612591
 20
16.01511214
  0
VERTEX
  8
0
 10
7.56231966
 20
15.70902147
  0
VERTEX
  8
0
 10
7.42334453
 20
15.49626820
  0
VERTEX
  8
0
 10
7.29361965
 20
15.34900356
  0
VERTEX
  8
0
 10
7.18756414
 20
15.23937875
  0
VERTEX
  8
0
 10
7.11959716
 20
15.13954500
  0
VERTEX
  8
0
 10
7.10440285
 20
15.08459703
  0
VERTEX
  8
0
 10
7.10413784
 20
15.02165354
  0
VERTEX
  8
0
 10
7.12965628
 20
14.95012906
  0
VERTEX
  8
0
 10
7.18691527
 20
14.87938486
  0
VERTEX
  8
0
 10
7.27163395
 20
14.80984026
  0
VERTEX
  8
0
 10
7.37953148
 20
14.74191455
  0
VERTEX
  8
0
 10
7.64773962
 20
14.61259708
  0
VERTEX
  8
0
 10
7.95729286
 20
14.49478691
  0
VERTEX
  8
0
 10
8.56344720
 20
14.30710636
  0
VERTEX
  8
0
 10
8.92401973
 20
14.20570866
  0
VERTEX
  8
0
 10
9.14312264
 20
14.11846278
  0
VERTEX
  8
0
 10
9.40535684
 20
14.01928002
  0
VERTEX
  8
0
 10
9.54093229
 20
13.98300070
  0
VERTEX
  8
0
 10
9.67323153
 20
13.96508323
  0
VERTEX
  8
0
 10
9.79756820
 20
13.97264297
  0
VERTEX
  8
0
 10
9.90925595
 20
14.01279527
  0
VERTEX
  8
0
 10
9.87540576
 20
14.10895512
  0
VERTEX
  8
0
 10
9.82361514
 20
14.20126697
  0
VERTEX
  8
0
 10
9.69275250
 20
14.39423425
  0
VERTEX
  8
0
 10
9.62695045
 20
14.50483344
  0
VERTEX
  8
0
 10
9.56974789
 20
14.63147219
  0
VERTEX
  8
0
 10
9.52777979
 20
14.77912238
  0
VERTEX
  8
0
 10
9.50768115
 20
14.95275590
  0
VERTEX
  8
0
 10
9.50371350
 20
15.68684805
  0
VERTEX
  8
0
 10
9.50399320
 20
15.96647737
  0
VERTEX
  8
0
 10
9.48833863
 20
16.21931496
  0
VERTEX
  8
0
 10
9.44366732
 20
16.46897537
  0
VERTEX
  8
0
 10
9.35689682
 20
16.73907320
  0
VERTEX
  8
0
 10
9.21494466
 20
17.05322301
  0
VERTEX
  8
0
 10
9.00472839
 20
17.43503937
  0
VERTEX
  8
0
 10
8.82175346
 20
17.71651449
  0
VERTEX
  8
0
 10
8.66407460
 20
17.89466590
  0
VERTEX
  8
0
 10
8.51642884
 20
17.99544487
  0
VERTEX
  8
0
 10
8.36355319
 20
18.04480265
  0
VERTEX
  8
0
 10
7.98106033
 20
18.09305973
  0
VERTEX
  8
0
 10
7.72091715
 20
18.14386155
  0
VERTEX
  8
0
 10
7.39449217
 20
18.24704724
  0
VERTEX
  8
0
 10
6.89744394
 20
18.44405708
  0
VERTEX
  8
0
 10
6.67868213
 20
18.50004712
  0
VERTEX
  8
0
 10
6.38071264
 20
18.53149606
  0
SEQEND
  0
POLYLINE
  8
Layer_1
 66
   1
 39
0.000000
 70
    1
  0
VERTEX
  8
0
 10
12.96535831
 20
14.43405511
  0
VERTEX
  8
0
 10
12.71545723
 20
14.37955610
  0
VERTEX
  8
0
 10
12.59092210
 20
14.33193258
  0
VERTEX
  8
0
 10
12.54383196
 20
14.29783996
  0
VERTEX
  8
0
 10
12.51260241
 20
14.25491732
  0
VERTEX
  8
0
 10
12.56318677
 20
14.20308691
  0
VERTEX
  8
0
 10
12.63217616
 20
14.18228881
  0
VERTEX
  8
0
 10
12.71312487
 20
14.18688949
  0
VERTEX
  8
0
 10
12.79958715
 20
14.21125541
  0
VERTEX
  8
0
 10
12.96326954
 20
14.29674883
  0
VERTEX
  8
0
 10
13.07165752
 20
14.39370078
  0
VERTEX
  8
0
 10
13.03819296
 20
14.44192913
  0
VERTEX
  8
0
 10
12.96535831
 20
14.43405511
  0
SEQEND
  0
POLYLINE
  8
Layer_1
 66
   1
 39
0.000000
 70
    1
  0
VERTEX
  8
0
 10
10.72323233
 20
12.09744094
  0
VERTEX
  8
0
 10
10.68229680
 20
12.08196653
  0
VERTEX
  8
0
 10
10.65236619
 20
12.05314567
  0
VERTEX
  8
0
 10
10.69537729
 20
12.01821230
  0
VERTEX
  8
0
 10
10.73735216
 20
12.00328654
  0
VERTEX
  8
0
 10
10.82113784
 20
11.99498523
  0
VERTEX
  8
0
 10
10.86442097
 20
11.98237341
  0
VERTEX
  8
0
 10
10.90961249
 20
11.95129663
  0
VERTEX
  8
0
 10
10.95744859
 20
11.89213673
  0
VERTEX
  8
0
 10
11.00866540
 20
11.79527559
  0
VERTEX
  8
0
 10
11.05990605
 20
11.69439517
  0
VERTEX
  8
0
 10
11.09660751
 20
11.65861854
  0
VERTEX
  8
0
 10
11.15039768
 20
11.63681102
  0
VERTEX
  8
0
 10
11.16712997
 20
11.65255905
  0
VERTEX
  8
0
 10
11.10944726
 20
11.83940901
  0
VERTEX
  8
0
 10
11.02878252
 20
11.96842372
  0
VERTEX
  8
0
 10
10.97395106
 20
12.01471891
  0
VERTEX
  8
0
 10
10.90631710
 20
12.05072656
  0
VERTEX
  8
0
 10
10.72323233
 20
12.09744094
  0
SEQEND
  0
POLYLINE
  8
Layer_1
 66
   1
 39
0.000000
 70
    1
  0
VERTEX
  8
0
 10
10.44862603
 20
11.82480315
  0
VERTEX
  8
0
 10
10.54321092
 20
11.75616369
  0
VERTEX
  8
0
 10
10.65147741
 20
11.71223179
  0
VERTEX
  8
0
 10
10.76535561
 20
11.70367021
  0
VERTEX
  8
0
 10
10.87677563
 20
11.74114173
  0
VERTEX
  8
0
 10
10.88071264
 20
11.76476378
  0
VERTEX
  8
0
 10
10.80550896
 20
11.79528734
  0
VERTEX
  8
0
 10
10.71835290
 20
11.79956348
  0
VERTEX
  8
0
 10
10.63216017
 20
11.80489450
  0
VERTEX
  8
0
 10
10.55984650
 20
11.83858267
  0
VERTEX
  8
0
 10
10.51701825
 20
11.89203248
  0
VERTEX
  8
0
 10
10.46733075
 20
11.93996063
  0
VERTEX
  8
0
 10
10.44421295
 20
11.91605382
  0
VERTEX
  8
0
 10
10.43683223
 20
11.88841584
  0
VERTEX
  8
0
 10
10.44862603
 20
11.82480315
  0
SEQEND
  0
POLYLINE
  8
Layer_1
 66
   1
 39
0.000000
 70
    1
  0
VERTEX
  8
0
 10
5.32953154
 20
6.73720472
  0
VERTEX
  8
0
 10
5.22205455
 20
6.72587186
  0
VERTEX
  8
0
 10
5.10463193
 20
6.70625246
  0
VERTEX
  8
0
 10
5.05598708
 20
6.68645873
  0
VERTEX
  8
0
 10
5.02141109
 20
6.65634147
  0
VERTEX
  8
0
 10
5.00642240
 20
6.61315006
  0
VERTEX
  8
0
 10
5.01653941
 20
6.55413385
  0
VERTEX
  8
0
 10
5.14023134
 20
6.27905462
  0
VERTEX
  8
0
 10
5.21959306
 20
6.14420478
  0
VERTEX
  8
0
 10
5.30492524
 20
6.02755905
  0
VERTEX
  8
0
 10
5.33577087
 20
6.08343159
  0
VERTEX
  8
0
 10
5.35767869
 20
6.16558292
  0
VERTEX
  8
0
 10
5.37668804
 20
6.37492618
  0
VERTEX
  8
0
 10
5.36596756
 20
6.58799729
  0
VERTEX
  8
0
 10
5.32953154
 20
6.73720472
  0
SEQEND
  0
POLYLINE
  8
Layer_1
 66
   1
 39
0.000000
 70
    1
  0
VERTEX
  8
0
 10
4.12087012
 20
5.84645669
  0
VERTEX
  8
0
 10
4.10416121
 20
5.74214080
  0
VERTEX
  8
0
 10
4.11675687
 20
5.60386780
  0
VERTEX
  8
0
 10
4.18473774
 20
5.24997883
  0
VERTEX
  8
0
 10
4.21756084
 20
5.04662705
  0
VERTEX
  8
0
 10
4.23456433
 20
4.83384651
  0
VERTEX
  8
0
 10
4.22446714
 20
4.61776932
  0
VERTEX
  8
0
 10
4.17598823
 20
4.40452756
  0
VERTEX
  8
0
 10
4.08569665
 20
4.17005579
  0
VERTEX
  8
0
 10
3.95331500
 20
3.80106053
  0
VERTEX
  8
0
 10
3.89667921
 20
3.60663612
  0
VERTEX
  8
0
 10
3.85992746
 20
3.42720429
  0
VERTEX
  8
0
 10
3.85319526
 20
3.27897284
  0
VERTEX
  8
0
 10
3.86425385
 20
3.22162221
  0
VERTEX
  8
0
 10
3.88661815
 20
3.17814960
  0
VERTEX
  8
0
 10
3.97669296
 20
3.19016289
  0
VERTEX
  8
0
 10
4.02019087
 20
3.19321143
  0
VERTEX
  8
0
 10
4.05984650
 20
3.18110236
  0
VERTEX
  8
0
 10
4.06787966
 20
3.01683581
  0
VERTEX
  8
0
 10
4.04297888
 20
2.85398474
  0
VERTEX
  8
0
 10
4.02134459
 20
2.68958421
  0
VERTEX
  8
0
 10
4.02306501
 20
2.60587636
  0
VERTEX
  8
0
 10
4.03917721
 20
2.52066929
  0
VERTEX
  8
0
 10
4.10383008
 20
2.50281064
  0
VERTEX
  8
0
 10
4.16020975
 20
2.51886805
  0
VERTEX
  8
0
 10
4.20933311
 20
2.56095537
  0
VERTEX
  8
0
 10
4.25221707
 20
2.62118651
  0
VERTEX
  8
0
 10
4.38169689
 20
2.88582677
  0
VERTEX
  8
0
 10
4.46101653
 20
3.04242261
  0
VERTEX
  8
0
 10
4.48903941
 20
3.16821161
  0
VERTEX
  8
0
 10
4.49291737
 20
3.48425196
  0
VERTEX
  8
0
 10
4.51727404
 20
4.01692193
  0
VERTEX
  8
0
 10
4.51577563
 20
4.27134891
  0
VERTEX
  8
0
 10
4.40630319
 20
5.05511811
  0
VERTEX
  8
0
 10
4.37321006
 20
5.29084178
  0
VERTEX
  8
0
 10
4.32933863
 20
5.47583858
  0
VERTEX
  8
0
 10
4.25259121
 20
5.64830979
  0
VERTEX
  8
0
 10
4.12087012
 20
5.84645669
  0
SEQEND
  0
POLYLINE
  8
Layer_1
 66
   1
 39
0.000000
 70
    1
  0
VERTEX
  8
0
 10
6.17205123
 20
5.20767716
  0
VERTEX
  8
0
 10
6.17966097
 20
5.09684990
  0
VERTEX
  8
0
 10
6.17708217
 20
5.04090532
  0
VERTEX
  8
0
 10
6.16122445
 20
4.99212598
  0
VERTEX
  8
0
 10
6.08543705
 20
4.99311023
  0
VERTEX
  8
0
 10
6.07564682
 20
4.90188035
  0
VERTEX
  8
0
 10
6.08393115
 20
4.77778887
  0
VERTEX
  8
0
 10
6.10020083
 20
4.54330708
  0
VERTEX
  8
0
 10
6.05425447
 20
4.08781496
  0
VERTEX
  8
0
 10
6.01090008
 20
3.82074926
  0
VERTEX
  8
0
 10
5.98560754
 20
3.72585922
  0
VERTEX
  8
0
 10
5.95846855
 20
3.67519685
  0
VERTEX
  8
0
 10
5.93624611
 20
4.04383021
  0
VERTEX
  8
0
 10
5.91313415
 20
4.22885021
  0
VERTEX
  8
0
 10
5.86398036
 20
4.40059055
  0
VERTEX
  8
0
 10
5.84134256
 20
4.40059055
  0
VERTEX
  8
0
 10
5.82333912
 20
4.33857652
  0
VERTEX
  8
0
 10
5.82152859
 20
4.26893110
  0
VERTEX
  8
0
 10
5.83346855
 20
4.13090551
  0
VERTEX
  8
0
 10
5.80200743
 20
4.12688533
  0
VERTEX
  8
0
 10
5.76949217
 20
4.13385826
  0
VERTEX
  8
0
 10
5.74980713
 20
4.11417322
  0
VERTEX
  8
0
 10
5.77994357
 20
3.94510999
  0
VERTEX
  8
0
 10
5.82670772
 20
3.74476968
  0
VERTEX
  8
0
 10
5.86036606
 20
3.55171973
  0
VERTEX
  8
0
 10
5.86298883
 20
3.46998096
  0
VERTEX
  8
0
 10
5.85118508
 20
3.40452756
  0
VERTEX
  8
0
 10
5.80730123
 20
3.55070472
  0
VERTEX
  8
0
 10
5.77888944
 20
3.62103469
  0
VERTEX
  8
0
 10
5.73898036
 20
3.68405511
  0
VERTEX
  8
0
 10
5.69764178
 20
3.68011811
  0
VERTEX
  8
0
 10
5.86988587
 20
2.85236220
  0
VERTEX
  8
0
 10
5.93382091
 20
2.87946948
  0
VERTEX
  8
0
 10
5.99193311
 20
2.91929133
  0
VERTEX
  8
0
 10
6.00519720
 20
2.74837426
  0
VERTEX
  8
0
 10
6.01915113
 20
2.57765059
  0
VERTEX
  8
0
 10
6.04998495
 20
2.51876907
  0
VERTEX
  8
0
 10
6.10930904
 20
2.49162524
  0
VERTEX
  8
0
 10
6.20656266
 20
2.50678223
  0
VERTEX
  8
0
 10
6.35118508
 20
2.57480315
  0
VERTEX
  8
0
 10
6.31181500
 20
2.60236220
  0
VERTEX
  8
0
 10
6.33345889
 20
2.77620189
  0
VERTEX
  8
0
 10
6.34720526
 20
2.82019488
  0
VERTEX
  8
0
 10
6.27342918
 20
3.17322834
  0
VERTEX
  8
0
 10
6.22056550
 20
3.51039173
  0
VERTEX
  8
0
 10
6.18231359
 20
3.67753617
  0
VERTEX
  8
0
 10
6.11594886
 20
3.83169291
  0
VERTEX
  8
0
 10
6.19199611
 20
4.03780561
  0
VERTEX
  8
0
 10
6.22506722
 20
4.14357425
  0
VERTEX
  8
0
 10
6.24094886
 20
4.24803149
  0
VERTEX
  8
0
 10
6.21929532
 20
4.26279527
  0
VERTEX
  8
0
 10
6.16916294
 20
4.19865846
  0
VERTEX
  8
0
 10
6.13268115
 20
4.12401574
  0
VERTEX
  8
0
 10
6.23768361
 20
4.74041978
  0
VERTEX
  8
0
 10
6.25789549
 20
4.92434743
  0
VERTEX
  8
0
 10
6.26337658
 20
5.09061940
  0
VERTEX
  8
0
 10
6.24796923
 20
5.22444252
  0
VERTEX
  8
0
 10
6.20551579
 20
5.31102362
  0
VERTEX
  8
0
 10
6.18166441
 20
5.26260433
  0
VERTEX
  8
0
 10
6.17205123
 20
5.20767716
  0
SEQEND
  0
POLYLINE
  8
Layer_1
 66
   1
 39
0.000000
 70
    1
  0
VERTEX
  8
0
 10
5.26949217
 20
4.67913385
  0
VERTEX
  8
0
 10
5.13660339
 20
3.65955167
  0
VERTEX
  8
0
 10
5.07660893
 20
3.09141061
  0
VERTEX
  8
0
 10
5.06584313
 20
2.88798652
  0
VERTEX
  8
0
 10
5.07461028
 20
2.77460630
  0
VERTEX
  8
0
 10
5.09921658
 20
2.76574803
  0
VERTEX
  8
0
 10
5.16602416
 20
2.85166929
  0
VERTEX
  8
0
 10
5.19572685
 20
2.89664222
  0
VERTEX
  8
0
 10
5.23504335
 20
2.93503937
  0
VERTEX
  8
0
 10
5.26653941
 20
2.92913385
  0
VERTEX
  8
0
 10
5.29480221
 20
2.85813699
  0
VERTEX
  8
0
 10
5.29538292
 20
2.82112746
  0
VERTEX
  8
0
 10
5.30713243
 20
2.78177270
  0
VERTEX
  8
0
 10
5.36890162
 20
2.70374015
  0
VERTEX
  8
0
 10
5.40128892
 20
2.64069242
  0
VERTEX
  8
0
 10
5.41692284
 20
2.61113195
  0
VERTEX
  8
0
 10
5.44567327
 20
2.58759842
  0
VERTEX
  8
0
 10
5.45788122
 20
2.68871166
  0
VERTEX
  8
0
 10
5.45656863
 20
2.92938724
  0
VERTEX
  8
0
 10
5.42318262
 20
3.64958021
  0
VERTEX
  8
0
 10
5.36511674
 20
4.38848702
  0
VERTEX
  8
0
 10
5.33295431
 20
4.65255488
  0
VERTEX
  8
0
 10
5.30197248
 20
4.78641732
  0
VERTEX
  8
0
 10
5.26949217
 20
4.67913385
  0
SEQEND
  0
POLYLINE
  8
Layer_1
 66
   1
 39
0.000000
 70
    1
  0
VERTEX
  8
0
 10
6.40531894
 20
3.85629921
  0
VERTEX
  8
0
 10
6.45130750
 20
3.71792759
  0
VERTEX
  8
0
 10
6.49787111
 20
3.55883021
  0
VERTEX
  8
0
 10
6.50895752
 20
3.48048193
  0
VERTEX
  8
0
 10
6.50529446
 20
3.40771930
  0
VERTEX
  8
0
 10
6.48191751
 20
3.34413134
  0
VERTEX
  8
0
 10
6.43386225
 20
3.29330708
  0
VERTEX
  8
0
 10
6.45043293
 20
3.18787949
  0
VERTEX
  8
0
 10
6.49286865
 20
3.09036565
  0
VERTEX
  8
0
 10
6.52425589
 20
2.99097607
  0
VERTEX
  8
0
 10
6.52427086
 20
2.93751866
  0
VERTEX
  8
0
 10
6.50768115
 20
2.87992126
  0
VERTEX
  8
0
 10
6.46304975
 20
2.75055610
  0
VERTEX
  8
0
 10
6.46613532
 20
2.69184695
  0
VERTEX
  8
0
 10
6.48898036
 20
2.61614173
  0
VERTEX
  8
0
 10
6.50177563
 20
2.61614173
  0
VERTEX
  8
0
 10
6.66398626
 20
2.89608612
  0
VERTEX
  8
0
 10
6.73597162
 20
3.07725941
  0
VERTEX
  8
0
 10
6.75421367
 20
3.17799308
  0
VERTEX
  8
0
 10
6.75472839
 20
3.28543307
  0
VERTEX
  8
0
 10
6.73898036
 20
3.32283464
  0
VERTEX
  8
0
 10
6.71437406
 20
3.32677165
  0
VERTEX
  8
0
 10
6.66727071
 20
3.24500639
  0
VERTEX
  8
0
 10
6.63563390
 20
3.15452756
  0
VERTEX
  8
0
 10
6.59837366
 20
3.23416023
  0
VERTEX
  8
0
 10
6.57405073
 20
3.32862340
  0
VERTEX
  8
0
 10
6.54472937
 20
3.54579035
  0
VERTEX
  8
0
 10
6.50869493
 20
3.77352669
  0
VERTEX
  8
0
 10
6.47598064
 20
3.88120160
  0
VERTEX
  8
0
 10
6.42697248
 20
3.97933070
  0
VERTEX
  8
0
 10
6.40630319
 20
3.98129921
  0
VERTEX
  8
0
 10
6.40531894
 20
3.85629921
  0
SEQEND
  0
ENDSEC
  0
EOF
