  0
SECTION
  2
HEADER
  9
$ACADVER
  1
AC1009
  9
$EXTMIN
 10
0.00000000
 20
0.00000000
 30
0.0
  9
$EXTMAX
 10
9.47841850
 20
9.47841850
 30
0.0
  0
ENDSEC
  0
SECTION
  2
TABLES
  0
TABLE
  2
LAYER
 70
1
 0
LAYER
 2
Default_Layer
 70
0
 62
1
 6
CONTINUOUS
 0
ENDTAB
 0
ENDSEC
  0
SECTION
  2
ENTITIES
  0
POLYLINE
  8
Default_Layer
 66
   1
 39
0.000000
 70
    1
  0
VERTEX
  8
0
 10
4.91031967
 20
1.23345036
  0
VERTEX
  8
0
 10
4.95226585
 20
1.26130450
  0
VERTEX
  8
0
 10
4.99998081
 20
1.27058922
  0
VERTEX
  8
0
 10
5.04769578
 20
1.26130450
  0
VERTEX
  8
0
 10
5.08964195
 20
1.23345036
  0
VERTEX
  8
0
 10
5.11749610
 20
1.19150418
  0
VERTEX
  8
0
 10
5.12678081
 20
1.14378922
  0
VERTEX
  8
0
 10
5.11749610
 20
1.09607426
  0
VERTEX
  8
0
 10
5.08964195
 20
1.05412808
  0
VERTEX
  8
0
 10
5.04769578
 20
1.02627393
  0
VERTEX
  8
0
 10
4.99998081
 20
1.01698922
  0
VERTEX
  8
0
 10
4.95226585
 20
1.02627393
  0
VERTEX
  8
0
 10
4.91031967
 20
1.05412808
  0
VERTEX
  8
0
 10
4.88246553
 20
1.09607426
  0
VERTEX
  8
0
 10
4.87318081
 20
1.14378922
  0
VERTEX
  8
0
 10
4.88246553
 20
1.19150418
  0
VERTEX
  8
0
 10
4.91031967
 20
1.23345036
  0
SEQEND
  0
POLYLINE
  8
Default_Layer
 66
   1
 39
0.000000
 70
    1
  0
VERTEX
  8
0
 10
4.91031967
 20
8.76654964
  0
VERTEX
  8
0
 10
4.95226585
 20
8.73869550
  0
VERTEX
  8
0
 10
4.99998081
 20
8.72941078
  0
VERTEX
  8
0
 10
5.04769578
 20
8.73869550
  0
VERTEX
  8
0
 10
5.08964195
 20
8.76654964
  0
VERTEX
  8
0
 10
5.11749610
 20
8.80849582
  0
VERTEX
  8
0
 10
5.12678081
 20
8.85621078
  0
VERTEX
  8
0
 10
5.11749610
 20
8.90392574
  0
VERTEX
  8
0
 10
5.08964195
 20
8.94587192
  0
VERTEX
  8
0
 10
5.04769578
 20
8.97372607
  0
VERTEX
  8
0
 10
4.99998081
 20
8.98301078
  0
VERTEX
  8
0
 10
4.95226585
 20
8.97372607
  0
VERTEX
  8
0
 10
4.91031967
 20
8.94587192
  0
VERTEX
  8
0
 10
4.88246553
 20
8.90392574
  0
VERTEX
  8
0
 10
4.87318081
 20
8.85621078
  0
VERTEX
  8
0
 10
4.88246553
 20
8.80849582
  0
VERTEX
  8
0
 10
4.91031967
 20
8.76654964
  0
SEQEND
  0
POLYLINE
  8
Default_Layer
 66
   1
 39
0.000000
 70
    1
  0
VERTEX
  8
0
 10
1.23927543
 20
7.06784265
  0
VERTEX
  8
0
 10
1.26167482
 20
7.02274717
  0
VERTEX
  8
0
 10
1.29835483
 20
6.99084889
  0
VERTEX
  8
0
 10
1.34431955
 20
6.97503221
  0
VERTEX
  8
0
 10
1.39457308
 20
6.97818152
  0
VERTEX
  8
0
 10
1.43966857
 20
7.00058090
  0
VERTEX
  8
0
 10
1.47156685
 20
7.03726091
  0
VERTEX
  8
0
 10
1.48738353
 20
7.08322564
  0
VERTEX
  8
0
 10
1.48423422
 20
7.13347916
  0
VERTEX
  8
0
 10
1.46183484
 20
7.17857465
  0
VERTEX
  8
0
 10
1.42515483
 20
7.21047293
  0
VERTEX
  8
0
 10
1.37919010
 20
7.22628961
  0
VERTEX
  8
0
 10
1.32893657
 20
7.22314030
  0
VERTEX
  8
0
 10
1.28384109
 20
7.20074092
  0
VERTEX
  8
0
 10
1.25194281
 20
7.16406091
  0
VERTEX
  8
0
 10
1.23612612
 20
7.11809618
  0
VERTEX
  8
0
 10
1.23927543
 20
7.06784265
  0
SEQEND
  0
POLYLINE
  8
Default_Layer
 66
   1
 39
0.000000
 70
    1
  0
VERTEX
  8
0
 10
4.91044199
 20
0.70919566
  0
VERTEX
  8
0
 10
4.88258784
 20
0.75114184
  0
VERTEX
  8
0
 10
4.87330313
 20
0.79885680
  0
VERTEX
  8
0
 10
4.88258784
 20
0.84657176
  0
VERTEX
  8
0
 10
4.91044199
 20
0.88851794
  0
VERTEX
  8
0
 10
4.95238816
 20
0.91637208
  0
VERTEX
  8
0
 10
5.00010313
 20
0.92565680
  0
VERTEX
  8
0
 10
5.04781809
 20
0.91637208
  0
VERTEX
  8
0
 10
5.08976427
 20
0.88851794
  0
VERTEX
  8
0
 10
5.11761841
 20
0.84657176
  0
VERTEX
  8
0
 10
5.12690313
 20
0.79885680
  0
VERTEX
  8
0
 10
5.11761841
 20
0.75114184
  0
VERTEX
  8
0
 10
5.08976427
 20
0.70919566
  0
VERTEX
  8
0
 10
5.04781809
 20
0.68134151
  0
VERTEX
  8
0
 10
5.00010313
 20
0.67205680
  0
VERTEX
  8
0
 10
4.95238816
 20
0.68134151
  0
VERTEX
  8
0
 10
4.91044199
 20
0.70919566
  0
SEQEND
  0
POLYLINE
  8
Default_Layer
 66
   1
 39
0.000000
 70
    1
  0
VERTEX
  8
0
 10
4.91044199
 20
9.29080434
  0
VERTEX
  8
0
 10
4.88258784
 20
9.24885816
  0
VERTEX
  8
0
 10
4.87330313
 20
9.20114320
  0
VERTEX
  8
0
 10
4.88258784
 20
9.15342824
  0
VERTEX
  8
0
 10
4.91044199
 20
9.11148206
  0
VERTEX
  8
0
 10
4.95238816
 20
9.08362792
  0
VERTEX
  8
0
 10
5.00010313
 20
9.07434320
  0
VERTEX
  8
0
 10
5.04781809
 20
9.08362792
  0
VERTEX
  8
0
 10
5.08976427
 20
9.11148206
  0
VERTEX
  8
0
 10
5.11761841
 20
9.15342824
  0
VERTEX
  8
0
 10
5.12690313
 20
9.20114320
  0
VERTEX
  8
0
 10
5.11761841
 20
9.24885816
  0
VERTEX
  8
0
 10
5.08976427
 20
9.29080434
  0
VERTEX
  8
0
 10
5.04781809
 20
9.31865849
  0
VERTEX
  8
0
 10
5.00010313
 20
9.32794320
  0
VERTEX
  8
0
 10
4.95238816
 20
9.31865849
  0
VERTEX
  8
0
 10
4.91044199
 20
9.29080434
  0
SEQEND
  0
POLYLINE
  8
Default_Layer
 66
   1
 39
0.000000
 70
    1
  0
VERTEX
  8
0
 10
3.87897488
 20
3.30328633
  0
VERTEX
  8
0
 10
3.92092106
 20
3.33114047
  0
VERTEX
  8
0
 10
3.96863602
 20
3.34042519
  0
VERTEX
  8
0
 10
4.01635098
 20
3.33114047
  0
VERTEX
  8
0
 10
4.05829716
 20
3.30328633
  0
VERTEX
  8
0
 10
4.08615131
 20
3.26134015
  0
VERTEX
  8
0
 10
4.09543602
 20
3.21362519
  0
VERTEX
  8
0
 10
4.08615131
 20
3.16591023
  0
VERTEX
  8
0
 10
4.05829716
 20
3.12396405
  0
VERTEX
  8
0
 10
4.01635098
 20
3.09610990
  0
VERTEX
  8
0
 10
3.96863602
 20
3.08682519
  0
VERTEX
  8
0
 10
3.92092106
 20
3.09610990
  0
VERTEX
  8
0
 10
3.87897488
 20
3.12396405
  0
VERTEX
  8
0
 10
3.85112074
 20
3.16591023
  0
VERTEX
  8
0
 10
3.84183602
 20
3.21362519
  0
VERTEX
  8
0
 10
3.85112074
 20
3.26134015
  0
VERTEX
  8
0
 10
3.87897488
 20
3.30328633
  0
SEQEND
  0
POLYLINE
  8
Default_Layer
 66
   1
 39
0.000000
 70
    1
  0
VERTEX
  8
0
 10
5.90888458
 20
6.81919307
  0
VERTEX
  8
0
 10
5.90573528
 20
6.76893954
  0
VERTEX
  8
0
 10
5.92155196
 20
6.72297481
  0
VERTEX
  8
0
 10
5.95345024
 20
6.68629480
  0
VERTEX
  8
0
 10
5.99854572
 20
6.66389542
  0
VERTEX
  8
0
 10
6.04879925
 20
6.66074611
  0
VERTEX
  8
0
 10
6.09476398
 20
6.67656279
  0
VERTEX
  8
0
 10
6.13144399
 20
6.70846107
  0
VERTEX
  8
0
 10
6.15384337
 20
6.75355656
  0
VERTEX
  8
0
 10
6.15699268
 20
6.80381009
  0
VERTEX
  8
0
 10
6.14117600
 20
6.84977481
  0
VERTEX
  8
0
 10
6.10927772
 20
6.88645482
  0
VERTEX
  8
0
 10
6.06418223
 20
6.90885421
  0
VERTEX
  8
0
 10
6.01392870
 20
6.91200351
  0
VERTEX
  8
0
 10
5.96796398
 20
6.89618683
  0
VERTEX
  8
0
 10
5.93128397
 20
6.86428855
  0
VERTEX
  8
0
 10
5.90888458
 20
6.81919307
  0
SEQEND
  0
POLYLINE
  8
Default_Layer
 66
   1
 39
0.000000
 70
    1
  0
VERTEX
  8
0
 10
7.18536191
 20
4.96727098
  0
VERTEX
  8
0
 10
7.18851122
 20
5.01752451
  0
VERTEX
  8
0
 10
7.17269453
 20
5.06348923
  0
VERTEX
  8
0
 10
7.14079625
 20
5.10016924
  0
VERTEX
  8
0
 10
7.09570077
 20
5.12256863
  0
VERTEX
  8
0
 10
7.04544724
 20
5.12571793
  0
VERTEX
  8
0
 10
6.99948251
 20
5.10990125
  0
VERTEX
  8
0
 10
6.96280250
 20
5.07800297
  0
VERTEX
  8
0
 10
6.94040312
 20
5.03290749
  0
VERTEX
  8
0
 10
6.93725381
 20
4.98265396
  0
VERTEX
  8
0
 10
6.95307049
 20
4.93668923
  0
VERTEX
  8
0
 10
6.98496877
 20
4.90000922
  0
VERTEX
  8
0
 10
7.03006426
 20
4.87760984
  0
VERTEX
  8
0
 10
7.08031779
 20
4.87446053
  0
VERTEX
  8
0
 10
7.12628251
 20
4.89027721
  0
VERTEX
  8
0
 10
7.16296252
 20
4.92217549
  0
VERTEX
  8
0
 10
7.18536191
 20
4.96727098
  0
SEQEND
  0
POLYLINE
  8
Default_Layer
 66
   1
 39
0.000000
 70
    1
  0
VERTEX
  8
0
 10
6.12102512
 20
0.70919566
  0
VERTEX
  8
0
 10
6.07907894
 20
0.68134151
  0
VERTEX
  8
0
 10
6.03136398
 20
0.67205680
  0
VERTEX
  8
0
 10
5.98364902
 20
0.68134151
  0
VERTEX
  8
0
 10
5.94170284
 20
0.70919566
  0
VERTEX
  8
0
 10
5.91384869
 20
0.75114184
  0
VERTEX
  8
0
 10
5.90456398
 20
0.79885680
  0
VERTEX
  8
0
 10
5.91384869
 20
0.84657176
  0
VERTEX
  8
0
 10
5.94170284
 20
0.88851794
  0
VERTEX
  8
0
 10
5.98364902
 20
0.91637208
  0
VERTEX
  8
0
 10
6.03136398
 20
0.92565680
  0
VERTEX
  8
0
 10
6.07907894
 20
0.91637208
  0
VERTEX
  8
0
 10
6.12102512
 20
0.88851794
  0
VERTEX
  8
0
 10
6.14887926
 20
0.84657176
  0
VERTEX
  8
0
 10
6.15816398
 20
0.79885680
  0
VERTEX
  8
0
 10
6.14887926
 20
0.75114184
  0
VERTEX
  8
0
 10
6.12102512
 20
0.70919566
  0
SEQEND
  0
POLYLINE
  8
Default_Layer
 66
   1
 39
0.000000
 70
    1
  0
VERTEX
  8
0
 10
6.19998862
 20
9.47841850
  0
VERTEX
  8
0
 10
8.27842988
 20
8.27842988
  0
VERTEX
  8
0
 10
9.47841850
 20
6.19998862
  0
VERTEX
  8
0
 10
9.47841850
 20
3.80001138
  0
VERTEX
  8
0
 10
8.27842988
 20
1.72157012
  0
VERTEX
  8
0
 10
6.19998862
 20
0.52158150
  0
VERTEX
  8
0
 10
3.80001138
 20
0.52158150
  0
VERTEX
  8
0
 10
1.72157012
 20
1.72157012
  0
VERTEX
  8
0
 10
0.52158150
 20
3.80001138
  0
VERTEX
  8
0
 10
0.52158150
 20
6.19998862
  0
VERTEX
  8
0
 10
1.72157012
 20
8.27842988
  0
VERTEX
  8
0
 10
3.80001138
 20
9.47841850
  0
VERTEX
  8
0
 10
6.19998862
 20
9.47841850
  0
SEQEND
  0
POLYLINE
  8
Default_Layer
 66
   1
 39
0.000000
 70
    0
  0
VERTEX
  8
0
 10
7.06272796
 20
5.00000000
  0
VERTEX
  8
0
 10
7.06267796
 20
5.00002887
  0
SEQEND
  0
POLYLINE
  8
Default_Layer
 66
   1
 39
0.000000
 70
    1
  0
VERTEX
  8
0
 10
4.39476001
 20
0.70919566
  0
VERTEX
  8
0
 10
4.36690586
 20
0.75114184
  0
VERTEX
  8
0
 10
4.35762115
 20
0.79885680
  0
VERTEX
  8
0
 10
4.36690586
 20
0.84657176
  0
VERTEX
  8
0
 10
4.39476001
 20
0.88851794
  0
VERTEX
  8
0
 10
4.43670619
 20
0.91637208
  0
VERTEX
  8
0
 10
4.48442115
 20
0.92565680
  0
VERTEX
  8
0
 10
4.53213611
 20
0.91637208
  0
VERTEX
  8
0
 10
4.57408229
 20
0.88851794
  0
VERTEX
  8
0
 10
4.60193643
 20
0.84657176
  0
VERTEX
  8
0
 10
4.61122115
 20
0.79885680
  0
VERTEX
  8
0
 10
4.60193643
 20
0.75114184
  0
VERTEX
  8
0
 10
4.57408229
 20
0.70919566
  0
VERTEX
  8
0
 10
4.53213611
 20
0.68134151
  0
VERTEX
  8
0
 10
4.48442115
 20
0.67205680
  0
VERTEX
  8
0
 10
4.43670619
 20
0.68134151
  0
VERTEX
  8
0
 10
4.39476001
 20
0.70919566
  0
SEQEND
  0
POLYLINE
  8
Default_Layer
 66
   1
 39
0.000000
 70
    1
  0
VERTEX
  8
0
 10
5.42607241
 20
0.70919566
  0
VERTEX
  8
0
 10
5.39821827
 20
0.75114184
  0
VERTEX
  8
0
 10
5.38893355
 20
0.79885680
  0
VERTEX
  8
0
 10
5.39821827
 20
0.84657176
  0
VERTEX
  8
0
 10
5.42607241
 20
0.88851794
  0
VERTEX
  8
0
 10
5.46801859
 20
0.91637208
  0
VERTEX
  8
0
 10
5.51573355
 20
0.92565680
  0
VERTEX
  8
0
 10
5.56344851
 20
0.91637208
  0
VERTEX
  8
0
 10
5.60539469
 20
0.88851794
  0
VERTEX
  8
0
 10
5.63324884
 20
0.84657176
  0
VERTEX
  8
0
 10
5.64253355
 20
0.79885680
  0
VERTEX
  8
0
 10
5.63324884
 20
0.75114184
  0
VERTEX
  8
0
 10
5.60539469
 20
0.70919566
  0
VERTEX
  8
0
 10
5.56344851
 20
0.68134151
  0
VERTEX
  8
0
 10
5.51573355
 20
0.67205680
  0
VERTEX
  8
0
 10
5.46801859
 20
0.68134151
  0
VERTEX
  8
0
 10
5.42607241
 20
0.70919566
  0
SEQEND
  0
POLYLINE
  8
Default_Layer
 66
   1
 39
0.000000
 70
    1
  0
VERTEX
  8
0
 10
6.12102512
 20
1.05424056
  0
VERTEX
  8
0
 10
6.07907894
 20
1.02638641
  0
VERTEX
  8
0
 10
6.03136398
 20
1.01710170
  0
VERTEX
  8
0
 10
5.98364902
 20
1.02638641
  0
VERTEX
  8
0
 10
5.94170284
 20
1.05424056
  0
VERTEX
  8
0
 10
5.91384869
 20
1.09618674
  0
VERTEX
  8
0
 10
5.90456398
 20
1.14390170
  0
VERTEX
  8
0
 10
5.91384869
 20
1.19161666
  0
VERTEX
  8
0
 10
5.94170284
 20
1.23356284
  0
VERTEX
  8
0
 10
5.98364902
 20
1.26141698
  0
VERTEX
  8
0
 10
6.03136398
 20
1.27070170
  0
VERTEX
  8
0
 10
6.07907894
 20
1.26141698
  0
VERTEX
  8
0
 10
6.12102512
 20
1.23356284
  0
VERTEX
  8
0
 10
6.14887926
 20
1.19161666
  0
VERTEX
  8
0
 10
6.15816398
 20
1.14390170
  0
VERTEX
  8
0
 10
6.14887926
 20
1.09618674
  0
VERTEX
  8
0
 10
6.12102512
 20
1.05424056
  0
SEQEND
  0
POLYLINE
  8
Default_Layer
 66
   1
 39
0.000000
 70
    1
  0
VERTEX
  8
0
 10
6.12102512
 20
1.39916473
  0
VERTEX
  8
0
 10
6.07907894
 20
1.37131059
  0
VERTEX
  8
0
 10
6.03136398
 20
1.36202587
  0
VERTEX
  8
0
 10
5.98364902
 20
1.37131059
  0
VERTEX
  8
0
 10
5.94170284
 20
1.39916473
  0
VERTEX
  8
0
 10
5.91384869
 20
1.44111091
  0
VERTEX
  8
0
 10
5.90456398
 20
1.48882587
  0
VERTEX
  8
0
 10
5.91384869
 20
1.53654083
  0
VERTEX
  8
0
 10
5.94170284
 20
1.57848701
  0
VERTEX
  8
0
 10
5.98364902
 20
1.60634116
  0
VERTEX
  8
0
 10
6.03136398
 20
1.61562587
  0
VERTEX
  8
0
 10
6.07907894
 20
1.60634116
  0
VERTEX
  8
0
 10
6.12102512
 20
1.57848701
  0
VERTEX
  8
0
 10
6.14887926
 20
1.53654083
  0
VERTEX
  8
0
 10
6.15816398
 20
1.48882587
  0
VERTEX
  8
0
 10
6.14887926
 20
1.44111091
  0
VERTEX
  8
0
 10
6.12102512
 20
1.39916473
  0
SEQEND
  0
POLYLINE
  8
Default_Layer
 66
   1
 39
0.000000
 70
    1
  0
VERTEX
  8
0
 10
6.12102512
 20
1.74408890
  0
VERTEX
  8
0
 10
6.07907894
 20
1.71623476
  0
VERTEX
  8
0
 10
6.03136398
 20
1.70695004
  0
VERTEX
  8
0
 10
5.98364902
 20
1.71623476
  0
VERTEX
  8
0
 10
5.94170284
 20
1.74408890
  0
VERTEX
  8
0
 10
5.91384869
 20
1.78603508
  0
VERTEX
  8
0
 10
5.90456398
 20
1.83375004
  0
VERTEX
  8
0
 10
5.91384869
 20
1.88146500
  0
VERTEX
  8
0
 10
5.94170284
 20
1.92341118
  0
VERTEX
  8
0
 10
5.98364902
 20
1.95126533
  0
VERTEX
  8
0
 10
6.03136398
 20
1.96055004
  0
VERTEX
  8
0
 10
6.07907894
 20
1.95126533
  0
VERTEX
  8
0
 10
6.12102512
 20
1.92341118
  0
VERTEX
  8
0
 10
6.14887926
 20
1.88146500
  0
VERTEX
  8
0
 10
6.15816398
 20
1.83375004
  0
VERTEX
  8
0
 10
6.14887926
 20
1.78603508
  0
VERTEX
  8
0
 10
6.12102512
 20
1.74408890
  0
SEQEND
  0
POLYLINE
  8
Default_Layer
 66
   1
 39
0.000000
 70
    1
  0
VERTEX
  8
0
 10
6.12102512
 20
2.08913380
  0
VERTEX
  8
0
 10
6.07907894
 20
2.06127966
  0
VERTEX
  8
0
 10
6.03136398
 20
2.05199494
  0
VERTEX
  8
0
 10
5.98364902
 20
2.06127966
  0
VERTEX
  8
0
 10
5.94170284
 20
2.08913380
  0
VERTEX
  8
0
 10
5.91384869
 20
2.13107998
  0
VERTEX
  8
0
 10
5.90456398
 20
2.17879494
  0
VERTEX
  8
0
 10
5.91384869
 20
2.22650990
  0
VERTEX
  8
0
 10
5.94170284
 20
2.26845608
  0
VERTEX
  8
0
 10
5.98364902
 20
2.29631023
  0
VERTEX
  8
0
 10
6.03136398
 20
2.30559494
  0
VERTEX
  8
0
 10
6.07907894
 20
2.29631023
  0
VERTEX
  8
0
 10
6.12102512
 20
2.26845608
  0
VERTEX
  8
0
 10
6.14887926
 20
2.22650990
  0
VERTEX
  8
0
 10
6.15816398
 20
2.17879494
  0
VERTEX
  8
0
 10
6.14887926
 20
2.13107998
  0
VERTEX
  8
0
 10
6.12102512
 20
2.08913380
  0
SEQEND
  0
POLYLINE
  8
Default_Layer
 66
   1
 39
0.000000
 70
    1
  0
VERTEX
  8
0
 10
6.12102512
 20
2.43405797
  0
VERTEX
  8
0
 10
6.07907894
 20
2.40620383
  0
VERTEX
  8
0
 10
6.03136398
 20
2.39691911
  0
VERTEX
  8
0
 10
5.98364902
 20
2.40620383
  0
VERTEX
  8
0
 10
5.94170284
 20
2.43405797
  0
VERTEX
  8
0
 10
5.91384869
 20
2.47600415
  0
VERTEX
  8
0
 10
5.90456398
 20
2.52371911
  0
VERTEX
  8
0
 10
5.91384869
 20
2.57143407
  0
VERTEX
  8
0
 10
5.94170284
 20
2.61338025
  0
VERTEX
  8
0
 10
5.98364902
 20
2.64123440
  0
VERTEX
  8
0
 10
6.03136398
 20
2.65051911
  0
VERTEX
  8
0
 10
6.07907894
 20
2.64123440
  0
VERTEX
  8
0
 10
6.12102512
 20
2.61338025
  0
VERTEX
  8
0
 10
6.14887926
 20
2.57143407
  0
VERTEX
  8
0
 10
6.15816398
 20
2.52371911
  0
VERTEX
  8
0
 10
6.14887926
 20
2.47600415
  0
VERTEX
  8
0
 10
6.12102512
 20
2.43405797
  0
SEQEND
  0
POLYLINE
  8
Default_Layer
 66
   1
 39
0.000000
 70
    1
  0
VERTEX
  8
0
 10
6.12102512
 20
2.77898214
  0
VERTEX
  8
0
 10
6.07907894
 20
2.75112800
  0
VERTEX
  8
0
 10
6.03136398
 20
2.74184328
  0
VERTEX
  8
0
 10
5.98364902
 20
2.75112800
  0
VERTEX
  8
0
 10
5.94170284
 20
2.77898214
  0
VERTEX
  8
0
 10
5.91384869
 20
2.82092832
  0
VERTEX
  8
0
 10
5.90456398
 20
2.86864328
  0
VERTEX
  8
0
 10
5.91384869
 20
2.91635824
  0
VERTEX
  8
0
 10
5.94170284
 20
2.95830442
  0
VERTEX
  8
0
 10
5.98364902
 20
2.98615857
  0
VERTEX
  8
0
 10
6.03136398
 20
2.99544328
  0
VERTEX
  8
0
 10
6.07907894
 20
2.98615857
  0
VERTEX
  8
0
 10
6.12102512
 20
2.95830442
  0
VERTEX
  8
0
 10
6.14887926
 20
2.91635824
  0
VERTEX
  8
0
 10
6.15816398
 20
2.86864328
  0
VERTEX
  8
0
 10
6.14887926
 20
2.82092832
  0
VERTEX
  8
0
 10
6.12102512
 20
2.77898214
  0
SEQEND
  0
POLYLINE
  8
Default_Layer
 66
   1
 39
0.000000
 70
    1
  0
VERTEX
  8
0
 10
6.12102512
 20
3.12378558
  0
VERTEX
  8
0
 10
6.07907894
 20
3.09593144
  0
VERTEX
  8
0
 10
6.03136398
 20
3.08664672
  0
VERTEX
  8
0
 10
5.98364902
 20
3.09593144
  0
VERTEX
  8
0
 10
5.94170284
 20
3.12378558
  0
VERTEX
  8
0
 10
5.91384869
 20
3.16573176
  0
VERTEX
  8
0
 10
5.90456398
 20
3.21344672
  0
VERTEX
  8
0
 10
5.91384869
 20
3.26116168
  0
VERTEX
  8
0
 10
5.94170284
 20
3.30310786
  0
VERTEX
  8
0
 10
5.98364902
 20
3.33096201
  0
VERTEX
  8
0
 10
6.03136398
 20
3.34024672
  0
VERTEX
  8
0
 10
6.07907894
 20
3.33096201
  0
VERTEX
  8
0
 10
6.12102512
 20
3.30310786
  0
VERTEX
  8
0
 10
6.14887926
 20
3.26116168
  0
VERTEX
  8
0
 10
6.15816398
 20
3.21344672
  0
VERTEX
  8
0
 10
6.14887926
 20
3.16573176
  0
VERTEX
  8
0
 10
6.12102512
 20
3.12378558
  0
SEQEND
  0
POLYLINE
  8
Default_Layer
 66
   1
 39
0.000000
 70
    1
  0
VERTEX
  8
0
 10
4.39476001
 20
9.29080434
  0
VERTEX
  8
0
 10
4.36690586
 20
9.24885816
  0
VERTEX
  8
0
 10
4.35762115
 20
9.20114320
  0
VERTEX
  8
0
 10
4.36690586
 20
9.15342824
  0
VERTEX
  8
0
 10
4.39476001
 20
9.11148206
  0
VERTEX
  8
0
 10
4.43670619
 20
9.08362792
  0
VERTEX
  8
0
 10
4.48442115
 20
9.07434320
  0
VERTEX
  8
0
 10
4.53213611
 20
9.08362792
  0
VERTEX
  8
0
 10
4.57408229
 20
9.11148206
  0
VERTEX
  8
0
 10
4.60193643
 20
9.15342824
  0
VERTEX
  8
0
 10
4.61122115
 20
9.20114320
  0
VERTEX
  8
0
 10
4.60193643
 20
9.24885816
  0
VERTEX
  8
0
 10
4.57408229
 20
9.29080434
  0
VERTEX
  8
0
 10
4.53213611
 20
9.31865849
  0
VERTEX
  8
0
 10
4.48442115
 20
9.32794320
  0
VERTEX
  8
0
 10
4.43670619
 20
9.31865849
  0
VERTEX
  8
0
 10
4.39476001
 20
9.29080434
  0
SEQEND
  0
POLYLINE
  8
Default_Layer
 66
   1
 39
0.000000
 70
    1
  0
VERTEX
  8
0
 10
5.42607241
 20
9.29080434
  0
VERTEX
  8
0
 10
5.39821827
 20
9.24885816
  0
VERTEX
  8
0
 10
5.38893355
 20
9.20114320
  0
VERTEX
  8
0
 10
5.39821827
 20
9.15342824
  0
VERTEX
  8
0
 10
5.42607241
 20
9.11148206
  0
VERTEX
  8
0
 10
5.46801859
 20
9.08362792
  0
VERTEX
  8
0
 10
5.51573355
 20
9.07434320
  0
VERTEX
  8
0
 10
5.56344851
 20
9.08362792
  0
VERTEX
  8
0
 10
5.60539469
 20
9.11148206
  0
VERTEX
  8
0
 10
5.63324884
 20
9.15342824
  0
VERTEX
  8
0
 10
5.64253355
 20
9.20114320
  0
VERTEX
  8
0
 10
5.63324884
 20
9.24885816
  0
VERTEX
  8
0
 10
5.60539469
 20
9.29080434
  0
VERTEX
  8
0
 10
5.56344851
 20
9.31865849
  0
VERTEX
  8
0
 10
5.51573355
 20
9.32794320
  0
VERTEX
  8
0
 10
5.46801859
 20
9.31865849
  0
VERTEX
  8
0
 10
5.42607241
 20
9.29080434
  0
SEQEND
  0
POLYLINE
  8
Default_Layer
 66
   1
 39
0.000000
 70
    1
  0
VERTEX
  8
0
 10
6.12102512
 20
9.29080434
  0
VERTEX
  8
0
 10
6.07907894
 20
9.31865849
  0
VERTEX
  8
0
 10
6.03136398
 20
9.32794320
  0
VERTEX
  8
0
 10
5.98364902
 20
9.31865849
  0
VERTEX
  8
0
 10
5.94170284
 20
9.29080434
  0
VERTEX
  8
0
 10
5.91384869
 20
9.24885816
  0
VERTEX
  8
0
 10
5.90456398
 20
9.20114320
  0
VERTEX
  8
0
 10
5.91384869
 20
9.15342824
  0
VERTEX
  8
0
 10
5.94170284
 20
9.11148206
  0
VERTEX
  8
0
 10
5.98364902
 20
9.08362792
  0
VERTEX
  8
0
 10
6.03136398
 20
9.07434320
  0
VERTEX
  8
0
 10
6.07907894
 20
9.08362792
  0
VERTEX
  8
0
 10
6.12102512
 20
9.11148206
  0
VERTEX
  8
0
 10
6.14887926
 20
9.15342824
  0
VERTEX
  8
0
 10
6.15816398
 20
9.20114320
  0
VERTEX
  8
0
 10
6.14887926
 20
9.24885816
  0
VERTEX
  8
0
 10
6.12102512
 20
9.29080434
  0
SEQEND
  0
POLYLINE
  8
Default_Layer
 66
   1
 39
0.000000
 70
    1
  0
VERTEX
  8
0
 10
6.12102512
 20
8.94575944
  0
VERTEX
  8
0
 10
6.07907894
 20
8.97361359
  0
VERTEX
  8
0
 10
6.03136398
 20
8.98289830
  0
VERTEX
  8
0
 10
5.98364902
 20
8.97361359
  0
VERTEX
  8
0
 10
5.94170284
 20
8.94575944
  0
VERTEX
  8
0
 10
5.91384869
 20
8.90381326
  0
VERTEX
  8
0
 10
5.90456398
 20
8.85609830
  0
VERTEX
  8
0
 10
5.91384869
 20
8.80838334
  0
VERTEX
  8
0
 10
5.94170284
 20
8.76643716
  0
VERTEX
  8
0
 10
5.98364902
 20
8.73858302
  0
VERTEX
  8
0
 10
6.03136398
 20
8.72929830
  0
VERTEX
  8
0
 10
6.07907894
 20
8.73858302
  0
VERTEX
  8
0
 10
6.12102512
 20
8.76643716
  0
VERTEX
  8
0
 10
6.14887926
 20
8.80838334
  0
VERTEX
  8
0
 10
6.15816398
 20
8.85609830
  0
VERTEX
  8
0
 10
6.14887926
 20
8.90381326
  0
VERTEX
  8
0
 10
6.12102512
 20
8.94575944
  0
SEQEND
  0
POLYLINE
  8
Default_Layer
 66
   1
 39
0.000000
 70
    1
  0
VERTEX
  8
0
 10
6.12102512
 20
8.60083527
  0
VERTEX
  8
0
 10
6.07907894
 20
8.62868941
  0
VERTEX
  8
0
 10
6.03136398
 20
8.63797413
  0
VERTEX
  8
0
 10
5.98364902
 20
8.62868941
  0
VERTEX
  8
0
 10
5.94170284
 20
8.60083527
  0
VERTEX
  8
0
 10
5.91384869
 20
8.55888909
  0
VERTEX
  8
0
 10
5.90456398
 20
8.51117413
  0
VERTEX
  8
0
 10
5.91384869
 20
8.46345917
  0
VERTEX
  8
0
 10
5.94170284
 20
8.42151299
  0
VERTEX
  8
0
 10
5.98364902
 20
8.39365884
  0
VERTEX
  8
0
 10
6.03136398
 20
8.38437413
  0
VERTEX
  8
0
 10
6.07907894
 20
8.39365884
  0
VERTEX
  8
0
 10
6.12102512
 20
8.42151299
  0
VERTEX
  8
0
 10
6.14887926
 20
8.46345917
  0
VERTEX
  8
0
 10
6.15816398
 20
8.51117413
  0
VERTEX
  8
0
 10
6.14887926
 20
8.55888909
  0
VERTEX
  8
0
 10
6.12102512
 20
8.60083527
  0
SEQEND
  0
POLYLINE
  8
Default_Layer
 66
   1
 39
0.000000
 70
    1
  0
VERTEX
  8
0
 10
6.12102512
 20
8.25591110
  0
VERTEX
  8
0
 10
6.07907894
 20
8.28376524
  0
VERTEX
  8
0
 10
6.03136398
 20
8.29304996
  0
VERTEX
  8
0
 10
5.98364902
 20
8.28376524
  0
VERTEX
  8
0
 10
5.94170284
 20
8.25591110
  0
VERTEX
  8
0
 10
5.91384869
 20
8.21396492
  0
VERTEX
  8
0
 10
5.90456398
 20
8.16624996
  0
VERTEX
  8
0
 10
5.91384869
 20
8.11853500
  0
VERTEX
  8
0
 10
5.94170284
 20
8.07658882
  0
VERTEX
  8
0
 10
5.98364902
 20
8.04873467
  0
VERTEX
  8
0
 10
6.03136398
 20
8.03944996
  0
VERTEX
  8
0
 10
6.07907894
 20
8.04873467
  0
VERTEX
  8
0
 10
6.12102512
 20
8.07658882
  0
VERTEX
  8
0
 10
6.14887926
 20
8.11853500
  0
VERTEX
  8
0
 10
6.15816398
 20
8.16624996
  0
VERTEX
  8
0
 10
6.14887926
 20
8.21396492
  0
VERTEX
  8
0
 10
6.12102512
 20
8.25591110
  0
SEQEND
  0
POLYLINE
  8
Default_Layer
 66
   1
 39
0.000000
 70
    1
  0
VERTEX
  8
0
 10
6.12102512
 20
7.91086620
  0
VERTEX
  8
0
 10
6.07907894
 20
7.93872034
  0
VERTEX
  8
0
 10
6.03136398
 20
7.94800506
  0
VERTEX
  8
0
 10
5.98364902
 20
7.93872034
  0
VERTEX
  8
0
 10
5.94170284
 20
7.91086620
  0
VERTEX
  8
0
 10
5.91384869
 20
7.86892002
  0
VERTEX
  8
0
 10
5.90456398
 20
7.82120506
  0
VERTEX
  8
0
 10
5.91384869
 20
7.77349010
  0
VERTEX
  8
0
 10
5.94170284
 20
7.73154392
  0
VERTEX
  8
0
 10
5.98364902
 20
7.70368977
  0
VERTEX
  8
0
 10
6.03136398
 20
7.69440506
  0
VERTEX
  8
0
 10
6.07907894
 20
7.70368977
  0
VERTEX
  8
0
 10
6.12102512
 20
7.73154392
  0
VERTEX
  8
0
 10
6.14887926
 20
7.77349010
  0
VERTEX
  8
0
 10
6.15816398
 20
7.82120506
  0
VERTEX
  8
0
 10
6.14887926
 20
7.86892002
  0
VERTEX
  8
0
 10
6.12102512
 20
7.91086620
  0
SEQEND
  0
POLYLINE
  8
Default_Layer
 66
   1
 39
0.000000
 70
    1
  0
VERTEX
  8
0
 10
6.12102512
 20
7.56594203
  0
VERTEX
  8
0
 10
6.07907894
 20
7.59379617
  0
VERTEX
  8
0
 10
6.03136398
 20
7.60308089
  0
VERTEX
  8
0
 10
5.98364902
 20
7.59379617
  0
VERTEX
  8
0
 10
5.94170284
 20
7.56594203
  0
VERTEX
  8
0
 10
5.91384869
 20
7.52399585
  0
VERTEX
  8
0
 10
5.90456398
 20
7.47628089
  0
VERTEX
  8
0
 10
5.91384869
 20
7.42856593
  0
VERTEX
  8
0
 10
5.94170284
 20
7.38661975
  0
VERTEX
  8
0
 10
5.98364902
 20
7.35876560
  0
VERTEX
  8
0
 10
6.03136398
 20
7.34948089
  0
VERTEX
  8
0
 10
6.07907894
 20
7.35876560
  0
VERTEX
  8
0
 10
6.12102512
 20
7.38661975
  0
VERTEX
  8
0
 10
6.14887926
 20
7.42856593
  0
VERTEX
  8
0
 10
6.15816398
 20
7.47628089
  0
VERTEX
  8
0
 10
6.14887926
 20
7.52399585
  0
VERTEX
  8
0
 10
6.12102512
 20
7.56594203
  0
SEQEND
  0
POLYLINE
  8
Default_Layer
 66
   1
 39
0.000000
 70
    1
  0
VERTEX
  8
0
 10
6.12102512
 20
7.22101786
  0
VERTEX
  8
0
 10
6.07907894
 20
7.24887200
  0
VERTEX
  8
0
 10
6.03136398
 20
7.25815672
  0
VERTEX
  8
0
 10
5.98364902
 20
7.24887200
  0
VERTEX
  8
0
 10
5.94170284
 20
7.22101786
  0
VERTEX
  8
0
 10
5.91384869
 20
7.17907168
  0
VERTEX
  8
0
 10
5.90456398
 20
7.13135672
  0
VERTEX
  8
0
 10
5.91384869
 20
7.08364176
  0
VERTEX
  8
0
 10
5.94170284
 20
7.04169558
  0
VERTEX
  8
0
 10
5.98364902
 20
7.01384143
  0
VERTEX
  8
0
 10
6.03136398
 20
7.00455672
  0
VERTEX
  8
0
 10
6.07907894
 20
7.01384143
  0
VERTEX
  8
0
 10
6.12102512
 20
7.04169558
  0
VERTEX
  8
0
 10
6.14887926
 20
7.08364176
  0
VERTEX
  8
0
 10
6.15816398
 20
7.13135672
  0
VERTEX
  8
0
 10
6.14887926
 20
7.17907168
  0
VERTEX
  8
0
 10
6.12102512
 20
7.22101786
  0
SEQEND
  0
POLYLINE
  8
Default_Layer
 66
   1
 39
0.000000
 70
    1
  0
VERTEX
  8
0
 10
8.41332556
 20
7.66955538
  0
VERTEX
  8
0
 10
8.36307204
 20
7.67270469
  0
VERTEX
  8
0
 10
8.31710731
 20
7.65688801
  0
VERTEX
  8
0
 10
8.28042730
 20
7.62498973
  0
VERTEX
  8
0
 10
8.25802792
 20
7.57989424
  0
VERTEX
  8
0
 10
8.25487861
 20
7.52964071
  0
VERTEX
  8
0
 10
8.27069529
 20
7.48367598
  0
VERTEX
  8
0
 10
8.30259357
 20
7.44699597
  0
VERTEX
  8
0
 10
8.34768905
 20
7.42459659
  0
VERTEX
  8
0
 10
8.39794258
 20
7.42144728
  0
VERTEX
  8
0
 10
8.44390731
 20
7.43726396
  0
VERTEX
  8
0
 10
8.48058732
 20
7.46916224
  0
VERTEX
  8
0
 10
8.50298670
 20
7.51425773
  0
VERTEX
  8
0
 10
8.50613601
 20
7.56451126
  0
VERTEX
  8
0
 10
8.49031933
 20
7.61047598
  0
VERTEX
  8
0
 10
8.45842105
 20
7.64715600
  0
VERTEX
  8
0
 10
8.41332556
 20
7.66955538
  0
SEQEND
  0
POLYLINE
  8
Default_Layer
 66
   1
 39
0.000000
 70
    1
  0
VERTEX
  8
0
 10
8.67116655
 20
7.22296169
  0
VERTEX
  8
0
 10
8.62091303
 20
7.22611099
  0
VERTEX
  8
0
 10
8.57494830
 20
7.21029431
  0
VERTEX
  8
0
 10
8.53826829
 20
7.17839603
  0
VERTEX
  8
0
 10
8.51586890
 20
7.13330055
  0
VERTEX
  8
0
 10
8.51271960
 20
7.08304702
  0
VERTEX
  8
0
 10
8.52853628
 20
7.03708229
  0
VERTEX
  8
0
 10
8.56043456
 20
7.00040228
  0
VERTEX
  8
0
 10
8.60553004
 20
6.97800290
  0
VERTEX
  8
0
 10
8.65578357
 20
6.97485359
  0
VERTEX
  8
0
 10
8.70174830
 20
6.99067027
  0
VERTEX
  8
0
 10
8.73842831
 20
7.02256855
  0
VERTEX
  8
0
 10
8.76082769
 20
7.06766404
  0
VERTEX
  8
0
 10
8.76397700
 20
7.11791756
  0
VERTEX
  8
0
 10
8.74816032
 20
7.16388229
  0
VERTEX
  8
0
 10
8.71626204
 20
7.20056230
  0
VERTEX
  8
0
 10
8.67116655
 20
7.22296169
  0
SEQEND
  0
POLYLINE
  8
Default_Layer
 66
   1
 39
0.000000
 70
    1
  0
VERTEX
  8
0
 10
8.92898177
 20
6.77641264
  0
VERTEX
  8
0
 10
8.87872824
 20
6.77956194
  0
VERTEX
  8
0
 10
8.83276351
 20
6.76374526
  0
VERTEX
  8
0
 10
8.79608350
 20
6.73184698
  0
VERTEX
  8
0
 10
8.77368412
 20
6.68675150
  0
VERTEX
  8
0
 10
8.77053481
 20
6.63649797
  0
VERTEX
  8
0
 10
8.78635149
 20
6.59053324
  0
VERTEX
  8
0
 10
8.81824977
 20
6.55385323
  0
VERTEX
  8
0
 10
8.86334526
 20
6.53145385
  0
VERTEX
  8
0
 10
8.91359879
 20
6.52830454
  0
VERTEX
  8
0
 10
8.95956351
 20
6.54412122
  0
VERTEX
  8
0
 10
8.99624352
 20
6.57601950
  0
VERTEX
  8
0
 10
9.01864291
 20
6.62111499
  0
VERTEX
  8
0
 10
9.02179222
 20
6.67136852
  0
VERTEX
  8
0
 10
9.00597553
 20
6.71733324
  0
VERTEX
  8
0
 10
8.97407725
 20
6.75401325
  0
VERTEX
  8
0
 10
8.92898177
 20
6.77641264
  0
SEQEND
  0
POLYLINE
  8
Default_Layer
 66
   1
 39
0.000000
 70
    1
  0
VERTEX
  8
0
 10
9.27645812
 20
6.17456594
  0
VERTEX
  8
0
 10
9.27960743
 20
6.22481947
  0
VERTEX
  8
0
 10
9.26379075
 20
6.27078419
  0
VERTEX
  8
0
 10
9.23189247
 20
6.30746420
  0
VERTEX
  8
0
 10
9.18679698
 20
6.32986359
  0
VERTEX
  8
0
 10
9.13654345
 20
6.33301290
  0
VERTEX
  8
0
 10
9.09057873
 20
6.31719622
  0
VERTEX
  8
0
 10
9.05389871
 20
6.28529794
  0
VERTEX
  8
0
 10
9.03149933
 20
6.24020245
  0
VERTEX
  8
0
 10
9.02835002
 20
6.18994892
  0
VERTEX
  8
0
 10
9.04416670
 20
6.14398419
  0
VERTEX
  8
0
 10
9.07606498
 20
6.10730418
  0
VERTEX
  8
0
 10
9.12116047
 20
6.08490480
  0
VERTEX
  8
0
 10
9.17141400
 20
6.08175549
  0
VERTEX
  8
0
 10
9.21737873
 20
6.09757217
  0
VERTEX
  8
0
 10
9.25405874
 20
6.12947045
  0
VERTEX
  8
0
 10
9.27645812
 20
6.17456594
  0
SEQEND
  0
POLYLINE
  8
Default_Layer
 66
   1
 39
0.000000
 70
    1
  0
VERTEX
  8
0
 10
8.97764047
 20
6.00204349
  0
VERTEX
  8
0
 10
8.98078978
 20
6.05229702
  0
VERTEX
  8
0
 10
8.96497310
 20
6.09826174
  0
VERTEX
  8
0
 10
8.93307482
 20
6.13494175
  0
VERTEX
  8
0
 10
8.88797933
 20
6.15734114
  0
VERTEX
  8
0
 10
8.83772580
 20
6.16049045
  0
VERTEX
  8
0
 10
8.79176108
 20
6.14467377
  0
VERTEX
  8
0
 10
8.75508107
 20
6.11277549
  0
VERTEX
  8
0
 10
8.73268168
 20
6.06768000
  0
VERTEX
  8
0
 10
8.72953237
 20
6.01742647
  0
VERTEX
  8
0
 10
8.74534906
 20
5.97146174
  0
VERTEX
  8
0
 10
8.77724734
 20
5.93478173
  0
VERTEX
  8
0
 10
8.82234282
 20
5.91238235
  0
VERTEX
  8
0
 10
8.87259635
 20
5.90923304
  0
VERTEX
  8
0
 10
8.91856108
 20
5.92504972
  0
VERTEX
  8
0
 10
8.95524109
 20
5.95694800
  0
VERTEX
  8
0
 10
8.97764047
 20
6.00204349
  0
SEQEND
  0
POLYLINE
  8
Default_Layer
 66
   1
 39
0.000000
 70
    1
  0
VERTEX
  8
0
 10
8.67892738
 20
5.82958140
  0
VERTEX
  8
0
 10
8.68207669
 20
5.87983493
  0
VERTEX
  8
0
 10
8.66626000
 20
5.92579966
  0
VERTEX
  8
0
 10
8.63436172
 20
5.96247967
  0
VERTEX
  8
0
 10
8.58926624
 20
5.98487905
  0
VERTEX
  8
0
 10
8.53901271
 20
5.98802836
  0
VERTEX
  8
0
 10
8.49304798
 20
5.97221168
  0
VERTEX
  8
0
 10
8.45636797
 20
5.94031340
  0
VERTEX
  8
0
 10
8.43396859
 20
5.89521791
  0
VERTEX
  8
0
 10
8.43081928
 20
5.84496438
  0
VERTEX
  8
0
 10
8.44663596
 20
5.79899966
  0
VERTEX
  8
0
 10
8.47853424
 20
5.76231965
  0
VERTEX
  8
0
 10
8.52362973
 20
5.73992026
  0
VERTEX
  8
0
 10
8.57388326
 20
5.73677096
  0
VERTEX
  8
0
 10
8.61984798
 20
5.75258764
  0
VERTEX
  8
0
 10
8.65652799
 20
5.78448592
  0
VERTEX
  8
0
 10
8.67892738
 20
5.82958140
  0
SEQEND
  0
POLYLINE
  8
Default_Layer
 66
   1
 39
0.000000
 70
    1
  0
VERTEX
  8
0
 10
8.38021428
 20
5.65711932
  0
VERTEX
  8
0
 10
8.38336359
 20
5.70737285
  0
VERTEX
  8
0
 10
8.36754691
 20
5.75333757
  0
VERTEX
  8
0
 10
8.33564863
 20
5.79001758
  0
VERTEX
  8
0
 10
8.29055314
 20
5.81241697
  0
VERTEX
  8
0
 10
8.24029961
 20
5.81556628
  0
VERTEX
  8
0
 10
8.19433489
 20
5.79974959
  0
VERTEX
  8
0
 10
8.15765488
 20
5.76785131
  0
VERTEX
  8
0
 10
8.13525549
 20
5.72275583
  0
VERTEX
  8
0
 10
8.13210619
 20
5.67250230
  0
VERTEX
  8
0
 10
8.14792287
 20
5.62653757
  0
VERTEX
  8
0
 10
8.17982115
 20
5.58985756
  0
VERTEX
  8
0
 10
8.22491663
 20
5.56745818
  0
VERTEX
  8
0
 10
8.27517016
 20
5.56430887
  0
VERTEX
  8
0
 10
8.32113489
 20
5.58012555
  0
VERTEX
  8
0
 10
8.35781490
 20
5.61202383
  0
VERTEX
  8
0
 10
8.38021428
 20
5.65711932
  0
SEQEND
  0
POLYLINE
  8
Default_Layer
 66
   1
 39
0.000000
 70
    1
  0
VERTEX
  8
0
 10
8.08139663
 20
5.48459687
  0
VERTEX
  8
0
 10
8.08454594
 20
5.53485040
  0
VERTEX
  8
0
 10
8.06872926
 20
5.58081512
  0
VERTEX
  8
0
 10
8.03683098
 20
5.61749513
  0
VERTEX
  8
0
 10
7.99173549
 20
5.63989452
  0
VERTEX
  8
0
 10
7.94148197
 20
5.64304383
  0
VERTEX
  8
0
 10
7.89551724
 20
5.62722714
  0
VERTEX
  8
0
 10
7.85883723
 20
5.59532886
  0
VERTEX
  8
0
 10
7.83643784
 20
5.55023338
  0
VERTEX
  8
0
 10
7.83328854
 20
5.49997985
  0
VERTEX
  8
0
 10
7.84910522
 20
5.45401512
  0
VERTEX
  8
0
 10
7.88100350
 20
5.41733511
  0
VERTEX
  8
0
 10
7.92609898
 20
5.39493573
  0
VERTEX
  8
0
 10
7.97635251
 20
5.39178642
  0
VERTEX
  8
0
 10
8.02231724
 20
5.40760310
  0
VERTEX
  8
0
 10
8.05899725
 20
5.43950138
  0
VERTEX
  8
0
 10
8.08139663
 20
5.48459687
  0
SEQEND
  0
POLYLINE
  8
Default_Layer
 66
   1
 39
0.000000
 70
    1
  0
VERTEX
  8
0
 10
7.78268354
 20
5.31213478
  0
VERTEX
  8
0
 10
7.78583285
 20
5.36238831
  0
VERTEX
  8
0
 10
7.77001617
 20
5.40835304
  0
VERTEX
  8
0
 10
7.73811789
 20
5.44503305
  0
VERTEX
  8
0
 10
7.69302240
 20
5.46743243
  0
VERTEX
  8
0
 10
7.64276887
 20
5.47058174
  0
VERTEX
  8
0
 10
7.59680415
 20
5.45476506
  0
VERTEX
  8
0
 10
7.56012413
 20
5.42286678
  0
VERTEX
  8
0
 10
7.53772475
 20
5.37777129
  0
VERTEX
  8
0
 10
7.53457544
 20
5.32751776
  0
VERTEX
  8
0
 10
7.55039212
 20
5.28155304
  0
VERTEX
  8
0
 10
7.58229040
 20
5.24487303
  0
VERTEX
  8
0
 10
7.62738589
 20
5.22247364
  0
VERTEX
  8
0
 10
7.67763942
 20
5.21932434
  0
VERTEX
  8
0
 10
7.72360415
 20
5.23514102
  0
VERTEX
  8
0
 10
7.76028416
 20
5.26703930
  0
VERTEX
  8
0
 10
7.78268354
 20
5.31213478
  0
SEQEND
  0
POLYLINE
  8
Default_Layer
 66
   1
 39
0.000000
 70
    1
  0
VERTEX
  8
0
 10
7.48397045
 20
5.13967270
  0
VERTEX
  8
0
 10
7.48711975
 20
5.18992623
  0
VERTEX
  8
0
 10
7.47130307
 20
5.23589095
  0
VERTEX
  8
0
 10
7.43940479
 20
5.27257096
  0
VERTEX
  8
0
 10
7.39430931
 20
5.29497035
  0
VERTEX
  8
0
 10
7.34405578
 20
5.29811966
  0
VERTEX
  8
0
 10
7.29809105
 20
5.28230297
  0
VERTEX
  8
0
 10
7.26141104
 20
5.25040469
  0
VERTEX
  8
0
 10
7.23901166
 20
5.20530921
  0
VERTEX
  8
0
 10
7.23586235
 20
5.15505568
  0
VERTEX
  8
0
 10
7.25167903
 20
5.10909095
  0
VERTEX
  8
0
 10
7.28357731
 20
5.07241094
  0
VERTEX
  8
0
 10
7.32867280
 20
5.05001156
  0
VERTEX
  8
0
 10
7.37892633
 20
5.04686225
  0
VERTEX
  8
0
 10
7.42489105
 20
5.06267893
  0
VERTEX
  8
0
 10
7.46157106
 20
5.09457721
  0
VERTEX
  8
0
 10
7.48397045
 20
5.13967270
  0
SEQEND
  0
POLYLINE
  8
Default_Layer
 66
   1
 39
0.000000
 70
    1
  0
VERTEX
  8
0
 10
0.98143444
 20
3.37875104
  0
VERTEX
  8
0
 10
1.00383383
 20
3.42384653
  0
VERTEX
  8
0
 10
1.04051384
 20
3.45574481
  0
VERTEX
  8
0
 10
1.08647856
 20
3.47156149
  0
VERTEX
  8
0
 10
1.13673209
 20
3.46841218
  0
VERTEX
  8
0
 10
1.18182758
 20
3.44601280
  0
VERTEX
  8
0
 10
1.21372586
 20
3.40933278
  0
VERTEX
  8
0
 10
1.22954254
 20
3.36336806
  0
VERTEX
  8
0
 10
1.22639323
 20
3.31311453
  0
VERTEX
  8
0
 10
1.20399385
 20
3.26801904
  0
VERTEX
  8
0
 10
1.16731384
 20
3.23612076
  0
VERTEX
  8
0
 10
1.12134911
 20
3.22030408
  0
VERTEX
  8
0
 10
1.07109558
 20
3.22345339
  0
VERTEX
  8
0
 10
1.02600010
 20
3.24585277
  0
VERTEX
  8
0
 10
0.99410182
 20
3.28253278
  0
VERTEX
  8
0
 10
0.97828513
 20
3.32849751
  0
VERTEX
  8
0
 10
0.98143444
 20
3.37875104
  0
SEQEND
  0
POLYLINE
  8
Default_Layer
 66
   1
 39
0.000000
 70
    1
  0
VERTEX
  8
0
 10
1.84456700
 20
1.88376160
  0
VERTEX
  8
0
 10
1.79947151
 20
1.90616098
  0
VERTEX
  8
0
 10
1.76757323
 20
1.94284099
  0
VERTEX
  8
0
 10
1.75175655
 20
1.98880572
  0
VERTEX
  8
0
 10
1.75490586
 20
2.03905925
  0
VERTEX
  8
0
 10
1.77730524
 20
2.08415474
  0
VERTEX
  8
0
 10
1.81398525
 20
2.11605301
  0
VERTEX
  8
0
 10
1.85994998
 20
2.13186970
  0
VERTEX
  8
0
 10
1.91020351
 20
2.12872039
  0
VERTEX
  8
0
 10
1.95529899
 20
2.10632100
  0
VERTEX
  8
0
 10
1.98719727
 20
2.06964099
  0
VERTEX
  8
0
 10
2.00301396
 20
2.02367627
  0
VERTEX
  8
0
 10
1.99986465
 20
1.97342274
  0
VERTEX
  8
0
 10
1.97746526
 20
1.92832725
  0
VERTEX
  8
0
 10
1.94078525
 20
1.89642897
  0
VERTEX
  8
0
 10
1.89482053
 20
1.88061229
  0
VERTEX
  8
0
 10
1.84456700
 20
1.88376160
  0
SEQEND
  0
POLYLINE
  8
Default_Layer
 66
   1
 39
0.000000
 70
    1
  0
VERTEX
  8
0
 10
1.23927543
 20
2.93215735
  0
VERTEX
  8
0
 10
1.26167482
 20
2.97725283
  0
VERTEX
  8
0
 10
1.29835483
 20
3.00915111
  0
VERTEX
  8
0
 10
1.34431955
 20
3.02496779
  0
VERTEX
  8
0
 10
1.39457308
 20
3.02181848
  0
VERTEX
  8
0
 10
1.43966857
 20
2.99941910
  0
VERTEX
  8
0
 10
1.47156685
 20
2.96273909
  0
VERTEX
  8
0
 10
1.48738353
 20
2.91677436
  0
VERTEX
  8
0
 10
1.48423422
 20
2.86652084
  0
VERTEX
  8
0
 10
1.46183484
 20
2.82142535
  0
VERTEX
  8
0
 10
1.42515483
 20
2.78952707
  0
VERTEX
  8
0
 10
1.37919010
 20
2.77371039
  0
VERTEX
  8
0
 10
1.32893657
 20
2.77685970
  0
VERTEX
  8
0
 10
1.28384109
 20
2.79925908
  0
VERTEX
  8
0
 10
1.25194281
 20
2.83593909
  0
VERTEX
  8
0
 10
1.23612612
 20
2.88190382
  0
VERTEX
  8
0
 10
1.23927543
 20
2.93215735
  0
SEQEND
  0
POLYLINE
  8
Default_Layer
 66
   1
 39
0.000000
 70
    1
  0
VERTEX
  8
0
 10
1.49709065
 20
2.48560830
  0
VERTEX
  8
0
 10
1.51949003
 20
2.53070378
  0
VERTEX
  8
0
 10
1.55617004
 20
2.56260206
  0
VERTEX
  8
0
 10
1.60213477
 20
2.57841874
  0
VERTEX
  8
0
 10
1.65238829
 20
2.57526944
  0
VERTEX
  8
0
 10
1.69748378
 20
2.55287005
  0
VERTEX
  8
0
 10
1.72938206
 20
2.51619004
  0
VERTEX
  8
0
 10
1.74519874
 20
2.47022532
  0
VERTEX
  8
0
 10
1.74204943
 20
2.41997179
  0
VERTEX
  8
0
 10
1.71965005
 20
2.37487630
  0
VERTEX
  8
0
 10
1.68297004
 20
2.34297802
  0
VERTEX
  8
0
 10
1.63700531
 20
2.32716134
  0
VERTEX
  8
0
 10
1.58675178
 20
2.33031065
  0
VERTEX
  8
0
 10
1.54165630
 20
2.35271003
  0
VERTEX
  8
0
 10
1.50975802
 20
2.38939004
  0
VERTEX
  8
0
 10
1.49394134
 20
2.43535477
  0
VERTEX
  8
0
 10
1.49709065
 20
2.48560830
  0
SEQEND
  0
POLYLINE
  8
Default_Layer
 66
   1
 39
0.000000
 70
    1
  0
VERTEX
  8
0
 10
2.14338465
 20
2.05628405
  0
VERTEX
  8
0
 10
2.09828916
 20
2.07868343
  0
VERTEX
  8
0
 10
2.06639088
 20
2.11536344
  0
VERTEX
  8
0
 10
2.05057420
 20
2.16132817
  0
VERTEX
  8
0
 10
2.05372351
 20
2.21158170
  0
VERTEX
  8
0
 10
2.07612289
 20
2.25667719
  0
VERTEX
  8
0
 10
2.11280290
 20
2.28857546
  0
VERTEX
  8
0
 10
2.15876763
 20
2.30439215
  0
VERTEX
  8
0
 10
2.20902116
 20
2.30124284
  0
VERTEX
  8
0
 10
2.25411664
 20
2.27884345
  0
VERTEX
  8
0
 10
2.28601492
 20
2.24216344
  0
VERTEX
  8
0
 10
2.30183160
 20
2.19619872
  0
VERTEX
  8
0
 10
2.29868230
 20
2.14594519
  0
VERTEX
  8
0
 10
2.27628291
 20
2.10084970
  0
VERTEX
  8
0
 10
2.23960290
 20
2.06895142
  0
VERTEX
  8
0
 10
2.19363818
 20
2.05313474
  0
VERTEX
  8
0
 10
2.14338465
 20
2.05628405
  0
SEQEND
  0
POLYLINE
  8
Default_Layer
 66
   1
 39
0.000000
 70
    1
  0
VERTEX
  8
0
 10
2.44209774
 20
2.22874613
  0
VERTEX
  8
0
 10
2.39700225
 20
2.25114552
  0
VERTEX
  8
0
 10
2.36510397
 20
2.28782553
  0
VERTEX
  8
0
 10
2.34928729
 20
2.33379026
  0
VERTEX
  8
0
 10
2.35243660
 20
2.38404378
  0
VERTEX
  8
0
 10
2.37483599
 20
2.42913927
  0
VERTEX
  8
0
 10
2.41151600
 20
2.46103755
  0
VERTEX
  8
0
 10
2.45748072
 20
2.47685423
  0
VERTEX
  8
0
 10
2.50773425
 20
2.47370492
  0
VERTEX
  8
0
 10
2.55282974
 20
2.45130554
  0
VERTEX
  8
0
 10
2.58472802
 20
2.41462553
  0
VERTEX
  8
0
 10
2.60054470
 20
2.36866080
  0
VERTEX
  8
0
 10
2.59739539
 20
2.31840727
  0
VERTEX
  8
0
 10
2.57499601
 20
2.27331179
  0
VERTEX
  8
0
 10
2.53831600
 20
2.24141351
  0
VERTEX
  8
0
 10
2.49235127
 20
2.22559683
  0
VERTEX
  8
0
 10
2.44209774
 20
2.22874613
  0
SEQEND
  0
POLYLINE
  8
Default_Layer
 66
   1
 39
0.000000
 70
    1
  0
VERTEX
  8
0
 10
2.74081084
 20
2.40120822
  0
VERTEX
  8
0
 10
2.69571535
 20
2.42360760
  0
VERTEX
  8
0
 10
2.66381707
 20
2.46028761
  0
VERTEX
  8
0
 10
2.64800039
 20
2.50625234
  0
VERTEX
  8
0
 10
2.65114970
 20
2.55650587
  0
VERTEX
  8
0
 10
2.67354908
 20
2.60160136
  0
VERTEX
  8
0
 10
2.71022909
 20
2.63349964
  0
VERTEX
  8
0
 10
2.75619382
 20
2.64931632
  0
VERTEX
  8
0
 10
2.80644735
 20
2.64616701
  0
VERTEX
  8
0
 10
2.85154283
 20
2.62376763
  0
VERTEX
  8
0
 10
2.88344111
 20
2.58708761
  0
VERTEX
  8
0
 10
2.89925779
 20
2.54112289
  0
VERTEX
  8
0
 10
2.89610848
 20
2.49086936
  0
VERTEX
  8
0
 10
2.87370910
 20
2.44577387
  0
VERTEX
  8
0
 10
2.83702909
 20
2.41387559
  0
VERTEX
  8
0
 10
2.79106436
 20
2.39805891
  0
VERTEX
  8
0
 10
2.74081084
 20
2.40120822
  0
SEQEND
  0
POLYLINE
  8
Default_Layer
 66
   1
 39
0.000000
 70
    1
  0
VERTEX
  8
0
 10
3.03962848
 20
2.57373067
  0
VERTEX
  8
0
 10
2.99453300
 20
2.59613005
  0
VERTEX
  8
0
 10
2.96263472
 20
2.63281006
  0
VERTEX
  8
0
 10
2.94681804
 20
2.67877479
  0
VERTEX
  8
0
 10
2.94996734
 20
2.72902832
  0
VERTEX
  8
0
 10
2.97236673
 20
2.77412381
  0
VERTEX
  8
0
 10
3.00904674
 20
2.80602209
  0
VERTEX
  8
0
 10
3.05501146
 20
2.82183877
  0
VERTEX
  8
0
 10
3.10526499
 20
2.81868946
  0
VERTEX
  8
0
 10
3.15036048
 20
2.79629008
  0
VERTEX
  8
0
 10
3.18225876
 20
2.75961006
  0
VERTEX
  8
0
 10
3.19807544
 20
2.71364534
  0
VERTEX
  8
0
 10
3.19492613
 20
2.66339181
  0
VERTEX
  8
0
 10
3.17252675
 20
2.61829632
  0
VERTEX
  8
0
 10
3.13584674
 20
2.58639804
  0
VERTEX
  8
0
 10
3.08988201
 20
2.57058136
  0
VERTEX
  8
0
 10
3.03962848
 20
2.57373067
  0
SEQEND
  0
POLYLINE
  8
Default_Layer
 66
   1
 39
0.000000
 70
    1
  0
VERTEX
  8
0
 10
3.33834158
 20
2.74619275
  0
VERTEX
  8
0
 10
3.29324609
 20
2.76859214
  0
VERTEX
  8
0
 10
3.26134781
 20
2.80527215
  0
VERTEX
  8
0
 10
3.24553113
 20
2.85123688
  0
VERTEX
  8
0
 10
3.24868044
 20
2.90149040
  0
VERTEX
  8
0
 10
3.27107982
 20
2.94658589
  0
VERTEX
  8
0
 10
3.30775983
 20
2.97848417
  0
VERTEX
  8
0
 10
3.35372456
 20
2.99430085
  0
VERTEX
  8
0
 10
3.40397809
 20
2.99115154
  0
VERTEX
  8
0
 10
3.44907357
 20
2.96875216
  0
VERTEX
  8
0
 10
3.48097185
 20
2.93207215
  0
VERTEX
  8
0
 10
3.49678854
 20
2.88610742
  0
VERTEX
  8
0
 10
3.49363923
 20
2.83585389
  0
VERTEX
  8
0
 10
3.47123984
 20
2.79075841
  0
VERTEX
  8
0
 10
3.43455983
 20
2.75886013
  0
VERTEX
  8
0
 10
3.38859511
 20
2.74304345
  0
VERTEX
  8
0
 10
3.33834158
 20
2.74619275
  0
SEQEND
  0
POLYLINE
  8
Default_Layer
 66
   1
 39
0.000000
 70
    1
  0
VERTEX
  8
0
 10
3.63705467
 20
2.91865484
  0
VERTEX
  8
0
 10
3.59195919
 20
2.94105422
  0
VERTEX
  8
0
 10
3.56006091
 20
2.97773423
  0
VERTEX
  8
0
 10
3.54424422
 20
3.02369896
  0
VERTEX
  8
0
 10
3.54739353
 20
3.07395249
  0
VERTEX
  8
0
 10
3.56979292
 20
3.11904798
  0
VERTEX
  8
0
 10
3.60647293
 20
3.15094626
  0
VERTEX
  8
0
 10
3.65243765
 20
3.16676294
  0
VERTEX
  8
0
 10
3.70269118
 20
3.16361363
  0
VERTEX
  8
0
 10
3.74778667
 20
3.14121425
  0
VERTEX
  8
0
 10
3.77968495
 20
3.10453423
  0
VERTEX
  8
0
 10
3.79550163
 20
3.05856951
  0
VERTEX
  8
0
 10
3.79235232
 20
3.00831598
  0
VERTEX
  8
0
 10
3.76995294
 20
2.96322049
  0
VERTEX
  8
0
 10
3.73327293
 20
2.93132221
  0
VERTEX
  8
0
 10
3.68730820
 20
2.91550553
  0
VERTEX
  8
0
 10
3.63705467
 20
2.91865484
  0
SEQEND
  0
POLYLINE
  8
Default_Layer
 66
   1
 39
0.000000
 70
    1
  0
VERTEX
  8
0
 10
6.20770938
 20
6.99171964
  0
VERTEX
  8
0
 10
6.20456007
 20
6.94146611
  0
VERTEX
  8
0
 10
6.22037675
 20
6.89550139
  0
VERTEX
  8
0
 10
6.25227503
 20
6.85882138
  0
VERTEX
  8
0
 10
6.29737052
 20
6.83642199
  0
VERTEX
  8
0
 10
6.34762405
 20
6.83327268
  0
VERTEX
  8
0
 10
6.39358877
 20
6.84908937
  0
VERTEX
  8
0
 10
6.43026878
 20
6.88098765
  0
VERTEX
  8
0
 10
6.45266817
 20
6.92608313
  0
VERTEX
  8
0
 10
6.45581747
 20
6.97633666
  0
VERTEX
  8
0
 10
6.44000079
 20
7.02230139
  0
VERTEX
  8
0
 10
6.40810251
 20
7.05898140
  0
VERTEX
  8
0
 10
6.36300703
 20
7.08138078
  0
VERTEX
  8
0
 10
6.31275350
 20
7.08453009
  0
VERTEX
  8
0
 10
6.26678877
 20
7.06871341
  0
VERTEX
  8
0
 10
6.23010876
 20
7.03681513
  0
VERTEX
  8
0
 10
6.20770938
 20
6.99171964
  0
SEQEND
  0
POLYLINE
  8
Default_Layer
 66
   1
 39
0.000000
 70
    1
  0
VERTEX
  8
0
 10
6.50642961
 20
7.16418585
  0
VERTEX
  8
0
 10
6.50328031
 20
7.11393232
  0
VERTEX
  8
0
 10
6.51909699
 20
7.06796760
  0
VERTEX
  8
0
 10
6.55099527
 20
7.03128759
  0
VERTEX
  8
0
 10
6.59609075
 20
7.00888820
  0
VERTEX
  8
0
 10
6.64634428
 20
7.00573889
  0
VERTEX
  8
0
 10
6.69230901
 20
7.02155557
  0
VERTEX
  8
0
 10
6.72898902
 20
7.05345385
  0
VERTEX
  8
0
 10
6.75138840
 20
7.09854934
  0
VERTEX
  8
0
 10
6.75453771
 20
7.14880287
  0
VERTEX
  8
0
 10
6.73872103
 20
7.19476760
  0
VERTEX
  8
0
 10
6.70682275
 20
7.23144761
  0
VERTEX
  8
0
 10
6.66172726
 20
7.25384699
  0
VERTEX
  8
0
 10
6.61147373
 20
7.25699630
  0
VERTEX
  8
0
 10
6.56550901
 20
7.24117962
  0
VERTEX
  8
0
 10
6.52882900
 20
7.20928134
  0
VERTEX
  8
0
 10
6.50642961
 20
7.16418585
  0
SEQEND
  0
POLYLINE
  8
Default_Layer
 66
   1
 39
0.000000
 70
    1
  0
VERTEX
  8
0
 10
6.80514985
 20
7.33665206
  0
VERTEX
  8
0
 10
6.80200054
 20
7.28639853
  0
VERTEX
  8
0
 10
6.81781722
 20
7.24043380
  0
VERTEX
  8
0
 10
6.84971550
 20
7.20375379
  0
VERTEX
  8
0
 10
6.89481099
 20
7.18135441
  0
VERTEX
  8
0
 10
6.94506452
 20
7.17820510
  0
VERTEX
  8
0
 10
6.99102924
 20
7.19402178
  0
VERTEX
  8
0
 10
7.02770926
 20
7.22592006
  0
VERTEX
  8
0
 10
7.05010864
 20
7.27101555
  0
VERTEX
  8
0
 10
7.05325795
 20
7.32126908
  0
VERTEX
  8
0
 10
7.03744127
 20
7.36723380
  0
VERTEX
  8
0
 10
7.00554299
 20
7.40391382
  0
VERTEX
  8
0
 10
6.96044750
 20
7.42631320
  0
VERTEX
  8
0
 10
6.91019397
 20
7.42946251
  0
VERTEX
  8
0
 10
6.86422924
 20
7.41364583
  0
VERTEX
  8
0
 10
6.82754923
 20
7.38174755
  0
VERTEX
  8
0
 10
6.80514985
 20
7.33665206
  0
SEQEND
  0
POLYLINE
  8
Default_Layer
 66
   1
 39
0.000000
 70
    1
  0
VERTEX
  8
0
 10
7.10397464
 20
7.50917863
  0
VERTEX
  8
0
 10
7.10082534
 20
7.45892511
  0
VERTEX
  8
0
 10
7.11664202
 20
7.41296038
  0
VERTEX
  8
0
 10
7.14854030
 20
7.37628037
  0
VERTEX
  8
0
 10
7.19363578
 20
7.35388099
  0
VERTEX
  8
0
 10
7.24388931
 20
7.35073168
  0
VERTEX
  8
0
 10
7.28985404
 20
7.36654836
  0
VERTEX
  8
0
 10
7.32653405
 20
7.39844664
  0
VERTEX
  8
0
 10
7.34893343
 20
7.44354212
  0
VERTEX
  8
0
 10
7.35208274
 20
7.49379565
  0
VERTEX
  8
0
 10
7.33626606
 20
7.53976038
  0
VERTEX
  8
0
 10
7.30436778
 20
7.57644039
  0
VERTEX
  8
0
 10
7.25927229
 20
7.59883977
  0
VERTEX
  8
0
 10
7.20901876
 20
7.60198908
  0
VERTEX
  8
0
 10
7.16305404
 20
7.58617240
  0
VERTEX
  8
0
 10
7.12637403
 20
7.55427412
  0
VERTEX
  8
0
 10
7.10397464
 20
7.50917863
  0
SEQEND
  0
POLYLINE
  8
Default_Layer
 66
   1
 39
0.000000
 70
    1
  0
VERTEX
  8
0
 10
7.40269488
 20
7.68164484
  0
VERTEX
  8
0
 10
7.39954557
 20
7.63139131
  0
VERTEX
  8
0
 10
7.41536225
 20
7.58542659
  0
VERTEX
  8
0
 10
7.44726053
 20
7.54874658
  0
VERTEX
  8
0
 10
7.49235602
 20
7.52634719
  0
VERTEX
  8
0
 10
7.54260955
 20
7.52319789
  0
VERTEX
  8
0
 10
7.58857427
 20
7.53901457
  0
VERTEX
  8
0
 10
7.62525429
 20
7.57091285
  0
VERTEX
  8
0
 10
7.64765367
 20
7.61600833
  0
VERTEX
  8
0
 10
7.65080298
 20
7.66626186
  0
VERTEX
  8
0
 10
7.63498630
 20
7.71222659
  0
VERTEX
  8
0
 10
7.60308802
 20
7.74890660
  0
VERTEX
  8
0
 10
7.55799253
 20
7.77130598
  0
VERTEX
  8
0
 10
7.50773900
 20
7.77445529
  0
VERTEX
  8
0
 10
7.46177427
 20
7.75863861
  0
VERTEX
  8
0
 10
7.42509426
 20
7.72674033
  0
VERTEX
  8
0
 10
7.40269488
 20
7.68164484
  0
SEQEND
  0
POLYLINE
  8
Default_Layer
 66
   1
 39
0.000000
 70
    1
  0
VERTEX
  8
0
 10
7.70141512
 20
7.85411105
  0
VERTEX
  8
0
 10
7.69826581
 20
7.80385752
  0
VERTEX
  8
0
 10
7.71408249
 20
7.75789280
  0
VERTEX
  8
0
 10
7.74598077
 20
7.72121279
  0
VERTEX
  8
0
 10
7.79107626
 20
7.69881340
  0
VERTEX
  8
0
 10
7.84132978
 20
7.69566409
  0
VERTEX
  8
0
 10
7.88729451
 20
7.71148078
  0
VERTEX
  8
0
 10
7.92397452
 20
7.74337906
  0
VERTEX
  8
0
 10
7.94637391
 20
7.78847454
  0
VERTEX
  8
0
 10
7.94952321
 20
7.83872807
  0
VERTEX
  8
0
 10
7.93370653
 20
7.88469280
  0
VERTEX
  8
0
 10
7.90180825
 20
7.92137281
  0
VERTEX
  8
0
 10
7.85671277
 20
7.94377219
  0
VERTEX
  8
0
 10
7.80645924
 20
7.94692150
  0
VERTEX
  8
0
 10
7.76049451
 20
7.93110482
  0
VERTEX
  8
0
 10
7.72381450
 20
7.89920654
  0
VERTEX
  8
0
 10
7.70141512
 20
7.85411105
  0
SEQEND
  0
POLYLINE
  8
Default_Layer
 66
   1
 39
0.000000
 70
    1
  0
VERTEX
  8
0
 10
8.00003079
 20
8.02651689
  0
VERTEX
  8
0
 10
7.99688149
 20
7.97626337
  0
VERTEX
  8
0
 10
8.01269817
 20
7.93029864
  0
VERTEX
  8
0
 10
8.04459645
 20
7.89361863
  0
VERTEX
  8
0
 10
8.08969193
 20
7.87121925
  0
VERTEX
  8
0
 10
8.13994546
 20
7.86806994
  0
VERTEX
  8
0
 10
8.18591019
 20
7.88388662
  0
VERTEX
  8
0
 10
8.22259020
 20
7.91578490
  0
VERTEX
  8
0
 10
8.24498958
 20
7.96088039
  0
VERTEX
  8
0
 10
8.24813889
 20
8.01113391
  0
VERTEX
  8
0
 10
8.23232221
 20
8.05709864
  0
VERTEX
  8
0
 10
8.20042393
 20
8.09377865
  0
VERTEX
  8
0
 10
8.15532844
 20
8.11617803
  0
VERTEX
  8
0
 10
8.10507492
 20
8.11932734
  0
VERTEX
  8
0
 10
8.05911019
 20
8.10351066
  0
VERTEX
  8
0
 10
8.02243018
 20
8.07161238
  0
VERTEX
  8
0
 10
8.00003079
 20
8.02651689
  0
SEQEND
  0
POLYLINE
  8
Default_Layer
 66
   1
 39
0.000000
 70
    1
  0
VERTEX
  8
0
 10
0.98143444
 20
6.62124896
  0
VERTEX
  8
0
 10
1.00383383
 20
6.57615347
  0
VERTEX
  8
0
 10
1.04051384
 20
6.54425519
  0
VERTEX
  8
0
 10
1.08647856
 20
6.52843851
  0
VERTEX
  8
0
 10
1.13673209
 20
6.53158782
  0
VERTEX
  8
0
 10
1.18182758
 20
6.55398720
  0
VERTEX
  8
0
 10
1.21372586
 20
6.59066722
  0
VERTEX
  8
0
 10
1.22954254
 20
6.63663194
  0
VERTEX
  8
0
 10
1.22639323
 20
6.68688547
  0
VERTEX
  8
0
 10
1.20399385
 20
6.73198096
  0
VERTEX
  8
0
 10
1.16731384
 20
6.76387924
  0
VERTEX
  8
0
 10
1.12134911
 20
6.77969592
  0
VERTEX
  8
0
 10
1.07109558
 20
6.77654661
  0
VERTEX
  8
0
 10
1.02600010
 20
6.75414723
  0
VERTEX
  8
0
 10
0.99410182
 20
6.71746722
  0
VERTEX
  8
0
 10
0.97828513
 20
6.67150249
  0
VERTEX
  8
0
 10
0.98143444
 20
6.62124896
  0
SEQEND
  0
POLYLINE
  8
Default_Layer
 66
   1
 39
0.000000
 70
    1
  0
VERTEX
  8
0
 10
1.49709065
 20
7.51439170
  0
VERTEX
  8
0
 10
1.51949003
 20
7.46929622
  0
VERTEX
  8
0
 10
1.55617004
 20
7.43739794
  0
VERTEX
  8
0
 10
1.60213477
 20
7.42158126
  0
VERTEX
  8
0
 10
1.65238829
 20
7.42473056
  0
VERTEX
  8
0
 10
1.69748378
 20
7.44712995
  0
VERTEX
  8
0
 10
1.72938206
 20
7.48380996
  0
VERTEX
  8
0
 10
1.74519874
 20
7.52977468
  0
VERTEX
  8
0
 10
1.74204943
 20
7.58002821
  0
VERTEX
  8
0
 10
1.71965005
 20
7.62512370
  0
VERTEX
  8
0
 10
1.68297004
 20
7.65702198
  0
VERTEX
  8
0
 10
1.63700531
 20
7.67283866
  0
VERTEX
  8
0
 10
1.58675178
 20
7.66968935
  0
VERTEX
  8
0
 10
1.54165630
 20
7.64728997
  0
VERTEX
  8
0
 10
1.50975802
 20
7.61060996
  0
VERTEX
  8
0
 10
1.49394134
 20
7.56464523
  0
VERTEX
  8
0
 10
1.49709065
 20
7.51439170
  0
SEQEND
  0
POLYLINE
  8
Default_Layer
 66
   1
 39
0.000000
 70
    1
  0
VERTEX
  8
0
 10
1.84456700
 20
8.11623840
  0
VERTEX
  8
0
 10
1.79947151
 20
8.09383902
  0
VERTEX
  8
0
 10
1.76757323
 20
8.05715901
  0
VERTEX
  8
0
 10
1.75175655
 20
8.01119428
  0
VERTEX
  8
0
 10
1.75490586
 20
7.96094075
  0
VERTEX
  8
0
 10
1.77730524
 20
7.91584526
  0
VERTEX
  8
0
 10
1.81398525
 20
7.88394699
  0
VERTEX
  8
0
 10
1.85994998
 20
7.86813030
  0
VERTEX
  8
0
 10
1.91020351
 20
7.87127961
  0
VERTEX
  8
0
 10
1.95529899
 20
7.89367900
  0
VERTEX
  8
0
 10
1.98719727
 20
7.93035901
  0
VERTEX
  8
0
 10
2.00301396
 20
7.97632373
  0
VERTEX
  8
0
 10
1.99986465
 20
8.02657726
  0
VERTEX
  8
0
 10
1.97746526
 20
8.07167275
  0
VERTEX
  8
0
 10
1.94078525
 20
8.10357103
  0
VERTEX
  8
0
 10
1.89482053
 20
8.11938771
  0
VERTEX
  8
0
 10
1.84456700
 20
8.11623840
  0
SEQEND
  0
POLYLINE
  8
Default_Layer
 66
   1
 39
0.000000
 70
    1
  0
VERTEX
  8
0
 10
2.14338465
 20
7.94371595
  0
VERTEX
  8
0
 10
2.09828916
 20
7.92131657
  0
VERTEX
  8
0
 10
2.06639088
 20
7.88463656
  0
VERTEX
  8
0
 10
2.05057420
 20
7.83867183
  0
VERTEX
  8
0
 10
2.05372351
 20
7.78841830
  0
VERTEX
  8
0
 10
2.07612289
 20
7.74332281
  0
VERTEX
  8
0
 10
2.11280290
 20
7.71142454
  0
VERTEX
  8
0
 10
2.15876763
 20
7.69560785
  0
VERTEX
  8
0
 10
2.20902116
 20
7.69875716
  0
VERTEX
  8
0
 10
2.25411664
 20
7.72115655
  0
VERTEX
  8
0
 10
2.28601492
 20
7.75783656
  0
VERTEX
  8
0
 10
2.30183160
 20
7.80380128
  0
VERTEX
  8
0
 10
2.29868230
 20
7.85405481
  0
VERTEX
  8
0
 10
2.27628291
 20
7.89915030
  0
VERTEX
  8
0
 10
2.23960290
 20
7.93104858
  0
VERTEX
  8
0
 10
2.19363818
 20
7.94686526
  0
VERTEX
  8
0
 10
2.14338465
 20
7.94371595
  0
SEQEND
  0
POLYLINE
  8
Default_Layer
 66
   1
 39
0.000000
 70
    1
  0
VERTEX
  8
0
 10
2.44209774
 20
7.77125387
  0
VERTEX
  8
0
 10
2.39700225
 20
7.74885448
  0
VERTEX
  8
0
 10
2.36510397
 20
7.71217447
  0
VERTEX
  8
0
 10
2.34928729
 20
7.66620974
  0
VERTEX
  8
0
 10
2.35243660
 20
7.61595622
  0
VERTEX
  8
0
 10
2.37483599
 20
7.57086073
  0
VERTEX
  8
0
 10
2.41151600
 20
7.53896245
  0
VERTEX
  8
0
 10
2.45748072
 20
7.52314577
  0
VERTEX
  8
0
 10
2.50773425
 20
7.52629508
  0
VERTEX
  8
0
 10
2.55282974
 20
7.54869446
  0
VERTEX
  8
0
 10
2.58472802
 20
7.58537447
  0
VERTEX
  8
0
 10
2.60054470
 20
7.63133920
  0
VERTEX
  8
0
 10
2.59739539
 20
7.68159273
  0
VERTEX
  8
0
 10
2.57499601
 20
7.72668821
  0
VERTEX
  8
0
 10
2.53831600
 20
7.75858649
  0
VERTEX
  8
0
 10
2.49235127
 20
7.77440317
  0
VERTEX
  8
0
 10
2.44209774
 20
7.77125387
  0
SEQEND
  0
POLYLINE
  8
Default_Layer
 66
   1
 39
0.000000
 70
    1
  0
VERTEX
  8
0
 10
2.74081084
 20
7.59879178
  0
VERTEX
  8
0
 10
2.69571535
 20
7.57639240
  0
VERTEX
  8
0
 10
2.66381707
 20
7.53971239
  0
VERTEX
  8
0
 10
2.64800039
 20
7.49374766
  0
VERTEX
  8
0
 10
2.65114970
 20
7.44349413
  0
VERTEX
  8
0
 10
2.67354908
 20
7.39839864
  0
VERTEX
  8
0
 10
2.71022909
 20
7.36650036
  0
VERTEX
  8
0
 10
2.75619382
 20
7.35068368
  0
VERTEX
  8
0
 10
2.80644735
 20
7.35383299
  0
VERTEX
  8
0
 10
2.85154283
 20
7.37623237
  0
VERTEX
  8
0
 10
2.88344111
 20
7.41291239
  0
VERTEX
  8
0
 10
2.89925779
 20
7.45887711
  0
VERTEX
  8
0
 10
2.89610848
 20
7.50913064
  0
VERTEX
  8
0
 10
2.87370910
 20
7.55422613
  0
VERTEX
  8
0
 10
2.83702909
 20
7.58612441
  0
VERTEX
  8
0
 10
2.79106436
 20
7.60194109
  0
VERTEX
  8
0
 10
2.74081084
 20
7.59879178
  0
SEQEND
  0
POLYLINE
  8
Default_Layer
 66
   1
 39
0.000000
 70
    1
  0
VERTEX
  8
0
 10
3.03962848
 20
7.42626933
  0
VERTEX
  8
0
 10
2.99453300
 20
7.40386995
  0
VERTEX
  8
0
 10
2.96263472
 20
7.36718994
  0
VERTEX
  8
0
 10
2.94681804
 20
7.32122521
  0
VERTEX
  8
0
 10
2.94996734
 20
7.27097168
  0
VERTEX
  8
0
 10
2.97236673
 20
7.22587619
  0
VERTEX
  8
0
 10
3.00904674
 20
7.19397791
  0
VERTEX
  8
0
 10
3.05501146
 20
7.17816123
  0
VERTEX
  8
0
 10
3.10526499
 20
7.18131054
  0
VERTEX
  8
0
 10
3.15036048
 20
7.20370992
  0
VERTEX
  8
0
 10
3.18225876
 20
7.24038994
  0
VERTEX
  8
0
 10
3.19807544
 20
7.28635466
  0
VERTEX
  8
0
 10
3.19492613
 20
7.33660819
  0
VERTEX
  8
0
 10
3.17252675
 20
7.38170368
  0
VERTEX
  8
0
 10
3.13584674
 20
7.41360196
  0
VERTEX
  8
0
 10
3.08988201
 20
7.42941864
  0
VERTEX
  8
0
 10
3.03962848
 20
7.42626933
  0
SEQEND
  0
POLYLINE
  8
Default_Layer
 66
   1
 39
0.000000
 70
    1
  0
VERTEX
  8
0
 10
3.33834158
 20
7.25380725
  0
VERTEX
  8
0
 10
3.29324609
 20
7.23140786
  0
VERTEX
  8
0
 10
3.26134781
 20
7.19472785
  0
VERTEX
  8
0
 10
3.24553113
 20
7.14876312
  0
VERTEX
  8
0
 10
3.24868044
 20
7.09850960
  0
VERTEX
  8
0
 10
3.27107982
 20
7.05341411
  0
VERTEX
  8
0
 10
3.30775983
 20
7.02151583
  0
VERTEX
  8
0
 10
3.35372456
 20
7.00569915
  0
VERTEX
  8
0
 10
3.40397809
 20
7.00884846
  0
VERTEX
  8
0
 10
3.44907357
 20
7.03124784
  0
VERTEX
  8
0
 10
3.48097185
 20
7.06792785
  0
VERTEX
  8
0
 10
3.49678854
 20
7.11389258
  0
VERTEX
  8
0
 10
3.49363923
 20
7.16414611
  0
VERTEX
  8
0
 10
3.47123984
 20
7.20924159
  0
VERTEX
  8
0
 10
3.43455983
 20
7.24113987
  0
VERTEX
  8
0
 10
3.38859511
 20
7.25695655
  0
VERTEX
  8
0
 10
3.33834158
 20
7.25380725
  0
SEQEND
  0
POLYLINE
  8
Default_Layer
 66
   1
 39
0.000000
 70
    1
  0
VERTEX
  8
0
 10
3.63705467
 20
7.08134516
  0
VERTEX
  8
0
 10
3.59195919
 20
7.05894578
  0
VERTEX
  8
0
 10
3.56006091
 20
7.02226577
  0
VERTEX
  8
0
 10
3.54424422
 20
6.97630104
  0
VERTEX
  8
0
 10
3.54739353
 20
6.92604751
  0
VERTEX
  8
0
 10
3.56979292
 20
6.88095202
  0
VERTEX
  8
0
 10
3.60647293
 20
6.84905374
  0
VERTEX
  8
0
 10
3.65243765
 20
6.83323706
  0
VERTEX
  8
0
 10
3.70269118
 20
6.83638637
  0
VERTEX
  8
0
 10
3.74778667
 20
6.85878575
  0
VERTEX
  8
0
 10
3.77968495
 20
6.89546577
  0
VERTEX
  8
0
 10
3.79550163
 20
6.94143049
  0
VERTEX
  8
0
 10
3.79235232
 20
6.99168402
  0
VERTEX
  8
0
 10
3.76995294
 20
7.03677951
  0
VERTEX
  8
0
 10
3.73327293
 20
7.06867779
  0
VERTEX
  8
0
 10
3.68730820
 20
7.08449447
  0
VERTEX
  8
0
 10
3.63705467
 20
7.08134516
  0
SEQEND
  0
POLYLINE
  8
Default_Layer
 66
   1
 39
0.000000
 70
    1
  0
VERTEX
  8
0
 10
9.27645812
 20
3.82543406
  0
VERTEX
  8
0
 10
9.27960743
 20
3.77518053
  0
VERTEX
  8
0
 10
9.26379075
 20
3.72921581
  0
VERTEX
  8
0
 10
9.23189247
 20
3.69253580
  0
VERTEX
  8
0
 10
9.18679698
 20
3.67013641
  0
VERTEX
  8
0
 10
9.13654345
 20
3.66698710
  0
VERTEX
  8
0
 10
9.09057873
 20
3.68280378
  0
VERTEX
  8
0
 10
9.05389871
 20
3.71470206
  0
VERTEX
  8
0
 10
9.03149933
 20
3.75979755
  0
VERTEX
  8
0
 10
9.02835002
 20
3.81005108
  0
VERTEX
  8
0
 10
9.04416670
 20
3.85601581
  0
VERTEX
  8
0
 10
9.07606498
 20
3.89269582
  0
VERTEX
  8
0
 10
9.12116047
 20
3.91509520
  0
VERTEX
  8
0
 10
9.17141400
 20
3.91824451
  0
VERTEX
  8
0
 10
9.21737873
 20
3.90242783
  0
VERTEX
  8
0
 10
9.25405874
 20
3.87052955
  0
VERTEX
  8
0
 10
9.27645812
 20
3.82543406
  0
SEQEND
  0
POLYLINE
  8
Default_Layer
 66
   1
 39
0.000000
 70
    1
  0
VERTEX
  8
0
 10
8.97764047
 20
3.99795651
  0
VERTEX
  8
0
 10
8.98078978
 20
3.94770298
  0
VERTEX
  8
0
 10
8.96497310
 20
3.90173826
  0
VERTEX
  8
0
 10
8.93307482
 20
3.86505825
  0
VERTEX
  8
0
 10
8.88797933
 20
3.84265886
  0
VERTEX
  8
0
 10
8.83772580
 20
3.83950955
  0
VERTEX
  8
0
 10
8.79176108
 20
3.85532623
  0
VERTEX
  8
0
 10
8.75508107
 20
3.88722451
  0
VERTEX
  8
0
 10
8.73268168
 20
3.93232000
  0
VERTEX
  8
0
 10
8.72953237
 20
3.98257353
  0
VERTEX
  8
0
 10
8.74534906
 20
4.02853826
  0
VERTEX
  8
0
 10
8.77724734
 20
4.06521827
  0
VERTEX
  8
0
 10
8.82234282
 20
4.08761765
  0
VERTEX
  8
0
 10
8.87259635
 20
4.09076696
  0
VERTEX
  8
0
 10
8.91856108
 20
4.07495028
  0
VERTEX
  8
0
 10
8.95524109
 20
4.04305200
  0
VERTEX
  8
0
 10
8.97764047
 20
3.99795651
  0
SEQEND
  0
POLYLINE
  8
Default_Layer
 66
   1
 39
0.000000
 70
    1
  0
VERTEX
  8
0
 10
8.67892738
 20
4.17041860
  0
VERTEX
  8
0
 10
8.68207669
 20
4.12016507
  0
VERTEX
  8
0
 10
8.66626000
 20
4.07420034
  0
VERTEX
  8
0
 10
8.63436172
 20
4.03752033
  0
VERTEX
  8
0
 10
8.58926624
 20
4.01512095
  0
VERTEX
  8
0
 10
8.53901271
 20
4.01197164
  0
VERTEX
  8
0
 10
8.49304798
 20
4.02778832
  0
VERTEX
  8
0
 10
8.45636797
 20
4.05968660
  0
VERTEX
  8
0
 10
8.43396859
 20
4.10478209
  0
VERTEX
  8
0
 10
8.43081928
 20
4.15503562
  0
VERTEX
  8
0
 10
8.44663596
 20
4.20100034
  0
VERTEX
  8
0
 10
8.47853424
 20
4.23768035
  0
VERTEX
  8
0
 10
8.52362973
 20
4.26007974
  0
VERTEX
  8
0
 10
8.57388326
 20
4.26322904
  0
VERTEX
  8
0
 10
8.61984798
 20
4.24741236
  0
VERTEX
  8
0
 10
8.65652799
 20
4.21551408
  0
VERTEX
  8
0
 10
8.67892738
 20
4.17041860
  0
SEQEND
  0
POLYLINE
  8
Default_Layer
 66
   1
 39
0.000000
 70
    1
  0
VERTEX
  8
0
 10
8.38021428
 20
4.34288068
  0
VERTEX
  8
0
 10
8.38336359
 20
4.29262715
  0
VERTEX
  8
0
 10
8.36754691
 20
4.24666243
  0
VERTEX
  8
0
 10
8.33564863
 20
4.20998242
  0
VERTEX
  8
0
 10
8.29055314
 20
4.18758303
  0
VERTEX
  8
0
 10
8.24029961
 20
4.18443372
  0
VERTEX
  8
0
 10
8.19433489
 20
4.20025041
  0
VERTEX
  8
0
 10
8.15765488
 20
4.23214869
  0
VERTEX
  8
0
 10
8.13525549
 20
4.27724417
  0
VERTEX
  8
0
 10
8.13210619
 20
4.32749770
  0
VERTEX
  8
0
 10
8.14792287
 20
4.37346243
  0
VERTEX
  8
0
 10
8.17982115
 20
4.41014244
  0
VERTEX
  8
0
 10
8.22491663
 20
4.43254182
  0
VERTEX
  8
0
 10
8.27517016
 20
4.43569113
  0
VERTEX
  8
0
 10
8.32113489
 20
4.41987445
  0
VERTEX
  8
0
 10
8.35781490
 20
4.38797617
  0
VERTEX
  8
0
 10
8.38021428
 20
4.34288068
  0
SEQEND
  0
POLYLINE
  8
Default_Layer
 66
   1
 39
0.000000
 70
    1
  0
VERTEX
  8
0
 10
8.08139663
 20
4.51540313
  0
VERTEX
  8
0
 10
8.08454594
 20
4.46514960
  0
VERTEX
  8
0
 10
8.06872926
 20
4.41918488
  0
VERTEX
  8
0
 10
8.03683098
 20
4.38250487
  0
VERTEX
  8
0
 10
7.99173549
 20
4.36010548
  0
VERTEX
  8
0
 10
7.94148197
 20
4.35695617
  0
VERTEX
  8
0
 10
7.89551724
 20
4.37277286
  0
VERTEX
  8
0
 10
7.85883723
 20
4.40467114
  0
VERTEX
  8
0
 10
7.83643784
 20
4.44976662
  0
VERTEX
  8
0
 10
7.83328854
 20
4.50002015
  0
VERTEX
  8
0
 10
7.84910522
 20
4.54598488
  0
VERTEX
  8
0
 10
7.88100350
 20
4.58266489
  0
VERTEX
  8
0
 10
7.92609898
 20
4.60506427
  0
VERTEX
  8
0
 10
7.97635251
 20
4.60821358
  0
VERTEX
  8
0
 10
8.02231724
 20
4.59239690
  0
VERTEX
  8
0
 10
8.05899725
 20
4.56049862
  0
VERTEX
  8
0
 10
8.08139663
 20
4.51540313
  0
SEQEND
  0
POLYLINE
  8
Default_Layer
 66
   1
 39
0.000000
 70
    1
  0
VERTEX
  8
0
 10
7.78268354
 20
4.68786522
  0
VERTEX
  8
0
 10
7.78583285
 20
4.63761169
  0
VERTEX
  8
0
 10
7.77001617
 20
4.59164696
  0
VERTEX
  8
0
 10
7.73811789
 20
4.55496695
  0
VERTEX
  8
0
 10
7.69302240
 20
4.53256757
  0
VERTEX
  8
0
 10
7.64276887
 20
4.52941826
  0
VERTEX
  8
0
 10
7.59680415
 20
4.54523494
  0
VERTEX
  8
0
 10
7.56012413
 20
4.57713322
  0
VERTEX
  8
0
 10
7.53772475
 20
4.62222871
  0
VERTEX
  8
0
 10
7.53457544
 20
4.67248224
  0
VERTEX
  8
0
 10
7.55039212
 20
4.71844696
  0
VERTEX
  8
0
 10
7.58229040
 20
4.75512697
  0
VERTEX
  8
0
 10
7.62738589
 20
4.77752636
  0
VERTEX
  8
0
 10
7.67763942
 20
4.78067566
  0
VERTEX
  8
0
 10
7.72360415
 20
4.76485898
  0
VERTEX
  8
0
 10
7.76028416
 20
4.73296070
  0
VERTEX
  8
0
 10
7.78268354
 20
4.68786522
  0
SEQEND
  0
POLYLINE
  8
Default_Layer
 66
   1
 39
0.000000
 70
    1
  0
VERTEX
  8
0
 10
7.48397045
 20
4.86032730
  0
VERTEX
  8
0
 10
7.48711975
 20
4.81007377
  0
VERTEX
  8
0
 10
7.47130307
 20
4.76410905
  0
VERTEX
  8
0
 10
7.43940479
 20
4.72742904
  0
VERTEX
  8
0
 10
7.39430931
 20
4.70502965
  0
VERTEX
  8
0
 10
7.34405578
 20
4.70188034
  0
VERTEX
  8
0
 10
7.29809105
 20
4.71769703
  0
VERTEX
  8
0
 10
7.26141104
 20
4.74959531
  0
VERTEX
  8
0
 10
7.23901166
 20
4.79469079
  0
VERTEX
  8
0
 10
7.23586235
 20
4.84494432
  0
VERTEX
  8
0
 10
7.25167903
 20
4.89090905
  0
VERTEX
  8
0
 10
7.28357731
 20
4.92758906
  0
VERTEX
  8
0
 10
7.32867280
 20
4.94998844
  0
VERTEX
  8
0
 10
7.37892633
 20
4.95313775
  0
VERTEX
  8
0
 10
7.42489105
 20
4.93732107
  0
VERTEX
  8
0
 10
7.46157106
 20
4.90542279
  0
VERTEX
  8
0
 10
7.48397045
 20
4.86032730
  0
SEQEND
  0
POLYLINE
  8
Default_Layer
 66
   1
 39
0.000000
 70
    1
  0
VERTEX
  8
0
 10
8.41332556
 20
2.33044462
  0
VERTEX
  8
0
 10
8.36307204
 20
2.32729531
  0
VERTEX
  8
0
 10
8.31710731
 20
2.34311199
  0
VERTEX
  8
0
 10
8.28042730
 20
2.37501027
  0
VERTEX
  8
0
 10
8.25802792
 20
2.42010576
  0
VERTEX
  8
0
 10
8.25487861
 20
2.47035929
  0
VERTEX
  8
0
 10
8.27069529
 20
2.51632402
  0
VERTEX
  8
0
 10
8.30259357
 20
2.55300403
  0
VERTEX
  8
0
 10
8.34768905
 20
2.57540341
  0
VERTEX
  8
0
 10
8.39794258
 20
2.57855272
  0
VERTEX
  8
0
 10
8.44390731
 20
2.56273604
  0
VERTEX
  8
0
 10
8.48058732
 20
2.53083776
  0
VERTEX
  8
0
 10
8.50298670
 20
2.48574227
  0
VERTEX
  8
0
 10
8.50613601
 20
2.43548874
  0
VERTEX
  8
0
 10
8.49031933
 20
2.38952402
  0
VERTEX
  8
0
 10
8.45842105
 20
2.35284400
  0
VERTEX
  8
0
 10
8.41332556
 20
2.33044462
  0
SEQEND
  0
POLYLINE
  8
Default_Layer
 66
   1
 39
0.000000
 70
    1
  0
VERTEX
  8
0
 10
8.67116655
 20
2.77703831
  0
VERTEX
  8
0
 10
8.62091303
 20
2.77388901
  0
VERTEX
  8
0
 10
8.57494830
 20
2.78970569
  0
VERTEX
  8
0
 10
8.53826829
 20
2.82160397
  0
VERTEX
  8
0
 10
8.51586890
 20
2.86669945
  0
VERTEX
  8
0
 10
8.51271960
 20
2.91695298
  0
VERTEX
  8
0
 10
8.52853628
 20
2.96291771
  0
VERTEX
  8
0
 10
8.56043456
 20
2.99959772
  0
VERTEX
  8
0
 10
8.60553004
 20
3.02199710
  0
VERTEX
  8
0
 10
8.65578357
 20
3.02514641
  0
VERTEX
  8
0
 10
8.70174830
 20
3.00932973
  0
VERTEX
  8
0
 10
8.73842831
 20
2.97743145
  0
VERTEX
  8
0
 10
8.76082769
 20
2.93233596
  0
VERTEX
  8
0
 10
8.76397700
 20
2.88208244
  0
VERTEX
  8
0
 10
8.74816032
 20
2.83611771
  0
VERTEX
  8
0
 10
8.71626204
 20
2.79943770
  0
VERTEX
  8
0
 10
8.67116655
 20
2.77703831
  0
SEQEND
  0
POLYLINE
  8
Default_Layer
 66
   1
 39
0.000000
 70
    1
  0
VERTEX
  8
0
 10
8.92898177
 20
3.22358736
  0
VERTEX
  8
0
 10
8.87872824
 20
3.22043806
  0
VERTEX
  8
0
 10
8.83276351
 20
3.23625474
  0
VERTEX
  8
0
 10
8.79608350
 20
3.26815302
  0
VERTEX
  8
0
 10
8.77368412
 20
3.31324850
  0
VERTEX
  8
0
 10
8.77053481
 20
3.36350203
  0
VERTEX
  8
0
 10
8.78635149
 20
3.40946676
  0
VERTEX
  8
0
 10
8.81824977
 20
3.44614677
  0
VERTEX
  8
0
 10
8.86334526
 20
3.46854615
  0
VERTEX
  8
0
 10
8.91359879
 20
3.47169546
  0
VERTEX
  8
0
 10
8.95956351
 20
3.45587878
  0
VERTEX
  8
0
 10
8.99624352
 20
3.42398050
  0
VERTEX
  8
0
 10
9.01864291
 20
3.37888501
  0
VERTEX
  8
0
 10
9.02179222
 20
3.32863148
  0
VERTEX
  8
0
 10
9.00597553
 20
3.28266676
  0
VERTEX
  8
0
 10
8.97407725
 20
3.24598675
  0
VERTEX
  8
0
 10
8.92898177
 20
3.22358736
  0
SEQEND
  0
POLYLINE
  8
Default_Layer
 66
   1
 39
0.000000
 70
    1
  0
VERTEX
  8
0
 10
6.20770938
 20
3.00828036
  0
VERTEX
  8
0
 10
6.20456007
 20
3.05853389
  0
VERTEX
  8
0
 10
6.22037675
 20
3.10449861
  0
VERTEX
  8
0
 10
6.25227503
 20
3.14117862
  0
VERTEX
  8
0
 10
6.29737052
 20
3.16357801
  0
VERTEX
  8
0
 10
6.34762405
 20
3.16672732
  0
VERTEX
  8
0
 10
6.39358877
 20
3.15091063
  0
VERTEX
  8
0
 10
6.43026878
 20
3.11901235
  0
VERTEX
  8
0
 10
6.45266817
 20
3.07391687
  0
VERTEX
  8
0
 10
6.45581747
 20
3.02366334
  0
VERTEX
  8
0
 10
6.44000079
 20
2.97769861
  0
VERTEX
  8
0
 10
6.40810251
 20
2.94101860
  0
VERTEX
  8
0
 10
6.36300703
 20
2.91861922
  0
VERTEX
  8
0
 10
6.31275350
 20
2.91546991
  0
VERTEX
  8
0
 10
6.26678877
 20
2.93128659
  0
VERTEX
  8
0
 10
6.23010876
 20
2.96318487
  0
VERTEX
  8
0
 10
6.20770938
 20
3.00828036
  0
SEQEND
  0
POLYLINE
  8
Default_Layer
 66
   1
 39
0.000000
 70
    1
  0
VERTEX
  8
0
 10
6.50642961
 20
2.83581415
  0
VERTEX
  8
0
 10
6.50328031
 20
2.88606768
  0
VERTEX
  8
0
 10
6.51909699
 20
2.93203240
  0
VERTEX
  8
0
 10
6.55099527
 20
2.96871241
  0
VERTEX
  8
0
 10
6.59609075
 20
2.99111180
  0
VERTEX
  8
0
 10
6.64634428
 20
2.99426111
  0
VERTEX
  8
0
 10
6.69230901
 20
2.97844443
  0
VERTEX
  8
0
 10
6.72898902
 20
2.94654615
  0
VERTEX
  8
0
 10
6.75138840
 20
2.90145066
  0
VERTEX
  8
0
 10
6.75453771
 20
2.85119713
  0
VERTEX
  8
0
 10
6.73872103
 20
2.80523240
  0
VERTEX
  8
0
 10
6.70682275
 20
2.76855239
  0
VERTEX
  8
0
 10
6.66172726
 20
2.74615301
  0
VERTEX
  8
0
 10
6.61147373
 20
2.74300370
  0
VERTEX
  8
0
 10
6.56550901
 20
2.75882038
  0
VERTEX
  8
0
 10
6.52882900
 20
2.79071866
  0
VERTEX
  8
0
 10
6.50642961
 20
2.83581415
  0
SEQEND
  0
POLYLINE
  8
Default_Layer
 66
   1
 39
0.000000
 70
    1
  0
VERTEX
  8
0
 10
6.80514985
 20
2.66334794
  0
VERTEX
  8
0
 10
6.80200054
 20
2.71360147
  0
VERTEX
  8
0
 10
6.81781722
 20
2.75956620
  0
VERTEX
  8
0
 10
6.84971550
 20
2.79624621
  0
VERTEX
  8
0
 10
6.89481099
 20
2.81864559
  0
VERTEX
  8
0
 10
6.94506452
 20
2.82179490
  0
VERTEX
  8
0
 10
6.99102924
 20
2.80597822
  0
VERTEX
  8
0
 10
7.02770926
 20
2.77407994
  0
VERTEX
  8
0
 10
7.05010864
 20
2.72898445
  0
VERTEX
  8
0
 10
7.05325795
 20
2.67873092
  0
VERTEX
  8
0
 10
7.03744127
 20
2.63276620
  0
VERTEX
  8
0
 10
7.00554299
 20
2.59608618
  0
VERTEX
  8
0
 10
6.96044750
 20
2.57368680
  0
VERTEX
  8
0
 10
6.91019397
 20
2.57053749
  0
VERTEX
  8
0
 10
6.86422924
 20
2.58635417
  0
VERTEX
  8
0
 10
6.82754923
 20
2.61825245
  0
VERTEX
  8
0
 10
6.80514985
 20
2.66334794
  0
SEQEND
  0
POLYLINE
  8
Default_Layer
 66
   1
 39
0.000000
 70
    1
  0
VERTEX
  8
0
 10
7.10397464
 20
2.49082137
  0
VERTEX
  8
0
 10
7.10082534
 20
2.54107489
  0
VERTEX
  8
0
 10
7.11664202
 20
2.58703962
  0
VERTEX
  8
0
 10
7.14854030
 20
2.62371963
  0
VERTEX
  8
0
 10
7.19363578
 20
2.64611901
  0
VERTEX
  8
0
 10
7.24388931
 20
2.64926832
  0
VERTEX
  8
0
 10
7.28985404
 20
2.63345164
  0
VERTEX
  8
0
 10
7.32653405
 20
2.60155336
  0
VERTEX
  8
0
 10
7.34893343
 20
2.55645788
  0
VERTEX
  8
0
 10
7.35208274
 20
2.50620435
  0
VERTEX
  8
0
 10
7.33626606
 20
2.46023962
  0
VERTEX
  8
0
 10
7.30436778
 20
2.42355961
  0
VERTEX
  8
0
 10
7.25927229
 20
2.40116023
  0
VERTEX
  8
0
 10
7.20901876
 20
2.39801092
  0
VERTEX
  8
0
 10
7.16305404
 20
2.41382760
  0
VERTEX
  8
0
 10
7.12637403
 20
2.44572588
  0
VERTEX
  8
0
 10
7.10397464
 20
2.49082137
  0
SEQEND
  0
POLYLINE
  8
Default_Layer
 66
   1
 39
0.000000
 70
    1
  0
VERTEX
  8
0
 10
7.40269488
 20
2.31835516
  0
VERTEX
  8
0
 10
7.39954557
 20
2.36860869
  0
VERTEX
  8
0
 10
7.41536225
 20
2.41457341
  0
VERTEX
  8
0
 10
7.44726053
 20
2.45125342
  0
VERTEX
  8
0
 10
7.49235602
 20
2.47365281
  0
VERTEX
  8
0
 10
7.54260955
 20
2.47680211
  0
VERTEX
  8
0
 10
7.58857427
 20
2.46098543
  0
VERTEX
  8
0
 10
7.62525429
 20
2.42908715
  0
VERTEX
  8
0
 10
7.64765367
 20
2.38399167
  0
VERTEX
  8
0
 10
7.65080298
 20
2.33373814
  0
VERTEX
  8
0
 10
7.63498630
 20
2.28777341
  0
VERTEX
  8
0
 10
7.60308802
 20
2.25109340
  0
VERTEX
  8
0
 10
7.55799253
 20
2.22869402
  0
VERTEX
  8
0
 10
7.50773900
 20
2.22554471
  0
VERTEX
  8
0
 10
7.46177427
 20
2.24136139
  0
VERTEX
  8
0
 10
7.42509426
 20
2.27325967
  0
VERTEX
  8
0
 10
7.40269488
 20
2.31835516
  0
SEQEND
  0
POLYLINE
  8
Default_Layer
 66
   1
 39
0.000000
 70
    1
  0
VERTEX
  8
0
 10
7.70141512
 20
2.14588895
  0
VERTEX
  8
0
 10
7.69826581
 20
2.19614248
  0
VERTEX
  8
0
 10
7.71408249
 20
2.24210720
  0
VERTEX
  8
0
 10
7.74598077
 20
2.27878721
  0
VERTEX
  8
0
 10
7.79107626
 20
2.30118660
  0
VERTEX
  8
0
 10
7.84132978
 20
2.30433591
  0
VERTEX
  8
0
 10
7.88729451
 20
2.28851922
  0
VERTEX
  8
0
 10
7.92397452
 20
2.25662094
  0
VERTEX
  8
0
 10
7.94637391
 20
2.21152546
  0
VERTEX
  8
0
 10
7.94952321
 20
2.16127193
  0
VERTEX
  8
0
 10
7.93370653
 20
2.11530720
  0
VERTEX
  8
0
 10
7.90180825
 20
2.07862719
  0
VERTEX
  8
0
 10
7.85671277
 20
2.05622781
  0
VERTEX
  8
0
 10
7.80645924
 20
2.05307850
  0
VERTEX
  8
0
 10
7.76049451
 20
2.06889518
  0
VERTEX
  8
0
 10
7.72381450
 20
2.10079346
  0
VERTEX
  8
0
 10
7.70141512
 20
2.14588895
  0
SEQEND
  0
POLYLINE
  8
Default_Layer
 66
   1
 39
0.000000
 70
    1
  0
VERTEX
  8
0
 10
8.00003079
 20
1.97348311
  0
VERTEX
  8
0
 10
7.99688149
 20
2.02373663
  0
VERTEX
  8
0
 10
8.01269817
 20
2.06970136
  0
VERTEX
  8
0
 10
8.04459645
 20
2.10638137
  0
VERTEX
  8
0
 10
8.08969193
 20
2.12878075
  0
VERTEX
  8
0
 10
8.13994546
 20
2.13193006
  0
VERTEX
  8
0
 10
8.18591019
 20
2.11611338
  0
VERTEX
  8
0
 10
8.22259020
 20
2.08421510
  0
VERTEX
  8
0
 10
8.24498958
 20
2.03911961
  0
VERTEX
  8
0
 10
8.24813889
 20
1.98886609
  0
VERTEX
  8
0
 10
8.23232221
 20
1.94290136
  0
VERTEX
  8
0
 10
8.20042393
 20
1.90622135
  0
VERTEX
  8
0
 10
8.15532844
 20
1.88382197
  0
VERTEX
  8
0
 10
8.10507492
 20
1.88067266
  0
VERTEX
  8
0
 10
8.05911019
 20
1.89648934
  0
VERTEX
  8
0
 10
8.02243018
 20
1.92838762
  0
VERTEX
  8
0
 10
8.00003079
 20
1.97348311
  0
SEQEND
  0
POLYLINE
  8
Default_Layer
 66
   1
 39
0.000000
 70
    1
  0
VERTEX
  8
0
 10
2.67126550
 20
5.05004718
  0
VERTEX
  8
0
 10
2.71636099
 20
5.07244656
  0
VERTEX
  8
0
 10
2.74825927
 20
5.10912657
  0
VERTEX
  8
0
 10
2.76407595
 20
5.15509130
  0
VERTEX
  8
0
 10
2.76092664
 20
5.20534483
  0
VERTEX
  8
0
 10
2.73852726
 20
5.25044032
  0
VERTEX
  8
0
 10
2.70184725
 20
5.28233860
  0
VERTEX
  8
0
 10
2.65588252
 20
5.29815528
  0
VERTEX
  8
0
 10
2.60562899
 20
5.29500597
  0
VERTEX
  8
0
 10
2.56053351
 20
5.27260659
  0
VERTEX
  8
0
 10
2.52863523
 20
5.23592657
  0
VERTEX
  8
0
 10
2.51281855
 20
5.18996185
  0
VERTEX
  8
0
 10
2.51596785
 20
5.13970832
  0
VERTEX
  8
0
 10
2.53836724
 20
5.09461283
  0
VERTEX
  8
0
 10
2.57504725
 20
5.06271455
  0
VERTEX
  8
0
 10
2.62101197
 20
5.04689787
  0
VERTEX
  8
0
 10
2.67126550
 20
5.05004718
  0
SEQEND
  0
POLYLINE
  8
Default_Layer
 66
   1
 39
0.000000
 70
    1
  0
VERTEX
  8
0
 10
2.37254527
 20
5.22251339
  0
VERTEX
  8
0
 10
2.41764075
 20
5.24491277
  0
VERTEX
  8
0
 10
2.44953903
 20
5.28159278
  0
VERTEX
  8
0
 10
2.46535572
 20
5.32755751
  0
VERTEX
  8
0
 10
2.46220641
 20
5.37781104
  0
VERTEX
  8
0
 10
2.43980702
 20
5.42290653
  0
VERTEX
  8
0
 10
2.40312701
 20
5.45480480
  0
VERTEX
  8
0
 10
2.35716229
 20
5.47062149
  0
VERTEX
  8
0
 10
2.30690876
 20
5.46747218
  0
VERTEX
  8
0
 10
2.26181327
 20
5.44507279
  0
VERTEX
  8
0
 10
2.22991499
 20
5.40839278
  0
VERTEX
  8
0
 10
2.21409831
 20
5.36242806
  0
VERTEX
  8
0
 10
2.21724762
 20
5.31217453
  0
VERTEX
  8
0
 10
2.23964700
 20
5.26707904
  0
VERTEX
  8
0
 10
2.27632701
 20
5.23518076
  0
VERTEX
  8
0
 10
2.32229174
 20
5.21936408
  0
VERTEX
  8
0
 10
2.37254527
 20
5.22251339
  0
SEQEND
  0
POLYLINE
  8
Default_Layer
 66
   1
 39
0.000000
 70
    1
  0
VERTEX
  8
0
 10
2.07382503
 20
5.39497960
  0
VERTEX
  8
0
 10
2.11892052
 20
5.41737898
  0
VERTEX
  8
0
 10
2.15081880
 20
5.45405899
  0
VERTEX
  8
0
 10
2.16663548
 20
5.50002372
  0
VERTEX
  8
0
 10
2.16348617
 20
5.55027725
  0
VERTEX
  8
0
 10
2.14108679
 20
5.59537273
  0
VERTEX
  8
0
 10
2.10440678
 20
5.62727101
  0
VERTEX
  8
0
 10
2.05844205
 20
5.64308770
  0
VERTEX
  8
0
 10
2.00818852
 20
5.63993839
  0
VERTEX
  8
0
 10
1.96309303
 20
5.61753900
  0
VERTEX
  8
0
 10
1.93119476
 20
5.58085899
  0
VERTEX
  8
0
 10
1.91537807
 20
5.53489427
  0
VERTEX
  8
0
 10
1.91852738
 20
5.48464074
  0
VERTEX
  8
0
 10
1.94092677
 20
5.43954525
  0
VERTEX
  8
0
 10
1.97760678
 20
5.40764697
  0
VERTEX
  8
0
 10
2.02357150
 20
5.39183029
  0
VERTEX
  8
0
 10
2.07382503
 20
5.39497960
  0
SEQEND
  0
POLYLINE
  8
Default_Layer
 66
   1
 39
0.000000
 70
    1
  0
VERTEX
  8
0
 10
1.77500024
 20
5.56750617
  0
VERTEX
  8
0
 10
1.82009572
 20
5.58990556
  0
VERTEX
  8
0
 10
1.85199400
 20
5.62658557
  0
VERTEX
  8
0
 10
1.86781069
 20
5.67255029
  0
VERTEX
  8
0
 10
1.86466138
 20
5.72280382
  0
VERTEX
  8
0
 10
1.84226199
 20
5.76789931
  0
VERTEX
  8
0
 10
1.80558198
 20
5.79979759
  0
VERTEX
  8
0
 10
1.75961726
 20
5.81561427
  0
VERTEX
  8
0
 10
1.70936373
 20
5.81246496
  0
VERTEX
  8
0
 10
1.66426824
 20
5.79006558
  0
VERTEX
  8
0
 10
1.63236996
 20
5.75338557
  0
VERTEX
  8
0
 10
1.61655328
 20
5.70742084
  0
VERTEX
  8
0
 10
1.61970259
 20
5.65716731
  0
VERTEX
  8
0
 10
1.64210197
 20
5.61207183
  0
VERTEX
  8
0
 10
1.67878198
 20
5.58017355
  0
VERTEX
  8
0
 10
1.72474671
 20
5.56435686
  0
VERTEX
  8
0
 10
1.77500024
 20
5.56750617
  0
SEQEND
  0
POLYLINE
  8
Default_Layer
 66
   1
 39
0.000000
 70
    1
  0
VERTEX
  8
0
 10
1.47628000
 20
5.73997238
  0
VERTEX
  8
0
 10
1.52137549
 20
5.76237177
  0
VERTEX
  8
0
 10
1.55327377
 20
5.79905178
  0
VERTEX
  8
0
 10
1.56909045
 20
5.84501650
  0
VERTEX
  8
0
 10
1.56594114
 20
5.89527003
  0
VERTEX
  8
0
 10
1.54354176
 20
5.94036552
  0
VERTEX
  8
0
 10
1.50686175
 20
5.97226380
  0
VERTEX
  8
0
 10
1.46089702
 20
5.98808048
  0
VERTEX
  8
0
 10
1.41064349
 20
5.98493117
  0
VERTEX
  8
0
 10
1.36554801
 20
5.96253179
  0
VERTEX
  8
0
 10
1.33364973
 20
5.92585178
  0
VERTEX
  8
0
 10
1.31783304
 20
5.87988705
  0
VERTEX
  8
0
 10
1.32098235
 20
5.82963352
  0
VERTEX
  8
0
 10
1.34338174
 20
5.78453803
  0
VERTEX
  8
0
 10
1.38006175
 20
5.75263976
  0
VERTEX
  8
0
 10
1.42602647
 20
5.73682307
  0
VERTEX
  8
0
 10
1.47628000
 20
5.73997238
  0
SEQEND
  0
POLYLINE
  8
Default_Layer
 66
   1
 39
0.000000
 70
    1
  0
VERTEX
  8
0
 10
1.17755977
 20
5.91243859
  0
VERTEX
  8
0
 10
1.22265525
 20
5.93483797
  0
VERTEX
  8
0
 10
1.25455353
 20
5.97151799
  0
VERTEX
  8
0
 10
1.27037021
 20
6.01748271
  0
VERTEX
  8
0
 10
1.26722091
 20
6.06773624
  0
VERTEX
  8
0
 10
1.24482152
 20
6.11283173
  0
VERTEX
  8
0
 10
1.20814151
 20
6.14473001
  0
VERTEX
  8
0
 10
1.16217678
 20
6.16054669
  0
VERTEX
  8
0
 10
1.11192326
 20
6.15739738
  0
VERTEX
  8
0
 10
1.06682777
 20
6.13499800
  0
VERTEX
  8
0
 10
1.03492949
 20
6.09831799
  0
VERTEX
  8
0
 10
1.01911281
 20
6.05235326
  0
VERTEX
  8
0
 10
1.02226212
 20
6.00209973
  0
VERTEX
  8
0
 10
1.04466150
 20
5.95700424
  0
VERTEX
  8
0
 10
1.08134151
 20
5.92510596
  0
VERTEX
  8
0
 10
1.12730624
 20
5.90928928
  0
VERTEX
  8
0
 10
1.17755977
 20
5.91243859
  0
SEQEND
  0
POLYLINE
  8
Default_Layer
 66
   1
 39
0.000000
 70
    1
  0
VERTEX
  8
0
 10
0.87894409
 20
6.08484443
  0
VERTEX
  8
0
 10
0.92403957
 20
6.10724382
  0
VERTEX
  8
0
 10
0.95593785
 20
6.14392383
  0
VERTEX
  8
0
 10
0.97175453
 20
6.18988855
  0
VERTEX
  8
0
 10
0.96860523
 20
6.24014208
  0
VERTEX
  8
0
 10
0.94620584
 20
6.28523757
  0
VERTEX
  8
0
 10
0.90952583
 20
6.31713585
  0
VERTEX
  8
0
 10
0.86356111
 20
6.33295253
  0
VERTEX
  8
0
 10
0.81330758
 20
6.32980322
  0
VERTEX
  8
0
 10
0.76821209
 20
6.30740384
  0
VERTEX
  8
0
 10
0.73631381
 20
6.27072383
  0
VERTEX
  8
0
 10
0.72049713
 20
6.22475910
  0
VERTEX
  8
0
 10
0.72364644
 20
6.17450557
  0
VERTEX
  8
0
 10
0.74604582
 20
6.12941009
  0
VERTEX
  8
0
 10
0.78272583
 20
6.09751181
  0
VERTEX
  8
0
 10
0.82869056
 20
6.08169513
  0
VERTEX
  8
0
 10
0.87894409
 20
6.08484443
  0
SEQEND
  0
POLYLINE
  8
Default_Layer
 66
   1
 39
0.000000
 70
    1
  0
VERTEX
  8
0
 10
3.87897488
 20
2.95823318
  0
VERTEX
  8
0
 10
3.92092106
 20
2.98608732
  0
VERTEX
  8
0
 10
3.96863602
 20
2.99537204
  0
VERTEX
  8
0
 10
4.01635098
 20
2.98608732
  0
VERTEX
  8
0
 10
4.05829716
 20
2.95823318
  0
VERTEX
  8
0
 10
4.08615131
 20
2.91628700
  0
VERTEX
  8
0
 10
4.09543602
 20
2.86857204
  0
VERTEX
  8
0
 10
4.08615131
 20
2.82085708
  0
VERTEX
  8
0
 10
4.05829716
 20
2.77891090
  0
VERTEX
  8
0
 10
4.01635098
 20
2.75105675
  0
VERTEX
  8
0
 10
3.96863602
 20
2.74177204
  0
VERTEX
  8
0
 10
3.92092106
 20
2.75105675
  0
VERTEX
  8
0
 10
3.87897488
 20
2.77891090
  0
VERTEX
  8
0
 10
3.85112074
 20
2.82085708
  0
VERTEX
  8
0
 10
3.84183602
 20
2.86857204
  0
VERTEX
  8
0
 10
3.85112074
 20
2.91628700
  0
VERTEX
  8
0
 10
3.87897488
 20
2.95823318
  0
SEQEND
  0
POLYLINE
  8
Default_Layer
 66
   1
 39
0.000000
 70
    1
  0
VERTEX
  8
0
 10
3.87897488
 20
2.61330076
  0
VERTEX
  8
0
 10
3.92092106
 20
2.64115491
  0
VERTEX
  8
0
 10
3.96863602
 20
2.65043962
  0
VERTEX
  8
0
 10
4.01635098
 20
2.64115491
  0
VERTEX
  8
0
 10
4.05829716
 20
2.61330076
  0
VERTEX
  8
0
 10
4.08615131
 20
2.57135458
  0
VERTEX
  8
0
 10
4.09543602
 20
2.52363962
  0
VERTEX
  8
0
 10
4.08615131
 20
2.47592466
  0
VERTEX
  8
0
 10
4.05829716
 20
2.43397848
  0
VERTEX
  8
0
 10
4.01635098
 20
2.40612434
  0
VERTEX
  8
0
 10
3.96863602
 20
2.39683962
  0
VERTEX
  8
0
 10
3.92092106
 20
2.40612434
  0
VERTEX
  8
0
 10
3.87897488
 20
2.43397848
  0
VERTEX
  8
0
 10
3.85112074
 20
2.47592466
  0
VERTEX
  8
0
 10
3.84183602
 20
2.52363962
  0
VERTEX
  8
0
 10
3.85112074
 20
2.57135458
  0
VERTEX
  8
0
 10
3.87897488
 20
2.61330076
  0
SEQEND
  0
POLYLINE
  8
Default_Layer
 66
   1
 39
0.000000
 70
    1
  0
VERTEX
  8
0
 10
3.87897488
 20
2.26836834
  0
VERTEX
  8
0
 10
3.92092106
 20
2.29622249
  0
VERTEX
  8
0
 10
3.96863602
 20
2.30550720
  0
VERTEX
  8
0
 10
4.01635098
 20
2.29622249
  0
VERTEX
  8
0
 10
4.05829716
 20
2.26836834
  0
VERTEX
  8
0
 10
4.08615131
 20
2.22642216
  0
VERTEX
  8
0
 10
4.09543602
 20
2.17870720
  0
VERTEX
  8
0
 10
4.08615131
 20
2.13099224
  0
VERTEX
  8
0
 10
4.05829716
 20
2.08904606
  0
VERTEX
  8
0
 10
4.01635098
 20
2.06119192
  0
VERTEX
  8
0
 10
3.96863602
 20
2.05190720
  0
VERTEX
  8
0
 10
3.92092106
 20
2.06119192
  0
VERTEX
  8
0
 10
3.87897488
 20
2.08904606
  0
VERTEX
  8
0
 10
3.85112074
 20
2.13099224
  0
VERTEX
  8
0
 10
3.84183602
 20
2.17870720
  0
VERTEX
  8
0
 10
3.85112074
 20
2.22642216
  0
VERTEX
  8
0
 10
3.87897488
 20
2.26836834
  0
SEQEND
  0
POLYLINE
  8
Default_Layer
 66
   1
 39
0.000000
 70
    1
  0
VERTEX
  8
0
 10
3.87897488
 20
1.92331519
  0
VERTEX
  8
0
 10
3.92092106
 20
1.95116934
  0
VERTEX
  8
0
 10
3.96863602
 20
1.96045405
  0
VERTEX
  8
0
 10
4.01635098
 20
1.95116934
  0
VERTEX
  8
0
 10
4.05829716
 20
1.92331519
  0
VERTEX
  8
0
 10
4.08615131
 20
1.88136901
  0
VERTEX
  8
0
 10
4.09543602
 20
1.83365405
  0
VERTEX
  8
0
 10
4.08615131
 20
1.78593909
  0
VERTEX
  8
0
 10
4.05829716
 20
1.74399291
  0
VERTEX
  8
0
 10
4.01635098
 20
1.71613877
  0
VERTEX
  8
0
 10
3.96863602
 20
1.70685405
  0
VERTEX
  8
0
 10
3.92092106
 20
1.71613877
  0
VERTEX
  8
0
 10
3.87897488
 20
1.74399291
  0
VERTEX
  8
0
 10
3.85112074
 20
1.78593909
  0
VERTEX
  8
0
 10
3.84183602
 20
1.83365405
  0
VERTEX
  8
0
 10
3.85112074
 20
1.88136901
  0
VERTEX
  8
0
 10
3.87897488
 20
1.92331519
  0
SEQEND
  0
POLYLINE
  8
Default_Layer
 66
   1
 39
0.000000
 70
    1
  0
VERTEX
  8
0
 10
3.87897488
 20
1.57838277
  0
VERTEX
  8
0
 10
3.92092106
 20
1.60623692
  0
VERTEX
  8
0
 10
3.96863602
 20
1.61552163
  0
VERTEX
  8
0
 10
4.01635098
 20
1.60623692
  0
VERTEX
  8
0
 10
4.05829716
 20
1.57838277
  0
VERTEX
  8
0
 10
4.08615131
 20
1.53643660
  0
VERTEX
  8
0
 10
4.09543602
 20
1.48872163
  0
VERTEX
  8
0
 10
4.08615131
 20
1.44100667
  0
VERTEX
  8
0
 10
4.05829716
 20
1.39906050
  0
VERTEX
  8
0
 10
4.01635098
 20
1.37120635
  0
VERTEX
  8
0
 10
3.96863602
 20
1.36192163
  0
VERTEX
  8
0
 10
3.92092106
 20
1.37120635
  0
VERTEX
  8
0
 10
3.87897488
 20
1.39906050
  0
VERTEX
  8
0
 10
3.85112074
 20
1.44100667
  0
VERTEX
  8
0
 10
3.84183602
 20
1.48872163
  0
VERTEX
  8
0
 10
3.85112074
 20
1.53643660
  0
VERTEX
  8
0
 10
3.87897488
 20
1.57838277
  0
SEQEND
  0
POLYLINE
  8
Default_Layer
 66
   1
 39
0.000000
 70
    1
  0
VERTEX
  8
0
 10
3.87897488
 20
1.23345036
  0
VERTEX
  8
0
 10
3.92092106
 20
1.26130450
  0
VERTEX
  8
0
 10
3.96863602
 20
1.27058922
  0
VERTEX
  8
0
 10
4.01635098
 20
1.26130450
  0
VERTEX
  8
0
 10
4.05829716
 20
1.23345036
  0
VERTEX
  8
0
 10
4.08615131
 20
1.19150418
  0
VERTEX
  8
0
 10
4.09543602
 20
1.14378922
  0
VERTEX
  8
0
 10
4.08615131
 20
1.09607426
  0
VERTEX
  8
0
 10
4.05829716
 20
1.05412808
  0
VERTEX
  8
0
 10
4.01635098
 20
1.02627393
  0
VERTEX
  8
0
 10
3.96863602
 20
1.01698922
  0
VERTEX
  8
0
 10
3.92092106
 20
1.02627393
  0
VERTEX
  8
0
 10
3.87897488
 20
1.05412808
  0
VERTEX
  8
0
 10
3.85112074
 20
1.09607426
  0
VERTEX
  8
0
 10
3.84183602
 20
1.14378922
  0
VERTEX
  8
0
 10
3.85112074
 20
1.19150418
  0
VERTEX
  8
0
 10
3.87897488
 20
1.23345036
  0
SEQEND
  0
POLYLINE
  8
Default_Layer
 66
   1
 39
0.000000
 70
    1
  0
VERTEX
  8
0
 10
3.87897488
 20
0.88863867
  0
VERTEX
  8
0
 10
3.92092106
 20
0.91649282
  0
VERTEX
  8
0
 10
3.96863602
 20
0.92577753
  0
VERTEX
  8
0
 10
4.01635098
 20
0.91649282
  0
VERTEX
  8
0
 10
4.05829716
 20
0.88863867
  0
VERTEX
  8
0
 10
4.08615131
 20
0.84669249
  0
VERTEX
  8
0
 10
4.09543602
 20
0.79897753
  0
VERTEX
  8
0
 10
4.08615131
 20
0.75126257
  0
VERTEX
  8
0
 10
4.05829716
 20
0.70931639
  0
VERTEX
  8
0
 10
4.01635098
 20
0.68146225
  0
VERTEX
  8
0
 10
3.96863602
 20
0.67217753
  0
VERTEX
  8
0
 10
3.92092106
 20
0.68146225
  0
VERTEX
  8
0
 10
3.87897488
 20
0.70931639
  0
VERTEX
  8
0
 10
3.85112074
 20
0.75126257
  0
VERTEX
  8
0
 10
3.84183602
 20
0.79897753
  0
VERTEX
  8
0
 10
3.85112074
 20
0.84669249
  0
VERTEX
  8
0
 10
3.87897488
 20
0.88863867
  0
SEQEND
  0
POLYLINE
  8
Default_Layer
 66
   1
 39
0.000000
 70
    1
  0
VERTEX
  8
0
 10
4.91031967
 20
2.26836834
  0
VERTEX
  8
0
 10
4.95226585
 20
2.29622249
  0
VERTEX
  8
0
 10
4.99998081
 20
2.30550720
  0
VERTEX
  8
0
 10
5.04769578
 20
2.29622249
  0
VERTEX
  8
0
 10
5.08964195
 20
2.26836834
  0
VERTEX
  8
0
 10
5.11749610
 20
2.22642216
  0
VERTEX
  8
0
 10
5.12678081
 20
2.17870720
  0
VERTEX
  8
0
 10
5.11749610
 20
2.13099224
  0
VERTEX
  8
0
 10
5.08964195
 20
2.08904606
  0
VERTEX
  8
0
 10
5.04769578
 20
2.06119192
  0
VERTEX
  8
0
 10
4.99998081
 20
2.05190720
  0
VERTEX
  8
0
 10
4.95226585
 20
2.06119192
  0
VERTEX
  8
0
 10
4.91031967
 20
2.08904606
  0
VERTEX
  8
0
 10
4.88246553
 20
2.13099224
  0
VERTEX
  8
0
 10
4.87318081
 20
2.17870720
  0
VERTEX
  8
0
 10
4.88246553
 20
2.22642216
  0
VERTEX
  8
0
 10
4.91031967
 20
2.26836834
  0
SEQEND
  0
POLYLINE
  8
Default_Layer
 66
   1
 39
0.000000
 70
    1
  0
VERTEX
  8
0
 10
4.91031967
 20
1.92331519
  0
VERTEX
  8
0
 10
4.95226585
 20
1.95116934
  0
VERTEX
  8
0
 10
4.99998081
 20
1.96045405
  0
VERTEX
  8
0
 10
5.04769578
 20
1.95116934
  0
VERTEX
  8
0
 10
5.08964195
 20
1.92331519
  0
VERTEX
  8
0
 10
5.11749610
 20
1.88136901
  0
VERTEX
  8
0
 10
5.12678081
 20
1.83365405
  0
VERTEX
  8
0
 10
5.11749610
 20
1.78593909
  0
VERTEX
  8
0
 10
5.08964195
 20
1.74399291
  0
VERTEX
  8
0
 10
5.04769578
 20
1.71613877
  0
VERTEX
  8
0
 10
4.99998081
 20
1.70685405
  0
VERTEX
  8
0
 10
4.95226585
 20
1.71613877
  0
VERTEX
  8
0
 10
4.91031967
 20
1.74399291
  0
VERTEX
  8
0
 10
4.88246553
 20
1.78593909
  0
VERTEX
  8
0
 10
4.87318081
 20
1.83365405
  0
VERTEX
  8
0
 10
4.88246553
 20
1.88136901
  0
VERTEX
  8
0
 10
4.91031967
 20
1.92331519
  0
SEQEND
  0
POLYLINE
  8
Default_Layer
 66
   1
 39
0.000000
 70
    1
  0
VERTEX
  8
0
 10
4.91031967
 20
1.57838277
  0
VERTEX
  8
0
 10
4.95226585
 20
1.60623692
  0
VERTEX
  8
0
 10
4.99998081
 20
1.61552163
  0
VERTEX
  8
0
 10
5.04769578
 20
1.60623692
  0
VERTEX
  8
0
 10
5.08964195
 20
1.57838277
  0
VERTEX
  8
0
 10
5.11749610
 20
1.53643660
  0
VERTEX
  8
0
 10
5.12678081
 20
1.48872163
  0
VERTEX
  8
0
 10
5.11749610
 20
1.44100667
  0
VERTEX
  8
0
 10
5.08964195
 20
1.39906050
  0
VERTEX
  8
0
 10
5.04769578
 20
1.37120635
  0
VERTEX
  8
0
 10
4.99998081
 20
1.36192163
  0
VERTEX
  8
0
 10
4.95226585
 20
1.37120635
  0
VERTEX
  8
0
 10
4.91031967
 20
1.39906050
  0
VERTEX
  8
0
 10
4.88246553
 20
1.44100667
  0
VERTEX
  8
0
 10
4.87318081
 20
1.48872163
  0
VERTEX
  8
0
 10
4.88246553
 20
1.53643660
  0
VERTEX
  8
0
 10
4.91031967
 20
1.57838277
  0
SEQEND
  0
POLYLINE
  8
Default_Layer
 66
   1
 39
0.000000
 70
    1
  0
VERTEX
  8
0
 10
4.91031967
 20
7.73163166
  0
VERTEX
  8
0
 10
4.95226585
 20
7.70377751
  0
VERTEX
  8
0
 10
4.99998081
 20
7.69449280
  0
VERTEX
  8
0
 10
5.04769578
 20
7.70377751
  0
VERTEX
  8
0
 10
5.08964195
 20
7.73163166
  0
VERTEX
  8
0
 10
5.11749610
 20
7.77357784
  0
VERTEX
  8
0
 10
5.12678081
 20
7.82129280
  0
VERTEX
  8
0
 10
5.11749610
 20
7.86900776
  0
VERTEX
  8
0
 10
5.08964195
 20
7.91095394
  0
VERTEX
  8
0
 10
5.04769578
 20
7.93880808
  0
VERTEX
  8
0
 10
4.99998081
 20
7.94809280
  0
VERTEX
  8
0
 10
4.95226585
 20
7.93880808
  0
VERTEX
  8
0
 10
4.91031967
 20
7.91095394
  0
VERTEX
  8
0
 10
4.88246553
 20
7.86900776
  0
VERTEX
  8
0
 10
4.87318081
 20
7.82129280
  0
VERTEX
  8
0
 10
4.88246553
 20
7.77357784
  0
VERTEX
  8
0
 10
4.91031967
 20
7.73163166
  0
SEQEND
  0
POLYLINE
  8
Default_Layer
 66
   1
 39
0.000000
 70
    1
  0
VERTEX
  8
0
 10
4.91031967
 20
8.07668481
  0
VERTEX
  8
0
 10
4.95226585
 20
8.04883066
  0
VERTEX
  8
0
 10
4.99998081
 20
8.03954595
  0
VERTEX
  8
0
 10
5.04769578
 20
8.04883066
  0
VERTEX
  8
0
 10
5.08964195
 20
8.07668481
  0
VERTEX
  8
0
 10
5.11749610
 20
8.11863099
  0
VERTEX
  8
0
 10
5.12678081
 20
8.16634595
  0
VERTEX
  8
0
 10
5.11749610
 20
8.21406091
  0
VERTEX
  8
0
 10
5.08964195
 20
8.25600709
  0
VERTEX
  8
0
 10
5.04769578
 20
8.28386123
  0
VERTEX
  8
0
 10
4.99998081
 20
8.29314595
  0
VERTEX
  8
0
 10
4.95226585
 20
8.28386123
  0
VERTEX
  8
0
 10
4.91031967
 20
8.25600709
  0
VERTEX
  8
0
 10
4.88246553
 20
8.21406091
  0
VERTEX
  8
0
 10
4.87318081
 20
8.16634595
  0
VERTEX
  8
0
 10
4.88246553
 20
8.11863099
  0
VERTEX
  8
0
 10
4.91031967
 20
8.07668481
  0
SEQEND
  0
POLYLINE
  8
Default_Layer
 66
   1
 39
0.000000
 70
    1
  0
VERTEX
  8
0
 10
4.91031967
 20
8.42161723
  0
VERTEX
  8
0
 10
4.95226585
 20
8.39376308
  0
VERTEX
  8
0
 10
4.99998081
 20
8.38447837
  0
VERTEX
  8
0
 10
5.04769578
 20
8.39376308
  0
VERTEX
  8
0
 10
5.08964195
 20
8.42161723
  0
VERTEX
  8
0
 10
5.11749610
 20
8.46356340
  0
VERTEX
  8
0
 10
5.12678081
 20
8.51127837
  0
VERTEX
  8
0
 10
5.11749610
 20
8.55899333
  0
VERTEX
  8
0
 10
5.08964195
 20
8.60093950
  0
VERTEX
  8
0
 10
5.04769578
 20
8.62879365
  0
VERTEX
  8
0
 10
4.99998081
 20
8.63807837
  0
VERTEX
  8
0
 10
4.95226585
 20
8.62879365
  0
VERTEX
  8
0
 10
4.91031967
 20
8.60093950
  0
VERTEX
  8
0
 10
4.88246553
 20
8.55899333
  0
VERTEX
  8
0
 10
4.87318081
 20
8.51127837
  0
VERTEX
  8
0
 10
4.88246553
 20
8.46356340
  0
VERTEX
  8
0
 10
4.91031967
 20
8.42161723
  0
SEQEND
  0
POLYLINE
  8
Default_Layer
 66
   1
 39
0.000000
 70
    1
  0
VERTEX
  8
0
 10
2.58949743
 20
3.71184961
  0
VERTEX
  8
0
 10
2.63459291
 20
3.68945023
  0
VERTEX
  8
0
 10
2.66649119
 20
3.65277022
  0
VERTEX
  8
0
 10
2.68230788
 20
3.60680549
  0
VERTEX
  8
0
 10
2.67915857
 20
3.55655196
  0
VERTEX
  8
0
 10
2.65675918
 20
3.51145648
  0
VERTEX
  8
0
 10
2.62007917
 20
3.47955820
  0
VERTEX
  8
0
 10
2.57411445
 20
3.46374151
  0
VERTEX
  8
0
 10
2.52386092
 20
3.46689082
  0
VERTEX
  8
0
 10
2.47876543
 20
3.48929021
  0
VERTEX
  8
0
 10
2.44686715
 20
3.52597022
  0
VERTEX
  8
0
 10
2.43105047
 20
3.57193494
  0
VERTEX
  8
0
 10
2.43419978
 20
3.62218847
  0
VERTEX
  8
0
 10
2.45659916
 20
3.66728396
  0
VERTEX
  8
0
 10
2.49327917
 20
3.69918224
  0
VERTEX
  8
0
 10
2.53924390
 20
3.71499892
  0
VERTEX
  8
0
 10
2.58949743
 20
3.71184961
  0
SEQEND
  0
POLYLINE
  8
Default_Layer
 66
   1
 39
0.000000
 70
    1
  0
VERTEX
  8
0
 10
2.29067263
 20
3.53932304
  0
VERTEX
  8
0
 10
2.33576812
 20
3.51692365
  0
VERTEX
  8
0
 10
2.36766640
 20
3.48024364
  0
VERTEX
  8
0
 10
2.38348308
 20
3.43427892
  0
VERTEX
  8
0
 10
2.38033377
 20
3.38402539
  0
VERTEX
  8
0
 10
2.35793439
 20
3.33892990
  0
VERTEX
  8
0
 10
2.32125438
 20
3.30703162
  0
VERTEX
  8
0
 10
2.27528965
 20
3.29121494
  0
VERTEX
  8
0
 10
2.22503612
 20
3.29436425
  0
VERTEX
  8
0
 10
2.17994064
 20
3.31676363
  0
VERTEX
  8
0
 10
2.14804236
 20
3.35344364
  0
VERTEX
  8
0
 10
2.13222568
 20
3.39940837
  0
VERTEX
  8
0
 10
2.13537498
 20
3.44966190
  0
VERTEX
  8
0
 10
2.15777437
 20
3.49475738
  0
VERTEX
  8
0
 10
2.19445438
 20
3.52665566
  0
VERTEX
  8
0
 10
2.24041911
 20
3.54247234
  0
VERTEX
  8
0
 10
2.29067263
 20
3.53932304
  0
SEQEND
  0
POLYLINE
  8
Default_Layer
 66
   1
 39
0.000000
 70
    1
  0
VERTEX
  8
0
 10
1.99195240
 20
3.36685683
  0
VERTEX
  8
0
 10
2.03704788
 20
3.34445744
  0
VERTEX
  8
0
 10
2.06894616
 20
3.30777743
  0
VERTEX
  8
0
 10
2.08476285
 20
3.26181271
  0
VERTEX
  8
0
 10
2.08161354
 20
3.21155918
  0
VERTEX
  8
0
 10
2.05921415
 20
3.16646369
  0
VERTEX
  8
0
 10
2.02253414
 20
3.13456541
  0
VERTEX
  8
0
 10
1.97656942
 20
3.11874873
  0
VERTEX
  8
0
 10
1.92631589
 20
3.12189804
  0
VERTEX
  8
0
 10
1.88122040
 20
3.14429742
  0
VERTEX
  8
0
 10
1.84932212
 20
3.18097743
  0
VERTEX
  8
0
 10
1.83350544
 20
3.22694216
  0
VERTEX
  8
0
 10
1.83665475
 20
3.27719569
  0
VERTEX
  8
0
 10
1.85905413
 20
3.32229117
  0
VERTEX
  8
0
 10
1.89573414
 20
3.35418945
  0
VERTEX
  8
0
 10
1.94169887
 20
3.37000614
  0
VERTEX
  8
0
 10
1.99195240
 20
3.36685683
  0
SEQEND
  0
POLYLINE
  8
Default_Layer
 66
   1
 39
0.000000
 70
    1
  0
VERTEX
  8
0
 10
1.69323216
 20
3.19439062
  0
VERTEX
  8
0
 10
1.73832765
 20
3.17199124
  0
VERTEX
  8
0
 10
1.77022593
 20
3.13531122
  0
VERTEX
  8
0
 10
1.78604261
 20
3.08934650
  0
VERTEX
  8
0
 10
1.78289330
 20
3.03909297
  0
VERTEX
  8
0
 10
1.76049392
 20
2.99399748
  0
VERTEX
  8
0
 10
1.72381391
 20
2.96209920
  0
VERTEX
  8
0
 10
1.67784918
 20
2.94628252
  0
VERTEX
  8
0
 10
1.62759565
 20
2.94943183
  0
VERTEX
  8
0
 10
1.58250017
 20
2.97183121
  0
VERTEX
  8
0
 10
1.55060189
 20
3.00851122
  0
VERTEX
  8
0
 10
1.53478520
 20
3.05447595
  0
VERTEX
  8
0
 10
1.53793451
 20
3.10472948
  0
VERTEX
  8
0
 10
1.56033390
 20
3.14982497
  0
VERTEX
  8
0
 10
1.59701391
 20
3.18172325
  0
VERTEX
  8
0
 10
1.64297863
 20
3.19753993
  0
VERTEX
  8
0
 10
1.69323216
 20
3.19439062
  0
SEQEND
  0
POLYLINE
  8
Default_Layer
 66
   1
 39
0.000000
 70
    1
  0
VERTEX
  8
0
 10
7.32082225
 20
6.44348127
  0
VERTEX
  8
0
 10
7.31767294
 20
6.39322774
  0
VERTEX
  8
0
 10
7.33348962
 20
6.34726301
  0
VERTEX
  8
0
 10
7.36538790
 20
6.31058300
  0
VERTEX
  8
0
 10
7.41048339
 20
6.28818362
  0
VERTEX
  8
0
 10
7.46073692
 20
6.28503431
  0
VERTEX
  8
0
 10
7.50670164
 20
6.30085099
  0
VERTEX
  8
0
 10
7.54338165
 20
6.33274927
  0
VERTEX
  8
0
 10
7.56578104
 20
6.37784476
  0
VERTEX
  8
0
 10
7.56893034
 20
6.42809829
  0
VERTEX
  8
0
 10
7.55311366
 20
6.47406301
  0
VERTEX
  8
0
 10
7.52121538
 20
6.51074303
  0
VERTEX
  8
0
 10
7.47611990
 20
6.53314241
  0
VERTEX
  8
0
 10
7.42586637
 20
6.53629172
  0
VERTEX
  8
0
 10
7.37990164
 20
6.52047504
  0
VERTEX
  8
0
 10
7.34322163
 20
6.48857676
  0
VERTEX
  8
0
 10
7.32082225
 20
6.44348127
  0
SEQEND
  0
POLYLINE
  8
Default_Layer
 66
   1
 39
0.000000
 70
    1
  0
VERTEX
  8
0
 10
7.61964704
 20
6.61600784
  0
VERTEX
  8
0
 10
7.61649773
 20
6.56575432
  0
VERTEX
  8
0
 10
7.63231441
 20
6.51978959
  0
VERTEX
  8
0
 10
7.66421269
 20
6.48310958
  0
VERTEX
  8
0
 10
7.70930818
 20
6.46071019
  0
VERTEX
  8
0
 10
7.75956171
 20
6.45756089
  0
VERTEX
  8
0
 10
7.80552643
 20
6.47337757
  0
VERTEX
  8
0
 10
7.84220645
 20
6.50527585
  0
VERTEX
  8
0
 10
7.86460583
 20
6.55037133
  0
VERTEX
  8
0
 10
7.86775514
 20
6.60062486
  0
VERTEX
  8
0
 10
7.85193846
 20
6.64658959
  0
VERTEX
  8
0
 10
7.82004018
 20
6.68326960
  0
VERTEX
  8
0
 10
7.77494469
 20
6.70566898
  0
VERTEX
  8
0
 10
7.72469116
 20
6.70881829
  0
VERTEX
  8
0
 10
7.67872643
 20
6.69300161
  0
VERTEX
  8
0
 10
7.64204642
 20
6.66110333
  0
VERTEX
  8
0
 10
7.61964704
 20
6.61600784
  0
SEQEND
  0
POLYLINE
  8
Default_Layer
 66
   1
 39
0.000000
 70
    1
  0
VERTEX
  8
0
 10
7.91836728
 20
6.78847405
  0
VERTEX
  8
0
 10
7.91521797
 20
6.73822052
  0
VERTEX
  8
0
 10
7.93103465
 20
6.69225580
  0
VERTEX
  8
0
 10
7.96293293
 20
6.65557579
  0
VERTEX
  8
0
 10
8.00802842
 20
6.63317640
  0
VERTEX
  8
0
 10
8.05828194
 20
6.63002710
  0
VERTEX
  8
0
 10
8.10424667
 20
6.64584378
  0
VERTEX
  8
0
 10
8.14092668
 20
6.67774206
  0
VERTEX
  8
0
 10
8.16332607
 20
6.72283754
  0
VERTEX
  8
0
 10
8.16647537
 20
6.77309107
  0
VERTEX
  8
0
 10
8.15065869
 20
6.81905580
  0
VERTEX
  8
0
 10
8.11876041
 20
6.85573581
  0
VERTEX
  8
0
 10
8.07366493
 20
6.87813519
  0
VERTEX
  8
0
 10
8.02341140
 20
6.88128450
  0
VERTEX
  8
0
 10
7.97744667
 20
6.86546782
  0
VERTEX
  8
0
 10
7.94076666
 20
6.83356954
  0
VERTEX
  8
0
 10
7.91836728
 20
6.78847405
  0
SEQEND
  0
POLYLINE
  8
Default_Layer
 66
   1
 39
0.000000
 70
    1
  0
VERTEX
  8
0
 10
8.21708751
 20
6.96094026
  0
VERTEX
  8
0
 10
8.21393820
 20
6.91068673
  0
VERTEX
  8
0
 10
8.22975489
 20
6.86472201
  0
VERTEX
  8
0
 10
8.26165317
 20
6.82804200
  0
VERTEX
  8
0
 10
8.30674865
 20
6.80564261
  0
VERTEX
  8
0
 10
8.35700218
 20
6.80249330
  0
VERTEX
  8
0
 10
8.40296691
 20
6.81830999
  0
VERTEX
  8
0
 10
8.43964692
 20
6.85020827
  0
VERTEX
  8
0
 10
8.46204630
 20
6.89530375
  0
VERTEX
  8
0
 10
8.46519561
 20
6.94555728
  0
VERTEX
  8
0
 10
8.44937893
 20
6.99152201
  0
VERTEX
  8
0
 10
8.41748065
 20
7.02820202
  0
VERTEX
  8
0
 10
8.37238516
 20
7.05060140
  0
VERTEX
  8
0
 10
8.32213163
 20
7.05375071
  0
VERTEX
  8
0
 10
8.27616691
 20
7.03793403
  0
VERTEX
  8
0
 10
8.23948690
 20
7.00603575
  0
VERTEX
  8
0
 10
8.21708751
 20
6.96094026
  0
SEQEND
  0
POLYLINE
  8
Default_Layer
 66
   1
 39
0.000000
 70
    1
  0
VERTEX
  8
0
 10
7.32082225
 20
3.55651873
  0
VERTEX
  8
0
 10
7.31767294
 20
3.60677226
  0
VERTEX
  8
0
 10
7.33348962
 20
3.65273699
  0
VERTEX
  8
0
 10
7.36538790
 20
3.68941700
  0
VERTEX
  8
0
 10
7.41048339
 20
3.71181638
  0
VERTEX
  8
0
 10
7.46073692
 20
3.71496569
  0
VERTEX
  8
0
 10
7.50670164
 20
3.69914901
  0
VERTEX
  8
0
 10
7.54338165
 20
3.66725073
  0
VERTEX
  8
0
 10
7.56578104
 20
3.62215524
  0
VERTEX
  8
0
 10
7.56893034
 20
3.57190171
  0
VERTEX
  8
0
 10
7.55311366
 20
3.52593699
  0
VERTEX
  8
0
 10
7.52121538
 20
3.48925697
  0
VERTEX
  8
0
 10
7.47611990
 20
3.46685759
  0
VERTEX
  8
0
 10
7.42586637
 20
3.46370828
  0
VERTEX
  8
0
 10
7.37990164
 20
3.47952496
  0
VERTEX
  8
0
 10
7.34322163
 20
3.51142324
  0
VERTEX
  8
0
 10
7.32082225
 20
3.55651873
  0
SEQEND
  0
POLYLINE
  8
Default_Layer
 66
   1
 39
0.000000
 70
    1
  0
VERTEX
  8
0
 10
7.61964704
 20
3.38399216
  0
VERTEX
  8
0
 10
7.61649773
 20
3.43424568
  0
VERTEX
  8
0
 10
7.63231441
 20
3.48021041
  0
VERTEX
  8
0
 10
7.66421269
 20
3.51689042
  0
VERTEX
  8
0
 10
7.70930818
 20
3.53928981
  0
VERTEX
  8
0
 10
7.75956171
 20
3.54243911
  0
VERTEX
  8
0
 10
7.80552643
 20
3.52662243
  0
VERTEX
  8
0
 10
7.84220645
 20
3.49472415
  0
VERTEX
  8
0
 10
7.86460583
 20
3.44962867
  0
VERTEX
  8
0
 10
7.86775514
 20
3.39937514
  0
VERTEX
  8
0
 10
7.85193846
 20
3.35341041
  0
VERTEX
  8
0
 10
7.82004018
 20
3.31673040
  0
VERTEX
  8
0
 10
7.77494469
 20
3.29433102
  0
VERTEX
  8
0
 10
7.72469116
 20
3.29118171
  0
VERTEX
  8
0
 10
7.67872643
 20
3.30699839
  0
VERTEX
  8
0
 10
7.64204642
 20
3.33889667
  0
VERTEX
  8
0
 10
7.61964704
 20
3.38399216
  0
SEQEND
  0
POLYLINE
  8
Default_Layer
 66
   1
 39
0.000000
 70
    1
  0
VERTEX
  8
0
 10
7.91836728
 20
3.21152595
  0
VERTEX
  8
0
 10
7.91521797
 20
3.26177948
  0
VERTEX
  8
0
 10
7.93103465
 20
3.30774420
  0
VERTEX
  8
0
 10
7.96293293
 20
3.34442421
  0
VERTEX
  8
0
 10
8.00802842
 20
3.36682360
  0
VERTEX
  8
0
 10
8.05828194
 20
3.36997290
  0
VERTEX
  8
0
 10
8.10424667
 20
3.35415622
  0
VERTEX
  8
0
 10
8.14092668
 20
3.32225794
  0
VERTEX
  8
0
 10
8.16332607
 20
3.27716246
  0
VERTEX
  8
0
 10
8.16647537
 20
3.22690893
  0
VERTEX
  8
0
 10
8.15065869
 20
3.18094420
  0
VERTEX
  8
0
 10
8.11876041
 20
3.14426419
  0
VERTEX
  8
0
 10
8.07366493
 20
3.12186481
  0
VERTEX
  8
0
 10
8.02341140
 20
3.11871550
  0
VERTEX
  8
0
 10
7.97744667
 20
3.13453218
  0
VERTEX
  8
0
 10
7.94076666
 20
3.16643046
  0
VERTEX
  8
0
 10
7.91836728
 20
3.21152595
  0
SEQEND
  0
POLYLINE
  8
Default_Layer
 66
   1
 39
0.000000
 70
    1
  0
VERTEX
  8
0
 10
8.21708751
 20
3.03905974
  0
VERTEX
  8
0
 10
8.21393820
 20
3.08931327
  0
VERTEX
  8
0
 10
8.22975489
 20
3.13527799
  0
VERTEX
  8
0
 10
8.26165317
 20
3.17195800
  0
VERTEX
  8
0
 10
8.30674865
 20
3.19435739
  0
VERTEX
  8
0
 10
8.35700218
 20
3.19750670
  0
VERTEX
  8
0
 10
8.40296691
 20
3.18169001
  0
VERTEX
  8
0
 10
8.43964692
 20
3.14979173
  0
VERTEX
  8
0
 10
8.46204630
 20
3.10469625
  0
VERTEX
  8
0
 10
8.46519561
 20
3.05444272
  0
VERTEX
  8
0
 10
8.44937893
 20
3.00847799
  0
VERTEX
  8
0
 10
8.41748065
 20
2.97179798
  0
VERTEX
  8
0
 10
8.37238516
 20
2.94939860
  0
VERTEX
  8
0
 10
8.32213163
 20
2.94624929
  0
VERTEX
  8
0
 10
8.27616691
 20
2.96206597
  0
VERTEX
  8
0
 10
8.23948690
 20
2.99396425
  0
VERTEX
  8
0
 10
8.21708751
 20
3.03905974
  0
SEQEND
  0
POLYLINE
  8
Default_Layer
 66
   1
 39
0.000000
 70
    1
  0
VERTEX
  8
0
 10
2.58949743
 20
6.28815039
  0
VERTEX
  8
0
 10
2.63459291
 20
6.31054977
  0
VERTEX
  8
0
 10
2.66649119
 20
6.34722978
  0
VERTEX
  8
0
 10
2.68230788
 20
6.39319451
  0
VERTEX
  8
0
 10
2.67915857
 20
6.44344804
  0
VERTEX
  8
0
 10
2.65675918
 20
6.48854352
  0
VERTEX
  8
0
 10
2.62007917
 20
6.52044180
  0
VERTEX
  8
0
 10
2.57411445
 20
6.53625849
  0
VERTEX
  8
0
 10
2.52386092
 20
6.53310918
  0
VERTEX
  8
0
 10
2.47876543
 20
6.51070979
  0
VERTEX
  8
0
 10
2.44686715
 20
6.47402978
  0
VERTEX
  8
0
 10
2.43105047
 20
6.42806506
  0
VERTEX
  8
0
 10
2.43419978
 20
6.37781153
  0
VERTEX
  8
0
 10
2.45659916
 20
6.33271604
  0
VERTEX
  8
0
 10
2.49327917
 20
6.30081776
  0
VERTEX
  8
0
 10
2.53924390
 20
6.28500108
  0
VERTEX
  8
0
 10
2.58949743
 20
6.28815039
  0
SEQEND
  0
POLYLINE
  8
Default_Layer
 66
   1
 39
0.000000
 70
    1
  0
VERTEX
  8
0
 10
2.29067263
 20
6.46067696
  0
VERTEX
  8
0
 10
2.33576812
 20
6.48307635
  0
VERTEX
  8
0
 10
2.36766640
 20
6.51975636
  0
VERTEX
  8
0
 10
2.38348308
 20
6.56572108
  0
VERTEX
  8
0
 10
2.38033377
 20
6.61597461
  0
VERTEX
  8
0
 10
2.35793439
 20
6.66107010
  0
VERTEX
  8
0
 10
2.32125438
 20
6.69296838
  0
VERTEX
  8
0
 10
2.27528965
 20
6.70878506
  0
VERTEX
  8
0
 10
2.22503612
 20
6.70563575
  0
VERTEX
  8
0
 10
2.17994064
 20
6.68323637
  0
VERTEX
  8
0
 10
2.14804236
 20
6.64655636
  0
VERTEX
  8
0
 10
2.13222568
 20
6.60059163
  0
VERTEX
  8
0
 10
2.13537498
 20
6.55033810
  0
VERTEX
  8
0
 10
2.15777437
 20
6.50524262
  0
VERTEX
  8
0
 10
2.19445438
 20
6.47334434
  0
VERTEX
  8
0
 10
2.24041911
 20
6.45752766
  0
VERTEX
  8
0
 10
2.29067263
 20
6.46067696
  0
SEQEND
  0
POLYLINE
  8
Default_Layer
 66
   1
 39
0.000000
 70
    1
  0
VERTEX
  8
0
 10
1.99195240
 20
6.63314317
  0
VERTEX
  8
0
 10
2.03704788
 20
6.65554256
  0
VERTEX
  8
0
 10
2.06894616
 20
6.69222257
  0
VERTEX
  8
0
 10
2.08476285
 20
6.73818729
  0
VERTEX
  8
0
 10
2.08161354
 20
6.78844082
  0
VERTEX
  8
0
 10
2.05921415
 20
6.83353631
  0
VERTEX
  8
0
 10
2.02253414
 20
6.86543459
  0
VERTEX
  8
0
 10
1.97656942
 20
6.88125127
  0
VERTEX
  8
0
 10
1.92631589
 20
6.87810196
  0
VERTEX
  8
0
 10
1.88122040
 20
6.85570258
  0
VERTEX
  8
0
 10
1.84932212
 20
6.81902257
  0
VERTEX
  8
0
 10
1.83350544
 20
6.77305784
  0
VERTEX
  8
0
 10
1.83665475
 20
6.72280431
  0
VERTEX
  8
0
 10
1.85905413
 20
6.67770883
  0
VERTEX
  8
0
 10
1.89573414
 20
6.64581055
  0
VERTEX
  8
0
 10
1.94169887
 20
6.62999386
  0
VERTEX
  8
0
 10
1.99195240
 20
6.63314317
  0
SEQEND
  0
POLYLINE
  8
Default_Layer
 66
   1
 39
0.000000
 70
    1
  0
VERTEX
  8
0
 10
1.69323216
 20
6.80560938
  0
VERTEX
  8
0
 10
1.73832765
 20
6.82800876
  0
VERTEX
  8
0
 10
1.77022593
 20
6.86468878
  0
VERTEX
  8
0
 10
1.78604261
 20
6.91065350
  0
VERTEX
  8
0
 10
1.78289330
 20
6.96090703
  0
VERTEX
  8
0
 10
1.76049392
 20
7.00600252
  0
VERTEX
  8
0
 10
1.72381391
 20
7.03790080
  0
VERTEX
  8
0
 10
1.67784918
 20
7.05371748
  0
VERTEX
  8
0
 10
1.62759565
 20
7.05056817
  0
VERTEX
  8
0
 10
1.58250017
 20
7.02816879
  0
VERTEX
  8
0
 10
1.55060189
 20
6.99148878
  0
VERTEX
  8
0
 10
1.53478520
 20
6.94552405
  0
VERTEX
  8
0
 10
1.53793451
 20
6.89527052
  0
VERTEX
  8
0
 10
1.56033390
 20
6.85017503
  0
VERTEX
  8
0
 10
1.59701391
 20
6.81827675
  0
VERTEX
  8
0
 10
1.64297863
 20
6.80246007
  0
VERTEX
  8
0
 10
1.69323216
 20
6.80560938
  0
SEQEND
  0
POLYLINE
  8
Default_Layer
 66
   1
 39
0.000000
 70
    1
  0
VERTEX
  8
0
 10
2.33045802
 20
1.58672444
  0
VERTEX
  8
0
 10
2.32730871
 20
1.63697796
  0
VERTEX
  8
0
 10
2.34312539
 20
1.68294269
  0
VERTEX
  8
0
 10
2.37502367
 20
1.71962270
  0
VERTEX
  8
0
 10
2.42011916
 20
1.74202208
  0
VERTEX
  8
0
 10
2.47037269
 20
1.74517139
  0
VERTEX
  8
0
 10
2.51633741
 20
1.72935471
  0
VERTEX
  8
0
 10
2.55301742
 20
1.69745643
  0
VERTEX
  8
0
 10
2.57541681
 20
1.65236095
  0
VERTEX
  8
0
 10
2.57856612
 20
1.60210742
  0
VERTEX
  8
0
 10
2.56274943
 20
1.55614269
  0
VERTEX
  8
0
 10
2.53085115
 20
1.51946268
  0
VERTEX
  8
0
 10
2.48575567
 20
1.49706330
  0
VERTEX
  8
0
 10
2.43550214
 20
1.49391399
  0
VERTEX
  8
0
 10
2.38953741
 20
1.50973067
  0
VERTEX
  8
0
 10
2.35285740
 20
1.54162895
  0
VERTEX
  8
0
 10
2.33045802
 20
1.58672444
  0
SEQEND
  0
POLYLINE
  8
Default_Layer
 66
   1
 39
0.000000
 70
    1
  0
VERTEX
  8
0
 10
2.77705171
 20
1.32888345
  0
VERTEX
  8
0
 10
2.77390240
 20
1.37913697
  0
VERTEX
  8
0
 10
2.78971909
 20
1.42510170
  0
VERTEX
  8
0
 10
2.82161737
 20
1.46178171
  0
VERTEX
  8
0
 10
2.86671285
 20
1.48418110
  0
VERTEX
  8
0
 10
2.91696638
 20
1.48733040
  0
VERTEX
  8
0
 10
2.96293111
 20
1.47151372
  0
VERTEX
  8
0
 10
2.99961112
 20
1.43961544
  0
VERTEX
  8
0
 10
3.02201050
 20
1.39451996
  0
VERTEX
  8
0
 10
3.02515981
 20
1.34426643
  0
VERTEX
  8
0
 10
3.00934313
 20
1.29830170
  0
VERTEX
  8
0
 10
2.97744485
 20
1.26162169
  0
VERTEX
  8
0
 10
2.93234936
 20
1.23922231
  0
VERTEX
  8
0
 10
2.88209583
 20
1.23607300
  0
VERTEX
  8
0
 10
2.83613111
 20
1.25188968
  0
VERTEX
  8
0
 10
2.79945110
 20
1.28378796
  0
VERTEX
  8
0
 10
2.77705171
 20
1.32888345
  0
SEQEND
  0
POLYLINE
  8
Default_Layer
 66
   1
 39
0.000000
 70
    1
  0
VERTEX
  8
0
 10
3.03907314
 20
1.78296249
  0
VERTEX
  8
0
 10
3.08932666
 20
1.78611180
  0
VERTEX
  8
0
 10
3.13529139
 20
1.77029511
  0
VERTEX
  8
0
 10
3.17197140
 20
1.73839683
  0
VERTEX
  8
0
 10
3.19437079
 20
1.69330135
  0
VERTEX
  8
0
 10
3.19752009
 20
1.64304782
  0
VERTEX
  8
0
 10
3.18170341
 20
1.59708309
  0
VERTEX
  8
0
 10
3.14980513
 20
1.56040308
  0
VERTEX
  8
0
 10
3.10470965
 20
1.53800370
  0
VERTEX
  8
0
 10
3.05445612
 20
1.53485439
  0
VERTEX
  8
0
 10
3.00849139
 20
1.55067107
  0
VERTEX
  8
0
 10
2.97181138
 20
1.58256935
  0
VERTEX
  8
0
 10
2.94941200
 20
1.62766484
  0
VERTEX
  8
0
 10
2.94626269
 20
1.67791837
  0
VERTEX
  8
0
 10
2.96207937
 20
1.72388309
  0
VERTEX
  8
0
 10
2.99397765
 20
1.76056310
  0
VERTEX
  8
0
 10
3.03907314
 20
1.78296249
  0
SEQEND
  0
POLYLINE
  8
Default_Layer
 66
   1
 39
0.000000
 70
    1
  0
VERTEX
  8
0
 10
3.22360076
 20
1.07106823
  0
VERTEX
  8
0
 10
3.22045145
 20
1.12132176
  0
VERTEX
  8
0
 10
3.23626813
 20
1.16728649
  0
VERTEX
  8
0
 10
3.26816641
 20
1.20396650
  0
VERTEX
  8
0
 10
3.31326190
 20
1.22636588
  0
VERTEX
  8
0
 10
3.36351543
 20
1.22951519
  0
VERTEX
  8
0
 10
3.40948016
 20
1.21369851
  0
VERTEX
  8
0
 10
3.44616017
 20
1.18180023
  0
VERTEX
  8
0
 10
3.46855955
 20
1.13670474
  0
VERTEX
  8
0
 10
3.47170886
 20
1.08645121
  0
VERTEX
  8
0
 10
3.45589218
 20
1.04048649
  0
VERTEX
  8
0
 10
3.42399390
 20
1.00380648
  0
VERTEX
  8
0
 10
3.37889841
 20
0.98140709
  0
VERTEX
  8
0
 10
3.32864488
 20
0.97825778
  0
VERTEX
  8
0
 10
3.28268016
 20
0.99407447
  0
VERTEX
  8
0
 10
3.24600014
 20
1.02597275
  0
VERTEX
  8
0
 10
3.22360076
 20
1.07106823
  0
SEQEND
  0
POLYLINE
  8
Default_Layer
 66
   1
 39
0.000000
 70
    1
  0
VERTEX
  8
0
 10
6.62126236
 20
9.01861556
  0
VERTEX
  8
0
 10
6.57616687
 20
8.99621617
  0
VERTEX
  8
0
 10
6.54426859
 20
8.95953616
  0
VERTEX
  8
0
 10
6.52845191
 20
8.91357144
  0
VERTEX
  8
0
 10
6.53160122
 20
8.86331791
  0
VERTEX
  8
0
 10
6.55400060
 20
8.81822242
  0
VERTEX
  8
0
 10
6.59068061
 20
8.78632414
  0
VERTEX
  8
0
 10
6.63664534
 20
8.77050746
  0
VERTEX
  8
0
 10
6.68689887
 20
8.77365677
  0
VERTEX
  8
0
 10
6.73199435
 20
8.79605615
  0
VERTEX
  8
0
 10
6.76389263
 20
8.83273616
  0
VERTEX
  8
0
 10
6.77970932
 20
8.87870089
  0
VERTEX
  8
0
 10
6.77656001
 20
8.92895442
  0
VERTEX
  8
0
 10
6.75416062
 20
8.97404990
  0
VERTEX
  8
0
 10
6.71748061
 20
9.00594818
  0
VERTEX
  8
0
 10
6.67151589
 20
9.02176487
  0
VERTEX
  8
0
 10
6.62126236
 20
9.01861556
  0
SEQEND
  0
POLYLINE
  8
Default_Layer
 66
   1
 39
0.000000
 70
    1
  0
VERTEX
  8
0
 10
7.06785605
 20
8.76077457
  0
VERTEX
  8
0
 10
7.02276057
 20
8.73837518
  0
VERTEX
  8
0
 10
6.99086229
 20
8.70169517
  0
VERTEX
  8
0
 10
6.97504560
 20
8.65573045
  0
VERTEX
  8
0
 10
6.97819491
 20
8.60547692
  0
VERTEX
  8
0
 10
7.00059430
 20
8.56038143
  0
VERTEX
  8
0
 10
7.03727431
 20
8.52848315
  0
VERTEX
  8
0
 10
7.08323903
 20
8.51266647
  0
VERTEX
  8
0
 10
7.13349256
 20
8.51581578
  0
VERTEX
  8
0
 10
7.17858805
 20
8.53821516
  0
VERTEX
  8
0
 10
7.21048633
 20
8.57489517
  0
VERTEX
  8
0
 10
7.22630301
 20
8.62085990
  0
VERTEX
  8
0
 10
7.22315370
 20
8.67111343
  0
VERTEX
  8
0
 10
7.20075432
 20
8.71620891
  0
VERTEX
  8
0
 10
7.16407431
 20
8.74810719
  0
VERTEX
  8
0
 10
7.11810958
 20
8.76392388
  0
VERTEX
  8
0
 10
7.06785605
 20
8.76077457
  0
SEQEND
  0
POLYLINE
  8
Default_Layer
 66
   1
 39
0.000000
 70
    1
  0
VERTEX
  8
0
 10
7.51440510
 20
8.50295935
  0
VERTEX
  8
0
 10
7.46930961
 20
8.48055997
  0
VERTEX
  8
0
 10
7.43741133
 20
8.44387996
  0
VERTEX
  8
0
 10
7.42159465
 20
8.39791523
  0
VERTEX
  8
0
 10
7.42474396
 20
8.34766171
  0
VERTEX
  8
0
 10
7.44714334
 20
8.30256622
  0
VERTEX
  8
0
 10
7.48382336
 20
8.27066794
  0
VERTEX
  8
0
 10
7.52978808
 20
8.25485126
  0
VERTEX
  8
0
 10
7.58004161
 20
8.25800057
  0
VERTEX
  8
0
 10
7.62513710
 20
8.28039995
  0
VERTEX
  8
0
 10
7.65703538
 20
8.31707996
  0
VERTEX
  8
0
 10
7.67285206
 20
8.36304469
  0
VERTEX
  8
0
 10
7.66970275
 20
8.41329822
  0
VERTEX
  8
0
 10
7.64730337
 20
8.45839370
  0
VERTEX
  8
0
 10
7.61062336
 20
8.49029198
  0
VERTEX
  8
0
 10
7.56465863
 20
8.50610866
  0
VERTEX
  8
0
 10
7.51440510
 20
8.50295935
  0
SEQEND
  0
POLYLINE
  8
Default_Layer
 66
   1
 39
0.000000
 70
    1
  0
VERTEX
  8
0
 10
6.80562278
 20
8.30681784
  0
VERTEX
  8
0
 10
6.82802216
 20
8.26172235
  0
VERTEX
  8
0
 10
6.86470217
 20
8.22982407
  0
VERTEX
  8
0
 10
6.91066690
 20
8.21400739
  0
VERTEX
  8
0
 10
6.96092043
 20
8.21715670
  0
VERTEX
  8
0
 10
7.00601591
 20
8.23955608
  0
VERTEX
  8
0
 10
7.03791419
 20
8.27623609
  0
VERTEX
  8
0
 10
7.05373088
 20
8.32220082
  0
VERTEX
  8
0
 10
7.05058157
 20
8.37245435
  0
VERTEX
  8
0
 10
7.02818218
 20
8.41754983
  0
VERTEX
  8
0
 10
6.99150217
 20
8.44944811
  0
VERTEX
  8
0
 10
6.94553745
 20
8.46526480
  0
VERTEX
  8
0
 10
6.89528392
 20
8.46211549
  0
VERTEX
  8
0
 10
6.85018843
 20
8.43971610
  0
VERTEX
  8
0
 10
6.81829015
 20
8.40303609
  0
VERTEX
  8
0
 10
6.80247347
 20
8.35707137
  0
VERTEX
  8
0
 10
6.80562278
 20
8.30681784
  0
SEQEND
  0
POLYLINE
  8
Default_Layer
 66
   1
 39
0.000000
 70
    1
  0
VERTEX
  8
0
 10
6.80562278
 20
1.69318216
  0
VERTEX
  8
0
 10
6.82802216
 20
1.73827765
  0
VERTEX
  8
0
 10
6.86470217
 20
1.77017593
  0
VERTEX
  8
0
 10
6.91066690
 20
1.78599261
  0
VERTEX
  8
0
 10
6.96092043
 20
1.78284330
  0
VERTEX
  8
0
 10
7.00601591
 20
1.76044392
  0
VERTEX
  8
0
 10
7.03791419
 20
1.72376391
  0
VERTEX
  8
0
 10
7.05373088
 20
1.67779918
  0
VERTEX
  8
0
 10
7.05058157
 20
1.62754565
  0
VERTEX
  8
0
 10
7.02818218
 20
1.58245017
  0
VERTEX
  8
0
 10
6.99150217
 20
1.55055189
  0
VERTEX
  8
0
 10
6.94553745
 20
1.53473520
  0
VERTEX
  8
0
 10
6.89528392
 20
1.53788451
  0
VERTEX
  8
0
 10
6.85018843
 20
1.56028390
  0
VERTEX
  8
0
 10
6.81829015
 20
1.59696391
  0
VERTEX
  8
0
 10
6.80247347
 20
1.64292863
  0
VERTEX
  8
0
 10
6.80562278
 20
1.69318216
  0
SEQEND
  0
POLYLINE
  8
Default_Layer
 66
   1
 39
0.000000
 70
    1
  0
VERTEX
  8
0
 10
6.62126236
 20
0.98138444
  0
VERTEX
  8
0
 10
6.57616687
 20
1.00378383
  0
VERTEX
  8
0
 10
6.54426859
 20
1.04046384
  0
VERTEX
  8
0
 10
6.52845191
 20
1.08642856
  0
VERTEX
  8
0
 10
6.53160122
 20
1.13668209
  0
VERTEX
  8
0
 10
6.55400060
 20
1.18177758
  0
VERTEX
  8
0
 10
6.59068061
 20
1.21367586
  0
VERTEX
  8
0
 10
6.63664534
 20
1.22949254
  0
VERTEX
  8
0
 10
6.68689887
 20
1.22634323
  0
VERTEX
  8
0
 10
6.73199435
 20
1.20394385
  0
VERTEX
  8
0
 10
6.76389263
 20
1.16726384
  0
VERTEX
  8
0
 10
6.77970932
 20
1.12129911
  0
VERTEX
  8
0
 10
6.77656001
 20
1.07104558
  0
VERTEX
  8
0
 10
6.75416062
 20
1.02595010
  0
VERTEX
  8
0
 10
6.71748061
 20
0.99405182
  0
VERTEX
  8
0
 10
6.67151589
 20
0.97823513
  0
VERTEX
  8
0
 10
6.62126236
 20
0.98138444
  0
SEQEND
  0
POLYLINE
  8
Default_Layer
 66
   1
 39
0.000000
 70
    1
  0
VERTEX
  8
0
 10
7.06785605
 20
1.23922543
  0
VERTEX
  8
0
 10
7.02276057
 20
1.26162482
  0
VERTEX
  8
0
 10
6.99086229
 20
1.29830483
  0
VERTEX
  8
0
 10
6.97504560
 20
1.34426955
  0
VERTEX
  8
0
 10
6.97819491
 20
1.39452308
  0
VERTEX
  8
0
 10
7.00059430
 20
1.43961857
  0
VERTEX
  8
0
 10
7.03727431
 20
1.47151685
  0
VERTEX
  8
0
 10
7.08323903
 20
1.48733353
  0
VERTEX
  8
0
 10
7.13349256
 20
1.48418422
  0
VERTEX
  8
0
 10
7.17858805
 20
1.46178484
  0
VERTEX
  8
0
 10
7.21048633
 20
1.42510483
  0
VERTEX
  8
0
 10
7.22630301
 20
1.37914010
  0
VERTEX
  8
0
 10
7.22315370
 20
1.32888657
  0
VERTEX
  8
0
 10
7.20075432
 20
1.28379109
  0
VERTEX
  8
0
 10
7.16407431
 20
1.25189281
  0
VERTEX
  8
0
 10
7.11810958
 20
1.23607612
  0
VERTEX
  8
0
 10
7.06785605
 20
1.23922543
  0
SEQEND
  0
POLYLINE
  8
Default_Layer
 66
   1
 39
0.000000
 70
    1
  0
VERTEX
  8
0
 10
7.51440510
 20
1.49704065
  0
VERTEX
  8
0
 10
7.46930961
 20
1.51944003
  0
VERTEX
  8
0
 10
7.43741133
 20
1.55612004
  0
VERTEX
  8
0
 10
7.42159465
 20
1.60208477
  0
VERTEX
  8
0
 10
7.42474396
 20
1.65233829
  0
VERTEX
  8
0
 10
7.44714334
 20
1.69743378
  0
VERTEX
  8
0
 10
7.48382336
 20
1.72933206
  0
VERTEX
  8
0
 10
7.52978808
 20
1.74514874
  0
VERTEX
  8
0
 10
7.58004161
 20
1.74199943
  0
VERTEX
  8
0
 10
7.62513710
 20
1.71960005
  0
VERTEX
  8
0
 10
7.65703538
 20
1.68292004
  0
VERTEX
  8
0
 10
7.67285206
 20
1.63695531
  0
VERTEX
  8
0
 10
7.66970275
 20
1.58670178
  0
VERTEX
  8
0
 10
7.64730337
 20
1.54160630
  0
VERTEX
  8
0
 10
7.61062336
 20
1.50970802
  0
VERTEX
  8
0
 10
7.56465863
 20
1.49389134
  0
VERTEX
  8
0
 10
7.51440510
 20
1.49704065
  0
SEQEND
  0
POLYLINE
  8
Default_Layer
 66
   1
 39
0.000000
 70
    1
  0
VERTEX
  8
0
 10
2.33045802
 20
8.41327556
  0
VERTEX
  8
0
 10
2.32730871
 20
8.36302204
  0
VERTEX
  8
0
 10
2.34312539
 20
8.31705731
  0
VERTEX
  8
0
 10
2.37502367
 20
8.28037730
  0
VERTEX
  8
0
 10
2.42011916
 20
8.25797792
  0
VERTEX
  8
0
 10
2.47037269
 20
8.25482861
  0
VERTEX
  8
0
 10
2.51633741
 20
8.27064529
  0
VERTEX
  8
0
 10
2.55301742
 20
8.30254357
  0
VERTEX
  8
0
 10
2.57541681
 20
8.34763905
  0
VERTEX
  8
0
 10
2.57856612
 20
8.39789258
  0
VERTEX
  8
0
 10
2.56274943
 20
8.44385731
  0
VERTEX
  8
0
 10
2.53085115
 20
8.48053732
  0
VERTEX
  8
0
 10
2.48575567
 20
8.50293670
  0
VERTEX
  8
0
 10
2.43550214
 20
8.50608601
  0
VERTEX
  8
0
 10
2.38953741
 20
8.49026933
  0
VERTEX
  8
0
 10
2.35285740
 20
8.45837105
  0
VERTEX
  8
0
 10
2.33045802
 20
8.41327556
  0
SEQEND
  0
POLYLINE
  8
Default_Layer
 66
   1
 39
0.000000
 70
    1
  0
VERTEX
  8
0
 10
2.77705171
 20
8.67111655
  0
VERTEX
  8
0
 10
2.77390240
 20
8.62086303
  0
VERTEX
  8
0
 10
2.78971909
 20
8.57489830
  0
VERTEX
  8
0
 10
2.82161737
 20
8.53821829
  0
VERTEX
  8
0
 10
2.86671285
 20
8.51581890
  0
VERTEX
  8
0
 10
2.91696638
 20
8.51266960
  0
VERTEX
  8
0
 10
2.96293111
 20
8.52848628
  0
VERTEX
  8
0
 10
2.99961112
 20
8.56038456
  0
VERTEX
  8
0
 10
3.02201050
 20
8.60548004
  0
VERTEX
  8
0
 10
3.02515981
 20
8.65573357
  0
VERTEX
  8
0
 10
3.00934313
 20
8.70169830
  0
VERTEX
  8
0
 10
2.97744485
 20
8.73837831
  0
VERTEX
  8
0
 10
2.93234936
 20
8.76077769
  0
VERTEX
  8
0
 10
2.88209583
 20
8.76392700
  0
VERTEX
  8
0
 10
2.83613111
 20
8.74811032
  0
VERTEX
  8
0
 10
2.79945110
 20
8.71621204
  0
VERTEX
  8
0
 10
2.77705171
 20
8.67111655
  0
SEQEND
  0
POLYLINE
  8
Default_Layer
 66
   1
 39
0.000000
 70
    1
  0
VERTEX
  8
0
 10
3.22360076
 20
8.92893177
  0
VERTEX
  8
0
 10
3.22045145
 20
8.87867824
  0
VERTEX
  8
0
 10
3.23626813
 20
8.83271351
  0
VERTEX
  8
0
 10
3.26816641
 20
8.79603350
  0
VERTEX
  8
0
 10
3.31326190
 20
8.77363412
  0
VERTEX
  8
0
 10
3.36351543
 20
8.77048481
  0
VERTEX
  8
0
 10
3.40948016
 20
8.78630149
  0
VERTEX
  8
0
 10
3.44616017
 20
8.81819977
  0
VERTEX
  8
0
 10
3.46855955
 20
8.86329526
  0
VERTEX
  8
0
 10
3.47170886
 20
8.91354879
  0
VERTEX
  8
0
 10
3.45589218
 20
8.95951351
  0
VERTEX
  8
0
 10
3.42399390
 20
8.99619352
  0
VERTEX
  8
0
 10
3.37889841
 20
9.01859291
  0
VERTEX
  8
0
 10
3.32864488
 20
9.02174222
  0
VERTEX
  8
0
 10
3.28268016
 20
9.00592553
  0
VERTEX
  8
0
 10
3.24600014
 20
8.97402725
  0
VERTEX
  8
0
 10
3.22360076
 20
8.92893177
  0
SEQEND
  0
POLYLINE
  8
Default_Layer
 66
   1
 39
0.000000
 70
    1
  0
VERTEX
  8
0
 10
3.03907314
 20
8.21703751
  0
VERTEX
  8
0
 10
3.08932666
 20
8.21388820
  0
VERTEX
  8
0
 10
3.13529139
 20
8.22970489
  0
VERTEX
  8
0
 10
3.17197140
 20
8.26160317
  0
VERTEX
  8
0
 10
3.19437079
 20
8.30669865
  0
VERTEX
  8
0
 10
3.19752009
 20
8.35695218
  0
VERTEX
  8
0
 10
3.18170341
 20
8.40291691
  0
VERTEX
  8
0
 10
3.14980513
 20
8.43959692
  0
VERTEX
  8
0
 10
3.10470965
 20
8.46199630
  0
VERTEX
  8
0
 10
3.05445612
 20
8.46514561
  0
VERTEX
  8
0
 10
3.00849139
 20
8.44932893
  0
VERTEX
  8
0
 10
2.97181138
 20
8.41743065
  0
VERTEX
  8
0
 10
2.94941200
 20
8.37233516
  0
VERTEX
  8
0
 10
2.94626269
 20
8.32208163
  0
VERTEX
  8
0
 10
2.96207937
 20
8.27611691
  0
VERTEX
  8
0
 10
2.99397765
 20
8.23943690
  0
VERTEX
  8
0
 10
3.03907314
 20
8.21703751
  0
SEQEND
  0
POLYLINE
  8
Default_Layer
 66
   1
 39
0.000000
 70
    1
  0
VERTEX
  8
0
 10
9.29090434
 20
5.60533999
  0
VERTEX
  8
0
 10
9.24895816
 20
5.63319414
  0
VERTEX
  8
0
 10
9.20124320
 20
5.64247885
  0
VERTEX
  8
0
 10
9.15352824
 20
5.63319414
  0
VERTEX
  8
0
 10
9.11158206
 20
5.60533999
  0
VERTEX
  8
0
 10
9.08372792
 20
5.56339381
  0
VERTEX
  8
0
 10
9.07444320
 20
5.51567885
  0
VERTEX
  8
0
 10
9.08372792
 20
5.46796389
  0
VERTEX
  8
0
 10
9.11158206
 20
5.42601771
  0
VERTEX
  8
0
 10
9.15352824
 20
5.39816357
  0
VERTEX
  8
0
 10
9.20124320
 20
5.38887885
  0
VERTEX
  8
0
 10
9.24895816
 20
5.39816357
  0
VERTEX
  8
0
 10
9.29090434
 20
5.42601771
  0
VERTEX
  8
0
 10
9.31875849
 20
5.46796389
  0
VERTEX
  8
0
 10
9.32804320
 20
5.51567885
  0
VERTEX
  8
0
 10
9.31875849
 20
5.56339381
  0
VERTEX
  8
0
 10
9.29090434
 20
5.60533999
  0
SEQEND
  0
POLYLINE
  8
Default_Layer
 66
   1
 39
0.000000
 70
    1
  0
VERTEX
  8
0
 10
9.29090434
 20
5.08965801
  0
VERTEX
  8
0
 10
9.24895816
 20
5.11751216
  0
VERTEX
  8
0
 10
9.20124320
 20
5.12679687
  0
VERTEX
  8
0
 10
9.15352824
 20
5.11751216
  0
VERTEX
  8
0
 10
9.11158206
 20
5.08965801
  0
VERTEX
  8
0
 10
9.08372792
 20
5.04771184
  0
VERTEX
  8
0
 10
9.07444320
 20
4.99999687
  0
VERTEX
  8
0
 10
9.08372792
 20
4.95228191
  0
VERTEX
  8
0
 10
9.11158206
 20
4.91033573
  0
VERTEX
  8
0
 10
9.15352824
 20
4.88248159
  0
VERTEX
  8
0
 10
9.20124320
 20
4.87319687
  0
VERTEX
  8
0
 10
9.24895816
 20
4.88248159
  0
VERTEX
  8
0
 10
9.29090434
 20
4.91033573
  0
VERTEX
  8
0
 10
9.31875849
 20
4.95228191
  0
VERTEX
  8
0
 10
9.32804320
 20
4.99999687
  0
VERTEX
  8
0
 10
9.31875849
 20
5.04771184
  0
VERTEX
  8
0
 10
9.29090434
 20
5.08965801
  0
SEQEND
  0
POLYLINE
  8
Default_Layer
 66
   1
 39
0.000000
 70
    1
  0
VERTEX
  8
0
 10
9.29090434
 20
4.57402759
  0
VERTEX
  8
0
 10
9.24895816
 20
4.60188173
  0
VERTEX
  8
0
 10
9.20124320
 20
4.61116645
  0
VERTEX
  8
0
 10
9.15352824
 20
4.60188173
  0
VERTEX
  8
0
 10
9.11158206
 20
4.57402759
  0
VERTEX
  8
0
 10
9.08372792
 20
4.53208141
  0
VERTEX
  8
0
 10
9.07444320
 20
4.48436645
  0
VERTEX
  8
0
 10
9.08372792
 20
4.43665149
  0
VERTEX
  8
0
 10
9.11158206
 20
4.39470531
  0
VERTEX
  8
0
 10
9.15352824
 20
4.36685116
  0
VERTEX
  8
0
 10
9.20124320
 20
4.35756645
  0
VERTEX
  8
0
 10
9.24895816
 20
4.36685116
  0
VERTEX
  8
0
 10
9.29090434
 20
4.39470531
  0
VERTEX
  8
0
 10
9.31875849
 20
4.43665149
  0
VERTEX
  8
0
 10
9.32804320
 20
4.48436645
  0
VERTEX
  8
0
 10
9.31875849
 20
4.53208141
  0
VERTEX
  8
0
 10
9.29090434
 20
4.57402759
  0
SEQEND
  0
POLYLINE
  8
Default_Layer
 66
   1
 39
0.000000
 70
    1
  0
VERTEX
  8
0
 10
8.76664964
 20
5.08978033
  0
VERTEX
  8
0
 10
8.73879550
 20
5.04783415
  0
VERTEX
  8
0
 10
8.72951078
 20
5.00011919
  0
VERTEX
  8
0
 10
8.73879550
 20
4.95240422
  0
VERTEX
  8
0
 10
8.76664964
 20
4.91045805
  0
VERTEX
  8
0
 10
8.80859582
 20
4.88260390
  0
VERTEX
  8
0
 10
8.85631078
 20
4.87331919
  0
VERTEX
  8
0
 10
8.90402574
 20
4.88260390
  0
VERTEX
  8
0
 10
8.94597192
 20
4.91045805
  0
VERTEX
  8
0
 10
8.97382607
 20
4.95240422
  0
VERTEX
  8
0
 10
8.98311078
 20
5.00011919
  0
VERTEX
  8
0
 10
8.97382607
 20
5.04783415
  0
VERTEX
  8
0
 10
8.94597192
 20
5.08978033
  0
VERTEX
  8
0
 10
8.90402574
 20
5.11763447
  0
VERTEX
  8
0
 10
8.85631078
 20
5.12691919
  0
VERTEX
  8
0
 10
8.80859582
 20
5.11763447
  0
VERTEX
  8
0
 10
8.76664964
 20
5.08978033
  0
SEQEND
  0
POLYLINE
  8
Default_Layer
 66
   1
 39
0.000000
 70
    1
  0
VERTEX
  8
0
 10
0.70929566
 20
5.60533999
  0
VERTEX
  8
0
 10
0.75124184
 20
5.63319414
  0
VERTEX
  8
0
 10
0.79895680
 20
5.64247885
  0
VERTEX
  8
0
 10
0.84667176
 20
5.63319414
  0
VERTEX
  8
0
 10
0.88861794
 20
5.60533999
  0
VERTEX
  8
0
 10
0.91647208
 20
5.56339381
  0
VERTEX
  8
0
 10
0.92575680
 20
5.51567885
  0
VERTEX
  8
0
 10
0.91647208
 20
5.46796389
  0
VERTEX
  8
0
 10
0.88861794
 20
5.42601771
  0
VERTEX
  8
0
 10
0.84667176
 20
5.39816357
  0
VERTEX
  8
0
 10
0.79895680
 20
5.38887885
  0
VERTEX
  8
0
 10
0.75124184
 20
5.39816357
  0
VERTEX
  8
0
 10
0.70929566
 20
5.42601771
  0
VERTEX
  8
0
 10
0.68144151
 20
5.46796389
  0
VERTEX
  8
0
 10
0.67215680
 20
5.51567885
  0
VERTEX
  8
0
 10
0.68144151
 20
5.56339381
  0
VERTEX
  8
0
 10
0.70929566
 20
5.60533999
  0
SEQEND
  0
POLYLINE
  8
Default_Layer
 66
   1
 39
0.000000
 70
    1
  0
VERTEX
  8
0
 10
0.70929566
 20
5.08965801
  0
VERTEX
  8
0
 10
0.75124184
 20
5.11751216
  0
VERTEX
  8
0
 10
0.79895680
 20
5.12679687
  0
VERTEX
  8
0
 10
0.84667176
 20
5.11751216
  0
VERTEX
  8
0
 10
0.88861794
 20
5.08965801
  0
VERTEX
  8
0
 10
0.91647208
 20
5.04771184
  0
VERTEX
  8
0
 10
0.92575680
 20
4.99999687
  0
VERTEX
  8
0
 10
0.91647208
 20
4.95228191
  0
VERTEX
  8
0
 10
0.88861794
 20
4.91033573
  0
VERTEX
  8
0
 10
0.84667176
 20
4.88248159
  0
VERTEX
  8
0
 10
0.79895680
 20
4.87319687
  0
VERTEX
  8
0
 10
0.75124184
 20
4.88248159
  0
VERTEX
  8
0
 10
0.70929566
 20
4.91033573
  0
VERTEX
  8
0
 10
0.68144151
 20
4.95228191
  0
VERTEX
  8
0
 10
0.67215680
 20
4.99999687
  0
VERTEX
  8
0
 10
0.68144151
 20
5.04771184
  0
VERTEX
  8
0
 10
0.70929566
 20
5.08965801
  0
SEQEND
  0
POLYLINE
  8
Default_Layer
 66
   1
 39
0.000000
 70
    1
  0
VERTEX
  8
0
 10
0.70929566
 20
4.57402759
  0
VERTEX
  8
0
 10
0.75124184
 20
4.60188173
  0
VERTEX
  8
0
 10
0.79895680
 20
4.61116645
  0
VERTEX
  8
0
 10
0.84667176
 20
4.60188173
  0
VERTEX
  8
0
 10
0.88861794
 20
4.57402759
  0
VERTEX
  8
0
 10
0.91647208
 20
4.53208141
  0
VERTEX
  8
0
 10
0.92575680
 20
4.48436645
  0
VERTEX
  8
0
 10
0.91647208
 20
4.43665149
  0
VERTEX
  8
0
 10
0.88861794
 20
4.39470531
  0
VERTEX
  8
0
 10
0.84667176
 20
4.36685116
  0
VERTEX
  8
0
 10
0.79895680
 20
4.35756645
  0
VERTEX
  8
0
 10
0.75124184
 20
4.36685116
  0
VERTEX
  8
0
 10
0.70929566
 20
4.39470531
  0
VERTEX
  8
0
 10
0.68144151
 20
4.43665149
  0
VERTEX
  8
0
 10
0.67215680
 20
4.48436645
  0
VERTEX
  8
0
 10
0.68144151
 20
4.53208141
  0
VERTEX
  8
0
 10
0.70929566
 20
4.57402759
  0
SEQEND
  0
POLYLINE
  8
Default_Layer
 66
   1
 39
0.000000
 70
    1
  0
VERTEX
  8
0
 10
1.23355036
 20
5.08978033
  0
VERTEX
  8
0
 10
1.26140450
 20
5.04783415
  0
VERTEX
  8
0
 10
1.27068922
 20
5.00011919
  0
VERTEX
  8
0
 10
1.26140450
 20
4.95240422
  0
VERTEX
  8
0
 10
1.23355036
 20
4.91045805
  0
VERTEX
  8
0
 10
1.19160418
 20
4.88260390
  0
VERTEX
  8
0
 10
1.14388922
 20
4.87331919
  0
VERTEX
  8
0
 10
1.09617426
 20
4.88260390
  0
VERTEX
  8
0
 10
1.05422808
 20
4.91045805
  0
VERTEX
  8
0
 10
1.02637393
 20
4.95240422
  0
VERTEX
  8
0
 10
1.01708922
 20
5.00011919
  0
VERTEX
  8
0
 10
1.02637393
 20
5.04783415
  0
VERTEX
  8
0
 10
1.05422808
 20
5.08978033
  0
VERTEX
  8
0
 10
1.09617426
 20
5.11763447
  0
VERTEX
  8
0
 10
1.14388922
 20
5.12691919
  0
VERTEX
  8
0
 10
1.19160418
 20
5.11763447
  0
VERTEX
  8
0
 10
1.23355036
 20
5.08978033
  0
SEQEND
  0
POLYLINE
  8
Default_Layer
 66
   1
 39
0.000000
 70
    1
  0
VERTEX
  8
0
 10
2.97009030
 20
5.12247939
  0
VERTEX
  8
0
 10
3.01518578
 20
5.10008001
  0
VERTEX
  8
0
 10
3.04708406
 20
5.06340000
  0
VERTEX
  8
0
 10
3.06290075
 20
5.01743527
  0
VERTEX
  8
0
 10
3.05975144
 20
4.96718175
  0
VERTEX
  8
0
 10
3.03735205
 20
4.92208626
  0
VERTEX
  8
0
 10
3.00067204
 20
4.89018798
  0
VERTEX
  8
0
 10
2.95470732
 20
4.87437130
  0
VERTEX
  8
0
 10
2.90445379
 20
4.87752061
  0
VERTEX
  8
0
 10
2.85935830
 20
4.89991999
  0
VERTEX
  8
0
 10
2.82746002
 20
4.93660000
  0
VERTEX
  8
0
 10
2.81164334
 20
4.98256473
  0
VERTEX
  8
0
 10
2.81479265
 20
5.03281825
  0
VERTEX
  8
0
 10
2.83719203
 20
5.07791374
  0
VERTEX
  8
0
 10
2.87387204
 20
5.10981202
  0
VERTEX
  8
0
 10
2.91983677
 20
5.12562870
  0
VERTEX
  8
0
 10
2.97009030
 20
5.12247939
  0
SEQEND
  0
POLYLINE
  8
Default_Layer
 66
   1
 39
0.000000
 70
    1
  0
VERTEX
  8
0
 10
2.67126550
 20
4.94995282
  0
VERTEX
  8
0
 10
2.71636099
 20
4.92755344
  0
VERTEX
  8
0
 10
2.74825927
 20
4.89087343
  0
VERTEX
  8
0
 10
2.76407595
 20
4.84490870
  0
VERTEX
  8
0
 10
2.76092664
 20
4.79465517
  0
VERTEX
  8
0
 10
2.73852726
 20
4.74955968
  0
VERTEX
  8
0
 10
2.70184725
 20
4.71766140
  0
VERTEX
  8
0
 10
2.65588252
 20
4.70184472
  0
VERTEX
  8
0
 10
2.60562899
 20
4.70499403
  0
VERTEX
  8
0
 10
2.56053351
 20
4.72739341
  0
VERTEX
  8
0
 10
2.52863523
 20
4.76407343
  0
VERTEX
  8
0
 10
2.51281855
 20
4.81003815
  0
VERTEX
  8
0
 10
2.51596785
 20
4.86029168
  0
VERTEX
  8
0
 10
2.53836724
 20
4.90538717
  0
VERTEX
  8
0
 10
2.57504725
 20
4.93728545
  0
VERTEX
  8
0
 10
2.62101197
 20
4.95310213
  0
VERTEX
  8
0
 10
2.67126550
 20
4.94995282
  0
SEQEND
  0
POLYLINE
  8
Default_Layer
 66
   1
 39
0.000000
 70
    1
  0
VERTEX
  8
0
 10
2.37254527
 20
4.77748661
  0
VERTEX
  8
0
 10
2.41764075
 20
4.75508723
  0
VERTEX
  8
0
 10
2.44953903
 20
4.71840722
  0
VERTEX
  8
0
 10
2.46535572
 20
4.67244249
  0
VERTEX
  8
0
 10
2.46220641
 20
4.62218896
  0
VERTEX
  8
0
 10
2.43980702
 20
4.57709347
  0
VERTEX
  8
0
 10
2.40312701
 20
4.54519520
  0
VERTEX
  8
0
 10
2.35716229
 20
4.52937851
  0
VERTEX
  8
0
 10
2.30690876
 20
4.53252782
  0
VERTEX
  8
0
 10
2.26181327
 20
4.55492721
  0
VERTEX
  8
0
 10
2.22991499
 20
4.59160722
  0
VERTEX
  8
0
 10
2.21409831
 20
4.63757194
  0
VERTEX
  8
0
 10
2.21724762
 20
4.68782547
  0
VERTEX
  8
0
 10
2.23964700
 20
4.73292096
  0
VERTEX
  8
0
 10
2.27632701
 20
4.76481924
  0
VERTEX
  8
0
 10
2.32229174
 20
4.78063592
  0
VERTEX
  8
0
 10
2.37254527
 20
4.77748661
  0
SEQEND
  0
POLYLINE
  8
Default_Layer
 66
   1
 39
0.000000
 70
    1
  0
VERTEX
  8
0
 10
2.07382503
 20
4.60502040
  0
VERTEX
  8
0
 10
2.11892052
 20
4.58262102
  0
VERTEX
  8
0
 10
2.15081880
 20
4.54594101
  0
VERTEX
  8
0
 10
2.16663548
 20
4.49997628
  0
VERTEX
  8
0
 10
2.16348617
 20
4.44972275
  0
VERTEX
  8
0
 10
2.14108679
 20
4.40462727
  0
VERTEX
  8
0
 10
2.10440678
 20
4.37272899
  0
VERTEX
  8
0
 10
2.05844205
 20
4.35691230
  0
VERTEX
  8
0
 10
2.00818852
 20
4.36006161
  0
VERTEX
  8
0
 10
1.96309303
 20
4.38246100
  0
VERTEX
  8
0
 10
1.93119476
 20
4.41914101
  0
VERTEX
  8
0
 10
1.91537807
 20
4.46510573
  0
VERTEX
  8
0
 10
1.91852738
 20
4.51535926
  0
VERTEX
  8
0
 10
1.94092677
 20
4.56045475
  0
VERTEX
  8
0
 10
1.97760678
 20
4.59235303
  0
VERTEX
  8
0
 10
2.02357150
 20
4.60816971
  0
VERTEX
  8
0
 10
2.07382503
 20
4.60502040
  0
SEQEND
  0
POLYLINE
  8
Default_Layer
 66
   1
 39
0.000000
 70
    1
  0
VERTEX
  8
0
 10
1.77500024
 20
4.43249383
  0
VERTEX
  8
0
 10
1.82009572
 20
4.41009444
  0
VERTEX
  8
0
 10
1.85199400
 20
4.37341443
  0
VERTEX
  8
0
 10
1.86781069
 20
4.32744971
  0
VERTEX
  8
0
 10
1.86466138
 20
4.27719618
  0
VERTEX
  8
0
 10
1.84226199
 20
4.23210069
  0
VERTEX
  8
0
 10
1.80558198
 20
4.20020241
  0
VERTEX
  8
0
 10
1.75961726
 20
4.18438573
  0
VERTEX
  8
0
 10
1.70936373
 20
4.18753504
  0
VERTEX
  8
0
 10
1.66426824
 20
4.20993442
  0
VERTEX
  8
0
 10
1.63236996
 20
4.24661443
  0
VERTEX
  8
0
 10
1.61655328
 20
4.29257916
  0
VERTEX
  8
0
 10
1.61970259
 20
4.34283269
  0
VERTEX
  8
0
 10
1.64210197
 20
4.38792817
  0
VERTEX
  8
0
 10
1.67878198
 20
4.41982645
  0
VERTEX
  8
0
 10
1.72474671
 20
4.43564314
  0
VERTEX
  8
0
 10
1.77500024
 20
4.43249383
  0
SEQEND
  0
POLYLINE
  8
Default_Layer
 66
   1
 39
0.000000
 70
    1
  0
VERTEX
  8
0
 10
1.47628000
 20
4.26002762
  0
VERTEX
  8
0
 10
1.52137549
 20
4.23762823
  0
VERTEX
  8
0
 10
1.55327377
 20
4.20094822
  0
VERTEX
  8
0
 10
1.56909045
 20
4.15498350
  0
VERTEX
  8
0
 10
1.56594114
 20
4.10472997
  0
VERTEX
  8
0
 10
1.54354176
 20
4.05963448
  0
VERTEX
  8
0
 10
1.50686175
 20
4.02773620
  0
VERTEX
  8
0
 10
1.46089702
 20
4.01191952
  0
VERTEX
  8
0
 10
1.41064349
 20
4.01506883
  0
VERTEX
  8
0
 10
1.36554801
 20
4.03746821
  0
VERTEX
  8
0
 10
1.33364973
 20
4.07414822
  0
VERTEX
  8
0
 10
1.31783304
 20
4.12011295
  0
VERTEX
  8
0
 10
1.32098235
 20
4.17036648
  0
VERTEX
  8
0
 10
1.34338174
 20
4.21546197
  0
VERTEX
  8
0
 10
1.38006175
 20
4.24736024
  0
VERTEX
  8
0
 10
1.42602647
 20
4.26317693
  0
VERTEX
  8
0
 10
1.47628000
 20
4.26002762
  0
SEQEND
  0
POLYLINE
  8
Default_Layer
 66
   1
 39
0.000000
 70
    1
  0
VERTEX
  8
0
 10
1.17755977
 20
4.08756141
  0
VERTEX
  8
0
 10
1.22265525
 20
4.06516203
  0
VERTEX
  8
0
 10
1.25455353
 20
4.02848201
  0
VERTEX
  8
0
 10
1.27037021
 20
3.98251729
  0
VERTEX
  8
0
 10
1.26722091
 20
3.93226376
  0
VERTEX
  8
0
 10
1.24482152
 20
3.88716827
  0
VERTEX
  8
0
 10
1.20814151
 20
3.85526999
  0
VERTEX
  8
0
 10
1.16217678
 20
3.83945331
  0
VERTEX
  8
0
 10
1.11192326
 20
3.84260262
  0
VERTEX
  8
0
 10
1.06682777
 20
3.86500200
  0
VERTEX
  8
0
 10
1.03492949
 20
3.90168201
  0
VERTEX
  8
0
 10
1.01911281
 20
3.94764674
  0
VERTEX
  8
0
 10
1.02226212
 20
3.99790027
  0
VERTEX
  8
0
 10
1.04466150
 20
4.04299576
  0
VERTEX
  8
0
 10
1.08134151
 20
4.07489404
  0
VERTEX
  8
0
 10
1.12730624
 20
4.09071072
  0
VERTEX
  8
0
 10
1.17755977
 20
4.08756141
  0
SEQEND
  0
POLYLINE
  8
Default_Layer
 66
   1
 39
0.000000
 70
    1
  0
VERTEX
  8
0
 10
0.87894409
 20
3.91515557
  0
VERTEX
  8
0
 10
0.92403957
 20
3.89275618
  0
VERTEX
  8
0
 10
0.95593785
 20
3.85607617
  0
VERTEX
  8
0
 10
0.97175453
 20
3.81011145
  0
VERTEX
  8
0
 10
0.96860523
 20
3.75985792
  0
VERTEX
  8
0
 10
0.94620584
 20
3.71476243
  0
VERTEX
  8
0
 10
0.90952583
 20
3.68286415
  0
VERTEX
  8
0
 10
0.86356111
 20
3.66704747
  0
VERTEX
  8
0
 10
0.81330758
 20
3.67019678
  0
VERTEX
  8
0
 10
0.76821209
 20
3.69259616
  0
VERTEX
  8
0
 10
0.73631381
 20
3.72927617
  0
VERTEX
  8
0
 10
0.72049713
 20
3.77524090
  0
VERTEX
  8
0
 10
0.72364644
 20
3.82549443
  0
VERTEX
  8
0
 10
0.74604582
 20
3.87058991
  0
VERTEX
  8
0
 10
0.78272583
 20
3.90248819
  0
VERTEX
  8
0
 10
0.82869056
 20
3.91830487
  0
VERTEX
  8
0
 10
0.87894409
 20
3.91515557
  0
SEQEND
  0
POLYLINE
  8
Default_Layer
 66
   1
 39
0.000000
 70
    1
  0
VERTEX
  8
0
 10
3.87897488
 20
6.69671367
  0
VERTEX
  8
0
 10
3.92092106
 20
6.66885953
  0
VERTEX
  8
0
 10
3.96863602
 20
6.65957481
  0
VERTEX
  8
0
 10
4.01635098
 20
6.66885953
  0
VERTEX
  8
0
 10
4.05829716
 20
6.69671367
  0
VERTEX
  8
0
 10
4.08615131
 20
6.73865985
  0
VERTEX
  8
0
 10
4.09543602
 20
6.78637481
  0
VERTEX
  8
0
 10
4.08615131
 20
6.83408977
  0
VERTEX
  8
0
 10
4.05829716
 20
6.87603595
  0
VERTEX
  8
0
 10
4.01635098
 20
6.90389010
  0
VERTEX
  8
0
 10
3.96863602
 20
6.91317481
  0
VERTEX
  8
0
 10
3.92092106
 20
6.90389010
  0
VERTEX
  8
0
 10
3.87897488
 20
6.87603595
  0
VERTEX
  8
0
 10
3.85112074
 20
6.83408977
  0
VERTEX
  8
0
 10
3.84183602
 20
6.78637481
  0
VERTEX
  8
0
 10
3.85112074
 20
6.73865985
  0
VERTEX
  8
0
 10
3.87897488
 20
6.69671367
  0
SEQEND
  0
POLYLINE
  8
Default_Layer
 66
   1
 39
0.000000
 70
    1
  0
VERTEX
  8
0
 10
3.87897488
 20
7.04176682
  0
VERTEX
  8
0
 10
3.92092106
 20
7.01391268
  0
VERTEX
  8
0
 10
3.96863602
 20
7.00462796
  0
VERTEX
  8
0
 10
4.01635098
 20
7.01391268
  0
VERTEX
  8
0
 10
4.05829716
 20
7.04176682
  0
VERTEX
  8
0
 10
4.08615131
 20
7.08371300
  0
VERTEX
  8
0
 10
4.09543602
 20
7.13142796
  0
VERTEX
  8
0
 10
4.08615131
 20
7.17914292
  0
VERTEX
  8
0
 10
4.05829716
 20
7.22108910
  0
VERTEX
  8
0
 10
4.01635098
 20
7.24894325
  0
VERTEX
  8
0
 10
3.96863602
 20
7.25822796
  0
VERTEX
  8
0
 10
3.92092106
 20
7.24894325
  0
VERTEX
  8
0
 10
3.87897488
 20
7.22108910
  0
VERTEX
  8
0
 10
3.85112074
 20
7.17914292
  0
VERTEX
  8
0
 10
3.84183602
 20
7.13142796
  0
VERTEX
  8
0
 10
3.85112074
 20
7.08371300
  0
VERTEX
  8
0
 10
3.87897488
 20
7.04176682
  0
SEQEND
  0
POLYLINE
  8
Default_Layer
 66
   1
 39
0.000000
 70
    1
  0
VERTEX
  8
0
 10
3.87897488
 20
7.38669924
  0
VERTEX
  8
0
 10
3.92092106
 20
7.35884509
  0
VERTEX
  8
0
 10
3.96863602
 20
7.34956038
  0
VERTEX
  8
0
 10
4.01635098
 20
7.35884509
  0
VERTEX
  8
0
 10
4.05829716
 20
7.38669924
  0
VERTEX
  8
0
 10
4.08615131
 20
7.42864542
  0
VERTEX
  8
0
 10
4.09543602
 20
7.47636038
  0
VERTEX
  8
0
 10
4.08615131
 20
7.52407534
  0
VERTEX
  8
0
 10
4.05829716
 20
7.56602152
  0
VERTEX
  8
0
 10
4.01635098
 20
7.59387566
  0
VERTEX
  8
0
 10
3.96863602
 20
7.60316038
  0
VERTEX
  8
0
 10
3.92092106
 20
7.59387566
  0
VERTEX
  8
0
 10
3.87897488
 20
7.56602152
  0
VERTEX
  8
0
 10
3.85112074
 20
7.52407534
  0
VERTEX
  8
0
 10
3.84183602
 20
7.47636038
  0
VERTEX
  8
0
 10
3.85112074
 20
7.42864542
  0
VERTEX
  8
0
 10
3.87897488
 20
7.38669924
  0
SEQEND
  0
POLYLINE
  8
Default_Layer
 66
   1
 39
0.000000
 70
    1
  0
VERTEX
  8
0
 10
3.87897488
 20
7.73163166
  0
VERTEX
  8
0
 10
3.92092106
 20
7.70377751
  0
VERTEX
  8
0
 10
3.96863602
 20
7.69449280
  0
VERTEX
  8
0
 10
4.01635098
 20
7.70377751
  0
VERTEX
  8
0
 10
4.05829716
 20
7.73163166
  0
VERTEX
  8
0
 10
4.08615131
 20
7.77357784
  0
VERTEX
  8
0
 10
4.09543602
 20
7.82129280
  0
VERTEX
  8
0
 10
4.08615131
 20
7.86900776
  0
VERTEX
  8
0
 10
4.05829716
 20
7.91095394
  0
VERTEX
  8
0
 10
4.01635098
 20
7.93880808
  0
VERTEX
  8
0
 10
3.96863602
 20
7.94809280
  0
VERTEX
  8
0
 10
3.92092106
 20
7.93880808
  0
VERTEX
  8
0
 10
3.87897488
 20
7.91095394
  0
VERTEX
  8
0
 10
3.85112074
 20
7.86900776
  0
VERTEX
  8
0
 10
3.84183602
 20
7.82129280
  0
VERTEX
  8
0
 10
3.85112074
 20
7.77357784
  0
VERTEX
  8
0
 10
3.87897488
 20
7.73163166
  0
SEQEND
  0
POLYLINE
  8
Default_Layer
 66
   1
 39
0.000000
 70
    1
  0
VERTEX
  8
0
 10
3.87897488
 20
8.07668481
  0
VERTEX
  8
0
 10
3.92092106
 20
8.04883066
  0
VERTEX
  8
0
 10
3.96863602
 20
8.03954595
  0
VERTEX
  8
0
 10
4.01635098
 20
8.04883066
  0
VERTEX
  8
0
 10
4.05829716
 20
8.07668481
  0
VERTEX
  8
0
 10
4.08615131
 20
8.11863099
  0
VERTEX
  8
0
 10
4.09543602
 20
8.16634595
  0
VERTEX
  8
0
 10
4.08615131
 20
8.21406091
  0
VERTEX
  8
0
 10
4.05829716
 20
8.25600709
  0
VERTEX
  8
0
 10
4.01635098
 20
8.28386123
  0
VERTEX
  8
0
 10
3.96863602
 20
8.29314595
  0
VERTEX
  8
0
 10
3.92092106
 20
8.28386123
  0
VERTEX
  8
0
 10
3.87897488
 20
8.25600709
  0
VERTEX
  8
0
 10
3.85112074
 20
8.21406091
  0
VERTEX
  8
0
 10
3.84183602
 20
8.16634595
  0
VERTEX
  8
0
 10
3.85112074
 20
8.11863099
  0
VERTEX
  8
0
 10
3.87897488
 20
8.07668481
  0
SEQEND
  0
POLYLINE
  8
Default_Layer
 66
   1
 39
0.000000
 70
    1
  0
VERTEX
  8
0
 10
3.87897488
 20
8.42161723
  0
VERTEX
  8
0
 10
3.92092106
 20
8.39376308
  0
VERTEX
  8
0
 10
3.96863602
 20
8.38447837
  0
VERTEX
  8
0
 10
4.01635098
 20
8.39376308
  0
VERTEX
  8
0
 10
4.05829716
 20
8.42161723
  0
VERTEX
  8
0
 10
4.08615131
 20
8.46356340
  0
VERTEX
  8
0
 10
4.09543602
 20
8.51127837
  0
VERTEX
  8
0
 10
4.08615131
 20
8.55899333
  0
VERTEX
  8
0
 10
4.05829716
 20
8.60093950
  0
VERTEX
  8
0
 10
4.01635098
 20
8.62879365
  0
VERTEX
  8
0
 10
3.96863602
 20
8.63807837
  0
VERTEX
  8
0
 10
3.92092106
 20
8.62879365
  0
VERTEX
  8
0
 10
3.87897488
 20
8.60093950
  0
VERTEX
  8
0
 10
3.85112074
 20
8.55899333
  0
VERTEX
  8
0
 10
3.84183602
 20
8.51127837
  0
VERTEX
  8
0
 10
3.85112074
 20
8.46356340
  0
VERTEX
  8
0
 10
3.87897488
 20
8.42161723
  0
SEQEND
  0
POLYLINE
  8
Default_Layer
 66
   1
 39
0.000000
 70
    1
  0
VERTEX
  8
0
 10
3.87897488
 20
8.76654964
  0
VERTEX
  8
0
 10
3.92092106
 20
8.73869550
  0
VERTEX
  8
0
 10
3.96863602
 20
8.72941078
  0
VERTEX
  8
0
 10
4.01635098
 20
8.73869550
  0
VERTEX
  8
0
 10
4.05829716
 20
8.76654964
  0
VERTEX
  8
0
 10
4.08615131
 20
8.80849582
  0
VERTEX
  8
0
 10
4.09543602
 20
8.85621078
  0
VERTEX
  8
0
 10
4.08615131
 20
8.90392574
  0
VERTEX
  8
0
 10
4.05829716
 20
8.94587192
  0
VERTEX
  8
0
 10
4.01635098
 20
8.97372607
  0
VERTEX
  8
0
 10
3.96863602
 20
8.98301078
  0
VERTEX
  8
0
 10
3.92092106
 20
8.97372607
  0
VERTEX
  8
0
 10
3.87897488
 20
8.94587192
  0
VERTEX
  8
0
 10
3.85112074
 20
8.90392574
  0
VERTEX
  8
0
 10
3.84183602
 20
8.85621078
  0
VERTEX
  8
0
 10
3.85112074
 20
8.80849582
  0
VERTEX
  8
0
 10
3.87897488
 20
8.76654964
  0
SEQEND
  0
POLYLINE
  8
Default_Layer
 66
   1
 39
0.000000
 70
    1
  0
VERTEX
  8
0
 10
3.87897488
 20
9.11136133
  0
VERTEX
  8
0
 10
3.92092106
 20
9.08350718
  0
VERTEX
  8
0
 10
3.96863602
 20
9.07422247
  0
VERTEX
  8
0
 10
4.01635098
 20
9.08350718
  0
VERTEX
  8
0
 10
4.05829716
 20
9.11136133
  0
VERTEX
  8
0
 10
4.08615131
 20
9.15330751
  0
VERTEX
  8
0
 10
4.09543602
 20
9.20102247
  0
VERTEX
  8
0
 10
4.08615131
 20
9.24873743
  0
VERTEX
  8
0
 10
4.05829716
 20
9.29068361
  0
VERTEX
  8
0
 10
4.01635098
 20
9.31853775
  0
VERTEX
  8
0
 10
3.96863602
 20
9.32782247
  0
VERTEX
  8
0
 10
3.92092106
 20
9.31853775
  0
VERTEX
  8
0
 10
3.87897488
 20
9.29068361
  0
VERTEX
  8
0
 10
3.85112074
 20
9.24873743
  0
VERTEX
  8
0
 10
3.84183602
 20
9.20102247
  0
VERTEX
  8
0
 10
3.85112074
 20
9.15330751
  0
VERTEX
  8
0
 10
3.87897488
 20
9.11136133
  0
SEQEND
  0
ENDSEC
  0
EOF
