  0
SECTION
  2
HEADER
  9
$ACADVER
  1
AC1009
  9
$LIMMIN
 10
0.000000
 20
0.000000
  9
$LIMMAX
 10
16.178696
 20
19.071002
  0
ENDSEC
  0
SECTION
  2
TABLES
  0
TABLE
  2
LTYPE
 70
     4
  0
LTYPE
  2
CONTINUOUS
 70
     0
  3
Solid line
 72
    65
 73
     0
 40
0.000000
  0
LTYPE
  2
HIDDEN
 70
     0
  3
 _ _ _ _ _ _ _ _ _ _ _
 72
    65
 73
     2
 40
0.375000
 49
0.250000
 49
-0.125000
  0
LTYPE
  2
DASHED
 70
     0
  3
 ___ ___ ___ ___ ___ ___ ___ 
 72
    65
 73
     2
 40
0.750000
 49
0.500000
 49
-0.250000
  0
LTYPE
  2
CENTER
 70
     0
  3
___ _ ___ _ ___ _ ___
 72
    65
 73
     4
 40
2.000000
 49
1.250000
 49
-0.250000
 49
0.250000
 49
-0.250000
  0
LTYPE
  2
BORDER
 70
     0
  3
___ ___ . ___ ___ . ___ ___
 72
    65
 73
     6
 40
1.750000
 49
0.500000
 49
-0.250000
 49
0.500000
 49
-0.250000
 49
0.000000
 49
-0.250000
  0
LTYPE
  2
DOT
 70
     0
  3
.................
 72
    65
 73
     2
 40
0.250000
 49
0.000000
 49
-0.250000
  0
LTYPE
  2
DASHDOT
 70
     0
  3
__ . __ . __ . __
 72
    65
 73
     4
 40
1.000000
 49
0.500000
 49
-0.250000
 49
0.000000
 49
-0.250000
  0
LTYPE
  2
DIVIDE
 70
     0
  3
___ .. ___ .. ___ .. ___
 72
    65
 73
     6
 40
1.250000
 49
0.500000
 49
-0.250000
 49
0.000000
 49
-0.250000
 49
0.000000
 49
-0.250000
  0
ENDTAB
  0
TABLE
  2
LAYER
 70
     8
  0
LAYER
  2
BLACK
 70
     0
 62
     0
  6
CONTINUOUS
  0
LAYER
  2
WHITE
 70
     0
 62
     7
  6
CONTINUOUS
  0
LAYER
  2
RED
 70
     0
 62
     1
  6
CONTINUOUS
  0
LAYER
  2
YELLOW
 70
     0
 62
     2
  6
CONTINUOUS
  0
LAYER
  2
GREEN
 70
     0
 62
     3
  6
CONTINUOUS
  0
LAYER
  2
CYAN
 70
     0
 62
     4
  6
CONTINUOUS
  0
LAYER
  2
BLUE
 70
     0
 62
     5
  6
CONTINUOUS
  0
LAYER
  2
MAGENTA
 70
     0
 62
     6
  6
CONTINUOUS
  0
ENDTAB
  0
ENDSEC
  0
SECTION
  2
BLOCKS
  0
ENDSEC
  0
SECTION
  2
ENTITIES
  0
LINE
  8
WHITE
 10
7.229990
 20
5.772002
 30
0.000000
 11
7.228996
 21
5.742000
 31
0.000000
  6
CONTINUOUS
  0
ARC
  8
WHITE
 10
18.671096
 20
5.519400
 30
0.000000
 40
11.444265
 50
178.885482
 51
184.492429
  6
CONTINUOUS
  0
ARC
  8
WHITE
 10
7.662996
 20
4.638901
 30
0.000000
 40
0.401315
 50
-177.729400
 51
-98.455200
  6
CONTINUOUS
  0
LINE
  8
WHITE
 10
7.603988
 20
4.241947
 30
0.000000
 11
7.603996
 21
5.359001
 31
0.000000
  6
CONTINUOUS
  0
LINE
  8
WHITE
 10
7.603996
 20
5.359001
 30
0.000000
 11
7.723995
 21
5.359001
 31
0.000000
  6
CONTINUOUS
  0
LINE
  8
WHITE
 10
7.723995
 20
5.359001
 30
0.000000
 11
7.723995
 21
4.231000
 31
0.000000
  6
CONTINUOUS
  0
LINE
  8
WHITE
 10
7.723995
 20
4.231000
 30
0.000000
 11
8.954996
 21
4.138000
 31
0.000000
  6
CONTINUOUS
  0
ARC
  8
WHITE
 10
8.926996
 20
3.764000
 30
0.000000
 40
0.375047
 50
0.916697
 51
85.718464
  6
CONTINUOUS
  0
ARC
  8
WHITE
 10
3.544996
 20
3.670001
 30
0.000000
 40
5.757866
 50
-13.232500
 51
0.995130
  6
CONTINUOUS
  0
ARC
  8
WHITE
 10
6.898186
 20
2.973697
 30
0.000000
 40
2.336046
 50
-66.277859
 51
-15.434053
  6
CONTINUOUS
  0
ARC
  8
WHITE
 10
7.679195
 20
1.199136
 30
0.000000
 40
0.397223
 50
-179.980407
 51
-66.438054
  6
CONTINUOUS
  0
LINE
  8
WHITE
 10
7.281972
 20
1.199000
 30
0.000000
 11
7.281996
 21
2.232000
 31
0.000000
  6
CONTINUOUS
  0
ARC
  8
WHITE
 10
7.161996
 20
2.232000
 30
0.000000
 40
0.120000
 50
0.000000
 51
90.000000
  6
CONTINUOUS
  0
LINE
  8
WHITE
 10
7.161996
 20
2.351999
 30
0.000000
 11
7.076996
 21
2.352001
 31
0.000000
  6
CONTINUOUS
  0
ARC
  8
WHITE
 10
7.077396
 20
2.232001
 30
0.000000
 40
0.120001
 50
90.190985
 51
159.511100
  6
CONTINUOUS
  0
ARC
  8
WHITE
 10
9.703403
 20
1.249118
 30
0.000000
 40
2.923920
 50
159.481025
 51
191.963913
  6
CONTINUOUS
  0
ARC
  8
WHITE
 10
7.634996
 20
0.781194
 30
0.000000
 40
0.803967
 50
-170.102481
 51
-103.669799
  6
CONTINUOUS
  0
ARC
  8
WHITE
 10
7.224957
 20
2.612912
 30
0.000000
 40
2.622161
 50
-85.186321
 51
-81.732821
  6
CONTINUOUS
  0
ARC
  8
WHITE
 10
7.594696
 20
0.077200
 30
0.000000
 40
0.059648
 50
-82.970300
 51
50.096461
  6
CONTINUOUS
  0
LINE
  8
WHITE
 10
7.632960
 20
0.122957
 30
0.000000
 11
7.520995
 21
0.218000
 31
0.000000
  6
CONTINUOUS
  0
LINE
  8
WHITE
 10
7.520995
 20
0.218000
 30
0.000000
 11
7.598995
 21
0.310000
 31
0.000000
  6
CONTINUOUS
  0
LINE
  8
WHITE
 10
7.598995
 20
0.310000
 30
0.000000
 11
7.876995
 21
0.073001
 31
0.000000
  6
CONTINUOUS
  0
ARC
  8
WHITE
 10
7.226993
 20
2.613869
 30
0.000000
 40
2.622693
 50
-75.650401
 51
-64.840692
  6
CONTINUOUS
  0
LINE
  8
WHITE
 10
8.341995
 20
0.239993
 30
0.000000
 11
8.133996
 21
0.461001
 31
0.000000
  6
CONTINUOUS
  0
LINE
  8
WHITE
 10
8.133996
 20
0.461001
 30
0.000000
 11
8.220996
 21
0.544001
 31
0.000000
  6
CONTINUOUS
  0
LINE
  8
WHITE
 10
8.220996
 20
0.544001
 30
0.000000
 11
8.453995
 21
0.297000
 31
0.000000
  6
CONTINUOUS
  0
ARC
  8
WHITE
 10
7.227815
 20
2.615267
 30
0.000000
 40
2.622571
 50
-62.124716
 51
-50.555978
  6
CONTINUOUS
  0
LINE
  8
WHITE
 10
8.893998
 20
0.589998
 30
0.000000
 11
8.624996
 21
0.844000
 31
0.000000
  6
CONTINUOUS
  0
LINE
  8
WHITE
 10
8.624996
 20
0.844000
 30
0.000000
 11
8.706996
 21
0.931000
 31
0.000000
  6
CONTINUOUS
  0
LINE
  8
WHITE
 10
8.706996
 20
0.931000
 30
0.000000
 11
8.984996
 21
0.669001
 31
0.000000
  6
CONTINUOUS
  0
ARC
  8
WHITE
 10
7.226394
 20
2.614826
 30
0.000000
 40
2.622769
 50
-47.893303
 51
-36.928865
  6
CONTINUOUS
  0
LINE
  8
WHITE
 10
9.322989
 20
1.039006
 30
0.000000
 11
9.034996
 21
1.270001
 31
0.000000
  6
CONTINUOUS
  0
LINE
  8
WHITE
 10
9.034996
 20
1.270001
 30
0.000000
 11
9.109996
 21
1.364001
 31
0.000000
  6
CONTINUOUS
  0
LINE
  8
WHITE
 10
9.109996
 20
1.364001
 30
0.000000
 11
9.392996
 21
1.137001
 31
0.000000
  6
CONTINUOUS
  0
ARC
  8
WHITE
 10
5.816860
 20
3.360619
 30
0.000000
 40
4.211084
 50
-31.873086
 51
-24.295454
  6
CONTINUOUS
  0
LINE
  8
WHITE
 10
9.654993
 20
1.628002
 30
0.000000
 11
9.339995
 21
1.769000
 31
0.000000
  6
CONTINUOUS
  0
LINE
  8
WHITE
 10
9.339995
 20
1.769000
 30
0.000000
 11
9.390996
 21
1.877001
 31
0.000000
  6
CONTINUOUS
  0
LINE
  8
WHITE
 10
9.390996
 20
1.877001
 30
0.000000
 11
9.702995
 21
1.738000
 31
0.000000
  6
CONTINUOUS
  0
ARC
  8
WHITE
 10
5.816532
 20
3.359892
 30
0.000000
 40
4.211310
 50
-22.651670
 51
-15.534854
  6
CONTINUOUS
  0
LINE
  8
WHITE
 10
9.873993
 20
2.232000
 30
0.000000
 11
9.571995
 21
2.359001
 31
0.000000
  6
CONTINUOUS
  0
LINE
  8
WHITE
 10
9.571995
 20
2.359001
 30
0.000000
 11
9.604995
 21
2.475000
 31
0.000000
  6
CONTINUOUS
  0
LINE
  8
WHITE
 10
9.604995
 20
2.475000
 30
0.000000
 11
9.904996
 21
2.350000
 31
0.000000
  6
CONTINUOUS
  0
ARC
  8
WHITE
 10
5.817137
 20
3.364865
 30
0.000000
 40
4.211953
 50
-13.942556
 51
-6.966479
  6
CONTINUOUS
  0
LINE
  8
WHITE
 10
9.997994
 20
2.854003
 30
0.000000
 11
9.691995
 21
2.890000
 31
0.000000
  6
CONTINUOUS
  0
LINE
  8
WHITE
 10
9.691995
 20
2.890000
 30
0.000000
 11
9.707995
 21
3.008000
 31
0.000000
  6
CONTINUOUS
  0
LINE
  8
WHITE
 10
9.707995
 20
3.008000
 30
0.000000
 11
10.009996
 21
2.973001
 31
0.000000
  6
CONTINUOUS
  0
ARC
  8
WHITE
 10
5.816508
 20
3.361004
 30
0.000000
 40
4.211400
 50
-5.286256
 51
1.224472
  6
CONTINUOUS
  0
LINE
  8
WHITE
 10
10.026946
 20
3.450999
 30
0.000000
 11
9.729995
 21
3.509001
 31
0.000000
  6
CONTINUOUS
  0
LINE
  8
WHITE
 10
9.729995
 20
3.509001
 30
0.000000
 11
9.733995
 21
3.631001
 31
0.000000
  6
CONTINUOUS
  0
LINE
  8
WHITE
 10
9.733995
 20
3.631001
 30
0.000000
 11
10.032996
 21
3.572001
 31
0.000000
  6
CONTINUOUS
  0
ARC
  8
WHITE
 10
6.074096
 20
3.695301
 30
0.000000
 40
3.960820
 50
-1.783901
 51
5.748157
  6
CONTINUOUS
  0
ARC
  8
WHITE
 10
10.307996
 20
4.092000
 30
0.000000
 40
0.292997
 50
88.631420
 51
179.999802
  6
CONTINUOUS
  0
ARC
  8
WHITE
 10
10.428080
 20
4.998021
 30
0.000000
 40
0.623447
 50
-100.450610
 51
-55.858662
  6
CONTINUOUS
  0
LINE
  8
WHITE
 10
10.777981
 20
4.482022
 30
0.000000
 11
10.608996
 21
5.109001
 31
0.000000
  6
CONTINUOUS
  0
LINE
  8
WHITE
 10
10.608996
 20
5.109001
 30
0.000000
 11
10.724996
 21
5.140001
 31
0.000000
  6
CONTINUOUS
  0
LINE
  8
WHITE
 10
10.724996
 20
5.140001
 30
0.000000
 11
10.900996
 21
4.487000
 31
0.000000
  6
CONTINUOUS
  0
ARC
  8
WHITE
 10
10.940096
 20
4.496600
 30
0.000000
 40
0.040261
 50
-166.205364
 51
-19.739800
  6
CONTINUOUS
  0
ARC
  8
WHITE
 10
8.436896
 20
5.396800
 30
0.000000
 40
2.700406
 50
-19.778991
 51
36.948399
  6
CONTINUOUS
  0
ARC
  8
WHITE
 10
10.245096
 20
6.650900
 30
0.000000
 40
0.508590
 50
46.529650
 51
92.603060
  6
CONTINUOUS
  0
LINE
  8
WHITE
 10
10.221998
 20
7.158965
 30
0.000000
 11
10.417996
 21
6.371001
 31
0.000000
  6
CONTINUOUS
  0
LINE
  8
WHITE
 10
10.417996
 20
6.371001
 30
0.000000
 11
10.301996
 21
6.342000
 31
0.000000
  6
CONTINUOUS
  0
LINE
  8
WHITE
 10
10.301996
 20
6.342000
 30
0.000000
 11
10.094996
 21
7.170000
 31
0.000000
  6
CONTINUOUS
  0
ARC
  8
WHITE
 10
11.471996
 20
21.738001
 30
0.000000
 40
14.632935
 50
-97.788500
 51
-95.399682
  6
CONTINUOUS
  0
LINE
  8
WHITE
 10
9.488989
 20
7.240058
 30
0.000000
 11
9.483995
 21
6.440000
 31
0.000000
  6
CONTINUOUS
  0
LINE
  8
WHITE
 10
9.483995
 20
6.440000
 30
0.000000
 11
9.363995
 21
6.440000
 31
0.000000
  6
CONTINUOUS
  0
LINE
  8
WHITE
 10
9.363995
 20
6.440000
 30
0.000000
 11
9.373996
 21
8.106000
 31
0.000000
  6
CONTINUOUS
  0
LINE
  8
WHITE
 10
9.373996
 20
8.106000
 30
0.000000
 11
8.684995
 21
8.106000
 31
0.000000
  6
CONTINUOUS
  0
LINE
  8
WHITE
 10
8.684995
 20
8.106000
 30
0.000000
 11
8.684995
 21
8.226000
 31
0.000000
  6
CONTINUOUS
  0
LINE
  8
WHITE
 10
8.684995
 20
8.226000
 30
0.000000
 11
9.373996
 21
8.226000
 31
0.000000
  6
CONTINUOUS
  0
LINE
  8
WHITE
 10
9.373996
 20
8.226000
 30
0.000000
 11
9.379995
 21
9.124001
 31
0.000000
  6
CONTINUOUS
  0
ARC
  8
WHITE
 10
9.028995
 20
9.125701
 30
0.000000
 40
0.351004
 50
-0.277499
 51
75.817180
  6
CONTINUOUS
  0
LINE
  8
WHITE
 10
9.114997
 20
9.466006
 30
0.000000
 11
9.114996
 21
8.920000
 31
0.000000
  6
CONTINUOUS
  0
LINE
  8
WHITE
 10
9.114996
 20
8.920000
 30
0.000000
 11
8.994996
 21
8.920000
 31
0.000000
  6
CONTINUOUS
  0
LINE
  8
WHITE
 10
8.994996
 20
8.920000
 30
0.000000
 11
8.994996
 21
9.476000
 31
0.000000
  6
CONTINUOUS
  0
ARC
  8
WHITE
 10
8.923696
 20
10.032101
 30
0.000000
 40
0.560653
 50
-143.164900
 51
-82.693734
  6
CONTINUOUS
  0
ARC
  8
WHITE
 10
8.359728
 20
9.568160
 30
0.000000
 40
0.172102
 50
47.962531
 51
160.008193
  6
CONTINUOUS
  0
LINE
  8
WHITE
 10
8.197996
 20
9.627000
 30
0.000000
 11
8.328995
 21
9.425001
 31
0.000000
  6
CONTINUOUS
  0
LINE
  8
WHITE
 10
8.328995
 20
9.425001
 30
0.000000
 11
8.227996
 21
9.360001
 31
0.000000
  6
CONTINUOUS
  0
LINE
  8
WHITE
 10
8.227996
 20
9.360001
 30
0.000000
 11
7.994996
 21
9.720001
 31
0.000000
  6
CONTINUOUS
  0
ARC
  8
WHITE
 10
8.124796
 20
9.225901
 30
0.000000
 40
0.510865
 50
104.719016
 51
180.661800
  6
CONTINUOUS
  0
LINE
  8
WHITE
 10
7.613966
 20
9.220000
 30
0.000000
 11
8.166996
 21
9.022001
 31
0.000000
  6
CONTINUOUS
  0
LINE
  8
WHITE
 10
8.166996
 20
9.022001
 30
0.000000
 11
8.126996
 21
8.909001
 31
0.000000
  6
CONTINUOUS
  0
LINE
  8
WHITE
 10
8.126996
 20
8.909001
 30
0.000000
 11
6.952996
 21
9.322001
 31
0.000000
  6
CONTINUOUS
  0
ARC
  8
WHITE
 10
6.873981
 20
9.096006
 30
0.000000
 40
0.239410
 50
70.728714
 51
151.293381
  6
CONTINUOUS
  0
ARC
  8
WHITE
 10
7.298274
 20
8.911655
 30
0.000000
 40
0.701367
 50
154.735144
 51
201.114443
  6
CONTINUOUS
  0
ARC
  8
WHITE
 10
6.750563
 20
8.710865
 30
0.000000
 40
0.118519
 50
-154.048434
 51
-29.224802
  6
CONTINUOUS
  0
LINE
  8
WHITE
 10
6.853996
 20
8.653000
 30
0.000000
 11
6.979995
 21
8.878001
 31
0.000000
  6
CONTINUOUS
  0
ARC
  8
WHITE
 10
7.072856
 20
8.825712
 30
0.000000
 40
0.106571
 50
71.882751
 51
150.617013
  6
CONTINUOUS
  0
ARC
  8
WHITE
 10
6.925996
 20
8.370000
 30
0.000000
 40
0.585362
 50
11.828160
 51
72.091260
  6
CONTINUOUS
  0
ARC
  8
WHITE
 10
8.420986
 20
8.596075
 30
0.000000
 40
0.928141
 50
-173.436560
 51
-110.366081
  6
CONTINUOUS
  0
ARC
  8
WHITE
 10
8.074594
 20
7.464981
 30
0.000000
 40
0.262019
 50
-3.935004
 51
84.879836
  6
CONTINUOUS
  0
LINE
  8
WHITE
 10
8.335995
 20
7.447000
 30
0.000000
 11
8.319996
 21
7.133001
 31
0.000000
  6
CONTINUOUS
  0
ARC
  8
WHITE
 10
7.996029
 20
7.150115
 30
0.000000
 40
0.324419
 50
-66.768575
 51
-3.024025
  6
CONTINUOUS
  0
ARC
  8
WHITE
 10
7.630665
 20
9.044017
 30
0.000000
 40
2.246844
 50
-92.874365
 51
-77.316495
  6
CONTINUOUS
  0
ARC
  8
WHITE
 10
7.527684
 20
6.545999
 30
0.000000
 40
0.254185
 50
92.184500
 51
170.491141
  6
CONTINUOUS
  0
ARC
  8
WHITE
 10
18.671160
 20
5.522337
 30
0.000000
 40
11.443894
 50
174.656886
 51
178.749914
  6
CONTINUOUS
  0
LINE
  8
WHITE
 10
11.649011
 20
10.822963
 30
0.000000
 11
11.676996
 21
10.835001
 31
0.000000
  6
CONTINUOUS
  0
LINE
  8
WHITE
 10
11.676996
 20
10.835001
 30
0.000000
 11
11.849996
 21
10.910001
 31
0.000000
  6
CONTINUOUS
  0
LINE
  8
WHITE
 10
11.849996
 20
10.910001
 30
0.000000
 11
11.426996
 21
11.586001
 31
0.000000
  6
CONTINUOUS
  0
LINE
  8
WHITE
 10
11.426996
 20
11.586001
 30
0.000000
 11
11.528996
 21
11.649001
 31
0.000000
  6
CONTINUOUS
  0
LINE
  8
WHITE
 10
11.528996
 20
11.649001
 30
0.000000
 11
11.960996
 21
10.958001
 31
0.000000
  6
CONTINUOUS
  0
ARC
  8
WHITE
 10
11.967696
 20
11.138001
 30
0.000000
 40
0.180125
 50
-92.131692
 51
8.296457
  6
CONTINUOUS
  0
ARC
  8
WHITE
 10
-2.268076
 20
12.371724
 30
0.000000
 40
14.464520
 50
-4.789555
 51
4.592984
  6
CONTINUOUS
  0
ARC
  8
WHITE
 10
7.347190
 20
14.134458
 30
0.000000
 40
4.840692
 50
-7.173296
 51
36.208827
  6
CONTINUOUS
  0
ARC
  8
WHITE
 10
10.340896
 20
16.588201
 30
0.000000
 40
0.998298
 50
23.984630
 51
109.358800
  6
CONTINUOUS
  0
ARC
  8
WHITE
 10
10.370344
 20
16.724722
 30
0.000000
 40
0.882285
 50
114.107328
 51
166.345017
  6
CONTINUOUS
  0
ARC
  8
WHITE
 10
18.925996
 20
15.210001
 30
0.000000
 40
9.569394
 50
169.627100
 51
186.998800
  6
CONTINUOUS
  0
ARC
  8
WHITE
 10
18.130016
 20
12.489114
 30
0.000000
 40
8.839929
 50
169.869447
 51
176.251768
  6
CONTINUOUS
  0
ARC
  8
WHITE
 10
10.883096
 20
13.370401
 30
0.000000
 40
1.603072
 50
-169.090300
 51
-133.728600
  6
CONTINUOUS
  0
ARC
  8
WHITE
 10
10.291276
 20
12.679822
 30
0.000000
 40
0.696728
 50
-137.818783
 51
-95.211207
  6
CONTINUOUS
  0
ARC
  8
WHITE
 10
9.910387
 20
10.664911
 30
0.000000
 40
1.358706
 50
35.971969
 51
76.481658
  6
CONTINUOUS
  0
ARC
  8
WHITE
 10
8.951879
 20
9.860436
 30
0.000000
 40
2.608458
 50
24.472357
 51
37.906330
  6
CONTINUOUS
  0
ARC
  8
WHITE
 10
11.549596
 20
11.051901
 30
0.000000
 40
0.249591
 50
-153.619700
 51
-66.527200
  6
CONTINUOUS
  0
LINE
  8
WHITE
 10
10.931996
 20
15.356001
 30
0.000000
 11
10.928977
 21
15.365994
 31
0.000000
  6
CONTINUOUS
  0
ARC
  8
WHITE
 10
0.424618
 20
12.074630
 30
0.000000
 40
11.007935
 50
17.397506
 51
26.905744
  6
CONTINUOUS
  0
ARC
  8
WHITE
 10
10.382796
 20
17.125101
 30
0.000000
 40
0.157772
 50
44.152570
 51
205.980700
  6
CONTINUOUS
  0
ARC
  8
WHITE
 10
9.628316
 20
16.417151
 30
0.000000
 40
1.192369
 50
21.853883
 51
43.306600
  6
CONTINUOUS
  0
ARC
  8
WHITE
 10
-2.029803
 20
12.261501
 30
0.000000
 40
13.568180
 50
5.669920
 51
19.815450
  6
CONTINUOUS
  0
ARC
  8
WHITE
 10
11.400472
 20
13.593497
 30
0.000000
 40
0.072027
 50
-173.219805
 51
6.780196
  6
CONTINUOUS
  0
LINE
  8
WHITE
 10
11.328948
 20
13.584993
 30
0.000000
 11
10.931996
 21
15.356001
 31
0.000000
  6
CONTINUOUS
  0
ARC
  8
WHITE
 10
10.999387
 20
16.591076
 30
0.000000
 40
1.267012
 50
159.972001
 51
212.516470
  6
CONTINUOUS
  0
ARC
  8
WHITE
 10
9.852451
 20
17.009869
 30
0.000000
 40
0.046014
 50
33.105361
 51
160.800047
  6
CONTINUOUS
  0
ARC
  8
WHITE
 10
4.540810
 20
13.426639
 30
0.000000
 40
6.453275
 50
13.261573
 51
33.997174
  6
CONTINUOUS
  0
ARC
  8
WHITE
 10
10.777401
 20
14.895445
 30
0.000000
 40
0.046068
 50
-146.474315
 51
14.527951
  6
CONTINUOUS
  0
ARC
  8
WHITE
 10
7.900295
 20
12.933901
 30
0.000000
 40
3.436090
 50
34.295440
 51
42.516108
  6
CONTINUOUS
  0
ARC
  8
WHITE
 10
13.879296
 20
18.421001
 30
0.000000
 40
4.679122
 50
-147.544900
 51
-137.436400
  6
CONTINUOUS
  0
ARC
  8
WHITE
 10
10.484870
 20
12.219660
 30
0.000000
 40
0.119803
 50
-108.429392
 51
-52.984103
  6
CONTINUOUS
  0
ARC
  8
WHITE
 10
10.850996
 20
13.313379
 30
0.000000
 40
1.273177
 50
-179.037806
 51
-108.500726
  6
CONTINUOUS
  0
ARC
  8
WHITE
 10
10.126596
 20
13.263801
 30
0.000000
 40
0.549321
 50
159.519600
 51
177.057500
  6
CONTINUOUS
  0
ARC
  8
WHITE
 10
9.702470
 20
13.422905
 30
0.000000
 40
0.096337
 50
80.728030
 51
159.906948
  6
CONTINUOUS
  0
ARC
  8
WHITE
 10
9.620371
 20
12.949730
 30
0.000000
 40
0.576577
 50
40.474683
 51
80.252179
  6
CONTINUOUS
  0
ARC
  8
WHITE
 10
11.659696
 20
13.838301
 30
0.000000
 40
1.681321
 50
-162.188000
 51
-133.563700
  6
CONTINUOUS
  0
ARC
  8
WHITE
 10
10.001893
 20
12.279063
 30
0.000000
 40
0.604436
 50
-5.036285
 51
34.337055
  6
CONTINUOUS
  0
ARC
  8
WHITE
 10
10.484380
 20
12.219288
 30
0.000000
 40
0.119803
 50
-52.689817
 51
3.212098
  6
CONTINUOUS
  0
ARC
  8
WHITE
 10
5.030563
 20
11.050753
 30
0.000000
 40
6.600405
 50
12.719333
 51
24.472376
  6
CONTINUOUS
  0
ARC
  8
WHITE
 10
11.412496
 20
12.488501
 30
0.000000
 40
0.058587
 50
-164.659540
 51
15.340190
  6
CONTINUOUS
  0
ARC
  8
WHITE
 10
2.856010
 20
9.659054
 30
0.000000
 40
8.953663
 50
18.317286
 51
40.088865
  6
CONTINUOUS
  0
ARC
  8
WHITE
 10
9.787127
 20
15.482952
 30
0.000000
 40
0.099723
 50
47.919800
 51
215.537800
  6
CONTINUOUS
  0
ARC
  8
WHITE
 10
5.029995
 20
11.052001
 30
0.000000
 40
6.600405
 50
24.460480
 51
43.041570
  6
CONTINUOUS
  0
ARC
  8
WHITE
 10
10.381896
 20
14.221601
 30
0.000000
 40
0.704168
 50
-166.565700
 51
-144.730000
  6
CONTINUOUS
  0
ARC
  8
WHITE
 10
11.117891
 20
14.394468
 30
0.000000
 40
1.460189
 50
171.432391
 51
193.322194
  6
CONTINUOUS
  0
ARC
  8
WHITE
 10
9.771145
 20
14.597936
 30
0.000000
 40
0.098161
 50
54.622848
 51
171.762084
  6
CONTINUOUS
  0
ARC
  8
WHITE
 10
8.900996
 20
13.367001
 30
0.000000
 40
1.605596
 50
31.294252
 51
54.736130
  6
CONTINUOUS
  0
ARC
  8
WHITE
 10
2.413195
 20
9.432201
 30
0.000000
 40
9.193359
 50
27.899670
 51
31.246570
  6
CONTINUOUS
  0
ARC
  8
WHITE
 10
10.342713
 20
13.650209
 30
0.000000
 40
0.212499
 50
-126.289579
 51
23.223200
  6
CONTINUOUS
  0
ARC
  8
WHITE
 10
7.667146
 20
10.032890
 30
0.000000
 40
4.286797
 50
53.501481
 51
57.046398
  6
CONTINUOUS
  0
ARC
  8
WHITE
 10
10.383126
 20
14.220803
 30
0.000000
 40
0.704713
 50
-144.840683
 51
-123.031125
  6
CONTINUOUS
  0
ARC
  8
WHITE
 10
4.302869
 20
13.799529
 30
0.000000
 40
7.523049
 50
2.273767
 51
13.501964
  6
CONTINUOUS
  0
ARC
  8
WHITE
 10
11.766496
 20
14.091000
 30
0.000000
 40
0.053956
 50
-172.545294
 51
7.454707
  6
CONTINUOUS
  0
ARC
  8
WHITE
 10
-30.814804
 20
5.063101
 30
0.000000
 40
43.474020
 50
11.975940
 51
15.441163
  6
CONTINUOUS
  0
ARC
  8
WHITE
 10
11.168993
 20
16.665000
 30
0.000000
 40
0.083483
 50
18.868457
 51
198.868457
  6
CONTINUOUS
  0
ARC
  8
WHITE
 10
4.302396
 20
13.801501
 30
0.000000
 40
7.523049
 50
13.486521
 51
22.595260
  6
CONTINUOUS
  0
ARC
  8
WHITE
 10
9.344695
 20
12.181201
 30
0.000000
 40
1.768632
 50
7.792465
 51
27.395200
  6
CONTINUOUS
  0
ARC
  8
WHITE
 10
11.048967
 20
12.415017
 30
0.000000
 40
0.048399
 50
-119.706823
 51
7.102348
  6
CONTINUOUS
  0
ARC
  8
WHITE
 10
11.637674
 20
13.446746
 30
0.000000
 40
1.236272
 50
-154.164293
 51
-119.709063
  6
CONTINUOUS
  0
ARC
  8
WHITE
 10
10.802396
 20
13.042501
 30
0.000000
 40
0.308315
 50
128.137474
 51
205.866800
  6
CONTINUOUS
  0
ARC
  8
WHITE
 10
10.666996
 20
13.215001
 30
0.000000
 40
0.089022
 50
38.157231
 51
128.157500
  6
CONTINUOUS
  0
ARC
  8
WHITE
 10
9.347682
 20
12.175728
 30
0.000000
 40
1.768509
 50
27.597145
 51
38.225212
  6
CONTINUOUS
  0
ARC
  8
WHITE
 10
13.436396
 20
12.348101
 30
0.000000
 40
1.781538
 50
169.623000
 51
173.589842
  6
CONTINUOUS
  0
ARC
  8
WHITE
 10
6.810023
 20
13.535160
 30
0.000000
 40
4.950338
 50
-10.076918
 51
-2.421513
  6
CONTINUOUS
  0
ARC
  8
WHITE
 10
11.827396
 20
13.321501
 30
0.000000
 40
0.071597
 50
16.637930
 51
176.393400
  6
CONTINUOUS
  0
ARC
  8
WHITE
 10
7.310211
 20
12.835877
 30
0.000000
 40
4.613630
 50
-12.122434
 51
6.298131
  6
CONTINUOUS
  0
ARC
  8
WHITE
 10
11.773087
 20
11.877631
 30
0.000000
 40
0.049039
 50
-163.858174
 51
-12.510662
  6
CONTINUOUS
  0
ARC
  8
WHITE
 10
13.438096
 20
12.358501
 30
0.000000
 40
1.782097
 50
173.928224
 51
196.110100
  6
CONTINUOUS
  0
ARC
  8
WHITE
 10
2.239795
 20
11.351401
 30
0.000000
 40
0.250440
 50
-153.332608
 51
-66.915600
  6
CONTINUOUS
  0
ARC
  8
WHITE
 10
-0.357404
 20
10.158001
 30
0.000000
 40
2.607987
 50
24.487600
 51
37.954373
  6
CONTINUOUS
  0
ARC
  8
WHITE
 10
0.599596
 20
10.964901
 30
0.000000
 40
1.357955
 50
35.943310
 51
76.439610
  6
CONTINUOUS
  0
ARC
  8
WHITE
 10
0.983302
 20
12.978594
 30
0.000000
 40
0.696661
 50
-137.950486
 51
-95.378918
  6
CONTINUOUS
  0
ARC
  8
WHITE
 10
1.575095
 20
13.670601
 30
0.000000
 40
1.603903
 50
-169.124873
 51
-133.749500
  6
CONTINUOUS
  0
ARC
  8
WHITE
 10
8.820696
 20
12.780501
 30
0.000000
 40
8.840239
 50
169.806400
 51
176.189500
  6
CONTINUOUS
  0
ARC
  8
WHITE
 10
9.618977
 20
15.500903
 30
0.000000
 40
9.569051
 50
169.571406
 51
186.938043
  6
CONTINUOUS
  0
ARC
  8
WHITE
 10
1.064638
 20
17.023875
 30
0.000000
 40
0.881799
 50
114.069939
 51
166.281404
  6
CONTINUOUS
  0
ARC
  8
WHITE
 10
1.034888
 20
16.887215
 30
0.000000
 40
0.997892
 50
23.931245
 51
109.304616
  6
CONTINUOUS
  0
ARC
  8
WHITE
 10
-1.960105
 20
14.434892
 30
0.000000
 40
4.840299
 50
-7.202900
 51
36.176535
  6
CONTINUOUS
  0
ARC
  8
WHITE
 10
-11.577209
 20
12.681542
 30
0.000000
 40
14.464710
 50
-4.836467
 51
4.545968
  6
CONTINUOUS
  0
ARC
  8
WHITE
 10
2.657713
 20
11.436004
 30
0.000000
 40
0.180169
 50
-92.454921
 51
8.293499
  6
CONTINUOUS
  0
LINE
  8
WHITE
 10
2.649996
 20
11.256001
 30
0.000000
 11
2.218996
 21
11.948001
 31
0.000000
  6
CONTINUOUS
  0
LINE
  8
WHITE
 10
2.218996
 20
11.948001
 30
0.000000
 11
2.116996
 21
11.884001
 31
0.000000
  6
CONTINUOUS
  0
LINE
  8
WHITE
 10
2.116996
 20
11.884001
 30
0.000000
 11
2.538995
 21
11.208001
 31
0.000000
  6
CONTINUOUS
  0
LINE
  8
WHITE
 10
2.538995
 20
11.208001
 30
0.000000
 11
2.365996
 21
11.133001
 31
0.000000
  6
CONTINUOUS
  0
LINE
  8
WHITE
 10
2.365996
 20
11.133001
 30
0.000000
 11
2.337989
 21
11.121014
 31
0.000000
  6
CONTINUOUS
  0
ARC
  8
WHITE
 10
-8.881722
 20
12.375558
 30
0.000000
 40
11.007395
 50
17.382436
 51
26.895997
  6
CONTINUOUS
  0
ARC
  8
WHITE
 10
1.074484
 20
17.428623
 30
0.000000
 40
0.157727
 50
42.396015
 51
207.825420
  6
CONTINUOUS
  0
ARC
  8
WHITE
 10
0.322996
 20
16.718001
 30
0.000000
 40
1.191978
 50
21.765628
 51
43.266330
  6
CONTINUOUS
  0
ARC
  8
WHITE
 10
-11.338904
 20
12.572401
 30
0.000000
 40
13.568010
 50
5.615252
 51
19.762300
  6
CONTINUOUS
  0
ARC
  8
WHITE
 10
2.092496
 20
13.891501
 30
0.000000
 40
0.072003
 50
-173.220002
 51
6.779662
  6
CONTINUOUS
  0
ARC
  8
WHITE
 10
-8.883393
 20
12.381120
 30
0.000000
 40
11.007330
 50
7.842106
 51
17.352209
  6
CONTINUOUS
  0
ARC
  8
WHITE
 10
4.569296
 20
18.725401
 30
0.000000
 40
4.679494
 50
-147.469400
 51
-144.198596
  6
CONTINUOUS
  0
ARC
  8
WHITE
 10
1.693803
 20
16.888520
 30
0.000000
 40
1.267372
 50
159.854474
 51
212.422741
  6
CONTINUOUS
  0
ARC
  8
WHITE
 10
0.547091
 20
17.308808
 30
0.000000
 40
0.046067
 50
34.646298
 51
159.407409
  6
CONTINUOUS
  0
ARC
  8
WHITE
 10
-4.766704
 20
13.729601
 30
0.000000
 40
6.452868
 50
13.226280
 51
33.967860
  6
CONTINUOUS
  0
ARC
  8
WHITE
 10
1.470391
 20
15.194458
 30
0.000000
 40
0.046074
 50
-146.452906
 51
14.507214
  6
CONTINUOUS
  0
ARC
  8
WHITE
 10
-1.406803
 20
13.232901
 30
0.000000
 40
3.436164
 50
34.294520
 51
42.515001
  6
CONTINUOUS
  0
ARC
  8
WHITE
 10
4.574695
 20
18.718101
 30
0.000000
 40
4.679611
 50
-144.309756
 51
-137.473400
  6
CONTINUOUS
  0
ARC
  8
WHITE
 10
1.174976
 20
12.518007
 30
0.000000
 40
0.119218
 50
-108.576961
 51
-52.836356
  6
CONTINUOUS
  0
ARC
  8
WHITE
 10
1.542996
 20
13.611693
 30
0.000000
 40
1.273162
 50
-179.113736
 51
-108.595866
  6
CONTINUOUS
  0
ARC
  8
WHITE
 10
0.819116
 20
13.566858
 30
0.000000
 40
0.549705
 50
159.873590
 51
177.378495
  6
CONTINUOUS
  0
ARC
  8
WHITE
 10
0.393085
 20
13.722002
 30
0.000000
 40
0.096310
 50
80.492230
 51
159.324066
  6
CONTINUOUS
  0
ARC
  8
WHITE
 10
0.313595
 20
13.248401
 30
0.000000
 40
0.576536
 50
40.653030
 51
80.475590
  6
CONTINUOUS
  0
ARC
  8
WHITE
 10
2.352589
 20
14.135423
 30
0.000000
 40
1.681266
 50
-162.290617
 51
-133.654490
  6
CONTINUOUS
  0
ARC
  8
WHITE
 10
0.692893
 20
12.578071
 30
0.000000
 40
0.604431
 50
-5.037262
 51
34.336300
  6
CONTINUOUS
  0
ARC
  8
WHITE
 10
1.174912
 20
12.519210
 30
0.000000
 40
0.120218
 50
-53.158470
 51
2.760482
  6
CONTINUOUS
  0
ARC
  8
WHITE
 10
-4.281486
 20
11.358026
 30
0.000000
 40
6.600369
 50
12.636907
 51
23.898897
  6
CONTINUOUS
  0
ARC
  8
WHITE
 10
2.102992
 20
12.786499
 30
0.000000
 40
0.058110
 50
-164.528221
 51
15.471779
  6
CONTINUOUS
  0
ARC
  8
WHITE
 10
-6.455286
 20
9.964350
 30
0.000000
 40
8.953543
 50
18.268343
 51
40.045232
  6
CONTINUOUS
  0
ARC
  8
WHITE
 10
0.480071
 20
15.783003
 30
0.000000
 40
0.099707
 50
47.876413
 51
215.580557
  6
CONTINUOUS
  0
ARC
  8
WHITE
 10
-4.279792
 20
11.356208
 30
0.000000
 40
6.599556
 50
23.919289
 51
42.998352
  6
CONTINUOUS
  0
ARC
  8
WHITE
 10
1.073984
 20
14.520052
 30
0.000000
 40
0.703909
 50
-166.689842
 51
-144.770584
  6
CONTINUOUS
  0
ARC
  8
WHITE
 10
1.809095
 20
14.694401
 30
0.000000
 40
1.459413
 50
171.425200
 51
193.326900
  6
CONTINUOUS
  0
ARC
  8
WHITE
 10
0.463132
 20
14.897647
 30
0.000000
 40
0.098191
 50
53.900635
 51
171.594663
  6
CONTINUOUS
  0
ARC
  8
WHITE
 10
-0.406304
 20
13.666901
 30
0.000000
 40
1.605050
 50
31.310237
 51
54.708810
  6
CONTINUOUS
  0
ARC
  8
WHITE
 10
-6.899728
 20
9.739993
 30
0.000000
 40
9.193536
 50
27.836918
 51
31.189129
  6
CONTINUOUS
  0
ARC
  8
WHITE
 10
1.035295
 20
13.948001
 30
0.000000
 40
0.212380
 50
-126.826405
 51
23.584600
  6
CONTINUOUS
  0
ARC
  8
WHITE
 10
-1.647804
 20
10.336501
 30
0.000000
 40
4.286728
 50
53.400890
 51
56.934950
  6
CONTINUOUS
  0
ARC
  8
WHITE
 10
1.074839
 20
14.519497
 30
0.000000
 40
0.704288
 50
-144.847594
 51
-123.025269
  6
CONTINUOUS
  0
ARC
  8
WHITE
 10
-40.131104
 20
5.402602
 30
0.000000
 40
43.473880
 50
13.582180
 51
15.384470
  6
CONTINUOUS
  0
ARC
  8
WHITE
 10
1.863988
 20
16.962995
 30
0.000000
 40
0.083483
 50
18.869665
 51
198.869665
  6
CONTINUOUS
  0
ARC
  8
WHITE
 10
-5.005903
 20
14.106301
 30
0.000000
 40
7.523479
 50
2.206783
 51
22.537790
  6
CONTINUOUS
  0
ARC
  8
WHITE
 10
2.458496
 20
14.389001
 30
0.000000
 40
0.053956
 50
-172.545875
 51
7.454124
  6
CONTINUOUS
  0
ARC
  8
WHITE
 10
-40.133865
 20
5.413716
 30
0.000000
 40
43.473955
 50
11.905082
 51
13.567087
  6
CONTINUOUS
  0
ARC
  8
WHITE
 10
1.739851
 20
12.713346
 30
0.000000
 40
0.048602
 50
-119.393951
 51
7.868885
  6
CONTINUOUS
  0
ARC
  8
WHITE
 10
0.035896
 20
12.479501
 30
0.000000
 40
1.768528
 50
7.815797
 51
38.027870
  6
CONTINUOUS
  0
ARC
  8
WHITE
 10
1.358588
 20
13.514510
 30
0.000000
 40
0.089018
 50
37.737360
 51
128.659924
  6
CONTINUOUS
  0
ARC
  8
WHITE
 10
1.493716
 20
13.341817
 30
0.000000
 40
0.308292
 50
128.220787
 51
205.726695
  6
CONTINUOUS
  0
ARC
  8
WHITE
 10
2.330302
 20
13.744288
 30
0.000000
 40
1.236655
 50
-154.299667
 51
-119.785084
  6
CONTINUOUS
  0
ARC
  8
WHITE
 10
4.128596
 20
12.651801
 30
0.000000
 40
1.781703
 50
169.810314
 51
179.382557
  6
CONTINUOUS
  0
ARC
  8
WHITE
 10
-2.499276
 20
13.833192
 30
0.000000
 40
4.950638
 50
-10.076695
 51
-2.421733
  6
CONTINUOUS
  0
ARC
  8
WHITE
 10
2.518396
 20
13.619501
 30
0.000000
 40
0.071597
 50
16.637930
 51
176.393400
  6
CONTINUOUS
  0
ARC
  8
WHITE
 10
-2.000004
 20
13.137001
 30
0.000000
 40
4.614496
 50
-12.159807
 51
6.257920
  6
CONTINUOUS
  0
ARC
  8
WHITE
 10
2.463096
 20
12.175601
 30
0.000000
 40
0.049024
 50
-163.895529
 51
-12.479300
  6
CONTINUOUS
  0
ARC
  8
WHITE
 10
4.128169
 20
12.653292
 30
0.000000
 40
1.781261
 50
179.430367
 51
196.010268
  6
CONTINUOUS
  0
LINE
  8
WHITE
 10
1.076967
 20
3.682999
 30
0.000000
 11
1.077996
 21
3.653000
 31
0.000000
  6
CONTINUOUS
  0
ARC
  8
WHITE
 10
0.150014
 20
3.680115
 30
0.000000
 40
0.928378
 50
-51.258756
 51
-1.673713
  6
CONTINUOUS
  0
ARC
  8
WHITE
 10
1.241996
 20
1.077000
 30
0.000000
 40
1.947244
 50
105.213800
 51
117.894200
  6
CONTINUOUS
  0
ARC
  8
WHITE
 10
0.404564
 20
2.589189
 30
0.000000
 40
0.221391
 50
109.408291
 51
212.572117
  6
CONTINUOUS
  0
LINE
  8
WHITE
 10
0.217995
 20
2.470001
 30
0.000000
 11
0.747996
 21
2.651001
 31
0.000000
  6
CONTINUOUS
  0
LINE
  8
WHITE
 10
0.747996
 20
2.651001
 30
0.000000
 11
0.786996
 21
2.537000
 31
0.000000
  6
CONTINUOUS
  0
LINE
  8
WHITE
 10
0.786996
 20
2.537000
 30
0.000000
 11
0.256996
 21
2.356001
 31
0.000000
  6
CONTINUOUS
  0
ARC
  8
WHITE
 10
0.476996
 20
2.375501
 30
0.000000
 40
0.220863
 50
-174.934748
 51
-71.524000
  6
CONTINUOUS
  0
LINE
  8
WHITE
 10
0.546989
 20
2.166023
 30
0.000000
 11
1.115995
 21
2.360000
 31
0.000000
  6
CONTINUOUS
  0
ARC
  8
WHITE
 10
1.234074
 20
1.655209
 30
0.000000
 40
0.714613
 50
66.590059
 51
99.510876
  6
CONTINUOUS
  0
LINE
  8
WHITE
 10
1.517995
 20
2.311000
 30
0.000000
 11
1.874995
 21
2.645001
 31
0.000000
  6
CONTINUOUS
  0
LINE
  8
WHITE
 10
1.874995
 20
2.645001
 30
0.000000
 11
1.956995
 21
2.557000
 31
0.000000
  6
CONTINUOUS
  0
LINE
  8
WHITE
 10
1.956995
 20
2.557000
 30
0.000000
 11
1.599995
 21
2.223001
 31
0.000000
  6
CONTINUOUS
  0
LINE
  8
WHITE
 10
1.599995
 20
2.223001
 30
0.000000
 11
1.728996
 21
2.086001
 31
0.000000
  6
CONTINUOUS
  0
ARC
  8
WHITE
 10
1.801955
 20
2.154044
 30
0.000000
 40
0.099764
 50
-136.996766
 51
-44.595488
  6
CONTINUOUS
  0
LINE
  8
WHITE
 10
1.872995
 20
2.084000
 30
0.000000
 11
2.305995
 21
2.525000
 31
0.000000
  6
CONTINUOUS
  0
ARC
  8
WHITE
 10
2.692982
 20
2.145013
 30
0.000000
 40
0.542355
 50
45.222229
 51
135.522978
  6
CONTINUOUS
  0
LINE
  8
WHITE
 10
3.074995
 20
2.530001
 30
0.000000
 11
3.248996
 21
2.361001
 31
0.000000
  6
CONTINUOUS
  0
ARC
  8
WHITE
 10
3.475701
 20
2.583296
 30
0.000000
 40
0.317506
 50
-135.562688
 51
-59.049157
  6
CONTINUOUS
  0
LINE
  8
WHITE
 10
3.638995
 20
2.311000
 30
0.000000
 11
3.357995
 21
2.730001
 31
0.000000
  6
CONTINUOUS
  0
LINE
  8
WHITE
 10
3.357995
 20
2.730001
 30
0.000000
 11
3.457995
 21
2.796001
 31
0.000000
  6
CONTINUOUS
  0
LINE
  8
WHITE
 10
3.457995
 20
2.796001
 30
0.000000
 11
3.738996
 21
2.377000
 31
0.000000
  6
CONTINUOUS
  0
ARC
  8
WHITE
 10
3.550395
 20
2.631300
 30
0.000000
 40
0.316605
 50
-53.437607
 51
23.391090
  6
CONTINUOUS
  0
LINE
  8
WHITE
 10
3.840979
 20
2.756993
 30
0.000000
 11
3.749995
 21
2.983001
 31
0.000000
  6
CONTINUOUS
  0
ARC
  8
WHITE
 10
4.686103
 20
3.121014
 30
0.000000
 40
0.946227
 50
150.078833
 51
188.386887
  6
CONTINUOUS
  0
LINE
  8
WHITE
 10
3.865996
 20
3.593000
 30
0.000000
 11
2.418996
 21
3.593000
 31
0.000000
  6
CONTINUOUS
  0
LINE
  8
WHITE
 10
2.418996
 20
3.593000
 30
0.000000
 11
2.418996
 21
3.713001
 31
0.000000
  6
CONTINUOUS
  0
LINE
  8
WHITE
 10
2.418996
 20
3.713001
 30
0.000000
 11
3.865996
 21
3.713001
 31
0.000000
  6
CONTINUOUS
  0
ARC
  8
WHITE
 10
4.685896
 20
4.185201
 30
0.000000
 40
0.946155
 50
171.564100
 51
209.938668
  6
CONTINUOUS
  0
LINE
  8
WHITE
 10
3.749979
 20
4.324004
 30
0.000000
 11
3.840996
 21
4.550001
 31
0.000000
  6
CONTINUOUS
  0
ARC
  8
WHITE
 10
3.549796
 20
4.675501
 30
0.000000
 40
0.317093
 50
-23.314847
 51
53.372210
  6
CONTINUOUS
  0
LINE
  8
WHITE
 10
3.738978
 20
4.929976
 30
0.000000
 11
3.457995
 21
4.511000
 31
0.000000
  6
CONTINUOUS
  0
LINE
  8
WHITE
 10
3.457995
 20
4.511000
 30
0.000000
 11
3.357995
 21
4.577000
 31
0.000000
  6
CONTINUOUS
  0
LINE
  8
WHITE
 10
3.357995
 20
4.577000
 30
0.000000
 11
3.638995
 21
4.996001
 31
0.000000
  6
CONTINUOUS
  0
ARC
  8
WHITE
 10
3.475595
 20
4.724201
 30
0.000000
 40
0.317135
 50
58.986669
 51
135.613300
  6
CONTINUOUS
  0
LINE
  8
WHITE
 10
3.248959
 20
4.946036
 30
0.000000
 11
3.074995
 21
4.777000
 31
0.000000
  6
CONTINUOUS
  0
ARC
  8
WHITE
 10
2.692982
 20
5.162014
 30
0.000000
 40
0.542374
 50
-135.520870
 51
-45.224188
  6
CONTINUOUS
  0
LINE
  8
WHITE
 10
2.305995
 20
4.782000
 30
0.000000
 11
1.872995
 21
5.223000
 31
0.000000
  6
CONTINUOUS
  0
ARC
  8
WHITE
 10
1.801953
 20
5.153042
 30
0.000000
 40
0.099705
 50
44.559080
 51
137.031582
  6
CONTINUOUS
  0
LINE
  8
WHITE
 10
1.728996
 20
5.221001
 30
0.000000
 11
1.599995
 21
5.084000
 31
0.000000
  6
CONTINUOUS
  0
LINE
  8
WHITE
 10
1.599995
 20
5.084000
 30
0.000000
 11
1.956995
 21
4.750000
 31
0.000000
  6
CONTINUOUS
  0
LINE
  8
WHITE
 10
1.956995
 20
4.750000
 30
0.000000
 11
1.874995
 21
4.662000
 31
0.000000
  6
CONTINUOUS
  0
LINE
  8
WHITE
 10
1.874995
 20
4.662000
 30
0.000000
 11
1.517995
 21
4.996001
 31
0.000000
  6
CONTINUOUS
  0
ARC
  8
WHITE
 10
1.233995
 20
5.652401
 30
0.000000
 40
0.715204
 50
-99.496600
 51
-66.603650
  6
CONTINUOUS
  0
LINE
  8
WHITE
 10
1.115994
 20
4.946998
 30
0.000000
 11
0.546995
 21
5.141001
 31
0.000000
  6
CONTINUOUS
  0
ARC
  8
WHITE
 10
0.477396
 20
4.930900
 30
0.000000
 40
0.221329
 50
71.671800
 51
174.789100
  6
CONTINUOUS
  0
LINE
  8
WHITE
 10
0.256983
 20
4.951001
 30
0.000000
 11
0.786996
 21
4.770000
 31
0.000000
  6
CONTINUOUS
  0
LINE
  8
WHITE
 10
0.786996
 20
4.770000
 30
0.000000
 11
0.747996
 21
4.656000
 31
0.000000
  6
CONTINUOUS
  0
LINE
  8
WHITE
 10
0.747996
 20
4.656000
 30
0.000000
 11
0.217995
 21
4.837001
 31
0.000000
  6
CONTINUOUS
  0
ARC
  8
WHITE
 10
0.403695
 20
4.717501
 30
0.000000
 40
0.220827
 50
147.238272
 51
250.777300
  6
CONTINUOUS
  0
ARC
  8
WHITE
 10
1.241928
 20
6.230037
 30
0.000000
 40
1.947261
 50
-117.891901
 51
-105.211588
  6
CONTINUOUS
  0
ARC
  8
WHITE
 10
0.150395
 20
3.626701
 30
0.000000
 40
0.928283
 50
3.476984
 51
51.284199
  6
CONTINUOUS
  0
LINE
  8
WHITE
 10
4.205989
 20
4.080002
 30
0.000000
 11
4.205995
 21
2.677001
 31
0.000000
  6
CONTINUOUS
  0
ARC
  8
WHITE
 10
5.022004
 20
2.802941
 30
0.000000
 40
0.825671
 50
-171.226391
 51
-125.290483
  6
CONTINUOUS
  0
ARC
  8
WHITE
 10
4.874396
 20
2.890801
 30
0.000000
 40
0.829966
 50
-113.383500
 51
-91.132200
  6
CONTINUOUS
  0
LINE
  8
WHITE
 10
4.857996
 20
2.060997
 30
0.000000
 11
5.072995
 21
3.524000
 31
0.000000
  6
CONTINUOUS
  0
LINE
  8
WHITE
 10
5.072995
 20
3.524000
 30
0.000000
 11
5.191995
 21
3.507001
 31
0.000000
  6
CONTINUOUS
  0
LINE
  8
WHITE
 10
5.191995
 20
3.507001
 30
0.000000
 11
4.978996
 21
2.055000
 31
0.000000
  6
CONTINUOUS
  0
ARC
  8
WHITE
 10
5.078396
 20
5.158000
 30
0.000000
 40
3.104592
 50
-91.834758
 51
-79.240200
  6
CONTINUOUS
  0
ARC
  8
WHITE
 10
5.342784
 20
3.084297
 30
0.000000
 40
1.025929
 50
-72.106572
 51
-22.299758
  6
CONTINUOUS
  0
ARC
  8
WHITE
 10
3.483905
 20
4.067818
 30
0.000000
 40
3.125689
 50
-26.053040
 51
7.337294
  6
CONTINUOUS
  0
ARC
  8
WHITE
 10
9.097396
 20
6.205300
 30
0.000000
 40
3.055953
 50
-159.498400
 51
-145.331736
  6
CONTINUOUS
  0
ARC
  8
WHITE
 10
5.725881
 20
4.934339
 30
0.000000
 40
0.547234
 50
21.511258
 51
106.878487
  6
CONTINUOUS
  0
LINE
  8
WHITE
 10
5.566995
 20
5.458001
 30
0.000000
 11
5.253996
 21
5.349000
 31
0.000000
  6
CONTINUOUS
  0
ARC
  8
WHITE
 10
5.184409
 20
5.537186
 30
0.000000
 40
0.200641
 50
171.454492
 51
290.293163
  6
CONTINUOUS
  0
ARC
  8
WHITE
 10
4.680896
 20
5.614401
 30
0.000000
 40
0.308760
 50
-8.830800
 51
88.125490
  6
CONTINUOUS
  0
LINE
  8
WHITE
 10
4.690996
 20
5.922995
 30
0.000000
 11
4.637995
 21
5.141001
 31
0.000000
  6
CONTINUOUS
  0
LINE
  8
WHITE
 10
4.637995
 20
5.141001
 30
0.000000
 11
4.518995
 21
5.155001
 31
0.000000
  6
CONTINUOUS
  0
LINE
  8
WHITE
 10
4.518995
 20
5.155001
 30
0.000000
 11
4.570996
 21
5.924001
 31
0.000000
  6
CONTINUOUS
  0
ARC
  8
WHITE
 10
4.629979
 20
5.505997
 30
0.000000
 40
0.422144
 50
98.031754
 51
146.985868
  6
CONTINUOUS
  0
ARC
  8
WHITE
 10
5.671282
 20
4.949577
 30
0.000000
 40
1.601651
 50
150.593138
 51
194.261997
  6
CONTINUOUS
  0
ARC
  8
WHITE
 10
3.401895
 20
4.178201
 30
0.000000
 40
0.810068
 50
-6.962700
 51
27.719670
  6
CONTINUOUS
  0
LINE
  8
WHITE
 10
5.953002
 20
7.499000
 30
0.000000
 11
5.952996
 21
8.902001
 31
0.000000
  6
CONTINUOUS
  0
ARC
  8
WHITE
 10
5.136996
 20
8.776000
 30
0.000000
 40
0.825671
 50
8.777886
 51
54.712380
  6
CONTINUOUS
  0
ARC
  8
WHITE
 10
5.284490
 20
8.688245
 30
0.000000
 40
0.829923
 50
66.609144
 51
88.860407
  6
CONTINUOUS
  0
LINE
  8
WHITE
 10
5.300995
 20
9.518003
 30
0.000000
 11
5.085995
 21
8.055001
 31
0.000000
  6
CONTINUOUS
  0
LINE
  8
WHITE
 10
5.085995
 20
8.055001
 30
0.000000
 11
4.966995
 21
8.072001
 31
0.000000
  6
CONTINUOUS
  0
LINE
  8
WHITE
 10
4.966995
 20
8.072001
 30
0.000000
 11
5.179995
 21
9.524000
 31
0.000000
  6
CONTINUOUS
  0
ARC
  8
WHITE
 10
5.080637
 20
6.420999
 30
0.000000
 40
3.104591
 50
88.166010
 51
100.760547
  6
CONTINUOUS
  0
ARC
  8
WHITE
 10
4.816182
 20
8.494695
 30
0.000000
 40
1.025920
 50
107.892031
 51
157.699233
  6
CONTINUOUS
  0
ARC
  8
WHITE
 10
6.675095
 20
7.511200
 30
0.000000
 40
3.125700
 50
153.947300
 51
187.337600
  6
CONTINUOUS
  0
ARC
  8
WHITE
 10
1.061595
 20
5.373700
 30
0.000000
 40
3.055953
 50
20.501630
 51
34.668264
  6
CONTINUOUS
  0
ARC
  8
WHITE
 10
4.433096
 20
6.644700
 30
0.000000
 40
0.547236
 50
-158.484471
 51
-73.121300
  6
CONTINUOUS
  0
LINE
  8
WHITE
 10
4.591983
 20
6.121041
 30
0.000000
 11
4.905996
 21
6.231000
 31
0.000000
  6
CONTINUOUS
  0
ARC
  8
WHITE
 10
4.974695
 20
6.042500
 30
0.000000
 40
0.200629
 50
-8.744000
 51
110.024316
  6
CONTINUOUS
  0
ARC
  8
WHITE
 10
5.478095
 20
5.964600
 30
0.000000
 40
0.308764
 50
171.169194
 51
268.125467
  6
CONTINUOUS
  0
LINE
  8
WHITE
 10
5.467995
 20
5.656000
 30
0.000000
 11
5.520995
 21
6.438001
 31
0.000000
  6
CONTINUOUS
  0
LINE
  8
WHITE
 10
5.520995
 20
6.438001
 30
0.000000
 11
5.639995
 21
6.424001
 31
0.000000
  6
CONTINUOUS
  0
LINE
  8
WHITE
 10
5.639995
 20
6.424001
 30
0.000000
 11
5.588996
 21
5.655001
 31
0.000000
  6
CONTINUOUS
  0
ARC
  8
WHITE
 10
5.528896
 20
6.072800
 30
0.000000
 40
0.422100
 50
-81.814208
 51
-32.982300
  6
CONTINUOUS
  0
ARC
  8
WHITE
 10
4.487716
 20
6.629438
 30
0.000000
 40
1.601621
 50
-29.407352
 51
14.261583
  6
CONTINUOUS
  0
ARC
  8
WHITE
 10
6.757092
 20
7.400767
 30
0.000000
 40
0.810068
 50
173.034944
 51
207.717399
  6
CONTINUOUS
  0
LINE
  8
WHITE
 10
13.514995
 20
8.686007
 30
0.000000
 11
13.484717
 21
8.687614
 31
0.000000
  6
CONTINUOUS
  0
LINE
  8
WHITE
 10
13.484717
 20
8.687614
 30
0.000000
 11
13.484996
 21
9.847000
 31
0.000000
  6
CONTINUOUS
  0
LINE
  8
WHITE
 10
13.484996
 20
9.847000
 30
0.000000
 11
13.364996
 21
9.847000
 31
0.000000
  6
CONTINUOUS
  0
LINE
  8
WHITE
 10
13.364996
 20
9.847000
 30
0.000000
 11
13.364996
 21
8.687001
 31
0.000000
  6
CONTINUOUS
  0
ARC
  8
WHITE
 10
13.446345
 20
5.811002
 30
0.000000
 40
2.877149
 50
91.620212
 51
108.466747
  6
CONTINUOUS
  0
ARC
  8
WHITE
 10
12.416496
 20
8.896200
 30
0.000000
 40
0.375394
 50
-174.312200
 51
-71.598800
  6
CONTINUOUS
  0
ARC
  8
WHITE
 10
15.961966
 20
9.248663
 30
0.000000
 40
3.938341
 50
140.983914
 51
185.678256
  6
CONTINUOUS
  0
ARC
  8
WHITE
 10
13.096296
 20
11.571401
 30
0.000000
 40
0.249551
 50
90.068740
 51
141.132200
  6
CONTINUOUS
  0
LINE
  8
WHITE
 10
13.095997
 20
11.820951
 30
0.000000
 11
13.650996
 21
11.821001
 31
0.000000
  6
CONTINUOUS
  0
ARC
  8
WHITE
 10
13.650496
 20
11.571001
 30
0.000000
 40
0.250000
 50
46.377450
 51
89.885409
  6
CONTINUOUS
  0
ARC
  8
WHITE
 10
11.521090
 20
9.324860
 30
0.000000
 40
3.345079
 50
-8.438008
 51
46.516961
  6
CONTINUOUS
  0
ARC
  8
WHITE
 10
14.459061
 20
8.889613
 30
0.000000
 40
0.375044
 50
-108.994387
 51
-8.526642
  6
CONTINUOUS
  0
ARC
  8
WHITE
 10
13.426464
 20
5.891511
 30
0.000000
 40
2.795898
 50
70.994060
 51
88.185429
  6
CONTINUOUS
  0
LINE
  8
WHITE
 10
12.760984
 20
5.263967
 30
0.000000
 11
12.791996
 21
5.253001
 31
0.000000
  6
CONTINUOUS
  0
LINE
  8
WHITE
 10
12.791996
 20
5.253001
 30
0.000000
 11
12.788996
 21
4.482001
 31
0.000000
  6
CONTINUOUS
  0
LINE
  8
WHITE
 10
12.788996
 20
4.482001
 30
0.000000
 11
12.908996
 21
4.482001
 31
0.000000
  6
CONTINUOUS
  0
LINE
  8
WHITE
 10
12.908996
 20
4.482001
 30
0.000000
 11
12.906996
 21
5.253001
 31
0.000000
  6
CONTINUOUS
  0
ARC
  8
WHITE
 10
12.757555
 20
5.731888
 30
0.000000
 40
0.501663
 50
-72.668963
 51
-19.309841
  6
CONTINUOUS
  0
LINE
  8
WHITE
 10
13.230996
 20
5.566000
 30
0.000000
 11
13.387996
 21
6.008001
 31
0.000000
  6
CONTINUOUS
  0
ARC
  8
WHITE
 10
13.738796
 20
5.883501
 30
0.000000
 40
0.372238
 50
48.190010
 51
160.460069
  6
CONTINUOUS
  0
LINE
  8
WHITE
 10
13.986952
 20
6.160951
 30
0.000000
 11
13.900996
 21
4.915000
 31
0.000000
  6
CONTINUOUS
  0
LINE
  8
WHITE
 10
13.900996
 20
4.915000
 30
0.000000
 11
14.020996
 21
4.907000
 31
0.000000
  6
CONTINUOUS
  0
LINE
  8
WHITE
 10
14.020996
 20
4.907000
 30
0.000000
 11
14.063996
 21
5.527000
 31
0.000000
  6
CONTINUOUS
  0
ARC
  8
WHITE
 10
14.188796
 20
5.516000
 30
0.000000
 40
0.125284
 50
14.790270
 51
174.962908
  6
CONTINUOUS
  0
ARC
  8
WHITE
 10
11.582747
 20
4.899603
 30
0.000000
 40
2.803196
 50
-26.747500
 51
13.373606
  6
CONTINUOUS
  0
ARC
  8
WHITE
 10
13.416161
 20
3.975410
 30
0.000000
 40
0.750018
 50
-105.875485
 51
-26.735447
  6
CONTINUOUS
  0
ARC
  8
WHITE
 10
12.849496
 20
1.987100
 30
0.000000
 40
1.317466
 50
74.074320
 51
105.925700
  6
CONTINUOUS
  0
ARC
  8
WHITE
 10
12.281892
 20
3.975009
 30
0.000000
 40
0.749889
 50
-153.293975
 51
-74.047178
  6
CONTINUOUS
  0
ARC
  8
WHITE
 10
14.116296
 20
4.898401
 30
0.000000
 40
2.803591
 50
166.602700
 51
206.715900
  6
CONTINUOUS
  0
ARC
  8
WHITE
 10
11.510689
 20
5.522170
 30
0.000000
 40
0.124400
 50
2.225033
 51
168.016821
  6
CONTINUOUS
  0
LINE
  8
WHITE
 10
11.634996
 20
5.527000
 30
0.000000
 11
11.677996
 21
4.907000
 31
0.000000
  6
CONTINUOUS
  0
LINE
  8
WHITE
 10
11.677996
 20
4.907000
 30
0.000000
 11
11.796996
 21
4.915000
 31
0.000000
  6
CONTINUOUS
  0
LINE
  8
WHITE
 10
11.796996
 20
4.915000
 30
0.000000
 11
11.710996
 21
6.161001
 31
0.000000
  6
CONTINUOUS
  0
ARC
  8
WHITE
 10
11.959796
 20
5.883900
 30
0.000000
 40
0.372406
 50
19.461390
 51
131.919638
  6
CONTINUOUS
  0
LINE
  8
WHITE
 10
12.310924
 20
6.007974
 30
0.000000
 11
12.466996
 21
5.566000
 31
0.000000
  6
CONTINUOUS
  0
ARC
  8
WHITE
 10
12.940196
 20
5.732500
 30
0.000000
 40
0.501638
 50
-160.615085
 51
-110.931700
  6
CONTINUOUS
  0
LINE
  8
WHITE
 10
1.694995
 20
8.144000
 30
0.000000
 11
1.664996
 21
8.146000
 31
0.000000
  6
CONTINUOUS
  0
ARC
  8
WHITE
 10
1.563395
 20
5.384000
 30
0.000000
 40
2.763868
 50
87.893307
 51
107.702000
  6
CONTINUOUS
  0
ARC
  8
WHITE
 10
1.096796
 20
7.185301
 30
0.000000
 40
0.911840
 50
114.201103
 51
180.207400
  6
CONTINUOUS
  0
ARC
  8
WHITE
 10
2.131998
 20
7.039541
 30
0.000000
 40
1.952240
 50
175.815306
 51
228.562129
  6
CONTINUOUS
  0
ARC
  8
WHITE
 10
0.892355
 20
5.636621
 30
0.000000
 40
0.080107
 50
-130.819558
 51
19.225456
  6
CONTINUOUS
  0
LINE
  8
WHITE
 10
0.967995
 20
5.663000
 30
0.000000
 11
0.490995
 21
7.005000
 31
0.000000
  6
CONTINUOUS
  0
LINE
  8
WHITE
 10
0.490995
 20
7.005000
 30
0.000000
 11
0.603995
 21
7.045000
 31
0.000000
  6
CONTINUOUS
  0
LINE
  8
WHITE
 10
0.603995
 20
7.045000
 30
0.000000
 11
1.132995
 21
5.557000
 31
0.000000
  6
CONTINUOUS
  0
LINE
  8
WHITE
 10
1.132995
 20
5.557000
 30
0.000000
 11
1.447996
 21
5.506000
 31
0.000000
  6
CONTINUOUS
  0
LINE
  8
WHITE
 10
1.447996
 20
5.506000
 30
0.000000
 11
1.175995
 21
6.769000
 31
0.000000
  6
CONTINUOUS
  0
LINE
  8
WHITE
 10
1.175995
 20
6.769000
 30
0.000000
 11
1.292996
 21
6.794000
 31
0.000000
  6
CONTINUOUS
  0
LINE
  8
WHITE
 10
1.292996
 20
6.794000
 30
0.000000
 11
1.550995
 21
5.596001
 31
0.000000
  6
CONTINUOUS
  0
ARC
  8
WHITE
 10
1.754495
 20
5.637601
 30
0.000000
 40
0.207708
 50
-168.446625
 51
-11.553400
  6
CONTINUOUS
  0
LINE
  8
WHITE
 10
1.957994
 20
5.596001
 30
0.000000
 11
2.215996
 21
6.794000
 31
0.000000
  6
CONTINUOUS
  0
LINE
  8
WHITE
 10
2.215996
 20
6.794000
 30
0.000000
 11
2.332995
 21
6.769000
 31
0.000000
  6
CONTINUOUS
  0
LINE
  8
WHITE
 10
2.332995
 20
6.769000
 30
0.000000
 11
2.060996
 21
5.506000
 31
0.000000
  6
CONTINUOUS
  0
LINE
  8
WHITE
 10
2.060996
 20
5.506000
 30
0.000000
 11
2.375996
 21
5.557000
 31
0.000000
  6
CONTINUOUS
  0
LINE
  8
WHITE
 10
2.375996
 20
5.557000
 30
0.000000
 11
2.904995
 21
7.045000
 31
0.000000
  6
CONTINUOUS
  0
LINE
  8
WHITE
 10
2.904995
 20
7.045000
 30
0.000000
 11
3.017996
 21
7.005000
 31
0.000000
  6
CONTINUOUS
  0
LINE
  8
WHITE
 10
3.017996
 20
7.005000
 30
0.000000
 11
2.540996
 21
5.663000
 31
0.000000
  6
CONTINUOUS
  0
ARC
  8
WHITE
 10
2.615195
 20
5.633900
 30
0.000000
 40
0.079701
 50
158.585456
 51
313.424400
  6
CONTINUOUS
  0
ARC
  8
WHITE
 10
1.377513
 20
7.038516
 30
0.000000
 40
1.951765
 50
-48.531759
 51
4.215917
  6
CONTINUOUS
  0
ARC
  8
WHITE
 10
2.412996
 20
7.185848
 30
0.000000
 40
0.911010
 50
-0.241995
 51
65.830680
  6
CONTINUOUS
  0
ARC
  8
WHITE
 10
1.947729
 20
5.383389
 30
0.000000
 40
2.763800
 50
72.343973
 51
92.752723
  6
CONTINUOUS
  0
LINE
  8
WHITE
 10
1.814996
 20
8.144000
 30
0.000000
 11
1.814996
 21
7.245001
 31
0.000000
  6
CONTINUOUS
  0
LINE
  8
WHITE
 10
1.814996
 20
7.245001
 30
0.000000
 11
1.694995
 21
7.245001
 31
0.000000
  6
CONTINUOUS
  0
LINE
  8
WHITE
 10
1.694995
 20
7.245001
 30
0.000000
 11
1.694995
 21
8.144000
 31
0.000000
  6
CONTINUOUS
  0
LINE
  8
WHITE
 10
7.787641
 20
15.691684
 30
0.000000
 11
7.756998
 21
15.691053
 31
0.000000
  6
CONTINUOUS
  0
ARC
  8
WHITE
 10
7.860765
 20
18.543074
 30
0.000000
 40
2.853908
 50
-107.744398
 51
-92.083718
  6
CONTINUOUS
  0
ARC
  8
WHITE
 10
6.876896
 20
15.467501
 30
0.000000
 40
0.375202
 50
72.298960
 51
173.649700
  6
CONTINUOUS
  0
ARC
  8
WHITE
 10
9.287398
 20
15.200230
 30
0.000000
 40
2.800476
 50
173.669896
 51
206.675360
  6
CONTINUOUS
  0
ARC
  8
WHITE
 10
7.119596
 20
14.112101
 30
0.000000
 40
0.374907
 50
-153.188900
 51
-93.762229
  6
CONTINUOUS
  0
LINE
  8
WHITE
 10
7.094996
 20
13.738001
 30
0.000000
 11
7.340995
 21
13.720989
 31
0.000000
  6
CONTINUOUS
  0
ARC
  8
WHITE
 10
7.366711
 20
14.095200
 30
0.000000
 40
0.375093
 50
-93.931167
 51
-72.741139
  6
CONTINUOUS
  0
ARC
  8
WHITE
 10
7.738141
 20
12.903926
 30
0.000000
 40
0.872743
 50
64.855075
 51
107.342134
  6
CONTINUOUS
  0
ARC
  8
WHITE
 10
8.268996
 20
14.033001
 30
0.000000
 40
0.374902
 50
-115.266300
 51
-93.976731
  6
CONTINUOUS
  0
LINE
  8
WHITE
 10
8.242996
 20
13.659001
 30
0.000000
 11
8.439995
 21
13.644986
 31
0.000000
  6
CONTINUOUS
  0
ARC
  8
WHITE
 10
8.465544
 20
14.019404
 30
0.000000
 40
0.375289
 50
-93.903688
 51
-34.465013
  6
CONTINUOUS
  0
ARC
  8
WHITE
 10
6.902996
 20
15.097001
 30
0.000000
 40
2.273385
 50
-34.570800
 51
10.543790
  6
CONTINUOUS
  0
ARC
  8
WHITE
 10
8.768991
 20
15.444720
 30
0.000000
 40
0.375268
 50
10.483413
 51
106.247702
  6
CONTINUOUS
  0
ARC
  8
WHITE
 10
7.858689
 20
18.556995
 30
0.000000
 40
2.867402
 50
-89.034700
 51
-73.689145
  6
CONTINUOUS
  0
LINE
  8
WHITE
 10
7.906996
 20
15.690001
 30
0.000000
 11
7.882995
 21
14.829001
 31
0.000000
  6
CONTINUOUS
  0
LINE
  8
WHITE
 10
7.882995
 20
14.829001
 30
0.000000
 11
7.763995
 21
14.832001
 31
0.000000
  6
CONTINUOUS
  0
LINE
  8
WHITE
 10
7.763995
 20
14.832001
 30
0.000000
 11
7.787641
 21
15.691684
 31
0.000000
  6
CONTINUOUS
  0
LINE
  8
WHITE
 10
4.769995
 20
14.279001
 30
0.000000
 11
4.969996
 21
13.891001
 31
0.000000
  6
CONTINUOUS
  0
LINE
  8
WHITE
 10
4.969996
 20
13.891001
 30
0.000000
 11
5.075996
 21
13.946001
 31
0.000000
  6
CONTINUOUS
  0
LINE
  8
WHITE
 10
5.075996
 20
13.946001
 30
0.000000
 11
4.876971
 21
14.333040
 31
0.000000
  6
CONTINUOUS
  0
ARC
  8
WHITE
 10
4.445722
 20
15.052388
 30
0.000000
 40
0.838711
 50
-59.057303
 51
75.127283
  6
CONTINUOUS
  0
ARC
  8
WHITE
 10
4.723360
 20
16.083871
 30
0.000000
 40
0.229506
 50
83.588610
 51
254.232750
  6
CONTINUOUS
  0
ARC
  8
WHITE
 10
4.567095
 20
14.804301
 30
0.000000
 40
1.518574
 50
154.627996
 51
443.120670
  6
CONTINUOUS
  0
ARC
  8
WHITE
 10
3.412096
 20
15.356701
 30
0.000000
 40
0.238320
 50
-17.005500
 51
155.639800
  6
CONTINUOUS
  0
ARC
  8
WHITE
 10
4.444180
 20
15.051461
 30
0.000000
 40
0.837968
 50
163.675074
 51
221.336420
  6
CONTINUOUS
  0
LINE
  8
WHITE
 10
3.814996
 20
14.498001
 30
0.000000
 11
3.835991
 21
14.474996
 31
0.000000
  6
CONTINUOUS
  0
ARC
  8
WHITE
 10
4.444462
 20
15.051163
 30
0.000000
 40
0.837977
 50
-136.562065
 51
-67.140399
  6
CONTINUOUS
  0
LINE
  8
WHITE
 10
3.871016
 20
16.312011
 30
0.000000
 11
3.858995
 21
16.340001
 31
0.000000
  6
CONTINUOUS
  0
ARC
  8
WHITE
 10
4.689119
 20
16.668691
 30
0.000000
 40
0.892829
 50
120.498142
 51
201.601279
  6
CONTINUOUS
  0
LINE
  8
WHITE
 10
4.235999
 20
17.437994
 30
0.000000
 11
4.108996
 21
17.685001
 31
0.000000
  6
CONTINUOUS
  0
LINE
  8
WHITE
 10
4.108996
 20
17.685001
 30
0.000000
 11
4.215996
 21
17.740001
 31
0.000000
  6
CONTINUOUS
  0
LINE
  8
WHITE
 10
4.215996
 20
17.740001
 30
0.000000
 11
4.343995
 21
17.492001
 31
0.000000
  6
CONTINUOUS
  0
ARC
  8
WHITE
 10
4.688795
 20
16.668501
 30
0.000000
 40
0.892771
 50
-17.771400
 51
112.719093
  6
CONTINUOUS
  0
ARC
  8
WHITE
 10
5.740173
 20
16.331551
 30
0.000000
 40
0.211282
 50
162.237050
 51
331.581889
  6
CONTINUOUS
  0
ARC
  8
WHITE
 10
4.570885
 20
16.958782
 30
0.000000
 40
1.538177
 50
-28.238617
 51
263.021263
  6
CONTINUOUS
  0
ARC
  8
WHITE
 10
4.420495
 20
15.619501
 30
0.000000
 40
0.191020
 50
-101.015930
 51
78.984070
  6
CONTINUOUS
  0
ARC
  8
WHITE
 10
4.688814
 20
16.668457
 30
0.000000
 40
0.892103
 50
-156.449488
 51
-105.061512
  6
CONTINUOUS
  0
LINE
  8
WHITE
 10
14.546002
 20
2.399030
 30
0.000000
 11
14.575996
 21
2.392001
 31
0.000000
  6
CONTINUOUS
  0
ARC
  8
WHITE
 10
14.367196
 20
1.546201
 30
0.000000
 40
0.871192
 50
4.265537
 51
76.132836
  6
CONTINUOUS
  0
LINE
  8
WHITE
 10
15.235974
 20
1.610999
 30
0.000000
 11
15.519996
 21
1.611000
 31
0.000000
  6
CONTINUOUS
  0
LINE
  8
WHITE
 10
15.519996
 20
1.611000
 30
0.000000
 11
15.519996
 21
1.491000
 31
0.000000
  6
CONTINUOUS
  0
LINE
  8
WHITE
 10
15.519996
 20
1.491000
 30
0.000000
 11
15.236996
 21
1.491000
 31
0.000000
  6
CONTINUOUS
  0
ARC
  8
WHITE
 10
14.367968
 20
1.545719
 30
0.000000
 40
0.870749
 50
-121.964799
 51
-3.602955
  6
CONTINUOUS
  0
ARC
  8
WHITE
 10
13.772396
 20
0.594000
 30
0.000000
 40
0.251964
 50
57.710190
 51
243.760200
  6
CONTINUOUS
  0
ARC
  8
WHITE
 10
14.641761
 20
1.551328
 30
0.000000
 40
1.536934
 50
-129.652619
 51
132.471053
  6
CONTINUOUS
  0
ARC
  8
WHITE
 10
13.774080
 20
2.499076
 30
0.000000
 40
0.251984
 50
132.452368
 51
301.835512
  6
CONTINUOUS
  0
ARC
  8
WHITE
 10
14.368565
 20
1.545915
 30
0.000000
 40
0.871373
 50
78.250697
 51
121.985323
  6
CONTINUOUS
  0
LINE
  8
WHITE
 10
2.942013
 20
1.390002
 30
0.000000
 11
2.938236
 21
1.420001
 31
0.000000
  6
CONTINUOUS
  0
LINE
  8
WHITE
 10
2.938236
 20
1.420001
 30
0.000000
 11
1.760995
 21
1.420001
 31
0.000000
  6
CONTINUOUS
  0
LINE
  8
WHITE
 10
1.760995
 20
1.420001
 30
0.000000
 11
1.760995
 21
1.540001
 31
0.000000
  6
CONTINUOUS
  0
LINE
  8
WHITE
 10
1.760995
 20
1.540001
 30
0.000000
 11
2.914995
 21
1.540001
 31
0.000000
  6
CONTINUOUS
  0
ARC
  8
WHITE
 10
2.712042
 20
1.459880
 30
0.000000
 40
0.218195
 50
21.542819
 51
66.514891
  6
CONTINUOUS
  0
ARC
  8
WHITE
 10
1.539047
 20
-1.921382
 30
0.000000
 40
3.796547
 50
70.617873
 51
106.543659
  6
CONTINUOUS
  0
ARC
  8
WHITE
 10
0.568996
 20
1.349001
 30
0.000000
 40
0.385333
 50
106.742000
 51
184.615400
  6
CONTINUOUS
  0
ARC
  8
WHITE
 10
1.595979
 20
1.434404
 30
0.000000
 40
1.415860
 50
-175.283918
 51
-36.712626
  6
CONTINUOUS
  0
ARC
  8
WHITE
 10
1.790195
 20
1.264300
 30
0.000000
 40
1.158657
 50
-35.710700
 51
6.228247
  6
CONTINUOUS
  0
LINE
  8
WHITE
 10
6.063013
 20
1.390002
 30
0.000000
 11
6.058554
 21
1.420001
 31
0.000000
  6
CONTINUOUS
  0
LINE
  8
WHITE
 10
6.058554
 20
1.420001
 30
0.000000
 11
4.881995
 21
1.420001
 31
0.000000
  6
CONTINUOUS
  0
LINE
  8
WHITE
 10
4.881995
 20
1.420001
 30
0.000000
 11
4.881995
 21
1.540001
 31
0.000000
  6
CONTINUOUS
  0
LINE
  8
WHITE
 10
4.881995
 20
1.540001
 30
0.000000
 11
6.035996
 21
1.540001
 31
0.000000
  6
CONTINUOUS
  0
ARC
  8
WHITE
 10
5.833043
 20
1.459879
 30
0.000000
 40
0.218195
 50
21.542967
 51
66.515236
  6
CONTINUOUS
  0
ARC
  8
WHITE
 10
4.660047
 20
-1.921382
 30
0.000000
 40
3.796547
 50
70.617873
 51
106.543659
  6
CONTINUOUS
  0
ARC
  8
WHITE
 10
3.689996
 20
1.349001
 30
0.000000
 40
0.385333
 50
106.742000
 51
184.615400
  6
CONTINUOUS
  0
ARC
  8
WHITE
 10
4.716978
 20
1.434401
 30
0.000000
 40
1.415859
 50
-175.284025
 51
-36.712519
  6
CONTINUOUS
  0
ARC
  8
WHITE
 10
4.911195
 20
1.264300
 30
0.000000
 40
1.158657
 50
-35.710700
 51
6.228247
  6
CONTINUOUS
  0
LINE
  8
WHITE
 10
13.449945
 20
14.815968
 30
0.000000
 11
13.466996
 21
14.791001
 31
0.000000
  6
CONTINUOUS
  0
ARC
  8
WHITE
 10
11.068396
 20
13.430001
 30
0.000000
 40
2.757826
 50
20.415500
 51
29.571197
  6
CONTINUOUS
  0
ARC
  8
WHITE
 10
13.488933
 20
14.330030
 30
0.000000
 40
0.175377
 50
-114.934904
 51
20.692755
  6
CONTINUOUS
  0
ARC
  8
WHITE
 10
13.996177
 20
15.424374
 30
0.000000
 40
1.381562
 50
-35.708899
 51
245.123159
  6
CONTINUOUS
  0
ARC
  8
WHITE
 10
14.950996
 20
14.740401
 30
0.000000
 40
0.207052
 50
179.834000
 51
323.761000
  6
CONTINUOUS
  0
ARC
  8
WHITE
 10
12.710211
 20
14.915973
 30
0.000000
 40
2.041247
 50
-4.917343
 51
11.845836
  6
CONTINUOUS
  0
ARC
  8
WHITE
 10
14.032657
 20
15.191550
 30
0.000000
 40
0.690396
 50
11.992096
 51
97.545392
  6
CONTINUOUS
  0
LINE
  8
WHITE
 10
13.942000
 20
15.875968
 30
0.000000
 11
13.854996
 21
16.214001
 31
0.000000
  6
CONTINUOUS
  0
LINE
  8
WHITE
 10
13.854996
 20
16.214001
 30
0.000000
 11
13.737996
 21
16.184001
 31
0.000000
  6
CONTINUOUS
  0
LINE
  8
WHITE
 10
13.737996
 20
16.184001
 30
0.000000
 11
13.823996
 21
15.850001
 31
0.000000
  6
CONTINUOUS
  0
ARC
  8
WHITE
 10
14.029196
 20
15.191101
 30
0.000000
 40
0.690113
 50
107.298058
 51
212.927800
  6
CONTINUOUS
  0
LINE
  8
WHITE
 10
9.623313
 20
11.222833
 30
0.000000
 11
9.624996
 21
11.192000
 31
0.000000
  6
CONTINUOUS
  0
ARC
  8
WHITE
 10
8.175596
 20
11.307201
 30
0.000000
 40
1.453971
 50
-70.455900
 51
-4.544400
  6
CONTINUOUS
  0
ARC
  8
WHITE
 10
8.357979
 20
11.110664
 30
0.000000
 40
1.212399
 50
-178.597969
 51
-75.477698
  6
CONTINUOUS
  0
ARC
  8
WHITE
 10
7.704595
 20
11.094901
 30
0.000000
 40
0.558825
 50
99.538109
 51
181.425400
  6
CONTINUOUS
  0
ARC
  8
WHITE
 10
8.290596
 20
7.626101
 30
0.000000
 40
4.076778
 50
74.311360
 51
99.581780
  6
CONTINUOUS
  0
ARC
  8
WHITE
 10
9.338907
 20
11.358358
 30
0.000000
 40
0.200091
 50
14.069590
 51
74.316522
  6
CONTINUOUS
  0
ARC
  8
WHITE
 10
8.358435
 20
11.108861
 30
0.000000
 40
1.211808
 50
10.995920
 51
14.242606
  6
CONTINUOUS
  0
LINE
  8
WHITE
 10
9.547995
 20
11.340001
 30
0.000000
 11
9.092995
 21
11.322001
 31
0.000000
  6
CONTINUOUS
  0
LINE
  8
WHITE
 10
9.092995
 20
11.322001
 30
0.000000
 11
9.096995
 21
11.203001
 31
0.000000
  6
CONTINUOUS
  0
LINE
  8
WHITE
 10
9.096995
 20
11.203001
 30
0.000000
 11
9.623313
 21
11.222833
 31
0.000000
  6
CONTINUOUS
  0
ARC
  8
WHITE
 10
7.709231
 20
10.841471
 30
0.000000
 40
0.245932
 50
100.837291
 51
150.117406
  6
CONTINUOUS
  0
ARC
  8
WHITE
 10
8.290496
 20
7.727901
 30
0.000000
 40
3.413293
 50
78.277240
 51
100.593600
  6
CONTINUOUS
  0
ARC
  8
WHITE
 10
8.935067
 20
10.829324
 30
0.000000
 40
0.245599
 50
-20.577902
 51
78.508490
  6
CONTINUOUS
  0
ARC
  8
WHITE
 10
8.323556
 20
11.055515
 30
0.000000
 40
0.897600
 50
-160.778177
 51
-20.375205
  6
CONTINUOUS
  0
ARC
  8
WHITE
 10
7.708489
 20
10.840188
 30
0.000000
 40
0.245932
 50
149.772009
 51
199.029347
  6
CONTINUOUS
  0
LINE
  8
WHITE
 10
9.372556
 20
18.439409
 30
0.000000
 11
9.372998
 21
18.409999
 31
0.000000
  6
CONTINUOUS
  0
ARC
  8
WHITE
 10
7.922796
 20
18.519901
 30
0.000000
 40
1.454360
 50
-70.260600
 51
-4.333800
  6
CONTINUOUS
  0
ARC
  8
WHITE
 10
8.108177
 20
18.326575
 30
0.000000
 40
1.214702
 50
-178.321705
 51
-75.418064
  6
CONTINUOUS
  0
ARC
  8
WHITE
 10
7.452904
 20
18.305985
 30
0.000000
 40
0.559109
 50
99.772879
 51
181.535819
  6
CONTINUOUS
  0
ARC
  8
WHITE
 10
8.048232
 20
14.839246
 30
0.000000
 40
4.076592
 50
74.466139
 51
99.748059
  6
CONTINUOUS
  0
ARC
  8
WHITE
 10
9.085995
 20
18.574001
 30
0.000000
 40
0.200339
 50
14.452278
 51
74.368710
  6
CONTINUOUS
  0
ARC
  8
WHITE
 10
8.105595
 20
18.325901
 30
0.000000
 40
1.211643
 50
10.995547
 51
14.242660
  6
CONTINUOUS
  0
LINE
  8
WHITE
 10
9.294995
 20
18.557001
 30
0.000000
 11
8.839995
 21
18.538001
 31
0.000000
  6
CONTINUOUS
  0
LINE
  8
WHITE
 10
8.839995
 20
18.538001
 30
0.000000
 11
8.844995
 21
18.418001
 31
0.000000
  6
CONTINUOUS
  0
LINE
  8
WHITE
 10
8.844995
 20
18.418001
 30
0.000000
 11
9.372556
 21
18.439409
 31
0.000000
  6
CONTINUOUS
  0
ARC
  8
WHITE
 10
7.457374
 20
18.052299
 30
0.000000
 40
0.246189
 50
100.861830
 51
199.282665
  6
CONTINUOUS
  0
ARC
  8
WHITE
 10
8.071650
 20
18.268229
 30
0.000000
 40
0.897312
 50
-160.655703
 51
-20.158391
  6
CONTINUOUS
  0
ARC
  8
WHITE
 10
8.682992
 20
18.043990
 30
0.000000
 40
0.246142
 50
-20.199386
 51
78.278828
  6
CONTINUOUS
  0
ARC
  8
WHITE
 10
8.048996
 20
14.941001
 30
0.000000
 40
3.413237
 50
78.439870
 51
100.773300
  6
CONTINUOUS
  0
LINE
  8
WHITE
 10
0.518996
 20
11.462006
 30
0.000000
 11
0.488996
 21
11.465001
 31
0.000000
  6
CONTINUOUS
  0
ARC
  8
WHITE
 10
0.581826
 20
12.144172
 30
0.000000
 40
0.685486
 50
-107.385977
 51
-97.783016
  6
CONTINUOUS
  0
ARC
  8
WHITE
 10
0.361953
 20
11.307004
 30
0.000000
 40
0.183617
 50
85.300169
 51
195.478671
  6
CONTINUOUS
  0
LINE
  8
WHITE
 10
0.184996
 20
11.258001
 30
0.000000
 11
0.534996
 21
11.218001
 31
0.000000
  6
CONTINUOUS
  0
LINE
  8
WHITE
 10
0.534996
 20
11.218001
 30
0.000000
 11
0.520995
 21
11.099001
 31
0.000000
  6
CONTINUOUS
  0
LINE
  8
WHITE
 10
0.520995
 20
11.099001
 30
0.000000
 11
0.177996
 21
11.138001
 31
0.000000
  6
CONTINUOUS
  0
ARC
  8
WHITE
 10
0.591996
 20
11.140380
 30
0.000000
 40
0.414007
 50
-179.670732
 51
-120.319658
  6
CONTINUOUS
  0
ARC
  8
WHITE
 10
-0.135344
 20
6.691928
 30
0.000000
 40
4.123778
 50
55.050223
 51
82.779089
  6
CONTINUOUS
  0
ARC
  8
WHITE
 10
2.610244
 20
10.619837
 30
0.000000
 40
0.668583
 50
-124.975335
 51
-23.148983
  6
CONTINUOUS
  0
ARC
  8
WHITE
 10
7.989956
 20
8.322815
 30
0.000000
 40
5.181000
 50
103.858307
 51
156.882112
  6
CONTINUOUS
  0
ARC
  8
WHITE
 10
6.738995
 20
13.409001
 30
0.000000
 40
0.056885
 50
-79.875300
 51
100.124500
  6
CONTINUOUS
  0
ARC
  8
WHITE
 10
7.273558
 20
8.699996
 30
0.000000
 40
4.796020
 50
96.519694
 51
155.366967
  6
CONTINUOUS
  0
ARC
  8
WHITE
 10
2.570996
 20
10.849001
 30
0.000000
 40
0.374364
 50
-122.119000
 51
-23.620600
  6
CONTINUOUS
  0
ARC
  8
WHITE
 10
5.039942
 20
15.976044
 30
0.000000
 40
6.062713
 50
-129.128501
 51
-116.108025
  6
CONTINUOUS
  0
ARC
  8
WHITE
 10
0.838986
 20
11.058019
 30
0.000000
 40
0.432261
 50
29.824310
 51
106.254458
  6
CONTINUOUS
  0
ARC
  8
WHITE
 10
0.581095
 20
12.144401
 30
0.000000
 40
0.685214
 50
-95.199700
 51
-78.475300
  6
CONTINUOUS
  0
LINE
  8
WHITE
 10
0.511997
 20
9.993006
 30
0.000000
 11
0.482995
 21
9.996001
 31
0.000000
  6
CONTINUOUS
  0
ARC
  8
WHITE
 10
0.573895
 20
10.674901
 30
0.000000
 40
0.684958
 50
-107.318600
 51
-97.626151
  6
CONTINUOUS
  0
ARC
  8
WHITE
 10
0.354944
 20
9.838005
 30
0.000000
 40
0.183609
 50
85.298607
 51
195.479589
  6
CONTINUOUS
  0
LINE
  8
WHITE
 10
0.177996
 20
9.789001
 30
0.000000
 11
0.527995
 21
9.749001
 31
0.000000
  6
CONTINUOUS
  0
LINE
  8
WHITE
 10
0.527995
 20
9.749001
 30
0.000000
 11
0.513996
 21
9.630000
 31
0.000000
  6
CONTINUOUS
  0
LINE
  8
WHITE
 10
0.513996
 20
9.630000
 30
0.000000
 11
0.171995
 21
9.669001
 31
0.000000
  6
CONTINUOUS
  0
ARC
  8
WHITE
 10
0.585996
 20
9.670792
 30
0.000000
 40
0.414005
 50
-179.752086
 51
-120.480054
  6
CONTINUOUS
  0
ARC
  8
WHITE
 10
-0.141103
 20
5.222801
 30
0.000000
 40
4.123749
 50
55.053970
 51
82.796400
  6
CONTINUOUS
  0
ARC
  8
WHITE
 10
2.603463
 20
9.151423
 30
0.000000
 40
0.668611
 50
-124.891704
 51
-23.202309
  6
CONTINUOUS
  0
ARC
  8
WHITE
 10
7.982795
 20
6.853601
 30
0.000000
 40
5.180936
 50
103.845300
 51
156.879200
  6
CONTINUOUS
  0
ARC
  8
WHITE
 10
6.732494
 20
11.940003
 30
0.000000
 40
0.056972
 50
-79.382434
 51
100.617566
  6
CONTINUOUS
  0
ARC
  8
WHITE
 10
7.267596
 20
7.231100
 30
0.000000
 40
4.796035
 50
96.532142
 51
155.368300
  6
CONTINUOUS
  0
ARC
  8
WHITE
 10
2.564975
 20
9.380012
 30
0.000000
 40
0.374364
 50
-122.115176
 51
-23.621225
  6
CONTINUOUS
  0
ARC
  8
WHITE
 10
5.033939
 20
14.507046
 30
0.000000
 40
6.062714
 50
-129.128468
 51
-116.107980
  6
CONTINUOUS
  0
ARC
  8
WHITE
 10
0.832795
 20
9.589300
 30
0.000000
 40
0.432285
 50
29.779400
 51
106.367900
  6
CONTINUOUS
  0
ARC
  8
WHITE
 10
0.573895
 20
10.674901
 30
0.000000
 40
0.684698
 50
-95.186741
 51
-78.451019
  6
CONTINUOUS
  0
LINE
  8
WHITE
 10
13.081014
 20
13.261015
 30
0.000000
 11
13.063996
 21
13.287001
 31
0.000000
  6
CONTINUOUS
  0
ARC
  8
WHITE
 10
13.674302
 20
13.665035
 30
0.000000
 40
0.717902
 50
-175.122902
 51
-148.225177
  6
CONTINUOUS
  0
ARC
  8
WHITE
 10
4.685396
 20
12.753001
 30
0.000000
 40
8.317254
 50
5.872629
 51
8.922560
  6
CONTINUOUS
  0
ARC
  8
WHITE
 10
12.730087
 20
13.997735
 30
0.000000
 40
0.177771
 50
14.751571
 51
147.595876
  6
CONTINUOUS
  0
ARC
  8
WHITE
 10
13.730067
 20
13.365055
 30
0.000000
 40
1.361090
 50
147.667942
 51
406.846307
  6
CONTINUOUS
  0
ARC
  8
WHITE
 10
14.525260
 20
14.214735
 30
0.000000
 40
0.197355
 50
46.545885
 51
186.029674
  6
CONTINUOUS
  0
ARC
  8
WHITE
 10
18.473396
 20
14.613501
 30
0.000000
 40
4.165576
 50
-174.220200
 51
-167.036000
  6
CONTINUOUS
  0
ARC
  8
WHITE
 10
13.663034
 20
13.697310
 30
0.000000
 40
0.751185
 50
-76.138779
 51
-1.396687
  6
CONTINUOUS
  0
LINE
  8
WHITE
 10
13.842996
 20
12.968001
 30
0.000000
 11
13.893996
 21
12.577001
 31
0.000000
  6
CONTINUOUS
  0
LINE
  8
WHITE
 10
13.893996
 20
12.577001
 30
0.000000
 11
13.774996
 21
12.562001
 31
0.000000
  6
CONTINUOUS
  0
LINE
  8
WHITE
 10
13.774996
 20
12.562001
 30
0.000000
 11
13.723996
 21
12.949001
 31
0.000000
  6
CONTINUOUS
  0
ARC
  8
WHITE
 10
13.674296
 20
13.665101
 30
0.000000
 40
0.717823
 50
-145.741100
 51
-86.029827
  6
CONTINUOUS
  0
LINE
  8
WHITE
 10
14.404995
 20
6.728000
 30
0.000000
 11
14.395999
 21
6.698976
 31
0.000000
  6
CONTINUOUS
  0
LINE
  8
WHITE
 10
14.395999
 20
6.698976
 30
0.000000
 11
14.011996
 21
6.822000
 31
0.000000
  6
CONTINUOUS
  0
LINE
  8
WHITE
 10
14.011996
 20
6.822000
 30
0.000000
 11
13.974996
 21
6.707001
 31
0.000000
  6
CONTINUOUS
  0
LINE
  8
WHITE
 10
13.974996
 20
6.707001
 30
0.000000
 11
14.359996
 21
6.584000
 31
0.000000
  6
CONTINUOUS
  0
ARC
  8
WHITE
 10
13.977867
 20
6.780879
 30
0.000000
 40
0.429865
 50
-54.253370
 51
-27.258265
  6
CONTINUOUS
  0
ARC
  8
WHITE
 10
13.029710
 20
-8.148976
 30
0.000000
 40
14.630210
 50
85.298005
 51
94.699767
  6
CONTINUOUS
  0
ARC
  8
WHITE
 10
11.801897
 20
6.768510
 30
0.000000
 40
0.337722
 50
172.599994
 51
274.942069
  6
CONTINUOUS
  0
ARC
  8
WHITE
 10
4.333273
 20
7.749126
 30
0.000000
 40
7.195004
 50
-7.483794
 51
8.728559
  6
CONTINUOUS
  0
ARC
  8
WHITE
 10
8.940996
 20
8.450001
 30
0.000000
 40
2.534294
 50
8.875071
 51
49.288356
  6
CONTINUOUS
  0
LINE
  8
WHITE
 10
10.593996
 20
10.371001
 30
0.000000
 11
10.173996
 21
10.516001
 31
0.000000
  6
CONTINUOUS
  0
ARC
  8
WHITE
 10
10.211996
 20
10.628001
 30
0.000000
 40
0.118270
 50
71.258660
 51
251.258500
  6
CONTINUOUS
  0
LINE
  8
WHITE
 10
10.249996
 20
10.740001
 30
0.000000
 11
10.936996
 21
10.504001
 31
0.000000
  6
CONTINUOUS
  0
ARC
  8
WHITE
 10
9.070988
 20
8.440903
 30
0.000000
 40
2.781790
 50
-4.554663
 51
47.871630
  6
CONTINUOUS
  0
ARC
  8
WHITE
 10
15.573091
 20
7.922436
 30
0.000000
 40
3.740951
 50
175.437723
 51
190.261837
  6
CONTINUOUS
  0
ARC
  8
WHITE
 10
12.385996
 20
7.345001
 30
0.000000
 40
0.501969
 50
-169.787000
 51
-82.789883
  6
CONTINUOUS
  0
ARC
  8
WHITE
 10
11.654671
 20
11.450162
 30
0.000000
 40
4.671194
 50
-80.209399
 51
-66.357112
  6
CONTINUOUS
  0
ARC
  8
WHITE
 10
13.742080
 20
6.298917
 30
0.000000
 40
0.898033
 50
44.556962
 51
103.792562
  6
CONTINUOUS
  0
ARC
  8
WHITE
 10
13.977861
 20
6.780896
 30
0.000000
 40
0.430397
 50
-7.059492
 51
20.126472
  6
CONTINUOUS
  0
LINE
  8
WHITE
 10
12.507009
 20
8.096995
 30
0.000000
 11
12.521526
 21
8.122681
 31
0.000000
  6
CONTINUOUS
  0
LINE
  8
WHITE
 10
12.521526
 20
8.122681
 30
0.000000
 11
12.869996
 21
7.920000
 31
0.000000
  6
CONTINUOUS
  0
LINE
  8
WHITE
 10
12.869996
 20
7.920000
 30
0.000000
 11
12.929996
 21
8.024000
 31
0.000000
  6
CONTINUOUS
  0
LINE
  8
WHITE
 10
12.929996
 20
8.024000
 30
0.000000
 11
12.580996
 21
8.227001
 31
0.000000
  6
CONTINUOUS
  0
ARC
  8
WHITE
 10
12.911579
 20
7.951493
 30
0.000000
 40
0.430336
 50
113.208941
 51
140.192250
  6
CONTINUOUS
  0
ARC
  8
WHITE
 10
17.056169
 20
22.326947
 30
0.000000
 40
14.630480
 50
-107.150108
 51
-97.746992
  6
CONTINUOUS
  0
ARC
  8
WHITE
 10
15.038806
 20
7.495029
 30
0.000000
 40
0.338005
 50
-19.716966
 51
82.316819
  6
CONTINUOUS
  0
ARC
  8
WHITE
 10
22.120279
 20
4.927752
 30
0.000000
 40
7.194471
 50
160.062795
 51
176.276289
  6
CONTINUOUS
  0
ARC
  8
WHITE
 10
17.469996
 20
5.236300
 30
0.000000
 40
2.533974
 50
176.409300
 51
216.839100
  6
CONTINUOUS
  0
LINE
  8
WHITE
 10
15.442000
 20
3.717005
 30
0.000000
 11
15.821996
 21
3.486001
 31
0.000000
  6
CONTINUOUS
  0
ARC
  8
WHITE
 10
15.759996
 20
3.385001
 30
0.000000
 40
0.118512
 50
-121.543900
 51
58.455843
  6
CONTINUOUS
  0
LINE
  8
WHITE
 10
15.697997
 20
3.284001
 30
0.000000
 11
15.078996
 21
3.661001
 31
0.000000
  6
CONTINUOUS
  0
ARC
  8
WHITE
 10
17.346796
 20
5.273200
 30
0.000000
 40
2.782463
 50
162.993900
 51
215.409356
  6
CONTINUOUS
  0
ARC
  8
WHITE
 10
11.108196
 20
7.181701
 30
0.000000
 40
3.741531
 50
-17.012591
 51
-2.185800
  6
CONTINUOUS
  0
ARC
  8
WHITE
 10
14.344994
 20
7.057755
 30
0.000000
 40
0.502356
 50
-2.139741
 51
84.745969
  6
CONTINUOUS
  0
ARC
  8
WHITE
 10
14.170496
 20
2.891900
 30
0.000000
 40
4.671307
 50
87.294460
 51
101.152100
  6
CONTINUOUS
  0
ARC
  8
WHITE
 10
13.245883
 20
8.373020
 30
0.000000
 40
0.898269
 50
-147.773296
 51
-88.653004
  6
CONTINUOUS
  0
ARC
  8
WHITE
 10
12.911938
 20
7.952495
 30
0.000000
 40
0.429939
 50
160.360937
 51
187.819663
  6
CONTINUOUS
  0
LINE
  8
WHITE
 10
12.337990
 20
0.840034
 30
0.000000
 11
12.307996
 21
0.835994
 31
0.000000
  6
CONTINUOUS
  0
LINE
  8
WHITE
 10
12.307996
 20
0.835994
 30
0.000000
 11
12.307996
 21
0.486000
 31
0.000000
  6
CONTINUOUS
  0
LINE
  8
WHITE
 10
12.307996
 20
0.486000
 30
0.000000
 11
12.187996
 21
0.486000
 31
0.000000
  6
CONTINUOUS
  0
LINE
  8
WHITE
 10
12.187996
 20
0.486000
 30
0.000000
 11
12.187996
 21
0.833001
 31
0.000000
  6
CONTINUOUS
  0
ARC
  8
WHITE
 10
12.232796
 20
1.470100
 30
0.000000
 40
0.638672
 50
145.262300
 51
265.977654
  6
CONTINUOUS
  0
ARC
  8
WHITE
 10
11.541266
 20
1.952839
 30
0.000000
 40
0.204697
 50
-35.480120
 51
134.823398
  6
CONTINUOUS
  0
ARC
  8
WHITE
 10
12.250569
 20
1.233574
 30
0.000000
 40
1.214871
 50
134.638031
 51
406.033826
  6
CONTINUOUS
  0
ARC
  8
WHITE
 10
12.960854
 20
1.930607
 30
0.000000
 40
0.221767
 50
53.111284
 51
211.116869
  6
CONTINUOUS
  0
ARC
  8
WHITE
 10
12.233853
 20
1.470275
 30
0.000000
 40
0.638787
 50
-80.617594
 51
32.766864
  6
CONTINUOUS
  0
LINE
  8
WHITE
 10
8.595944
 20
16.583001
 30
0.000000
 11
8.595360
 21
16.553001
 31
0.000000
  6
CONTINUOUS
  0
LINE
  8
WHITE
 10
8.595360
 20
16.553001
 30
0.000000
 11
8.113995
 21
16.553001
 31
0.000000
  6
CONTINUOUS
  0
LINE
  8
WHITE
 10
8.113995
 20
16.553001
 30
0.000000
 11
8.113995
 21
16.433001
 31
0.000000
  6
CONTINUOUS
  0
LINE
  8
WHITE
 10
8.113995
 20
16.433001
 30
0.000000
 11
8.593996
 21
16.433001
 31
0.000000
  6
CONTINUOUS
  0
ARC
  8
WHITE
 10
8.300996
 20
16.451301
 30
0.000000
 40
0.293571
 50
-73.373700
 51
-3.573900
  6
CONTINUOUS
  0
ARC
  8
WHITE
 10
7.420795
 20
19.424601
 30
0.000000
 40
3.394419
 50
-101.725000
 51
-73.497664
  6
CONTINUOUS
  0
ARC
  8
WHITE
 10
6.846297
 20
16.648906
 30
0.000000
 40
0.559900
 50
165.192343
 51
258.116257
  6
CONTINUOUS
  0
ARC
  8
WHITE
 10
1.566395
 20
17.650901
 30
0.000000
 40
4.815808
 50
-10.273655
 51
0.536595
  6
CONTINUOUS
  0
ARC
  8
WHITE
 10
4.492696
 20
16.913801
 30
0.000000
 40
2.044820
 50
22.490368
 51
77.479390
  6
CONTINUOUS
  0
LINE
  8
WHITE
 10
4.935994
 20
18.909991
 30
0.000000
 11
4.571995
 21
18.910001
 31
0.000000
  6
CONTINUOUS
  0
ARC
  8
WHITE
 10
4.572496
 20
18.990501
 30
0.000000
 40
0.080502
 50
89.644331
 51
269.643418
  6
CONTINUOUS
  0
LINE
  8
WHITE
 10
4.572996
 20
19.071000
 30
0.000000
 11
4.964996
 21
19.071001
 31
0.000000
  6
CONTINUOUS
  0
ARC
  8
WHITE
 10
4.892396
 20
17.249001
 30
0.000000
 40
1.823446
 50
-11.546500
 51
87.718181
  6
CONTINUOUS
  0
ARC
  8
WHITE
 10
6.977990
 20
16.823177
 30
0.000000
 40
0.305176
 50
168.501026
 51
270.001087
  6
CONTINUOUS
  0
LINE
  8
WHITE
 10
6.977996
 20
16.518001
 30
0.000000
 11
7.252996
 21
16.518001
 31
0.000000
  6
CONTINUOUS
  0
ARC
  8
WHITE
 10
7.252996
 20
16.900001
 30
0.000000
 40
0.382000
 50
-90.000000
 51
-22.469900
  6
CONTINUOUS
  0
ARC
  8
WHITE
 10
7.875188
 20
16.643401
 30
0.000000
 40
0.291029
 50
84.319090
 51
157.664375
  6
CONTINUOUS
  0
LINE
  8
WHITE
 10
7.903996
 20
16.933001
 30
0.000000
 11
8.401995
 21
16.826001
 31
0.000000
  6
CONTINUOUS
  0
ARC
  8
WHITE
 10
8.347995
 20
16.584001
 30
0.000000
 40
0.247952
 50
-0.230900
 51
77.421065
  6
CONTINUOUS
  0
LINE
  8
WHITE
 10
12.745945
 20
2.506000
 30
0.000000
 11
12.745270
 21
2.536001
 31
0.000000
  6
CONTINUOUS
  0
LINE
  8
WHITE
 10
12.745270
 20
2.536001
 30
0.000000
 11
12.263996
 21
2.536001
 31
0.000000
  6
CONTINUOUS
  0
LINE
  8
WHITE
 10
12.263996
 20
2.536001
 30
0.000000
 11
12.263996
 21
2.656000
 31
0.000000
  6
CONTINUOUS
  0
LINE
  8
WHITE
 10
12.263996
 20
2.656000
 30
0.000000
 11
12.743996
 21
2.656000
 31
0.000000
  6
CONTINUOUS
  0
ARC
  8
WHITE
 10
12.450996
 20
2.637700
 30
0.000000
 40
0.293571
 50
3.573900
 51
73.373560
  6
CONTINUOUS
  0
ARC
  8
WHITE
 10
11.570796
 20
-0.335599
 30
0.000000
 40
3.394417
 50
73.497663
 51
101.725100
  6
CONTINUOUS
  0
ARC
  8
WHITE
 10
10.996291
 20
2.440099
 30
0.000000
 40
0.559895
 50
101.883659
 51
194.808229
  6
CONTINUOUS
  0
ARC
  8
WHITE
 10
5.717396
 20
1.432800
 30
0.000000
 40
4.815772
 50
-0.485400
 51
10.337837
  6
CONTINUOUS
  0
ARC
  8
WHITE
 10
8.643796
 20
2.174501
 30
0.000000
 40
2.044845
 50
-77.511300
 51
-22.499114
  6
CONTINUOUS
  0
LINE
  8
WHITE
 10
9.085987
 20
0.178042
 30
0.000000
 11
8.721995
 21
0.178000
 31
0.000000
  6
CONTINUOUS
  0
ARC
  8
WHITE
 10
8.722995
 20
0.098001
 30
0.000000
 40
0.080005
 50
90.716169
 51
270.000000
  6
CONTINUOUS
  0
LINE
  8
WHITE
 10
8.722995
 20
0.017995
 30
0.000000
 11
9.115995
 21
0.018000
 31
0.000000
  6
CONTINUOUS
  0
ARC
  8
WHITE
 10
9.042395
 20
1.840000
 30
0.000000
 40
1.823486
 50
-87.686785
 51
11.546560
  6
CONTINUOUS
  0
ARC
  8
WHITE
 10
11.127976
 20
2.265801
 30
0.000000
 40
0.305119
 50
89.996242
 51
191.494956
  6
CONTINUOUS
  0
LINE
  8
WHITE
 10
11.127996
 20
2.570920
 30
0.000000
 11
11.402996
 21
2.571000
 31
0.000000
  6
CONTINUOUS
  0
ARC
  8
WHITE
 10
11.402592
 20
2.189009
 30
0.000000
 40
0.381990
 50
22.306731
 51
89.939394
  6
CONTINUOUS
  0
ARC
  8
WHITE
 10
12.024796
 20
2.445500
 30
0.000000
 40
0.291008
 50
-157.471000
 51
-84.240300
  6
CONTINUOUS
  0
LINE
  8
WHITE
 10
12.054000
 20
2.155961
 30
0.000000
 11
12.551996
 21
2.263001
 31
0.000000
  6
CONTINUOUS
  0
ARC
  8
WHITE
 10
12.497996
 20
2.505001
 30
0.000000
 40
0.247952
 50
-77.421065
 51
0.231014
  6
CONTINUOUS
  0
LINE
  8
WHITE
 10
12.604996
 20
17.802783
 30
0.000000
 11
12.574986
 21
17.807946
 31
0.000000
  6
CONTINUOUS
  0
ARC
  8
WHITE
 10
12.693223
 20
18.405473
 30
0.000000
 40
0.609114
 50
159.977626
 51
258.807078
  6
CONTINUOUS
  0
ARC
  8
WHITE
 10
11.960896
 20
18.671801
 30
0.000000
 40
0.170138
 50
-19.850900
 51
138.741387
  6
CONTINUOUS
  0
ARC
  8
WHITE
 10
12.664970
 20
18.067970
 30
0.000000
 40
1.097670
 50
139.283395
 51
400.714835
  6
CONTINUOUS
  0
ARC
  8
WHITE
 10
13.368109
 20
18.672315
 30
0.000000
 40
0.170504
 50
40.910170
 51
200.011941
  6
CONTINUOUS
  0
ARC
  8
WHITE
 10
12.636596
 20
18.404901
 30
0.000000
 40
0.608356
 50
-81.644802
 51
20.099830
  6
CONTINUOUS
  0
LINE
  8
WHITE
 10
12.724996
 20
17.803001
 30
0.000000
 11
12.724996
 21
17.496001
 31
0.000000
  6
CONTINUOUS
  0
LINE
  8
WHITE
 10
12.724996
 20
17.496001
 30
0.000000
 11
12.604996
 21
17.496001
 31
0.000000
  6
CONTINUOUS
  0
LINE
  8
WHITE
 10
12.604996
 20
17.496001
 30
0.000000
 11
12.604996
 21
17.802783
 31
0.000000
  6
CONTINUOUS
  0
LINE
  8
WHITE
 10
6.809970
 20
10.243002
 30
0.000000
 11
6.806126
 21
10.212145
 31
0.000000
  6
CONTINUOUS
  0
LINE
  8
WHITE
 10
6.806126
 20
10.212145
 30
0.000000
 11
6.045995
 21
10.132001
 31
0.000000
  6
CONTINUOUS
  0
LINE
  8
WHITE
 10
6.045995
 20
10.132001
 30
0.000000
 11
6.058995
 21
10.006001
 31
0.000000
  6
CONTINUOUS
  0
LINE
  8
WHITE
 10
6.058995
 20
10.006001
 30
0.000000
 11
6.819996
 21
10.086001
 31
0.000000
  6
CONTINUOUS
  0
ARC
  8
WHITE
 10
6.391996
 20
9.923001
 30
0.000000
 40
0.457988
 50
-72.989300
 51
20.848891
  6
CONTINUOUS
  0
ARC
  8
WHITE
 10
6.303136
 20
10.208837
 30
0.000000
 40
0.757315
 50
-121.186819
 51
-72.887113
  6
CONTINUOUS
  0
ARC
  8
WHITE
 10
5.194654
 20
8.365225
 30
0.000000
 40
1.393885
 50
59.075835
 51
110.478745
  6
CONTINUOUS
  0
ARC
  8
WHITE
 10
4.663293
 20
9.788120
 30
0.000000
 40
0.124988
 50
-173.975121
 51
-69.536724
  6
CONTINUOUS
  0
LINE
  8
WHITE
 10
4.538995
 20
9.775001
 30
0.000000
 11
4.510996
 21
10.042001
 31
0.000000
  6
CONTINUOUS
  0
ARC
  8
WHITE
 10
4.634896
 20
10.055801
 30
0.000000
 40
0.124666
 50
81.187390
 51
186.355418
  6
CONTINUOUS
  0
ARC
  8
WHITE
 10
4.859488
 20
11.558102
 30
0.000000
 40
1.394333
 50
-98.474949
 51
-47.080686
  6
CONTINUOUS
  0
ARC
  8
WHITE
 10
6.327171
 20
9.984303
 30
0.000000
 40
0.757633
 50
84.939992
 51
133.153576
  6
CONTINUOUS
  0
ARC
  8
WHITE
 10
6.352894
 20
10.282084
 30
0.000000
 40
0.458744
 50
-4.887114
 51
84.859840
  6
CONTINUOUS
  0
LINE
  8
WHITE
 10
10.035003
 20
9.258981
 30
0.000000
 11
10.063996
 21
9.268001
 31
0.000000
  6
CONTINUOUS
  0
ARC
  8
WHITE
 10
10.207144
 20
8.724915
 30
0.000000
 40
0.561635
 50
87.463867
 51
104.766371
  6
CONTINUOUS
  0
LINE
  8
WHITE
 10
10.231996
 20
9.285999
 30
0.000000
 11
10.247996
 21
8.638001
 31
0.000000
  6
CONTINUOUS
  0
LINE
  8
WHITE
 10
10.247996
 20
8.638001
 30
0.000000
 11
10.367996
 21
8.641000
 31
0.000000
  6
CONTINUOUS
  0
LINE
  8
WHITE
 10
10.367996
 20
8.641000
 30
0.000000
 11
10.351996
 21
9.289001
 31
0.000000
  6
CONTINUOUS
  0
ARC
  8
WHITE
 10
10.405259
 20
8.732046
 30
0.000000
 40
0.559496
 50
38.848963
 51
95.462778
  6
CONTINUOUS
  0
LINE
  8
WHITE
 10
10.840996
 20
9.083001
 30
0.000000
 11
10.864996
 21
8.124001
 31
0.000000
  6
CONTINUOUS
  0
ARC
  8
WHITE
 10
12.149996
 20
8.113001
 30
0.000000
 40
1.285047
 50
179.509542
 51
204.211500
  6
CONTINUOUS
  0
ARC
  8
WHITE
 10
10.889877
 20
7.544012
 30
0.000000
 40
0.097599
 50
-122.813177
 51
25.477529
  6
CONTINUOUS
  0
ARC
  8
WHITE
 10
11.012712
 20
7.749179
 30
0.000000
 40
0.336688
 50
-143.519203
 51
-121.461053
  6
CONTINUOUS
  0
ARC
  8
WHITE
 10
10.117496
 20
7.172301
 30
0.000000
 40
0.729316
 50
31.098490
 51
68.313860
  6
CONTINUOUS
  0
ARC
  8
WHITE
 10
10.330496
 20
7.707801
 30
0.000000
 40
0.153009
 50
68.330808
 51
114.521300
  6
CONTINUOUS
  0
ARC
  8
WHITE
 10
10.571162
 20
7.183085
 30
0.000000
 40
0.730288
 50
114.614346
 51
151.727235
  6
CONTINUOUS
  0
ARC
  8
WHITE
 10
9.647996
 20
7.715000
 30
0.000000
 40
0.336148
 50
-55.789900
 51
-33.595500
  6
CONTINUOUS
  0
ARC
  8
WHITE
 10
9.782005
 20
7.518023
 30
0.000000
 40
0.097908
 50
158.430401
 51
304.165036
  6
CONTINUOUS
  0
ARC
  8
WHITE
 10
8.493618
 20
8.022056
 30
0.000000
 40
1.285564
 50
-21.350559
 51
3.342021
  6
CONTINUOUS
  0
LINE
  8
WHITE
 10
9.776995
 20
8.097000
 30
0.000000
 11
9.752995
 21
9.056000
 31
0.000000
  6
CONTINUOUS
  0
ARC
  8
WHITE
 10
10.205296
 20
8.725000
 30
0.000000
 40
0.560479
 50
107.688100
 51
143.802829
  6
CONTINUOUS
  0
LINE
  8
WHITE
 10
7.636995
 20
12.782988
 30
0.000000
 11
7.606995
 21
12.782001
 31
0.000000
  6
CONTINUOUS
  0
ARC
  8
WHITE
 10
7.625266
 20
12.532972
 30
0.000000
 40
0.249698
 50
94.196129
 51
131.142131
  6
CONTINUOUS
  0
LINE
  8
WHITE
 10
7.460982
 20
12.721014
 30
0.000000
 11
7.341995
 21
12.616001
 31
0.000000
  6
CONTINUOUS
  0
ARC
  8
WHITE
 10
7.227996
 20
12.745001
 30
0.000000
 40
0.172153
 50
170.975300
 51
311.467456
  6
CONTINUOUS
  0
ARC
  8
WHITE
 10
7.837973
 20
12.652003
 30
0.000000
 40
0.789176
 50
-97.132400
 51
171.253739
  6
CONTINUOUS
  0
ARC
  8
WHITE
 10
7.761308
 20
12.040044
 30
0.000000
 40
0.172433
 50
122.770281
 51
262.897338
  6
CONTINUOUS
  0
LINE
  8
WHITE
 10
7.667975
 20
12.185034
 30
0.000000
 11
7.800996
 21
12.270001
 31
0.000000
  6
CONTINUOUS
  0
ARC
  8
WHITE
 10
7.666196
 20
12.480101
 30
0.000000
 40
0.249626
 50
-57.315800
 51
31.085690
  6
CONTINUOUS
  0
LINE
  8
WHITE
 10
7.879974
 20
12.608987
 30
0.000000
 11
8.150996
 21
12.813001
 31
0.000000
  6
CONTINUOUS
  0
LINE
  8
WHITE
 10
8.150996
 20
12.813001
 30
0.000000
 11
8.078995
 21
12.909001
 31
0.000000
  6
CONTINUOUS
  0
LINE
  8
WHITE
 10
8.078995
 20
12.909001
 30
0.000000
 11
7.807996
 21
12.704001
 31
0.000000
  6
CONTINUOUS
  0
ARC
  8
WHITE
 10
7.625245
 20
12.532954
 30
0.000000
 40
0.250310
 50
43.105176
 51
87.309336
  6
CONTINUOUS
  0
LINE
  8
WHITE
 10
7.646987
 20
3.583014
 30
0.000000
 11
7.620996
 21
3.568000
 31
0.000000
  6
CONTINUOUS
  0
ARC
  8
WHITE
 10
7.808871
 20
3.279919
 30
0.000000
 40
0.343929
 50
123.110906
 51
152.072378
  6
CONTINUOUS
  0
LINE
  8
WHITE
 10
7.504996
 20
3.441001
 30
0.000000
 11
7.761996
 21
3.183000
 31
0.000000
  6
CONTINUOUS
  0
LINE
  8
WHITE
 10
7.761996
 20
3.183000
 30
0.000000
 11
7.676995
 21
3.098001
 31
0.000000
  6
CONTINUOUS
  0
LINE
  8
WHITE
 10
7.676995
 20
3.098001
 30
0.000000
 11
7.419996
 21
3.356001
 31
0.000000
  6
CONTINUOUS
  0
ARC
  8
WHITE
 10
7.580387
 20
3.052196
 30
0.000000
 40
0.343544
 50
117.831454
 51
198.181554
  6
CONTINUOUS
  0
ARC
  8
WHITE
 10
7.811404
 20
3.126873
 30
0.000000
 40
0.586329
 50
-161.929464
 51
-129.431323
  6
CONTINUOUS
  0
ARC
  8
WHITE
 10
6.739591
 20
1.835541
 30
0.000000
 40
1.091871
 50
7.549828
 51
50.166668
  6
CONTINUOUS
  0
ARC
  8
WHITE
 10
7.917088
 20
1.994542
 30
0.000000
 40
0.096354
 50
-170.717474
 51
-15.372403
  6
CONTINUOUS
  0
ARC
  8
WHITE
 10
7.262388
 20
2.234080
 30
0.000000
 40
0.793211
 50
-19.523065
 51
2.234054
  6
CONTINUOUS
  0
ARC
  8
WHITE
 10
10.082196
 20
2.725000
 30
0.000000
 40
2.078735
 50
178.704400
 51
192.784700
  6
CONTINUOUS
  0
ARC
  8
WHITE
 10
8.079896
 20
2.781100
 30
0.000000
 40
0.076447
 50
83.163221
 51
186.835490
  6
CONTINUOUS
  0
ARC
  8
WHITE
 10
8.134995
 20
0.779000
 30
0.000000
 40
2.078508
 50
77.214070
 51
91.268107
  6
CONTINUOUS
  0
ARC
  8
WHITE
 10
8.628309
 20
3.598904
 30
0.000000
 40
0.793635
 50
-92.406337
 51
-70.671059
  6
CONTINUOUS
  0
ARC
  8
WHITE
 10
8.866731
 20
2.943483
 30
0.000000
 40
0.096577
 50
-75.448691
 51
81.506299
  6
CONTINUOUS
  0
ARC
  8
WHITE
 10
9.023285
 20
4.121112
 30
0.000000
 40
1.091426
 50
-140.098809
 51
-97.491001
  6
CONTINUOUS
  0
ARC
  8
WHITE
 10
7.732104
 20
3.051091
 30
0.000000
 40
0.585534
 50
39.179060
 51
71.696083
  6
CONTINUOUS
  0
ARC
  8
WHITE
 10
7.809552
 20
3.280284
 30
0.000000
 40
0.343618
 50
71.954533
 51
118.235607
  6
CONTINUOUS
  0
ENDSEC
  0
EOF
