  0
SECTION
  2
HEADER
  9
$ACADVER
  1
AC1015
  9
$ACADMAINTVER
 70
    20
  9
$DWGCODEPAGE
  3
ANSI_1252
  9
$INSBASE
 10
0.0
 20
0.0
 30
0.0
  9
$EXTMIN
 10
0.0
 20
0.0
 30
0.0
  9
$EXTMAX
 10
13.46215047855021
 20
7.648954598087022
 30
0.0
  9
$LIMMIN
 10
0.0
 20
0.0
  9
$LIMMAX
 10
12.0
 20
9.0
  9
$ORTHOMODE
 70
     0
  9
$REGENMODE
 70
     1
  9
$FILLMODE
 70
     1
  9
$QTEXTMODE
 70
     0
  9
$MIRRTEXT
 70
     0
  9
$LTSCALE
 40
1.0
  9
$ATTMODE
 70
     1
  9
$TEXTSIZE
 40
0.2
  9
$TRACEWID
 40
0.05
  9
$TEXTSTYLE
  7
Standard
  9
$CLAYER
  8
0
  9
$CELTYPE
  6
Continuous
  9
$CECOLOR
 62
   256
  9
$CELTSCALE
 40
1.0
  9
$DISPSILH
 70
     0
  9
$DIMSCALE
 40
1.0
  9
$DIMASZ
 40
0.18
  9
$DIMEXO
 40
0.0625
  9
$DIMDLI
 40
0.38
  9
$DIMRND
 40
0.0
  9
$DIMDLE
 40
0.0
  9
$DIMEXE
 40
0.18
  9
$DIMTP
 40
0.0
  9
$DIMTM
 40
0.0
  9
$DIMTXT
 40
0.18
  9
$DIMCEN
 40
0.09
  9
$DIMTSZ
 40
0.0
  9
$DIMTOL
 70
     0
  9
$DIMLIM
 70
     0
  9
$DIMTIH
 70
     1
  9
$DIMTOH
 70
     1
  9
$DIMSE1
 70
     0
  9
$DIMSE2
 70
     0
  9
$DIMTAD
 70
     0
  9
$DIMZIN
 70
     0
  9
$DIMBLK
  1

  9
$DIMASO
 70
     1
  9
$DIMSHO
 70
     1
  9
$DIMPOST
  1

  9
$DIMAPOST
  1

  9
$DIMALT
 70
     0
  9
$DIMALTD
 70
     2
  9
$DIMALTF
 40
25.4
  9
$DIMLFAC
 40
1.0
  9
$DIMTOFL
 70
     0
  9
$DIMTVP
 40
0.0
  9
$DIMTIX
 70
     0
  9
$DIMSOXD
 70
     0
  9
$DIMSAH
 70
     0
  9
$DIMBLK1
  1

  9
$DIMBLK2
  1

  9
$DIMSTYLE
  2
Standard
  9
$DIMCLRD
 70
     0
  9
$DIMCLRE
 70
     0
  9
$DIMCLRT
 70
     0
  9
$DIMTFAC
 40
1.0
  9
$DIMGAP
 40
0.09
  9
$DIMJUST
 70
     0
  9
$DIMSD1
 70
     0
  9
$DIMSD2
 70
     0
  9
$DIMTOLJ
 70
     1
  9
$DIMTZIN
 70
     0
  9
$DIMALTZ
 70
     0
  9
$DIMALTTZ
 70
     0
  9
$DIMUPT
 70
     0
  9
$DIMDEC
 70
     4
  9
$DIMTDEC
 70
     4
  9
$DIMALTU
 70
     2
  9
$DIMALTTD
 70
     2
  9
$DIMTXSTY
  7
Standard
  9
$DIMAUNIT
 70
     0
  9
$DIMADEC
 70
     0
  9
$DIMALTRND
 40
0.0
  9
$DIMAZIN
 70
     0
  9
$DIMDSEP
 70
    46
  9
$DIMATFIT
 70
     3
  9
$DIMFRAC
 70
     0
  9
$DIMLDRBLK
  1

  9
$DIMLUNIT
 70
     2
  9
$DIMLWD
 70
    -2
  9
$DIMLWE
 70
    -2
  9
$DIMTMOVE
 70
     0
  9
$LUNITS
 70
     2
  9
$LUPREC
 70
     4
  9
$SKETCHINC
 40
0.1
  9
$FILLETRAD
 40
0.0
  9
$AUNITS
 70
     0
  9
$AUPREC
 70
     0
  9
$MENU
  1
.
  9
$ELEVATION
 40
0.0
  9
$PELEVATION
 40
0.0
  9
$THICKNESS
 40
0.0
  9
$LIMCHECK
 70
     0
  9
$CHAMFERA
 40
0.0
  9
$CHAMFERB
 40
0.0
  9
$CHAMFERC
 40
0.0
  9
$CHAMFERD
 40
0.0
  9
$SKPOLY
 70
     0
  9
$TDCREATE
 40
2455071.999293577
  9
$TDUCREATE
 40
2455072.165960243
  9
$TDUPDATE
 40
2455109.924646285
  9
$TDUUPDATE
 40
2455110.091312951
  9
$TDINDWG
 40
0.0548989120
  9
$TDUSRTIMER
 40
0.0548977662
  9
$USRTIMER
 70
     1
  9
$ANGBASE
 50
0.0
  9
$ANGDIR
 70
     0
  9
$PDMODE
 70
     0
  9
$PDSIZE
 40
0.0
  9
$PLINEWID
 40
0.0
  9
$SPLFRAME
 70
     0
  9
$SPLINETYPE
 70
     6
  9
$SPLINESEGS
 70
     8
  9
$HANDSEED
  5
E5E
  9
$SURFTAB1
 70
     6
  9
$SURFTAB2
 70
     6
  9
$SURFTYPE
 70
     6
  9
$SURFU
 70
     6
  9
$SURFV
 70
     6
  9
$UCSBASE
  2

  9
$UCSNAME
  2

  9
$UCSORG
 10
0.0
 20
0.0
 30
0.0
  9
$UCSXDIR
 10
1.0
 20
0.0
 30
0.0
  9
$UCSYDIR
 10
0.0
 20
1.0
 30
0.0
  9
$UCSORTHOREF
  2

  9
$UCSORTHOVIEW
 70
     0
  9
$UCSORGTOP
 10
0.0
 20
0.0
 30
0.0
  9
$UCSORGBOTTOM
 10
0.0
 20
0.0
 30
0.0
  9
$UCSORGLEFT
 10
0.0
 20
0.0
 30
0.0
  9
$UCSORGRIGHT
 10
0.0
 20
0.0
 30
0.0
  9
$UCSORGFRONT
 10
0.0
 20
0.0
 30
0.0
  9
$UCSORGBACK
 10
0.0
 20
0.0
 30
0.0
  9
$PUCSBASE
  2

  9
$PUCSNAME
  2

  9
$PUCSORG
 10
0.0
 20
0.0
 30
0.0
  9
$PUCSXDIR
 10
1.0
 20
0.0
 30
0.0
  9
$PUCSYDIR
 10
0.0
 20
1.0
 30
0.0
  9
$PUCSORTHOREF
  2

  9
$PUCSORTHOVIEW
 70
     0
  9
$PUCSORGTOP
 10
0.0
 20
0.0
 30
0.0
  9
$PUCSORGBOTTOM
 10
0.0
 20
0.0
 30
0.0
  9
$PUCSORGLEFT
 10
0.0
 20
0.0
 30
0.0
  9
$PUCSORGRIGHT
 10
0.0
 20
0.0
 30
0.0
  9
$PUCSORGFRONT
 10
0.0
 20
0.0
 30
0.0
  9
$PUCSORGBACK
 10
0.0
 20
0.0
 30
0.0
  9
$USERI1
 70
     0
  9
$USERI2
 70
     0
  9
$USERI3
 70
     0
  9
$USERI4
 70
     0
  9
$USERI5
 70
     0
  9
$USERR1
 40
0.0
  9
$USERR2
 40
0.0
  9
$USERR3
 40
0.0
  9
$USERR4
 40
0.0
  9
$USERR5
 40
0.0
  9
$WORLDVIEW
 70
     1
  9
$SHADEDGE
 70
     3
  9
$SHADEDIF
 70
    70
  9
$TILEMODE
 70
     1
  9
$MAXACTVP
 70
    64
  9
$PINSBASE
 10
0.0
 20
0.0
 30
0.0
  9
$PLIMCHECK
 70
     0
  9
$PEXTMIN
 10
1.000000000000000E+20
 20
1.000000000000000E+20
 30
1.000000000000000E+20
  9
$PEXTMAX
 10
-1.000000000000000E+20
 20
-1.000000000000000E+20
 30
-1.000000000000000E+20
  9
$PLIMMIN
 10
0.0
 20
0.0
  9
$PLIMMAX
 10
12.0
 20
9.0
  9
$UNITMODE
 70
     0
  9
$VISRETAIN
 70
     1
  9
$PLINEGEN
 70
     0
  9
$PSLTSCALE
 70
     1
  9
$TREEDEPTH
 70
  3020
  9
$CMLSTYLE
  2
Standard
  9
$CMLJUST
 70
     0
  9
$CMLSCALE
 40
1.0
  9
$PROXYGRAPHICS
 70
     1
  9
$MEASUREMENT
 70
     0
  9
$CELWEIGHT
370
    -1
  9
$ENDCAPS
280
     0
  9
$JOINSTYLE
280
     0
  9
$LWDISPLAY
290
     0
  9
$INSUNITS
 70
     0
  9
$HYPERLINKBASE
  1

  9
$STYLESHEET
  1

  9
$XEDIT
290
     1
  9
$CEPSNTYPE
380
     0
  9
$PSTYLEMODE
290
     1
  9
$FINGERPRINTGUID
  2
{3AFCD0B3-4DDD-4A01-9E5B-F511FCA8ABF6}
  9
$VERSIONGUID
  2
{35FEE6AA-A3B0-4621-84A3-7EEFC0CBC0B7}
  9
$EXTNAMES
290
     1
  9
$PSVPSCALE
 40
0.0
  9
$OLESTARTUP
290
     0
  0
ENDSEC
  0
SECTION
  2
CLASSES
  0
CLASS
  1
ACDBDICTIONARYWDFLT
  2
AcDbDictionaryWithDefault
  3
ObjectDBX Classes
 90
        0
280
     0
281
     0
  0
CLASS
  1
TABLESTYLE
  2
AcDbTableStyle
  3
ObjectDBX Classes
 90
     2047
280
     0
281
     0
  0
CLASS
  1
DICTIONARYVAR
  2
AcDbDictionaryVar
  3
ObjectDBX Classes
 90
        0
280
     0
281
     0
  0
CLASS
  1
ACDBPLACEHOLDER
  2
AcDbPlaceHolder
  3
ObjectDBX Classes
 90
        0
280
     0
281
     0
  0
CLASS
  1
LAYOUT
  2
AcDbLayout
  3
ObjectDBX Classes
 90
        0
280
     0
281
     0
  0
CLASS
  1
SORTENTSTABLE
  2
AcDbSortentsTable
  3
ObjectDBX Classes
 90
        0
280
     0
281
     0
  0
ENDSEC
  0
SECTION
  2
TABLES
  0
TABLE
  2
VPORT
  5
8
330
0
100
AcDbSymbolTable
 70
     3
  0
VPORT
  5
E58
330
8
100
AcDbSymbolTableRecord
100
AcDbViewportTableRecord
  2
*Active
 70
     0
 10
0.0
 20
0.0
 11
1.0
 21
1.0
 12
7.876444279822884
 22
3.807343146342649
 13
0.0
 23
0.0
 14
1.0
 24
1.0
 15
0.0
 25
0.0
 16
0.0
 26
0.0
 36
1.0
 17
0.0
 27
0.0
 37
0.0
 40
10.68829875904631
 41
2.299999999999999
 42
50.0
 43
0.0
 44
0.0
 50
0.0
 51
0.0
 71
     0
 72
  1000
 73
     1
 74
     3
 75
     0
 76
     0
 77
     0
 78
     0
281
     0
 65
     1
110
0.0
120
0.0
130
0.0
111
1.0
121
0.0
131
0.0
112
0.0
122
1.0
132
0.0
 79
     0
146
0.0
  0
ENDTAB
  0
TABLE
  2
LTYPE
  5
5
330
0
100
AcDbSymbolTable
 70
     1
  0
LTYPE
  5
13
330
5
100
AcDbSymbolTableRecord
100
AcDbLinetypeTableRecord
  2
ByBlock
 70
     0
  3

 72
    65
 73
     0
 40
0.0
  0
LTYPE
  5
14
330
5
100
AcDbSymbolTableRecord
100
AcDbLinetypeTableRecord
  2
ByLayer
 70
     0
  3

 72
    65
 73
     0
 40
0.0
  0
LTYPE
  5
15
330
5
100
AcDbSymbolTableRecord
100
AcDbLinetypeTableRecord
  2
Continuous
 70
     0
  3
Solid line
 72
    65
 73
     0
 40
0.0
  0
ENDTAB
  0
TABLE
  2
LAYER
  5
2
330
0
100
AcDbSymbolTable
 70
     2
  0
LAYER
  5
10
330
2
100
AcDbSymbolTableRecord
100
AcDbLayerTableRecord
  2
0
 70
     0
 62
     7
  6
Continuous
370
    -3
390
F
  0
LAYER
  5
26
330
2
100
AcDbSymbolTableRecord
100
AcDbLayerTableRecord
  2
Layer 1
 70
     0
 62
     7
  6
Continuous
370
    -3
390
F
  0
ENDTAB
  0
TABLE
  2
STYLE
  5
3
330
0
100
AcDbSymbolTable
 70
     1
  0
STYLE
  5
11
330
3
100
AcDbSymbolTableRecord
100
AcDbTextStyleTableRecord
  2
Standard
 70
     0
 40
0.0
 41
1.0
 50
0.0
 71
     0
 42
0.2
  3
txt
  4

  0
ENDTAB
  0
TABLE
  2
VIEW
  5
6
330
0
100
AcDbSymbolTable
 70
     0
  0
ENDTAB
  0
TABLE
  2
UCS
  5
7
330
0
100
AcDbSymbolTable
 70
     0
  0
ENDTAB
  0
TABLE
  2
APPID
  5
9
330
0
100
AcDbSymbolTable
 70
     2
  0
APPID
  5
12
330
9
100
AcDbSymbolTableRecord
100
AcDbRegAppTableRecord
  2
ACAD
 70
     0
  0
APPID
  5
DE4
330
9
100
AcDbSymbolTableRecord
100
AcDbRegAppTableRecord
  2
ACAD_EXEMPT_FROM_CAD_STANDARDS
 70
     0
  0
ENDTAB
  0
TABLE
  2
DIMSTYLE
  5
A
330
0
100
AcDbSymbolTable
 70
     1
100
AcDbDimStyleTable
 71
     1
340
DDE
  0
DIMSTYLE
105
DDE
330
A
100
AcDbSymbolTableRecord
100
AcDbDimStyleTableRecord
  2
Standard
 70
     0
340
11
  0
ENDTAB
  0
TABLE
  2
BLOCK_RECORD
  5
1
330
0
100
AcDbSymbolTable
 70
     0
  0
BLOCK_RECORD
  5
22
102
{ACAD_XDICTIONARY
360
E11
102
}
330
1
100
AcDbSymbolTableRecord
100
AcDbBlockTableRecord
  2
*Model_Space
340
25
  0
BLOCK_RECORD
  5
1E
330
1
100
AcDbSymbolTableRecord
100
AcDbBlockTableRecord
  2
*Paper_Space
340
21
  0
ENDTAB
  0
ENDSEC
  0
SECTION
  2
BLOCKS
  0
BLOCK
  5
23
330
22
100
AcDbEntity
  8
0
100
AcDbBlockBegin
  2
*Model_Space
 70
     0
 10
0.0
 20
0.0
 30
0.0
  3
*Model_Space
  1

  0
ENDBLK
  5
24
330
22
100
AcDbEntity
  8
0
100
AcDbBlockEnd
  0
BLOCK
  5
1F
330
1E
100
AcDbEntity
 67
     1
  8
0
100
AcDbBlockBegin
  2
*Paper_Space
 70
     0
 10
0.0
 20
0.0
 30
0.0
  3
*Paper_Space
  1

  0
ENDBLK
  5
20
330
1E
100
AcDbEntity
 67
     1
  8
0
100
AcDbBlockEnd
  0
ENDSEC
  0
SECTION
  2
ENTITIES
  0
LINE
  5
27
330
22
100
AcDbEntity
  8
Layer 1
100
AcDbLine
 10
6.548227537038625
 20
0.1287331656077342
 30
0.0
 11
6.259830482034745
 21
0.1618096742139272
 31
0.0
  0
LINE
  5
28
330
22
100
AcDbEntity
  8
Layer 1
100
AcDbLine
 10
6.259830482034745
 20
0.1618096742139272
 30
0.0
 11
6.031600775479643
 21
0.2015068053035449
 31
0.0
  0
LINE
  5
29
330
22
100
AcDbEntity
  8
Layer 1
100
AcDbLine
 10
6.031600775479643
 20
0.2015068053035449
 30
0.0
 11
5.854370951699
 21
0.241676767244293
 31
0.0
  0
LINE
  5
2A
330
22
100
AcDbEntity
  8
Layer 1
100
AcDbLine
 10
5.854370951699
 20
0.241676767244293
 30
0.0
 11
5.679466036836068
 21
0.29089405318161
 31
0.0
  0
LINE
  5
2B
330
22
100
AcDbEntity
  8
Layer 1
100
AcDbLine
 10
5.679466036836068
 20
0.29089405318161
 30
0.0
 11
5.507216503051961
 21
0.3489352194062008
 31
0.0
  0
LINE
  5
2C
330
22
100
AcDbEntity
  8
Layer 1
100
AcDbLine
 10
5.507216503051961
 20
0.3489352194062008
 30
0.0
 11
5.337952728168045
 21
0.4155769637184294
 31
0.0
  0
LINE
  5
2D
330
22
100
AcDbEntity
  8
Layer 1
100
AcDbLine
 10
5.337952728168045
 20
0.4155769637184294
 30
0.0
 11
5.172005090005701
 21
0.4905958424090004
 31
0.0
  0
LINE
  5
2E
330
22
100
AcDbEntity
  8
Layer 1
100
AcDbLine
 10
5.172005090005701
 20
0.4905958424090004
 30
0.0
 11
5.009704060726049
 21
0.5737685532782706
 31
0.0
  0
LINE
  5
2F
330
22
100
AcDbEntity
  8
Layer 1
100
AcDbLine
 10
5.009704060726049
 20
0.5737685532782706
 30
0.0
 11
4.851379970980572
 21
0.664871746956699
 31
0.0
  0
LINE
  5
30
330
22
100
AcDbEntity
  8
Layer 1
100
AcDbLine
 10
4.851379970980572
 20
0.664871746956699
 30
0.0
 11
4.697363245760521
 21
0.7636820269048883
 31
0.0
  0
LINE
  5
31
330
22
100
AcDbEntity
  8
Layer 1
100
AcDbLine
 10
4.697363245760521
 20
0.7636820269048883
 30
0.0
 11
4.547984310057143
 21
0.8699760437533042
 31
0.0
  0
LINE
  5
32
330
22
100
AcDbEntity
  8
Layer 1
100
AcDbLine
 10
4.547984310057143
 20
0.8699760437533042
 30
0.0
 11
4.403573588861679
 21
0.98353044813242
 31
0.0
  0
LINE
  5
33
330
22
100
AcDbEntity
  8
Layer 1
100
AcDbLine
 10
4.403573588861679
 20
0.98353044813242
 30
0.0
 11
4.264461412825629
 21
1.104121843502837
 31
0.0
  0
LINE
  5
34
330
22
100
AcDbEntity
  8
Layer 1
100
AcDbLine
 10
4.264461412825629
 20
1.104121843502837
 30
0.0
 11
4.130978206940228
 21
1.2315269276649
 31
0.0
  0
LINE
  5
35
330
22
100
AcDbEntity
  8
Layer 1
100
AcDbLine
 10
4.130978206940228
 20
1.2315269276649
 30
0.0
 11
4.003454443366611
 21
1.365522256909322
 31
0.0
  0
LINE
  5
36
330
22
100
AcDbEntity
  8
Layer 1
100
AcDbLine
 10
4.003454443366611
 20
1.365522256909322
 30
0.0
 11
3.882220405586386
 21
1.505884529036456
 31
0.0
  0
LINE
  5
37
330
22
100
AcDbEntity
  8
Layer 1
100
AcDbLine
 10
3.882220405586386
 20
1.505884529036456
 30
0.0
 11
3.767606612930546
 21
1.652390347506879
 31
0.0
  0
LINE
  5
38
330
22
100
AcDbEntity
  8
Layer 1
100
AcDbLine
 10
3.767606612930546
 20
1.652390347506879
 30
0.0
 11
3.659943396050591
 21
1.80481641012097
 31
0.0
  0
LINE
  5
39
330
22
100
AcDbEntity
  8
Layer 1
100
AcDbLine
 10
3.659943396050591
 20
1.80481641012097
 30
0.0
 11
3.540725870529575
 21
1.995182997589978
 31
0.0
  0
LINE
  5
3A
330
22
100
AcDbEntity
  8
Layer 1
100
AcDbLine
 10
3.540725870529575
 20
1.995182997589978
 30
0.0
 11
3.433445908903562
 21
2.192556009969713
 31
0.0
  0
LINE
  5
3B
330
22
100
AcDbEntity
  8
Layer 1
100
AcDbLine
 10
3.433445908903562
 20
2.192556009969713
 30
0.0
 11
3.338225303796031
 21
2.396597522258439
 31
0.0
  0
LINE
  5
3C
330
22
100
AcDbEntity
  8
Layer 1
100
AcDbLine
 10
3.338225303796031
 20
2.396597522258439
 30
0.0
 11
3.255185942170197
 21
2.606969373604997
 31
0.0
  0
LINE
  5
3D
330
22
100
AcDbEntity
  8
Layer 1
100
AcDbLine
 10
3.255185942170197
 20
2.606969373604997
 30
0.0
 11
3.184449616649535
 21
2.823333591837766
 31
0.0
  0
LINE
  5
3E
330
22
100
AcDbEntity
  8
Layer 1
100
AcDbLine
 10
3.184449616649535
 20
2.823333591837766
 30
0.0
 11
3.126138167027392
 21
3.04535206327548
 31
0.0
  0
LINE
  5
3F
330
22
100
AcDbEntity
  8
Layer 1
100
AcDbLine
 10
3.126138167027392
 20
3.04535206327548
 30
0.0
 11
3.080373338757349
 21
3.272686862916386
 31
0.0
  0
LINE
  5
40
330
22
100
AcDbEntity
  8
Layer 1
100
AcDbLine
 10
3.080373338757349
 20
3.272686862916386
 30
0.0
 11
3.047276971632763
 21
3.504999877079221
 31
0.0
  0
LINE
  5
41
330
22
100
AcDbEntity
  8
Layer 1
100
AcDbLine
 10
3.047276971632763
 20
3.504999877079221
 30
0.0
 11
3.040964934487358
 21
3.548335503832602
 31
0.0
  0
LINE
  5
42
330
22
100
AcDbEntity
  8
Layer 1
100
AcDbLine
 10
3.040964934487358
 20
3.548335503832602
 30
0.0
 11
3.030483457538069
 21
3.576903892915126
 31
0.0
  0
LINE
  5
43
330
22
100
AcDbEntity
  8
Layer 1
100
AcDbLine
 10
3.030483457538069
 20
3.576903892915126
 30
0.0
 11
3.010087296886427
 21
3.600390576764695
 31
0.0
  0
LINE
  5
44
330
22
100
AcDbEntity
  8
Layer 1
100
AcDbLine
 10
3.010087296886427
 20
3.600390576764695
 30
0.0
 11
2.974031302973731
 21
3.628481182158941
 31
0.0
  0
LINE
  5
45
330
22
100
AcDbEntity
  8
Layer 1
100
AcDbLine
 10
2.974031302973731
 20
3.628481182158941
 30
0.0
 11
2.868837617855613
 21
3.722141973760328
 31
0.0
  0
LINE
  5
46
330
22
100
AcDbEntity
  8
Layer 1
100
AcDbLine
 10
2.868837617855613
 20
3.722141973760328
 30
0.0
 11
2.844580178209203
 21
3.747479839448786
 31
0.0
  0
LINE
  5
47
330
22
100
AcDbEntity
  8
Layer 1
100
AcDbLine
 10
2.844580178209203
 20
3.747479839448786
 30
0.0
 11
2.82252425108119
 21
3.761366509848186
 31
0.0
  0
LINE
  5
48
330
22
100
AcDbEntity
  8
Layer 1
100
AcDbLine
 10
2.82252425108119
 20
3.761366509848186
 30
0.0
 11
2.750076460898521
 21
3.768393595165221
 31
0.0
  0
LINE
  5
49
330
22
100
AcDbEntity
  8
Layer 1
100
AcDbLine
 10
2.750076460898521
 20
3.768393595165221
 30
0.0
 11
2.652540616698151
 21
3.776080304047944
 31
0.0
  0
LINE
  5
4A
330
22
100
AcDbEntity
  8
Layer 1
100
AcDbLine
 10
2.652540616698151
 20
3.776080304047944
 30
0.0
 11
2.553449109940854
 21
3.798047363126918
 31
0.0
  0
LINE
  5
4B
330
22
100
AcDbEntity
  8
Layer 1
100
AcDbLine
 10
2.553449109940854
 20
3.798047363126918
 30
0.0
 11
2.455730246616139
 21
3.832654864444158
 31
0.0
  0
LINE
  5
4C
330
22
100
AcDbEntity
  8
Layer 1
100
AcDbLine
 10
2.455730246616139
 20
3.832654864444158
 30
0.0
 11
2.362312332713524
 21
3.878263041551328
 31
0.0
  0
LINE
  5
4D
330
22
100
AcDbEntity
  8
Layer 1
100
AcDbLine
 10
2.362312332713524
 20
3.878263041551328
 30
0.0
 11
2.276123627052641
 21
3.933232128000071
 31
0.0
  0
LINE
  5
4E
330
22
100
AcDbEntity
  8
Layer 1
100
AcDbLine
 10
2.276123627052641
 20
3.933232128000071
 30
0.0
 11
2.200092482792888
 21
3.995922263002277
 31
0.0
  0
LINE
  5
4F
330
22
100
AcDbEntity
  8
Layer 1
100
AcDbLine
 10
2.200092482792888
 20
3.995922263002277
 30
0.0
 11
2.137147111584019
 21
4.06469368010962
 31
0.0
  0
LINE
  5
50
330
22
100
AcDbEntity
  8
Layer 1
100
AcDbLine
 10
2.137147111584019
 20
4.06469368010962
 30
0.0
 11
2.0902159137553
 21
4.137906565703858
 31
0.0
  0
LINE
  5
51
330
22
100
AcDbEntity
  8
Layer 1
100
AcDbLine
 10
2.0902159137553
 20
4.137906565703858
 30
0.0
 11
2.052883785979194
 21
4.196145609564176
 31
0.0
  0
LINE
  5
52
330
22
100
AcDbEntity
  8
Layer 1
100
AcDbLine
 10
2.052883785979194
 20
4.196145609564176
 30
0.0
 11
2.032985597723354
 21
4.207914635487212
 31
0.0
  0
LINE
  5
53
330
22
100
AcDbEntity
  8
Layer 1
100
AcDbLine
 10
2.032985597723354
 20
4.207914635487212
 30
0.0
 11
2.00546471010844
 21
4.21424261605118
 31
0.0
  0
LINE
  5
54
330
22
100
AcDbEntity
  8
Layer 1
100
AcDbLine
 10
2.00546471010844
 20
4.21424261605118
 30
0.0
 11
1.854301526622212
 21
4.245012659161736
 31
0.0
  0
LINE
  5
55
330
22
100
AcDbEntity
  8
Layer 1
100
AcDbLine
 10
1.854301526622212
 20
4.245012659161736
 30
0.0
 11
1.726870404687821
 21
4.287447105407237
 31
0.0
  0
LINE
  5
56
330
22
100
AcDbEntity
  8
Layer 1
100
AcDbLine
 10
1.726870404687821
 20
4.287447105407237
 30
0.0
 11
1.618302988427828
 21
4.343579306693108
 31
0.0
  0
LINE
  5
57
330
22
100
AcDbEntity
  8
Layer 1
100
AcDbLine
 10
1.618302988427828
 20
4.343579306693108
 30
0.0
 11
1.52373078045515
 21
4.415442567754936
 31
0.0
  0
LINE
  5
58
330
22
100
AcDbEntity
  8
Layer 1
100
AcDbLine
 10
1.52373078045515
 20
4.415442567754936
 30
0.0
 11
1.4726605202236
 21
4.468489293019778
 31
0.0
  0
LINE
  5
59
330
22
100
AcDbEntity
  8
Layer 1
100
AcDbLine
 10
1.4726605202236
 20
4.468489293019778
 30
0.0
 11
1.418391717774862
 21
4.53518905628121
 31
0.0
  0
LINE
  5
5A
330
22
100
AcDbEntity
  8
Layer 1
100
AcDbLine
 10
1.418391717774862
 20
4.53518905628121
 30
0.0
 11
1.372680191466297
 21
4.600070373598683
 31
0.0
  0
LINE
  5
5B
330
22
100
AcDbEntity
  8
Layer 1
100
AcDbLine
 10
1.372680191466297
 20
4.600070373598683
 30
0.0
 11
1.34728175965525
 21
4.647661761031605
 31
0.0
  0
LINE
  5
5C
330
22
100
AcDbEntity
  8
Layer 1
100
AcDbLine
 10
1.34728175965525
 20
4.647661761031605
 30
0.0
 11
1.315051667329269
 21
4.664617209315443
 31
0.0
  0
LINE
  5
5D
330
22
100
AcDbEntity
  8
Layer 1
100
AcDbLine
 10
1.315051667329269
 20
4.664617209315443
 30
0.0
 11
1.243457982116831
 21
4.687790071970603
 31
0.0
  0
LINE
  5
5E
330
22
100
AcDbEntity
  8
Layer 1
100
AcDbLine
 10
1.243457982116831
 20
4.687790071970603
 30
0.0
 11
1.166484147857071
 21
4.713017937504943
 31
0.0
  0
LINE
  5
5F
330
22
100
AcDbEntity
  8
Layer 1
100
AcDbLine
 10
1.166484147857071
 20
4.713017937504943
 30
0.0
 11
1.092855648472989
 21
4.744838925484166
 31
0.0
  0
LINE
  5
60
330
22
100
AcDbEntity
  8
Layer 1
100
AcDbLine
 10
1.092855648472989
 20
4.744838925484166
 30
0.0
 11
1.023498900356891
 21
4.782567280230495
 31
0.0
  0
LINE
  5
61
330
22
100
AcDbEntity
  8
Layer 1
100
AcDbLine
 10
1.023498900356891
 20
4.782567280230495
 30
0.0
 11
0.9593402727311984
 21
4.825517434745697
 31
0.0
  0
LINE
  5
62
330
22
100
AcDbEntity
  8
Layer 1
100
AcDbLine
 10
0.9593402727311984
 20
4.825517434745697
 30
0.0
 11
0.9013062763279684
 21
4.87300368052189
 31
0.0
  0
LINE
  5
63
330
22
100
AcDbEntity
  8
Layer 1
100
AcDbLine
 10
0.9013062763279684
 20
4.87300368052189
 30
0.0
 11
0.8503231860298683
 21
4.924340356221036
 31
0.0
  0
LINE
  5
64
330
22
100
AcDbEntity
  8
Layer 1
100
AcDbLine
 10
0.8503231860298683
 20
4.924340356221036
 30
0.0
 11
0.8073175597388322
 21
4.978841847675028
 31
0.0
  0
LINE
  5
65
330
22
100
AcDbEntity
  8
Layer 1
100
AcDbLine
 10
0.8073175597388322
 20
4.978841847675028
 30
0.0
 11
0.7732157195074088
 21
5.035822493545856
 31
0.0
  0
LINE
  5
66
330
22
100
AcDbEntity
  8
Layer 1
100
AcDbLine
 10
0.7732157195074088
 20
5.035822493545856
 30
0.0
 11
0.7507610182357887
 21
5.077287362961222
 31
0.0
  0
LINE
  5
67
330
22
100
AcDbEntity
  8
Layer 1
100
AcDbLine
 10
0.7507610182357887
 20
5.077287362961222
 30
0.0
 11
0.7301530648345871
 21
5.101777868971907
 31
0.0
  0
LINE
  5
68
330
22
100
AcDbEntity
  8
Layer 1
100
AcDbLine
 10
0.7301530648345871
 20
5.101777868971907
 30
0.0
 11
0.7017330721863912
 21
5.117146616919483
 31
0.0
  0
LINE
  5
69
330
22
100
AcDbEntity
  8
Layer 1
100
AcDbLine
 10
0.7017330721863912
 20
5.117146616919483
 30
0.0
 11
0.6558421116641604
 21
5.131246353655137
 31
0.0
  0
LINE
  5
6A
330
22
100
AcDbEntity
  8
Layer 1
100
AcDbLine
 10
0.6558421116641604
 20
5.131246353655137
 30
0.0
 11
0.5663144390610491
 21
5.161807528548536
 31
0.0
  0
LINE
  5
6B
330
22
100
AcDbEntity
  8
Layer 1
100
AcDbLine
 10
0.5663144390610491
 20
5.161807528548536
 30
0.0
 11
0.4830945111444988
 21
5.202164283203821
 31
0.0
  0
LINE
  5
6C
330
22
100
AcDbEntity
  8
Layer 1
100
AcDbLine
 10
0.4830945111444988
 20
5.202164283203821
 30
0.0
 11
0.405092137707845
 21
5.252932797729592
 31
0.0
  0
LINE
  5
6D
330
22
100
AcDbEntity
  8
Layer 1
100
AcDbLine
 10
0.405092137707845
 20
5.252932797729592
 30
0.0
 11
0.3312171757143059
 21
5.314729252234427
 31
0.0
  0
LINE
  5
6E
330
22
100
AcDbEntity
  8
Layer 1
100
AcDbLine
 10
0.3312171757143059
 20
5.314729252234427
 30
0.0
 11
0.23706666644566
 21
5.418454444729056
 31
0.0
  0
LINE
  5
6F
330
22
100
AcDbEntity
  8
Layer 1
100
AcDbLine
 10
0.23706666644566
 20
5.418454444729056
 30
0.0
 11
0.201459352406868
 21
5.471992632946616
 31
0.0
  0
LINE
  5
70
330
22
100
AcDbEntity
  8
Layer 1
100
AcDbLine
 10
0.201459352406868
 20
5.471992632946616
 30
0.0
 11
0.1730605390336297
 21
5.527646767524962
 31
0.0
  0
LINE
  5
71
330
22
100
AcDbEntity
  8
Layer 1
100
AcDbLine
 10
0.1730605390336297
 20
5.527646767524962
 30
0.0
 11
0.151542773036974
 21
5.586166047626965
 31
0.0
  0
LINE
  5
72
330
22
100
AcDbEntity
  8
Layer 1
100
AcDbLine
 10
0.151542773036974
 20
5.586166047626965
 30
0.0
 11
0.1365784124484222
 21
5.648299625245641
 31
0.0
  0
LINE
  5
73
330
22
100
AcDbEntity
  8
Layer 1
100
AcDbLine
 10
0.1365784124484222
 20
5.648299625245641
 30
0.0
 11
0.1250000000000018
 21
5.786406328174855
 31
0.0
  0
LINE
  5
74
330
22
100
AcDbEntity
  8
Layer 1
100
AcDbLine
 10
0.1250000000000018
 20
5.786406328174855
 30
0.0
 11
0.1250000000000018
 21
5.898375588823667
 31
0.0
  0
LINE
  5
75
330
22
100
AcDbEntity
  8
Layer 1
100
AcDbLine
 10
0.1250000000000018
 20
5.898375588823667
 30
0.0
 11
1.865594655652069
 21
5.898825683793893
 31
0.0
  0
LINE
  5
76
330
22
100
AcDbEntity
  8
Layer 1
100
AcDbLine
 10
1.865594655652069
 20
5.898825683793893
 30
0.0
 11
3.606189311304136
 21
5.899275637254496
 31
0.0
  0
LINE
  5
77
330
22
100
AcDbEntity
  8
Layer 1
100
AcDbLine
 10
3.606189311304136
 20
5.899275637254496
 30
0.0
 11
3.679407479924643
 21
6.008596026267562
 31
0.0
  0
LINE
  5
78
330
22
100
AcDbEntity
  8
Layer 1
100
AcDbLine
 10
3.679407479924643
 20
6.008596026267562
 30
0.0
 11
3.7792459216907
 21
6.149118958997147
 31
0.0
  0
LINE
  5
79
330
22
100
AcDbEntity
  8
Layer 1
100
AcDbLine
 10
3.7792459216907
 20
6.149118958997147
 30
0.0
 11
3.889329094791336
 21
6.287624341730214
 31
0.0
  0
LINE
  5
7A
330
22
100
AcDbEntity
  8
Layer 1
100
AcDbLine
 10
3.889329094791336
 20
6.287624341730214
 30
0.0
 11
4.010790774399941
 21
6.425465289570111
 31
0.0
  0
LINE
  5
7B
330
22
100
AcDbEntity
  8
Layer 1
100
AcDbLine
 10
4.010790774399941
 20
6.425465289570111
 30
0.0
 11
4.144764735689895
 21
6.563994964790047
 31
0.0
  0
LINE
  5
7C
330
22
100
AcDbEntity
  8
Layer 1
100
AcDbLine
 10
4.144764735689895
 20
6.563994964790047
 30
0.0
 11
4.370192126998035
 21
6.771384689316973
 31
0.0
  0
LINE
  5
7D
330
22
100
AcDbEntity
  8
Layer 1
100
AcDbLine
 10
4.370192126998035
 20
6.771384689316973
 30
0.0
 11
4.606053778208183
 21
6.957025515447937
 31
0.0
  0
LINE
  5
7E
330
22
100
AcDbEntity
  8
Layer 1
100
AcDbLine
 10
4.606053778208183
 20
6.957025515447937
 30
0.0
 11
4.852736623824712
 21
7.121111217039342
 31
0.0
  0
LINE
  5
7F
330
22
100
AcDbEntity
  8
Layer 1
100
AcDbLine
 10
4.852736623824712
 20
7.121111217039342
 30
0.0
 11
5.110627598352014
 21
7.263835803796965
 31
0.0
  0
LINE
  5
80
330
22
100
AcDbEntity
  8
Layer 1
100
AcDbLine
 10
5.110627598352014
 20
7.263835803796965
 30
0.0
 11
5.380113541954697
 21
7.385393049577197
 31
0.0
  0
LINE
  5
81
330
22
100
AcDbEntity
  8
Layer 1
100
AcDbLine
 10
5.380113541954697
 20
7.385393049577197
 30
0.0
 11
5.66158143630704
 21
7.485976964085813
 31
0.0
  0
LINE
  5
82
330
22
100
AcDbEntity
  8
Layer 1
100
AcDbLine
 10
5.66158143630704
 20
7.485976964085813
 30
0.0
 11
5.955418168743531
 21
7.565781368349107
 31
0.0
  0
LINE
  5
83
330
22
100
AcDbEntity
  8
Layer 1
100
AcDbLine
 10
5.955418168743531
 20
7.565781368349107
 30
0.0
 11
6.262010673768561
 21
7.625000177733077
 31
0.0
  0
LINE
  5
84
330
22
100
AcDbEntity
  8
Layer 1
100
AcDbLine
 10
6.262010673768561
 20
7.625000177733077
 30
0.0
 11
6.461217839661449
 21
7.644073459172793
 31
0.0
  0
LINE
  5
85
330
22
100
AcDbEntity
  8
Layer 1
100
AcDbLine
 10
6.461217839661449
 20
7.644073459172793
 30
0.0
 11
6.794506702844293
 21
7.648954598087022
 31
0.0
  0
LINE
  5
86
330
22
100
AcDbEntity
  8
Layer 1
100
AcDbLine
 10
6.794506702844293
 20
7.648954598087022
 30
0.0
 11
7.127794481119956
 21
7.644073459172793
 31
0.0
  0
LINE
  5
87
330
22
100
AcDbEntity
  8
Layer 1
100
AcDbLine
 10
7.127794481119956
 20
7.644073459172793
 30
0.0
 11
7.327002213051374
 21
7.625000177733077
 31
0.0
  0
LINE
  5
88
330
22
100
AcDbEntity
  8
Layer 1
100
AcDbLine
 10
7.327002213051374
 20
7.625000177733077
 30
0.0
 11
7.565004857827205
 21
7.580896861224863
 31
0.0
  0
LINE
  5
89
330
22
100
AcDbEntity
  8
Layer 1
100
AcDbLine
 10
7.565004857827205
 20
7.580896861224863
 30
0.0
 11
7.796719333415607
 21
7.524103574107114
 31
0.0
  0
LINE
  5
8A
330
22
100
AcDbEntity
  8
Layer 1
100
AcDbLine
 10
7.796719333415607
 20
7.524103574107114
 30
0.0
 11
8.021836535609915
 21
7.4547470618404
 31
0.0
  0
LINE
  5
8B
330
22
100
AcDbEntity
  8
Layer 1
100
AcDbLine
 10
8.021836535609915
 20
7.4547470618404
 30
0.0
 11
8.24004726586371
 21
7.372954022715454
 31
0.0
  0
LINE
  5
8C
330
22
100
AcDbEntity
  8
Layer 1
100
AcDbLine
 10
8.24004726586371
 20
7.372954022715454
 30
0.0
 11
8.451042514310101
 21
7.278851060683244
 31
0.0
  0
LINE
  5
8D
330
22
100
AcDbEntity
  8
Layer 1
100
AcDbLine
 10
8.451042514310101
 20
7.278851060683244
 30
0.0
 11
8.654513129572547
 21
7.172564968374223
 31
0.0
  0
LINE
  5
8E
330
22
100
AcDbEntity
  8
Layer 1
100
AcDbLine
 10
8.654513129572547
 20
7.172564968374223
 30
0.0
 11
8.850150007444389
 21
7.054222349739376
 31
0.0
  0
LINE
  5
8F
330
22
100
AcDbEntity
  8
Layer 1
100
AcDbLine
 10
8.850150007444389
 20
7.054222349739376
 30
0.0
 11
9.037643996549103
 21
6.92394995023929
 31
0.0
  0
LINE
  5
90
330
22
100
AcDbEntity
  8
Layer 1
100
AcDbLine
 10
9.037643996549103
 20
6.92394995023929
 30
0.0
 11
9.232833420963855
 21
6.769485299863369
 31
0.0
  0
LINE
  5
91
330
22
100
AcDbEntity
  8
Layer 1
100
AcDbLine
 10
9.232833420963855
 20
6.769485299863369
 30
0.0
 11
9.441788147683428
 21
6.572731392124615
 31
0.0
  0
LINE
  5
92
330
22
100
AcDbEntity
  8
Layer 1
100
AcDbLine
 10
9.441788147683428
 20
6.572731392124615
 30
0.0
 11
9.611768338665422
 21
6.394872746708236
 31
0.0
  0
LINE
  5
93
330
22
100
AcDbEntity
  8
Layer 1
100
AcDbLine
 10
9.611768338665422
 20
6.394872746708236
 30
0.0
 11
9.768763181265526
 21
6.208106022773413
 31
0.0
  0
LINE
  5
94
330
22
100
AcDbEntity
  8
Layer 1
100
AcDbLine
 10
9.768763181265526
 20
6.208106022773413
 30
0.0
 11
9.912452014657132
 21
6.012969475791237
 31
0.0
  0
LINE
  5
95
330
22
100
AcDbEntity
  8
Layer 1
100
AcDbLine
 10
9.912452014657132
 20
6.012969475791237
 30
0.0
 11
10.04251413084373
 21
5.810001455572582
 31
0.0
  0
LINE
  5
96
330
22
100
AcDbEntity
  8
Layer 1
100
AcDbLine
 10
10.04251413084373
 20
5.810001455572582
 30
0.0
 11
10.1586288689987
 21
5.599740217588538
 31
0.0
  0
LINE
  5
97
330
22
100
AcDbEntity
  8
Layer 1
100
AcDbLine
 10
10.1586288689987
 20
5.599740217588538
 30
0.0
 11
10.26047556829543
 21
5.382724111649991
 31
0.0
  0
LINE
  5
98
330
22
100
AcDbEntity
  8
Layer 1
100
AcDbLine
 10
10.26047556829543
 20
5.382724111649991
 30
0.0
 11
10.34773356790728
 21
5.159491346058153
 31
0.0
  0
LINE
  5
99
330
22
100
AcDbEntity
  8
Layer 1
100
AcDbLine
 10
10.34773356790728
 20
5.159491346058153
 30
0.0
 11
10.42008220700764
 21
4.930580317793761
 31
0.0
  0
LINE
  5
9A
330
22
100
AcDbEntity
  8
Layer 1
100
AcDbLine
 10
10.42008220700764
 20
4.930580317793761
 30
0.0
 11
10.4620694828153
 21
4.780506569796152
 31
0.0
  0
LINE
  5
9B
330
22
100
AcDbEntity
  8
Layer 1
100
AcDbLine
 10
10.4620694828153
 20
4.780506569796152
 30
0.0
 11
11.95305690196115
 21
4.778744444685813
 31
0.0
  0
LINE
  5
9C
330
22
100
AcDbEntity
  8
Layer 1
100
AcDbLine
 10
11.95305690196115
 20
4.778744444685813
 30
0.0
 11
13.45548112958344
 21
4.779042605480917
 31
0.0
  0
LINE
  5
9D
330
22
100
AcDbEntity
  8
Layer 1
100
AcDbLine
 10
13.45548112958344
 20
4.779042605480917
 30
0.0
 11
13.46215047855021
 21
4.736152451049775
 31
0.0
  0
LINE
  5
9E
330
22
100
AcDbEntity
  8
Layer 1
100
AcDbLine
 10
13.46215047855021
 20
4.736152451049775
 30
0.0
 11
13.46212533700555
 21
4.630139991199605
 31
0.0
  0
LINE
  5
9F
330
22
100
AcDbEntity
  8
Layer 1
100
AcDbLine
 10
13.46212533700555
 20
4.630139991199605
 30
0.0
 11
13.45080598152386
 21
4.486429742683653
 31
0.0
  0
LINE
  5
A0
330
22
100
AcDbEntity
  8
Layer 1
100
AcDbLine
 10
13.45080598152386
 20
4.486429742683653
 30
0.0
 11
13.43529709187051
 21
4.437848259523923
 31
0.0
  0
LINE
  5
A1
330
22
100
AcDbEntity
  8
Layer 1
100
AcDbLine
 10
13.43529709187051
 20
4.437848259523923
 30
0.0
 11
13.40747398685103
 21
4.378294213821212
 31
0.0
  0
LINE
  5
A2
330
22
100
AcDbEntity
  8
Layer 1
100
AcDbLine
 10
13.40747398685103
 20
4.378294213821212
 30
0.0
 11
13.34896121619211
 21
4.281417191298608
 31
0.0
  0
LINE
  5
A3
330
22
100
AcDbEntity
  8
Layer 1
100
AcDbLine
 10
13.34896121619211
 20
4.281417191298608
 30
0.0
 11
13.26896511354704
 21
4.194484616670989
 31
0.0
  0
LINE
  5
A4
330
22
100
AcDbEntity
  8
Layer 1
100
AcDbLine
 10
13.26896511354704
 20
4.194484616670989
 30
0.0
 11
13.1877426884291
 21
4.129358015991002
 31
0.0
  0
LINE
  5
A5
330
22
100
AcDbEntity
  8
Layer 1
100
AcDbLine
 10
13.1877426884291
 20
4.129358015991002
 30
0.0
 11
13.0938418021517
 21
4.070865481209486
 31
0.0
  0
LINE
  5
A6
330
22
100
AcDbEntity
  8
Layer 1
100
AcDbLine
 10
13.0938418021517
 20
4.070865481209486
 30
0.0
 11
12.99977695338043
 21
4.025895512543654
 31
0.0
  0
LINE
  5
A7
330
22
100
AcDbEntity
  8
Layer 1
100
AcDbLine
 10
12.99977695338043
 20
4.025895512543654
 30
0.0
 11
12.91806254644112
 21
4.001336515870973
 31
0.0
  0
LINE
  5
A8
330
22
100
AcDbEntity
  8
Layer 1
100
AcDbLine
 10
12.91806254644112
 20
4.001336515870973
 30
0.0
 11
12.88860552403811
 21
3.994309760743078
 31
0.0
  0
LINE
  5
A9
330
22
100
AcDbEntity
  8
Layer 1
100
AcDbLine
 10
12.88860552403811
 20
3.994309760743078
 30
0.0
 11
12.86733535272796
 21
3.981571299499548
 31
0.0
  0
LINE
  5
AA
330
22
100
AcDbEntity
  8
Layer 1
100
AcDbLine
 10
12.86733535272796
 20
3.981571299499548
 30
0.0
 11
12.82503694440891
 21
3.916881303204846
 31
0.0
  0
LINE
  5
AB
330
22
100
AcDbEntity
  8
Layer 1
100
AcDbLine
 10
12.82503694440891
 20
3.916881303204846
 30
0.0
 11
12.78516240741037
 21
3.852478807312955
 31
0.0
  0
LINE
  5
AC
330
22
100
AcDbEntity
  8
Layer 1
100
AcDbLine
 10
12.78516240741037
 20
3.852478807312955
 30
0.0
 11
12.73677116036623
 21
3.792212590801128
 31
0.0
  0
LINE
  5
AD
330
22
100
AcDbEntity
  8
Layer 1
100
AcDbLine
 10
12.73677116036623
 20
3.792212590801128
 30
0.0
 11
12.68077433662851
 21
3.736735437602817
 31
0.0
  0
LINE
  5
AE
330
22
100
AcDbEntity
  8
Layer 1
100
AcDbLine
 10
12.68077433662851
 20
3.736735437602817
 30
0.0
 11
12.61808321105887
 21
3.686700131651483
 31
0.0
  0
LINE
  5
AF
330
22
100
AcDbEntity
  8
Layer 1
100
AcDbLine
 10
12.61808321105887
 20
3.686700131651483
 30
0.0
 11
12.54960891700933
 21
3.642759551220336
 31
0.0
  0
LINE
  5
B0
330
22
100
AcDbEntity
  8
Layer 1
100
AcDbLine
 10
12.54960891700933
 20
3.642759551220336
 30
0.0
 11
12.47626268217167
 21
3.605566480242834
 31
0.0
  0
LINE
  5
B1
330
22
100
AcDbEntity
  8
Layer 1
100
AcDbLine
 10
12.47626268217167
 20
3.605566480242834
 30
0.0
 11
12.39895568706777
 21
3.575773796992173
 31
0.0
  0
LINE
  5
B2
330
22
100
AcDbEntity
  8
Layer 1
100
AcDbLine
 10
12.39895568706777
 20
3.575773796992173
 30
0.0
 11
12.31859911221953
 21
3.554034332571703
 31
0.0
  0
LINE
  5
B3
330
22
100
AcDbEntity
  8
Layer 1
100
AcDbLine
 10
12.31859911221953
 20
3.554034332571703
 30
0.0
 11
12.28150481496532
 21
3.544543753237127
 31
0.0
  0
LINE
  5
B4
330
22
100
AcDbEntity
  8
Layer 1
100
AcDbLine
 10
12.28150481496532
 20
3.544543753237127
 30
0.0
 11
12.25731949806147
 21
3.53214472643144
 31
0.0
  0
LINE
  5
B5
330
22
100
AcDbEntity
  8
Layer 1
100
AcDbLine
 10
12.25731949806147
 20
3.53214472643144
 30
0.0
 11
12.23914574618393
 21
3.511448235170341
 31
0.0
  0
LINE
  5
B6
330
22
100
AcDbEntity
  8
Layer 1
100
AcDbLine
 10
12.23914574618393
 20
3.511448235170341
 30
0.0
 11
12.22008609683877
 21
3.477065168129796
 31
0.0
  0
LINE
  5
B7
330
22
100
AcDbEntity
  8
Layer 1
100
AcDbLine
 10
12.22008609683877
 20
3.477065168129796
 30
0.0
 11
12.17992363490853
 21
3.412389039779064
 31
0.0
  0
LINE
  5
B8
330
22
100
AcDbEntity
  8
Layer 1
100
AcDbLine
 10
12.17992363490853
 20
3.412389039779064
 30
0.0
 11
12.12560473804999
 21
3.3458651258206
 31
0.0
  0
LINE
  5
B9
330
22
100
AcDbEntity
  8
Layer 1
100
AcDbLine
 10
12.12560473804999
 20
3.3458651258206
 30
0.0
 11
12.06239880043831
 21
3.283282066440107
 31
0.0
  0
LINE
  5
BA
330
22
100
AcDbEntity
  8
Layer 1
100
AcDbLine
 10
12.06239880043831
 20
3.283282066440107
 30
0.0
 11
11.99557535775831
 21
3.230428407483501
 31
0.0
  0
LINE
  5
BB
330
22
100
AcDbEntity
  8
Layer 1
100
AcDbLine
 10
11.99557535775831
 20
3.230428407483501
 30
0.0
 11
11.91768260711675
 21
3.186612544208223
 31
0.0
  0
LINE
  5
BC
330
22
100
AcDbEntity
  8
Layer 1
100
AcDbLine
 10
11.91768260711675
 20
3.186612544208223
 30
0.0
 11
11.82059232957838
 21
3.146158572435595
 31
0.0
  0
LINE
  5
BD
330
22
100
AcDbEntity
  8
Layer 1
100
AcDbLine
 10
11.82059232957838
 20
3.146158572435595
 30
0.0
 11
11.71849440351458
 21
3.114223480522923
 31
0.0
  0
LINE
  5
BE
330
22
100
AcDbEntity
  8
Layer 1
100
AcDbLine
 10
11.71849440351458
 20
3.114223480522923
 30
0.0
 11
11.6255788016365
 21
3.095964398337152
 31
0.0
  0
LINE
  5
BF
330
22
100
AcDbEntity
  8
Layer 1
100
AcDbLine
 10
11.6255788016365
 20
3.095964398337152
 30
0.0
 11
11.55568610937327
 21
3.081489425226706
 31
0.0
  0
LINE
  5
C0
330
22
100
AcDbEntity
  8
Layer 1
100
AcDbLine
 10
11.55568610937327
 20
3.081489425226706
 30
0.0
 11
11.53884278388804
 21
3.067640773748499
 31
0.0
  0
LINE
  5
C1
330
22
100
AcDbEntity
  8
Layer 1
100
AcDbLine
 10
11.53884278388804
 20
3.067640773748499
 30
0.0
 11
11.52515550056044
 21
3.044848147475128
 31
0.0
  0
LINE
  5
C2
330
22
100
AcDbEntity
  8
Layer 1
100
AcDbLine
 10
11.52515550056044
 20
3.044848147475128
 30
0.0
 11
11.47538090252155
 21
2.962224305299386
 31
0.0
  0
LINE
  5
C3
330
22
100
AcDbEntity
  8
Layer 1
100
AcDbLine
 10
11.47538090252155
 20
2.962224305299386
 30
0.0
 11
11.41409166570849
 21
2.887873870941568
 31
0.0
  0
LINE
  5
C4
330
22
100
AcDbEntity
  8
Layer 1
100
AcDbLine
 10
11.41409166570849
 20
2.887873870941568
 30
0.0
 11
11.34220755556085
 21
2.822344722527772
 31
0.0
  0
LINE
  5
C5
330
22
100
AcDbEntity
  8
Layer 1
100
AcDbLine
 10
11.34220755556085
 20
2.822344722527772
 30
0.0
 11
11.26064814883871
 21
2.766184879693731
 31
0.0
  0
LINE
  5
C6
330
22
100
AcDbEntity
  8
Layer 1
100
AcDbLine
 10
11.26064814883871
 20
2.766184879693731
 30
0.0
 11
11.17033325815152
 21
2.719942220565548
 31
0.0
  0
LINE
  5
C7
330
22
100
AcDbEntity
  8
Layer 1
100
AcDbLine
 10
11.17033325815152
 20
2.719942220565548
 30
0.0
 11
11.07218250742926
 21
2.684164717609064
 31
0.0
  0
LINE
  5
C8
330
22
100
AcDbEntity
  8
Layer 1
100
AcDbLine
 10
11.07218250742926
 20
2.684164717609064
 30
0.0
 11
10.96711561494162
 21
2.65940024895039
 31
0.0
  0
LINE
  5
C9
330
22
100
AcDbEntity
  8
Layer 1
100
AcDbLine
 10
10.96711561494162
 20
2.65940024895039
 30
0.0
 11
10.85605225178844
 21
2.646196834225249
 31
0.0
  0
LINE
  5
CA
330
22
100
AcDbEntity
  8
Layer 1
100
AcDbLine
 10
10.85605225178844
 20
2.646196834225249
 30
0.0
 11
10.7804382307546
 21
2.63528757365774
 31
0.0
  0
LINE
  5
CB
330
22
100
AcDbEntity
  8
Layer 1
100
AcDbLine
 10
10.7804382307546
 20
2.63528757365774
 30
0.0
 11
10.76083056177372
 21
2.62291062235468
 31
0.0
  0
LINE
  5
CC
330
22
100
AcDbEntity
  8
Layer 1
100
AcDbLine
 10
10.76083056177372
 20
2.62291062235468
 30
0.0
 11
10.74386478328673
 21
2.602196206540163
 31
0.0
  0
LINE
  5
CD
330
22
100
AcDbEntity
  8
Layer 1
100
AcDbLine
 10
10.74386478328673
 20
2.602196206540163
 30
0.0
 11
10.70132543123388
 21
2.550868634627355
 31
0.0
  0
LINE
  5
CE
330
22
100
AcDbEntity
  8
Layer 1
100
AcDbLine
 10
10.70132543123388
 20
2.550868634627355
 30
0.0
 11
10.64441393640333
 21
2.495356198360738
 31
0.0
  0
LINE
  5
CF
330
22
100
AcDbEntity
  8
Layer 1
100
AcDbLine
 10
10.64441393640333
 20
2.495356198360738
 30
0.0
 11
10.58107351747117
 21
2.442797728496954
 31
0.0
  0
LINE
  5
D0
330
22
100
AcDbEntity
  8
Layer 1
100
AcDbLine
 10
10.58107351747117
 20
2.442797728496954
 30
0.0
 11
10.51924753462308
 21
2.400332102962494
 31
0.0
  0
LINE
  5
D1
330
22
100
AcDbEntity
  8
Layer 1
100
AcDbLine
 10
10.51924753462308
 20
2.400332102962494
 30
0.0
 11
10.38692904735065
 21
2.339500744149431
 31
0.0
  0
LINE
  5
D2
330
22
100
AcDbEntity
  8
Layer 1
100
AcDbLine
 10
10.38692904735065
 20
2.339500744149431
 30
0.0
 11
10.22078777684154
 21
2.28361877906321
 31
0.0
  0
LINE
  5
D3
330
22
100
AcDbEntity
  8
Layer 1
100
AcDbLine
 10
10.22078777684154
 20
2.28361877906321
 30
0.0
 11
10.18692989921607
 21
2.236421967654806
 31
0.0
  0
LINE
  5
D4
330
22
100
AcDbEntity
  8
Layer 1
100
AcDbLine
 10
10.18692989921607
 20
2.236421967654806
 30
0.0
 11
10.12655071084785
 21
2.128700260126862
 31
0.0
  0
LINE
  5
D5
330
22
100
AcDbEntity
  8
Layer 1
100
AcDbLine
 10
10.12655071084785
 20
2.128700260126862
 30
0.0
 11
10.04648248546022
 21
1.984499161866608
 31
0.0
  0
LINE
  5
D6
330
22
100
AcDbEntity
  8
Layer 1
100
AcDbLine
 10
10.04648248546022
 20
1.984499161866608
 30
0.0
 11
9.959887458475344
 21
1.844008210313901
 31
0.0
  0
LINE
  5
D7
330
22
100
AcDbEntity
  8
Layer 1
100
AcDbLine
 10
9.959887458475344
 20
1.844008210313901
 30
0.0
 11
9.867021762327546
 21
1.707458396358433
 31
0.0
  0
LINE
  5
D8
330
22
100
AcDbEntity
  8
Layer 1
100
AcDbLine
 10
9.867021762327546
 20
1.707458396358433
 30
0.0
 11
9.768141293601775
 21
1.575080569380225
 31
0.0
  0
LINE
  5
D9
330
22
100
AcDbEntity
  8
Layer 1
100
AcDbLine
 10
9.768141293601775
 20
1.575080569380225
 30
0.0
 11
9.663502184732351
 21
1.447105720268949
 31
0.0
  0
LINE
  5
DA
330
22
100
AcDbEntity
  8
Layer 1
100
AcDbLine
 10
9.663502184732351
 20
1.447105720268949
 30
0.0
 11
9.553360379474096
 21
1.323764792744398
 31
0.0
  0
LINE
  5
DB
330
22
100
AcDbEntity
  8
Layer 1
100
AcDbLine
 10
9.553360379474096
 20
1.323764792744398
 30
0.0
 11
9.43797196309146
 21
1.2052886361866
 31
0.0
  0
LINE
  5
DC
330
22
100
AcDbEntity
  8
Layer 1
100
AcDbLine
 10
9.43797196309146
 20
1.2052886361866
 30
0.0
 11
9.31759287933926
 21
1.091908241485235
 31
0.0
  0
LINE
  5
DD
330
22
100
AcDbEntity
  8
Layer 1
100
AcDbLine
 10
9.31759287933926
 20
1.091908241485235
 30
0.0
 11
9.192479166312066
 21
0.9838545523600997
 31
0.0
  0
LINE
  5
DE
330
22
100
AcDbEntity
  8
Layer 1
100
AcDbLine
 10
9.192479166312066
 20
0.9838545523600997
 30
0.0
 11
9.062886909274332
 21
0.881358418191219
 31
0.0
  0
LINE
  5
DF
330
22
100
AcDbEntity
  8
Layer 1
100
AcDbLine
 10
9.062886909274332
 20
0.881358418191219
 30
0.0
 11
8.929072051980879
 21
0.7846507826983924
 31
0.0
  0
LINE
  5
E0
330
22
100
AcDbEntity
  8
Layer 1
100
AcDbLine
 10
8.929072051980879
 20
0.7846507826983924
 30
0.0
 11
8.791290632526271
 21
0.6939625896013908
 31
0.0
  0
LINE
  5
E1
330
22
100
AcDbEntity
  8
Layer 1
100
AcDbLine
 10
8.791290632526271
 20
0.6939625896013908
 30
0.0
 11
8.649798689005086
 21
0.6095247826200351
 31
0.0
  0
LINE
  5
E2
330
22
100
AcDbEntity
  8
Layer 1
100
AcDbLine
 10
8.649798689005086
 20
0.6095247826200351
 30
0.0
 11
8.504852212342019
 21
0.531568305474103
 31
0.0
  0
LINE
  5
E3
330
22
100
AcDbEntity
  8
Layer 1
100
AcDbLine
 10
8.504852212342019
 20
0.531568305474103
 30
0.0
 11
8.356707240631642
 21
0.4603240075436334
 31
0.0
  0
LINE
  5
E4
330
22
100
AcDbEntity
  8
Layer 1
100
AcDbLine
 10
8.356707240631642
 20
0.4603240075436334
 30
0.0
 11
8.20561976479866
 21
0.3960228797182879
 31
0.0
  0
LINE
  5
E5
330
22
100
AcDbEntity
  8
Layer 1
100
AcDbLine
 10
8.20561976479866
 20
0.3960228797182879
 30
0.0
 11
7.978033549711165
 21
0.3129394142570803
 31
0.0
  0
LINE
  5
E6
330
22
100
AcDbEntity
  8
Layer 1
100
AcDbLine
 10
7.978033549711165
 20
0.3129394142570803
 30
0.0
 11
7.750960495719999
 21
0.2456990370306613
 31
0.0
  0
LINE
  5
E7
330
22
100
AcDbEntity
  8
Layer 1
100
AcDbLine
 10
7.750960495719999
 20
0.2456990370306613
 30
0.0
 11
7.519534275252441
 21
0.1930291990863111
 31
0.0
  0
LINE
  5
E8
330
22
100
AcDbEntity
  8
Layer 1
100
AcDbLine
 10
7.519534275252441
 20
0.1930291990863111
 30
0.0
 11
7.278888560735781
 21
0.1536571627918022
 31
0.0
  0
LINE
  5
E9
330
22
100
AcDbEntity
  8
Layer 1
100
AcDbLine
 10
7.278888560735781
 20
0.1536571627918022
 30
0.0
 11
7.116719748622503
 21
0.1396090770719027
 31
0.0
  0
LINE
  5
EA
330
22
100
AcDbEntity
  8
Layer 1
100
AcDbLine
 10
7.116719748622503
 20
0.1396090770719027
 30
0.0
 11
6.898924584988668
 21
0.1293409966480112
 31
0.0
  0
LINE
  5
EB
330
22
100
AcDbEntity
  8
Layer 1
100
AcDbLine
 10
6.898924584988668
 20
0.1293409966480112
 30
0.0
 11
6.688446129719165
 21
0.125
 31
0.0
  0
LINE
  5
EC
330
22
100
AcDbEntity
  8
Layer 1
100
AcDbLine
 10
6.688446129719165
 20
0.125
 30
0.0
 11
6.548227537038625
 21
0.1287331656077342
 31
0.0
  0
LINE
  5
ED
330
22
100
AcDbEntity
  8
Layer 1
100
AcDbLine
 10
6.548227537038625
 20
0.1287331656077342
 30
0.0
 11
6.548227537038625
 21
0.1287331656077342
 31
0.0
  0
LINE
  5
EE
330
22
100
AcDbEntity
  8
Layer 1
100
AcDbLine
 10
7.257884286024596
 20
0.1676106729074931
 30
0.0
 11
7.438512652302632
 21
0.1944881633945599
 31
0.0
  0
LINE
  5
EF
330
22
100
AcDbEntity
  8
Layer 1
100
AcDbLine
 10
7.438512652302632
 20
0.1944881633945599
 30
0.0
 11
7.616960543827593
 21
0.2300452886837903
 31
0.0
  0
LINE
  5
F0
330
22
100
AcDbEntity
  8
Layer 1
100
AcDbLine
 10
7.616960543827593
 20
0.2300452886837903
 30
0.0
 11
7.792949469643253
 21
0.2741261995002233
 31
0.0
  0
LINE
  5
F1
330
22
100
AcDbEntity
  8
Layer 1
100
AcDbLine
 10
7.792949469643253
 20
0.2741261995002233
 30
0.0
 11
7.966200891623512
 21
0.3265748578894048
 31
0.0
  0
LINE
  5
F2
330
22
100
AcDbEntity
  8
Layer 1
100
AcDbLine
 10
7.966200891623512
 20
0.3265748578894048
 30
0.0
 11
8.136436271642281
 21
0.3872353674064897
 31
0.0
  0
LINE
  5
F3
330
22
100
AcDbEntity
  8
Layer 1
100
AcDbLine
 10
8.136436271642281
 20
0.3872353674064897
 30
0.0
 11
8.303377024403582
 21
0.4559517844367634
 31
0.0
  0
LINE
  5
F4
330
22
100
AcDbEntity
  8
Layer 1
100
AcDbLine
 10
8.303377024403582
 20
0.4559517844367634
 30
0.0
 11
8.466744753290951
 21
0.5325681181956483
 31
0.0
  0
LINE
  5
F5
330
22
100
AcDbEntity
  8
Layer 1
100
AcDbLine
 10
8.466744753290951
 20
0.5325681181956483
 30
0.0
 11
8.62626077866866
 21
0.6169284250684301
 31
0.0
  0
LINE
  5
F6
330
22
100
AcDbEntity
  8
Layer 1
100
AcDbLine
 10
8.62626077866866
 20
0.6169284250684301
 30
0.0
 11
8.781646656750369
 21
0.7088768086102633
 31
0.0
  0
LINE
  5
F7
330
22
100
AcDbEntity
  8
Layer 1
100
AcDbLine
 10
8.781646656750369
 20
0.7088768086102633
 30
0.0
 11
8.932623802240099
 21
0.8082572780365635
 31
0.0
  0
LINE
  5
F8
330
22
100
AcDbEntity
  8
Layer 1
100
AcDbLine
 10
8.932623802240099
 20
0.8082572780365635
 30
0.0
 11
9.078913724181633
 21
0.9149138897326237
 31
0.0
  0
LINE
  5
F9
330
22
100
AcDbEntity
  8
Layer 1
100
AcDbLine
 10
9.078913724181633
 20
0.9149138897326237
 30
0.0
 11
9.220237884448875
 21
1.028690700083727
 31
0.0
  0
LINE
  5
FA
330
22
100
AcDbEntity
  8
Layer 1
100
AcDbLine
 10
9.220237884448875
 20
1.028690700083727
 30
0.0
 11
9.356317744915726
 21
1.149431765475156
 31
0.0
  0
LINE
  5
FB
330
22
100
AcDbEntity
  8
Layer 1
100
AcDbLine
 10
9.356317744915726
 20
1.149431765475156
 30
0.0
 11
9.486874767456095
 21
1.276981142292214
 31
0.0
  0
LINE
  5
FC
330
22
100
AcDbEntity
  8
Layer 1
100
AcDbLine
 10
9.486874767456095
 20
1.276981142292214
 30
0.0
 11
9.611630413943876
 21
1.411182886920173
 31
0.0
  0
LINE
  5
FD
330
22
100
AcDbEntity
  8
Layer 1
100
AcDbLine
 10
9.611630413943876
 20
1.411182886920173
 30
0.0
 11
9.730306193422867
 21
1.551881055744324
 31
0.0
  0
LINE
  5
FE
330
22
100
AcDbEntity
  8
Layer 1
100
AcDbLine
 10
9.730306193422867
 20
1.551881055744324
 30
0.0
 11
9.853094761682967
 21
1.71862610068426
 31
0.0
  0
LINE
  5
FF
330
22
100
AcDbEntity
  8
Layer 1
100
AcDbLine
 10
9.853094761682967
 20
1.71862610068426
 30
0.0
 11
9.983887350591107
 21
1.917410577305695
 31
0.0
  0
LINE
  5
100
330
22
100
AcDbEntity
  8
Layer 1
100
AcDbLine
 10
9.983887350591107
 20
1.917410577305695
 30
0.0
 11
10.09863944532751
 21
2.109917969660877
 31
0.0
  0
LINE
  5
101
330
22
100
AcDbEntity
  8
Layer 1
100
AcDbLine
 10
10.09863944532751
 20
2.109917969660877
 30
0.0
 11
10.17330648390249
 21
2.257831620292435
 31
0.0
  0
LINE
  5
102
330
22
100
AcDbEntity
  8
Layer 1
100
AcDbLine
 10
10.17330648390249
 20
2.257831620292435
 30
0.0
 11
10.18467135831588
 21
2.279270046555295
 31
0.0
  0
LINE
  5
103
330
22
100
AcDbEntity
  8
Layer 1
100
AcDbLine
 10
10.18467135831588
 20
2.279270046555295
 30
0.0
 11
10.20070123926521
 21
2.294051718208641
 31
0.0
  0
LINE
  5
104
330
22
100
AcDbEntity
  8
Layer 1
100
AcDbLine
 10
10.20070123926521
 20
2.294051718208641
 30
0.0
 11
10.26611114222892
 21
2.315716276863795
 31
0.0
  0
LINE
  5
105
330
22
100
AcDbEntity
  8
Layer 1
100
AcDbLine
 10
10.26611114222892
 20
2.315716276863795
 30
0.0
 11
10.39678061775703
 21
2.358649450223133
 31
0.0
  0
LINE
  5
106
330
22
100
AcDbEntity
  8
Layer 1
100
AcDbLine
 10
10.39678061775703
 20
2.358649450223133
 30
0.0
 11
10.52148385851101
 21
2.423524776966167
 31
0.0
  0
LINE
  5
107
330
22
100
AcDbEntity
  8
Layer 1
100
AcDbLine
 10
10.52148385851101
 20
2.423524776966167
 30
0.0
 11
10.63141806913879
 21
2.504857060728589
 31
0.0
  0
LINE
  5
108
330
22
100
AcDbEntity
  8
Layer 1
100
AcDbLine
 10
10.63141806913879
 20
2.504857060728589
 30
0.0
 11
10.71778050145816
 21
2.597160916466569
 31
0.0
  0
LINE
  5
109
330
22
100
AcDbEntity
  8
Layer 1
100
AcDbLine
 10
10.71778050145816
 20
2.597160916466569
 30
0.0
 11
10.7672812783587
 21
2.663465396155324
 31
0.0
  0
LINE
  5
10A
330
22
100
AcDbEntity
  8
Layer 1
100
AcDbLine
 10
10.7672812783587
 20
2.663465396155324
 30
0.0
 11
10.8476414852875
 21
2.663662141713991
 31
0.0
  0
LINE
  5
10B
330
22
100
AcDbEntity
  8
Layer 1
100
AcDbLine
 10
10.8476414852875
 20
2.663662141713991
 30
0.0
 11
10.9451169048749
 21
2.671335124162388
 31
0.0
  0
LINE
  5
10C
330
22
100
AcDbEntity
  8
Layer 1
100
AcDbLine
 10
10.9451169048749
 20
2.671335124162388
 30
0.0
 11
11.04319279700172
 21
2.692897937391975
 31
0.0
  0
LINE
  5
10D
330
22
100
AcDbEntity
  8
Layer 1
100
AcDbLine
 10
11.04319279700172
 20
2.692897937391975
 30
0.0
 11
11.13925708253658
 21
2.726874069900104
 31
0.0
  0
LINE
  5
10E
330
22
100
AcDbEntity
  8
Layer 1
100
AcDbLine
 10
11.13925708253658
 20
2.726874069900104
 30
0.0
 11
11.23069763517824
 21
2.771787057354024
 31
0.0
  0
LINE
  5
10F
330
22
100
AcDbEntity
  8
Layer 1
100
AcDbLine
 10
11.23069763517824
 20
2.771787057354024
 30
0.0
 11
11.31490237579532
 21
2.826160293911343
 31
0.0
  0
LINE
  5
110
330
22
100
AcDbEntity
  8
Layer 1
100
AcDbLine
 10
11.31490237579532
 20
2.826160293911343
 30
0.0
 11
11.38925927242634
 21
2.888517315239298
 31
0.0
  0
LINE
  5
111
330
22
100
AcDbEntity
  8
Layer 1
100
AcDbLine
 10
11.38925927242634
 20
2.888517315239298
 30
0.0
 11
11.4511561044303
 21
2.957381609835252
 31
0.0
  0
LINE
  5
112
330
22
100
AcDbEntity
  8
Layer 1
100
AcDbLine
 10
11.4511561044303
 20
2.957381609835252
 30
0.0
 11
11.49798093418546
 21
3.031276571856813
 31
0.0
  0
LINE
  5
113
330
22
100
AcDbEntity
  8
Layer 1
100
AcDbLine
 10
11.49798093418546
 20
3.031276571856813
 30
0.0
 11
11.51913516193693
 21
3.070695872368488
 31
0.0
  0
LINE
  5
114
330
22
100
AcDbEntity
  8
Layer 1
100
AcDbLine
 10
11.51913516193693
 20
3.070695872368488
 30
0.0
 11
11.53797830154478
 21
3.092056657013123
 31
0.0
  0
LINE
  5
115
330
22
100
AcDbEntity
  8
Layer 1
100
AcDbLine
 10
11.53797830154478
 20
3.092056657013123
 30
0.0
 11
11.56474550885846
 21
3.102494737675201
 31
0.0
  0
LINE
  5
116
330
22
100
AcDbEntity
  8
Layer 1
100
AcDbLine
 10
11.56474550885846
 20
3.102494737675201
 30
0.0
 11
11.60967184538769
 21
3.109145926239178
 31
0.0
  0
LINE
  5
117
330
22
100
AcDbEntity
  8
Layer 1
100
AcDbLine
 10
11.60967184538769
 20
3.109145926239178
 30
0.0
 11
11.70295513646018
 21
3.126768733948587
 31
0.0
  0
LINE
  5
118
330
22
100
AcDbEntity
  8
Layer 1
100
AcDbLine
 10
11.70295513646018
 20
3.126768733948587
 30
0.0
 11
11.79989404586194
 21
3.155515849696611
 31
0.0
  0
LINE
  5
119
330
22
100
AcDbEntity
  8
Layer 1
100
AcDbLine
 10
11.79989404586194
 20
3.155515849696611
 30
0.0
 11
11.89115714542479
 21
3.192145712337861
 31
0.0
  0
LINE
  5
11A
330
22
100
AcDbEntity
  8
Layer 1
100
AcDbLine
 10
11.89115714542479
 20
3.192145712337861
 30
0.0
 11
11.96741295981064
 21
3.233416760726953
 31
0.0
  0
LINE
  5
11B
330
22
100
AcDbEntity
  8
Layer 1
100
AcDbLine
 10
11.96741295981064
 20
3.233416760726953
 30
0.0
 11
12.03908263569559
 21
3.287671176363083
 31
0.0
  0
LINE
  5
11C
330
22
100
AcDbEntity
  8
Layer 1
100
AcDbLine
 10
12.03908263569559
 20
3.287671176363083
 30
0.0
 11
12.10812792111116
 21
3.353878627614008
 31
0.0
  0
LINE
  5
11D
330
22
100
AcDbEntity
  8
Layer 1
100
AcDbLine
 10
12.10812792111116
 20
3.353878627614008
 30
0.0
 11
12.16728625871229
 21
3.424299528164439
 31
0.0
  0
LINE
  5
11E
330
22
100
AcDbEntity
  8
Layer 1
100
AcDbLine
 10
12.16728625871229
 20
3.424299528164439
 30
0.0
 11
12.20929509115393
 21
3.491194008679819
 31
0.0
  0
LINE
  5
11F
330
22
100
AcDbEntity
  8
Layer 1
100
AcDbLine
 10
12.20929509115393
 20
3.491194008679819
 30
0.0
 11
12.22800233434496
 21
3.525488018991801
 31
0.0
  0
LINE
  5
120
330
22
100
AcDbEntity
  8
Layer 1
100
AcDbLine
 10
12.22800233434496
 20
3.525488018991801
 30
0.0
 11
12.24766519208241
 21
3.546125642245896
 31
0.0
  0
LINE
  5
121
330
22
100
AcDbEntity
  8
Layer 1
100
AcDbLine
 10
12.24766519208241
 20
3.546125642245896
 30
0.0
 11
12.2780958950949
 21
3.559834623717101
 31
0.0
  0
LINE
  5
122
330
22
100
AcDbEntity
  8
Layer 1
100
AcDbLine
 10
12.2780958950949
 20
3.559834623717101
 30
0.0
 11
12.32910657977128
 21
3.573342850190058
 31
0.0
  0
LINE
  5
123
330
22
100
AcDbEntity
  8
Layer 1
100
AcDbLine
 10
12.32910657977128
 20
3.573342850190058
 30
0.0
 11
12.40629588603105
 21
3.596499061878495
 31
0.0
  0
LINE
  5
124
330
22
100
AcDbEntity
  8
Layer 1
100
AcDbLine
 10
12.40629588603105
 20
3.596499061878495
 30
0.0
 11
12.48134429306487
 21
3.627602784701842
 31
0.0
  0
LINE
  5
125
330
22
100
AcDbEntity
  8
Layer 1
100
AcDbLine
 10
12.48134429306487
 20
3.627602784701842
 30
0.0
 11
12.55293703487976
 21
3.665692460709131
 31
0.0
  0
LINE
  5
126
330
22
100
AcDbEntity
  8
Layer 1
100
AcDbLine
 10
12.55293703487976
 20
3.665692460709131
 30
0.0
 11
12.61975939265258
 21
3.709806579119258
 31
0.0
  0
LINE
  5
127
330
22
100
AcDbEntity
  8
Layer 1
100
AcDbLine
 10
12.61975939265258
 20
3.709806579119258
 30
0.0
 11
12.68049664756021
 21
3.758983629151146
 31
0.0
  0
LINE
  5
128
330
22
100
AcDbEntity
  8
Layer 1
100
AcDbLine
 10
12.68049664756021
 20
3.758983629151146
 30
0.0
 11
12.73383408077952
 21
3.81226200568394
 31
0.0
  0
LINE
  5
129
330
22
100
AcDbEntity
  8
Layer 1
100
AcDbLine
 10
12.73383408077952
 20
3.81226200568394
 30
0.0
 11
12.7784569263175
 21
3.86868019793654
 31
0.0
  0
LINE
  5
12A
330
22
100
AcDbEntity
  8
Layer 1
100
AcDbLine
 10
12.7784569263175
 20
3.86868019793654
 30
0.0
 11
12.81305046535103
 21
3.927276647957988
 31
0.0
  0
LINE
  5
12B
330
22
100
AcDbEntity
  8
Layer 1
100
AcDbLine
 10
12.81305046535103
 20
3.927276647957988
 30
0.0
 11
12.84767466480488
 21
3.997816086410345
 31
0.0
  0
LINE
  5
12C
330
22
100
AcDbEntity
  8
Layer 1
100
AcDbLine
 10
12.84767466480488
 20
3.997816086410345
 30
0.0
 11
12.96614289682326
 21
4.036193404330076
 31
0.0
  0
LINE
  5
12D
330
22
100
AcDbEntity
  8
Layer 1
100
AcDbLine
 10
12.96614289682326
 20
4.036193404330076
 30
0.0
 11
13.07396375543351
 21
4.078886294333891
 31
0.0
  0
LINE
  5
12E
330
22
100
AcDbEntity
  8
Layer 1
100
AcDbLine
 10
13.07396375543351
 20
4.078886294333891
 30
0.0
 11
13.16960752151128
 21
4.132749718856181
 31
0.0
  0
LINE
  5
12F
330
22
100
AcDbEntity
  8
Layer 1
100
AcDbLine
 10
13.16960752151128
 20
4.132749718856181
 30
0.0
 11
13.25240763751889
 21
4.196947450310246
 31
0.0
  0
LINE
  5
130
330
22
100
AcDbEntity
  8
Layer 1
100
AcDbLine
 10
13.25240763751889
 20
4.196947450310246
 30
0.0
 11
13.32169740440907
 21
4.27064326110939
 31
0.0
  0
LINE
  5
131
330
22
100
AcDbEntity
  8
Layer 1
100
AcDbLine
 10
13.32169740440907
 20
4.27064326110939
 30
0.0
 11
13.37681012313453
 21
4.353000970836781
 31
0.0
  0
LINE
  5
132
330
22
100
AcDbEntity
  8
Layer 1
100
AcDbLine
 10
13.37681012313453
 20
4.353000970836781
 30
0.0
 11
13.41707918898771
 21
4.443184304735878
 31
0.0
  0
LINE
  5
133
330
22
100
AcDbEntity
  8
Layer 1
100
AcDbLine
 10
13.41707918898771
 20
4.443184304735878
 30
0.0
 11
13.44183795009122
 21
4.540357082389832
 31
0.0
  0
LINE
  5
134
330
22
100
AcDbEntity
  8
Layer 1
100
AcDbLine
 10
13.44183795009122
 20
4.540357082389832
 30
0.0
 11
13.45041975456764
 21
4.643683076211964
 31
0.0
  0
LINE
  5
135
330
22
100
AcDbEntity
  8
Layer 1
100
AcDbLine
 10
13.45041975456764
 20
4.643683076211964
 30
0.0
 11
13.45070065118761
 21
4.753510258387898
 31
0.0
  0
LINE
  5
136
330
22
100
AcDbEntity
  8
Layer 1
100
AcDbLine
 10
13.45070065118761
 20
4.753510258387898
 30
0.0
 11
11.95263888250756
 21
4.753510258387898
 31
0.0
  0
LINE
  5
137
330
22
100
AcDbEntity
  8
Layer 1
100
AcDbLine
 10
11.95263888250756
 20
4.753510258387898
 30
0.0
 11
10.75750334013097
 21
4.756886442363415
 31
0.0
  0
LINE
  5
138
330
22
100
AcDbEntity
  8
Layer 1
100
AcDbLine
 10
10.75750334013097
 20
4.756886442363415
 30
0.0
 11
10.51919588360732
 21
4.761988572153285
 31
0.0
  0
LINE
  5
139
330
22
100
AcDbEntity
  8
Layer 1
100
AcDbLine
 10
10.51919588360732
 20
4.761988572153285
 30
0.0
 11
10.44958380494481
 21
4.770150753400287
 31
0.0
  0
LINE
  5
13A
330
22
100
AcDbEntity
  8
Layer 1
100
AcDbLine
 10
10.44958380494481
 20
4.770150753400287
 30
0.0
 11
10.39582703151534
 21
4.953196057026858
 31
0.0
  0
LINE
  5
13B
330
22
100
AcDbEntity
  8
Layer 1
100
AcDbLine
 10
10.39582703151534
 20
4.953196057026858
 30
0.0
 11
10.31623526905941
 21
5.193911394282571
 31
0.0
  0
LINE
  5
13C
330
22
100
AcDbEntity
  8
Layer 1
100
AcDbLine
 10
10.31623526905941
 20
5.193911394282571
 30
0.0
 11
10.22106796591335
 21
5.427066390757147
 31
0.0
  0
LINE
  5
13D
330
22
100
AcDbEntity
  8
Layer 1
100
AcDbLine
 10
10.22106796591335
 20
5.427066390757147
 30
0.0
 11
10.11097983997558
 21
5.652047696534637
 31
0.0
  0
LINE
  5
13E
330
22
100
AcDbEntity
  8
Layer 1
100
AcDbLine
 10
10.11097983997558
 20
5.652047696534637
 30
0.0
 11
9.986625467634912
 21
5.868242103208729
 31
0.0
  0
LINE
  5
13F
330
22
100
AcDbEntity
  8
Layer 1
100
AcDbLine
 10
9.986625467634912
 20
5.868242103208729
 30
0.0
 11
9.848659330940376
 21
6.075036260863496
 31
0.0
  0
LINE
  5
140
330
22
100
AcDbEntity
  8
Layer 1
100
AcDbLine
 10
9.848659330940376
 20
6.075036260863496
 30
0.0
 11
9.697736147790401
 21
6.271816961092624
 31
0.0
  0
LINE
  5
141
330
22
100
AcDbEntity
  8
Layer 1
100
AcDbLine
 10
9.697736147790401
 20
6.271816961092624
 30
0.0
 11
9.534510494573787
 21
6.45797090115004
 31
0.0
  0
LINE
  5
142
330
22
100
AcDbEntity
  8
Layer 1
100
AcDbLine
 10
9.534510494573787
 20
6.45797090115004
 30
0.0
 11
9.359636900509446
 21
6.632884778289684
 31
0.0
  0
LINE
  5
143
330
22
100
AcDbEntity
  8
Layer 1
100
AcDbLine
 10
9.359636900509446
 20
6.632884778289684
 30
0.0
 11
9.173769989156062
 21
6.795945336935374
 31
0.0
  0
LINE
  5
144
330
22
100
AcDbEntity
  8
Layer 1
100
AcDbLine
 10
9.173769989156062
 20
6.795945336935374
 30
0.0
 11
8.977564336902425
 21
6.946539274341033
 31
0.0
  0
LINE
  5
145
330
22
100
AcDbEntity
  8
Layer 1
100
AcDbLine
 10
8.977564336902425
 20
6.946539274341033
 30
0.0
 11
8.771674614477085
 21
7.08405333493048
 31
0.0
  0
LINE
  5
146
330
22
100
AcDbEntity
  8
Layer 1
100
AcDbLine
 10
8.771674614477085
 20
7.08405333493048
 30
0.0
 11
8.556755351098969
 21
7.207874215957672
 31
0.0
  0
LINE
  5
147
330
22
100
AcDbEntity
  8
Layer 1
100
AcDbLine
 10
8.556755351098969
 20
7.207874215957672
 30
0.0
 11
8.333461123156871
 21
7.317388614676517
 31
0.0
  0
LINE
  5
148
330
22
100
AcDbEntity
  8
Layer 1
100
AcDbLine
 10
8.333461123156871
 20
7.317388614676517
 30
0.0
 11
8.102446554209452
 21
7.411983322680717
 31
0.0
  0
LINE
  5
149
330
22
100
AcDbEntity
  8
Layer 1
100
AcDbLine
 10
8.102446554209452
 20
7.411983322680717
 30
0.0
 11
7.864366220645528
 21
7.49104494288445
 31
0.0
  0
LINE
  5
14A
330
22
100
AcDbEntity
  8
Layer 1
100
AcDbLine
 10
7.864366220645528
 20
7.49104494288445
 30
0.0
 11
7.619874746023762
 21
7.553960314051287
 31
0.0
  0
LINE
  5
14B
330
22
100
AcDbEntity
  8
Layer 1
100
AcDbLine
 10
7.619874746023762
 20
7.553960314051287
 30
0.0
 11
7.415772337423303
 21
7.594990890405362
 31
0.0
  0
LINE
  5
14C
330
22
100
AcDbEntity
  8
Layer 1
100
AcDbLine
 10
7.415772337423303
 20
7.594990890405362
 30
0.0
 11
7.235094820133005
 21
7.619735689225159
 31
0.0
  0
LINE
  5
14D
330
22
100
AcDbEntity
  8
Layer 1
100
AcDbLine
 10
7.235094820133005
 20
7.619735689225159
 30
0.0
 11
7.040465254993213
 21
7.631867262825949
 31
0.0
  0
LINE
  5
14E
330
22
100
AcDbEntity
  8
Layer 1
100
AcDbLine
 10
7.040465254993213
 20
7.631867262825949
 30
0.0
 11
6.794506702844293
 21
7.635058210692875
 31
0.0
  0
LINE
  5
14F
330
22
100
AcDbEntity
  8
Layer 1
100
AcDbLine
 10
6.794506702844293
 20
7.635058210692875
 30
0.0
 11
6.560142129203335
 21
7.632318537043111
 31
0.0
  0
LINE
  5
150
330
22
100
AcDbEntity
  8
Layer 1
100
AcDbLine
 10
6.560142129203335
 20
7.632318537043111
 30
0.0
 11
6.378180128981329
 21
7.621693239137612
 31
0.0
  0
LINE
  5
151
330
22
100
AcDbEntity
  8
Layer 1
100
AcDbLine
 10
6.378180128981329
 20
7.621693239137612
 30
0.0
 11
6.208318664580772
 21
7.599412972072649
 31
0.0
  0
LINE
  5
152
330
22
100
AcDbEntity
  8
Layer 1
100
AcDbLine
 10
6.208318664580772
 20
7.599412972072649
 30
0.0
 11
6.010255698404182
 21
7.561708249434887
 31
0.0
  0
LINE
  5
153
330
22
100
AcDbEntity
  8
Layer 1
100
AcDbLine
 10
6.010255698404182
 20
7.561708249434887
 30
0.0
 11
5.846272308276877
 21
7.52320178039082
 31
0.0
  0
LINE
  5
154
330
22
100
AcDbEntity
  8
Layer 1
100
AcDbLine
 10
5.846272308276877
 20
7.52320178039082
 30
0.0
 11
5.681090803263398
 21
7.475455675759994
 31
0.0
  0
LINE
  5
155
330
22
100
AcDbEntity
  8
Layer 1
100
AcDbLine
 10
5.681090803263398
 20
7.475455675759994
 30
0.0
 11
5.515894156719276
 21
7.418968238127355
 31
0.0
  0
LINE
  5
156
330
22
100
AcDbEntity
  8
Layer 1
100
AcDbLine
 10
5.515894156719276
 20
7.418968238127355
 30
0.0
 11
5.351865247660271
 21
7.354237770077837
 31
0.0
  0
LINE
  5
157
330
22
100
AcDbEntity
  8
Layer 1
100
AcDbLine
 10
5.351865247660271
 20
7.354237770077837
 30
0.0
 11
5.190187002272037
 21
7.281762621366268
 31
0.0
  0
LINE
  5
158
330
22
100
AcDbEntity
  8
Layer 1
100
AcDbLine
 10
5.190187002272037
 20
7.281762621366268
 30
0.0
 11
5.032042488249855
 21
7.202041141747463
 31
0.0
  0
LINE
  5
159
330
22
100
AcDbEntity
  8
Layer 1
100
AcDbLine
 10
5.032042488249855
 20
7.202041141747463
 30
0.0
 11
4.878614490269738
 21
7.115571586636496
 31
0.0
  0
LINE
  5
15A
330
22
100
AcDbEntity
  8
Layer 1
100
AcDbLine
 10
4.878614490269738
 20
7.115571586636496
 30
0.0
 11
4.731086076026966
 21
7.022852352958053
 31
0.0
  0
LINE
  5
15B
330
22
100
AcDbEntity
  8
Layer 1
100
AcDbLine
 10
4.731086076026966
 20
7.022852352958053
 30
0.0
 11
4.571929154925972
 21
6.912822481818898
 31
0.0
  0
LINE
  5
15C
330
22
100
AcDbEntity
  8
Layer 1
100
AcDbLine
 10
4.571929154925972
 20
6.912822481818898
 30
0.0
 11
4.433992122045799
 21
6.806149171986226
 31
0.0
  0
LINE
  5
15D
330
22
100
AcDbEntity
  8
Layer 1
100
AcDbLine
 10
4.433992122045799
 20
6.806149171986226
 30
0.0
 11
4.299651226279476
 21
6.688299667249807
 31
0.0
  0
LINE
  5
15E
330
22
100
AcDbEntity
  8
Layer 1
100
AcDbLine
 10
4.299651226279476
 20
6.688299667249807
 30
0.0
 11
4.151282480670677
 21
6.544741164229492
 31
0.0
  0
LINE
  5
15F
330
22
100
AcDbEntity
  8
Layer 1
100
AcDbLine
 10
4.151282480670677
 20
6.544741164229492
 30
0.0
 11
4.014851157447258
 21
6.403763136522663
 31
0.0
  0
LINE
  5
160
330
22
100
AcDbEntity
  8
Layer 1
100
AcDbLine
 10
4.014851157447258
 20
6.403763136522663
 30
0.0
 11
3.900515242539233
 21
6.274622672570749
 31
0.0
  0
LINE
  5
161
330
22
100
AcDbEntity
  8
Layer 1
100
AcDbLine
 10
3.900515242539233
 20
6.274622672570749
 30
0.0
 11
3.799223685529729
 21
6.146521927056673
 31
0.0
  0
LINE
  5
162
330
22
100
AcDbEntity
  8
Layer 1
100
AcDbLine
 10
3.799223685529729
 20
6.146521927056673
 30
0.0
 11
3.70192548317174
 21
6.008663149003112
 31
0.0
  0
LINE
  5
163
330
22
100
AcDbEntity
  8
Layer 1
100
AcDbLine
 10
3.70192548317174
 20
6.008663149003112
 30
0.0
 11
3.619501735615966
 21
5.8859840148586
 31
0.0
  0
LINE
  5
164
330
22
100
AcDbEntity
  8
Layer 1
100
AcDbLine
 10
3.619501735615966
 20
5.8859840148586
 30
0.0
 11
1.884385342356235
 21
5.885523542515336
 31
0.0
  0
LINE
  5
165
330
22
100
AcDbEntity
  8
Layer 1
100
AcDbLine
 10
1.884385342356235
 20
5.885523542515336
 30
0.0
 11
0.1492691849458883
 21
5.885063211681717
 31
0.0
  0
LINE
  5
166
330
22
100
AcDbEntity
  8
Layer 1
100
AcDbLine
 10
0.1492691849458883
 20
5.885063211681717
 30
0.0
 11
0.1537749931455732
 21
5.741580321974878
 31
0.0
  0
LINE
  5
167
330
22
100
AcDbEntity
  8
Layer 1
100
AcDbLine
 10
0.1537749931455732
 20
5.741580321974878
 30
0.0
 11
0.1646113290826037
 21
5.606300698478256
 31
0.0
  0
LINE
  5
168
330
22
100
AcDbEntity
  8
Layer 1
100
AcDbLine
 10
0.1646113290826037
 20
5.606300698478256
 30
0.0
 11
0.178703377128242
 21
5.560351860516448
 31
0.0
  0
LINE
  5
169
330
22
100
AcDbEntity
  8
Layer 1
100
AcDbLine
 10
0.178703377128242
 20
5.560351860516448
 30
0.0
 11
0.2031892604909444
 21
5.506970512141271
 31
0.0
  0
LINE
  5
16A
330
22
100
AcDbEntity
  8
Layer 1
100
AcDbLine
 10
0.2031892604909444
 20
5.506970512141271
 30
0.0
 11
0.2384178947539013
 21
5.445655803594411
 31
0.0
  0
LINE
  5
16B
330
22
100
AcDbEntity
  8
Layer 1
100
AcDbLine
 10
0.2384178947539013
 20
5.445655803594411
 30
0.0
 11
0.2816773893251501
 21
5.387763316823402
 31
0.0
  0
LINE
  5
16C
330
22
100
AcDbEntity
  8
Layer 1
100
AcDbLine
 10
0.2816773893251501
 20
5.387763316823402
 30
0.0
 11
0.3322205261766609
 21
5.333875080945603
 31
0.0
  0
LINE
  5
16D
330
22
100
AcDbEntity
  8
Layer 1
100
AcDbLine
 10
0.3322205261766609
 20
5.333875080945603
 30
0.0
 11
0.3893000872804091
 21
5.284573125078337
 31
0.0
  0
LINE
  5
16E
330
22
100
AcDbEntity
  8
Layer 1
100
AcDbLine
 10
0.3893000872804091
 20
5.284573125078337
 30
0.0
 11
0.4521689489481222
 21
5.240439478338962
 31
0.0
  0
LINE
  5
16F
330
22
100
AcDbEntity
  8
Layer 1
100
AcDbLine
 10
0.4521689489481222
 20
5.240439478338962
 30
0.0
 11
0.5200798459818988
 21
5.20205621701467
 31
0.0
  0
LINE
  5
170
330
22
100
AcDbEntity
  8
Layer 1
100
AcDbLine
 10
0.5200798459818988
 20
5.20205621701467
 30
0.0
 11
0.5922857018633431
 21
5.170005275883092
 31
0.0
  0
LINE
  5
171
330
22
100
AcDbEntity
  8
Layer 1
100
AcDbLine
 10
0.5922857018633431
 20
5.170005275883092
 30
0.0
 11
0.6680392042246714
 21
5.144868778401302
 31
0.0
  0
LINE
  5
172
330
22
100
AcDbEntity
  8
Layer 1
100
AcDbLine
 10
0.6680392042246714
 20
5.144868778401302
 30
0.0
 11
0.7422695440746061
 21
5.116844776873946
 31
0.0
  0
LINE
  5
173
330
22
100
AcDbEntity
  8
Layer 1
100
AcDbLine
 10
0.7422695440746061
 20
5.116844776873946
 30
0.0
 11
0.7602643806071381
 21
5.097545834740706
 31
0.0
  0
LINE
  5
174
330
22
100
AcDbEntity
  8
Layer 1
100
AcDbLine
 10
0.7602643806071381
 20
5.097545834740706
 30
0.0
 11
0.775703553181682
 21
5.067388292488288
 31
0.0
  0
LINE
  5
175
330
22
100
AcDbEntity
  8
Layer 1
100
AcDbLine
 10
0.775703553181682
 20
5.067388292488288
 30
0.0
 11
0.8118244056758197
 21
5.001977776316181
 31
0.0
  0
LINE
  5
176
330
22
100
AcDbEntity
  8
Layer 1
100
AcDbLine
 10
0.8118244056758197
 20
5.001977776316181
 30
0.0
 11
0.8598054162961386
 21
4.939625896504863
 31
0.0
  0
LINE
  5
177
330
22
100
AcDbEntity
  8
Layer 1
100
AcDbLine
 10
0.8598054162961386
 20
4.939625896504863
 30
0.0
 11
0.9183316303701259
 21
4.88125939963578
 31
0.0
  0
LINE
  5
178
330
22
100
AcDbEntity
  8
Layer 1
100
AcDbLine
 10
0.9183316303701259
 20
4.88125939963578
 30
0.0
 11
0.9860879988855105
 21
4.82780484361087
 31
0.0
  0
LINE
  5
179
330
22
100
AcDbEntity
  8
Layer 1
100
AcDbLine
 10
0.9860879988855105
 20
4.82780484361087
 30
0.0
 11
1.061759519999904
 21
4.780188975011568
 31
0.0
  0
LINE
  5
17A
330
22
100
AcDbEntity
  8
Layer 1
100
AcDbLine
 10
1.061759519999904
 20
4.780188975011568
 30
0.0
 11
1.144031144701035
 21
4.739338351739816
 31
0.0
  0
LINE
  5
17B
330
22
100
AcDbEntity
  8
Layer 1
100
AcDbLine
 10
1.144031144701035
 20
4.739338351739816
 30
0.0
 11
1.231587918316392
 21
4.706179767546919
 31
0.0
  0
LINE
  5
17C
330
22
100
AcDbEntity
  8
Layer 1
100
AcDbLine
 10
1.231587918316392
 20
4.706179767546919
 30
0.0
 11
1.323114839003582
 21
4.681639733164955
 31
0.0
  0
LINE
  5
17D
330
22
100
AcDbEntity
  8
Layer 1
100
AcDbLine
 10
1.323114839003582
 20
4.681639733164955
 30
0.0
 11
1.357532670243767
 21
4.659064512856558
 31
0.0
  0
LINE
  5
17E
330
22
100
AcDbEntity
  8
Layer 1
100
AcDbLine
 10
1.357532670243767
 20
4.659064512856558
 30
0.0
 11
1.394561354198508
 21
4.601002073017254
 31
0.0
  0
LINE
  5
17F
330
22
100
AcDbEntity
  8
Layer 1
100
AcDbLine
 10
1.394561354198508
 20
4.601002073017254
 30
0.0
 11
1.440314720188336
 21
4.530096737825829
 31
0.0
  0
LINE
  5
180
330
22
100
AcDbEntity
  8
Layer 1
100
AcDbLine
 10
1.440314720188336
 20
4.530096737825829
 30
0.0
 11
1.500727257659884
 21
4.462763671790311
 31
0.0
  0
LINE
  5
181
330
22
100
AcDbEntity
  8
Layer 1
100
AcDbLine
 10
1.500727257659884
 20
4.462763671790311
 30
0.0
 11
1.572809245443254
 21
4.400801745355528
 31
0.0
  0
LINE
  5
182
330
22
100
AcDbEntity
  8
Layer 1
100
AcDbLine
 10
1.572809245443254
 20
4.400801745355528
 30
0.0
 11
1.653570915198665
 21
4.346010064815721
 31
0.0
  0
LINE
  5
183
330
22
100
AcDbEntity
  8
Layer 1
100
AcDbLine
 10
1.653570915198665
 20
4.346010064815721
 30
0.0
 11
1.740022592926099
 21
4.300187453445857
 31
0.0
  0
LINE
  5
184
330
22
100
AcDbEntity
  8
Layer 1
100
AcDbLine
 10
1.740022592926099
 20
4.300187453445857
 30
0.0
 11
1.829174510285774
 21
4.265132923200417
 31
0.0
  0
LINE
  5
185
330
22
100
AcDbEntity
  8
Layer 1
100
AcDbLine
 10
1.829174510285774
 20
4.265132923200417
 30
0.0
 11
1.918036898937918
 21
4.242645438863995
 31
0.0
  0
LINE
  5
186
330
22
100
AcDbEntity
  8
Layer 1
100
AcDbLine
 10
1.918036898937918
 20
4.242645438863995
 30
0.0
 11
2.003620132052383
 21
4.234523918051329
 31
0.0
  0
LINE
  5
187
330
22
100
AcDbEntity
  8
Layer 1
100
AcDbLine
 10
2.003620132052383
 20
4.234523918051329
 30
0.0
 11
2.03147682202457
 21
4.232285896047804
 31
0.0
  0
LINE
  5
188
330
22
100
AcDbEntity
  8
Layer 1
100
AcDbLine
 10
2.03147682202457
 20
4.232285896047804
 30
0.0
 11
2.052282228532603
 21
4.221337012783273
 31
0.0
  0
LINE
  5
189
330
22
100
AcDbEntity
  8
Layer 1
100
AcDbLine
 10
2.052282228532603
 20
4.221337012783273
 30
0.0
 11
2.103305177377111
 21
4.146235067938589
 31
0.0
  0
LINE
  5
18A
330
22
100
AcDbEntity
  8
Layer 1
100
AcDbLine
 10
2.103305177377111
 20
4.146235067938589
 30
0.0
 11
2.153252653016711
 21
4.072722229093918
 31
0.0
  0
LINE
  5
18B
330
22
100
AcDbEntity
  8
Layer 1
100
AcDbLine
 10
2.153252653016711
 20
4.072722229093918
 30
0.0
 11
2.21250849075445
 21
4.006517749545267
 31
0.0
  0
LINE
  5
18C
330
22
100
AcDbEntity
  8
Layer 1
100
AcDbLine
 10
2.21250849075445
 20
4.006517749545267
 30
0.0
 11
2.280325991430959
 21
3.948055403485291
 31
0.0
  0
LINE
  5
18D
330
22
100
AcDbEntity
  8
Layer 1
100
AcDbLine
 10
2.280325991430959
 20
3.948055403485291
 30
0.0
 11
2.355958455886856
 21
3.897768776427127
 31
0.0
  0
LINE
  5
18E
330
22
100
AcDbEntity
  8
Layer 1
100
AcDbLine
 10
2.355958455886856
 20
3.897768776427127
 30
0.0
 11
2.438659184962774
 21
3.85609164256342
 31
0.0
  0
LINE
  5
18F
330
22
100
AcDbEntity
  8
Layer 1
100
AcDbLine
 10
2.438659184962774
 20
3.85609164256342
 30
0.0
 11
2.527681479499332
 21
3.823457728916948
 31
0.0
  0
LINE
  5
190
330
22
100
AcDbEntity
  8
Layer 1
100
AcDbLine
 10
2.527681479499332
 20
3.823457728916948
 30
0.0
 11
2.622278640337158
 21
3.800300668170713
 31
0.0
  0
LINE
  5
191
330
22
100
AcDbEntity
  8
Layer 1
100
AcDbLine
 10
2.622278640337158
 20
3.800300668170713
 30
0.0
 11
2.721703921146997
 21
3.787054234517376
 31
0.0
  0
LINE
  5
192
330
22
100
AcDbEntity
  8
Layer 1
100
AcDbLine
 10
2.721703921146997
 20
3.787054234517376
 30
0.0
 11
2.787783919389169
 21
3.780776489872848
 31
0.0
  0
LINE
  5
193
330
22
100
AcDbEntity
  8
Layer 1
100
AcDbLine
 10
2.787783919389169
 20
3.780776489872848
 30
0.0
 11
2.829208883088247
 21
3.770643503977851
 31
0.0
  0
LINE
  5
194
330
22
100
AcDbEntity
  8
Layer 1
100
AcDbLine
 10
2.829208883088247
 20
3.770643503977851
 30
0.0
 11
2.863365770566606
 21
3.749448474282423
 31
0.0
  0
LINE
  5
195
330
22
100
AcDbEntity
  8
Layer 1
100
AcDbLine
 10
2.863365770566606
 20
3.749448474282423
 30
0.0
 11
2.907641634486373
 21
3.709984692576354
 31
0.0
  0
LINE
  5
196
330
22
100
AcDbEntity
  8
Layer 1
100
AcDbLine
 10
2.907641634486373
 20
3.709984692576354
 30
0.0
 11
3.01928447958352
 21
3.614993616092291
 31
0.0
  0
LINE
  5
197
330
22
100
AcDbEntity
  8
Layer 1
100
AcDbLine
 10
3.01928447958352
 20
3.614993616092291
 30
0.0
 11
3.040818094658984
 21
3.596414297608781
 31
0.0
  0
LINE
  5
198
330
22
100
AcDbEntity
  8
Layer 1
100
AcDbLine
 10
3.040818094658984
 20
3.596414297608781
 30
0.0
 11
3.054401368406897
 21
3.569340438922075
 31
0.0
  0
LINE
  5
199
330
22
100
AcDbEntity
  8
Layer 1
100
AcDbLine
 10
3.054401368406897
 20
3.569340438922075
 30
0.0
 11
3.075172435244176
 21
3.432806945744181
 31
0.0
  0
LINE
  5
19A
330
22
100
AcDbEntity
  8
Layer 1
100
AcDbLine
 10
3.075172435244176
 20
3.432806945744181
 30
0.0
 11
3.124410523097428
 21
3.125002269209517
 31
0.0
  0
LINE
  5
19B
330
22
100
AcDbEntity
  8
Layer 1
100
AcDbLine
 10
3.124410523097428
 20
3.125002269209517
 30
0.0
 11
3.200991337938623
 21
2.821362645680131
 31
0.0
  0
LINE
  5
19C
330
22
100
AcDbEntity
  8
Layer 1
100
AcDbLine
 10
3.200991337938623
 20
2.821362645680131
 30
0.0
 11
3.304883417459533
 21
2.521992933793511
 31
0.0
  0
LINE
  5
19D
330
22
100
AcDbEntity
  8
Layer 1
100
AcDbLine
 10
3.304883417459533
 20
2.521992933793511
 30
0.0
 11
3.436055393691672
 21
2.226997992187128
 31
0.0
  0
LINE
  5
19E
330
22
100
AcDbEntity
  8
Layer 1
100
AcDbLine
 10
3.436055393691672
 20
2.226997992187128
 30
0.0
 11
3.530042506504977
 21
2.048726893362704
 31
0.0
  0
LINE
  5
19F
330
22
100
AcDbEntity
  8
Layer 1
100
AcDbLine
 10
3.530042506504977
 20
2.048726893362704
 30
0.0
 11
3.63220274397683
 21
1.877586795095239
 31
0.0
  0
LINE
  5
1A0
330
22
100
AcDbEntity
  8
Layer 1
100
AcDbLine
 10
3.63220274397683
 20
1.877586795095239
 30
0.0
 11
3.742799644212324
 21
1.713248027111538
 31
0.0
  0
LINE
  5
1A1
330
22
100
AcDbEntity
  8
Layer 1
100
AcDbLine
 10
3.742799644212324
 20
1.713248027111538
 30
0.0
 11
3.862096698146651
 21
1.555381154987776
 31
0.0
  0
LINE
  5
1A2
330
22
100
AcDbEntity
  8
Layer 1
100
AcDbLine
 10
3.862096698146651
 20
1.555381154987776
 30
0.0
 11
3.990357491054778
 21
1.403656508450765
 31
0.0
  0
LINE
  5
1A3
330
22
100
AcDbEntity
  8
Layer 1
100
AcDbLine
 10
3.990357491054778
 20
1.403656508450765
 30
0.0
 11
4.127845513871908
 21
1.257744653076656
 31
0.0
  0
LINE
  5
1A4
330
22
100
AcDbEntity
  8
Layer 1
100
AcDbLine
 10
4.127845513871908
 20
1.257744653076656
 30
0.0
 11
4.274824304703114
 21
1.11731591859226
 31
0.0
  0
LINE
  5
1A5
330
22
100
AcDbEntity
  8
Layer 1
100
AcDbLine
 10
4.274824304703114
 20
1.11731591859226
 30
0.0
 11
4.431557354483603
 21
0.9820408234038707
 31
0.0
  0
LINE
  5
1A6
330
22
100
AcDbEntity
  8
Layer 1
100
AcDbLine
 10
4.431557354483603
 20
0.9820408234038707
 30
0.0
 11
4.581514262694868
 21
0.8652489144888233
 31
0.0
  0
LINE
  5
1A7
330
22
100
AcDbEntity
  8
Layer 1
100
AcDbLine
 10
4.581514262694868
 20
0.8652489144888233
 30
0.0
 11
4.736732404692511
 21
0.7567516398365372
 31
0.0
  0
LINE
  5
1A8
330
22
100
AcDbEntity
  8
Layer 1
100
AcDbLine
 10
4.736732404692511
 20
0.7567516398365372
 30
0.0
 11
4.896846921474777
 21
0.6566541882736204
 31
0.0
  0
LINE
  5
1A9
330
22
100
AcDbEntity
  8
Layer 1
100
AcDbLine
 10
4.896846921474777
 20
0.6566541882736204
 30
0.0
 11
5.06149290687004
 21
0.565061701456834
 31
0.0
  0
LINE
  5
1AA
330
22
100
AcDbEntity
  8
Layer 1
100
AcDbLine
 10
5.06149290687004
 20
0.565061701456834
 30
0.0
 11
5.230305501876538
 21
0.4820793210429173
 31
0.0
  0
LINE
  5
1AB
330
22
100
AcDbEntity
  8
Layer 1
100
AcDbLine
 10
5.230305501876538
 20
0.4820793210429173
 30
0.0
 11
5.402919847492523
 21
0.4078121415187256
 31
0.0
  0
LINE
  5
1AC
330
22
100
AcDbEntity
  8
Layer 1
100
AcDbLine
 10
5.402919847492523
 20
0.4078121415187256
 30
0.0
 11
5.578970990376482
 21
0.3423653988807587
 31
0.0
  0
LINE
  5
1AD
330
22
100
AcDbEntity
  8
Layer 1
100
AcDbLine
 10
5.578970990376482
 20
0.3423653988807587
 30
0.0
 11
5.758094118696543
 21
0.2858441876158935
 31
0.0
  0
LINE
  5
1AE
330
22
100
AcDbEntity
  8
Layer 1
100
AcDbLine
 10
5.758094118696543
 20
0.2858441876158935
 30
0.0
 11
5.939924326281071
 21
0.2383536022109922
 31
0.0
  0
LINE
  5
1AF
330
22
100
AcDbEntity
  8
Layer 1
100
AcDbLine
 10
5.939924326281071
 20
0.2383536022109922
 30
0.0
 11
6.124096754128315
 21
0.1999988786625408
 31
0.0
  0
LINE
  5
1B0
330
22
100
AcDbEntity
  8
Layer 1
100
AcDbLine
 10
6.124096754128315
 20
0.1999988786625408
 30
0.0
 11
6.310246496066637
 21
0.1708851114574301
 31
0.0
  0
LINE
  5
1B1
330
22
100
AcDbEntity
  8
Layer 1
100
AcDbLine
 10
6.310246496066637
 20
0.1708851114574301
 30
0.0
 11
6.498008645924415
 21
0.151117442252378
 31
0.0
  0
LINE
  5
1B2
330
22
100
AcDbEntity
  8
Layer 1
100
AcDbLine
 10
6.498008645924415
 20
0.151117442252378
 30
0.0
 11
6.687018439039649
 21
0.140801012704145
 31
0.0
  0
LINE
  5
1B3
330
22
100
AcDbEntity
  8
Layer 1
100
AcDbLine
 10
6.687018439039649
 20
0.140801012704145
 30
0.0
 11
6.876910874900941
 21
0.1400409644694633
 31
0.0
  0
LINE
  5
1B4
330
22
100
AcDbEntity
  8
Layer 1
100
AcDbLine
 10
6.876910874900941
 20
0.1400409644694633
 30
0.0
 11
7.067321094506547
 21
0.1489424863749562
 31
0.0
  0
LINE
  5
1B5
330
22
100
AcDbEntity
  8
Layer 1
100
AcDbLine
 10
7.067321094506547
 20
0.1489424863749562
 30
0.0
 11
7.257884286024596
 21
0.1676106729074931
 31
0.0
  0
LINE
  5
1B6
330
22
100
AcDbEntity
  8
Layer 1
100
AcDbLine
 10
7.257884286024596
 20
0.1676106729074931
 30
0.0
 11
7.257884286024596
 21
0.1676106729074931
 31
0.0
  0
LINE
  5
2AC
330
22
100
AcDbEntity
  8
Layer 1
100
AcDbLine
 10
7.207190724434028
 20
0.8344996261243196
 30
0.0
 11
7.450711018449831
 21
0.8760933164748934
 31
0.0
  0
LINE
  5
2AD
330
22
100
AcDbEntity
  8
Layer 1
100
AcDbLine
 10
7.450711018449831
 20
0.8760933164748934
 30
0.0
 11
7.689183994073312
 21
0.9379864220585291
 31
0.0
  0
LINE
  5
2AE
330
22
100
AcDbEntity
  8
Layer 1
100
AcDbLine
 10
7.689183994073312
 20
0.9379864220585291
 30
0.0
 11
7.924619276761558
 21
1.020792575810453
 31
0.0
  0
LINE
  5
2AF
330
22
100
AcDbEntity
  8
Layer 1
100
AcDbLine
 10
7.924619276761558
 20
1.020792575810453
 30
0.0
 11
8.159026444801817
 21
1.125125316326119
 31
0.0
  0
LINE
  5
2B0
330
22
100
AcDbEntity
  8
Layer 1
100
AcDbLine
 10
8.159026444801817
 20
1.125125316326119
 30
0.0
 11
8.311904300501717
 21
1.205322551328464
 31
0.0
  0
LINE
  5
2B1
330
22
100
AcDbEntity
  8
Layer 1
100
AcDbLine
 10
8.311904300501717
 20
1.205322551328464
 30
0.0
 11
8.458568373910859
 21
1.292565881108437
 31
0.0
  0
LINE
  5
2B2
330
22
100
AcDbEntity
  8
Layer 1
100
AcDbLine
 10
8.458568373910859
 20
1.292565881108437
 30
0.0
 11
8.599031259386501
 21
1.386865541529445
 31
0.0
  0
LINE
  5
2B3
330
22
100
AcDbEntity
  8
Layer 1
100
AcDbLine
 10
8.599031259386501
 20
1.386865541529445
 30
0.0
 11
8.733305692795545
 21
1.488231674115134
 31
0.0
  0
LINE
  5
2B4
330
22
100
AcDbEntity
  8
Layer 1
100
AcDbLine
 10
8.733305692795545
 20
1.488231674115134
 30
0.0
 11
8.861404410004896
 21
1.596674467559019
 31
0.0
  0
LINE
  5
2B5
330
22
100
AcDbEntity
  8
Layer 1
100
AcDbLine
 10
8.861404410004896
 20
1.596674467559019
 30
0.0
 11
8.983340146881451
 21
1.712204157724491
 31
0.0
  0
LINE
  5
2B6
330
22
100
AcDbEntity
  8
Layer 1
100
AcDbLine
 10
8.983340146881451
 20
1.712204157724491
 30
0.0
 11
9.099125592122236
 21
1.83483098047496
 31
0.0
  0
LINE
  5
2B7
330
22
100
AcDbEntity
  8
Layer 1
100
AcDbLine
 10
9.099125592122236
 20
1.83483098047496
 30
0.0
 11
9.208773434424273
 21
1.964565077334063
 31
0.0
  0
LINE
  5
2B8
330
22
100
AcDbEntity
  8
Layer 1
100
AcDbLine
 10
9.208773434424273
 20
1.964565077334063
 30
0.0
 11
9.378001831900126
 21
2.196578279756081
 31
0.0
  0
LINE
  5
2B9
330
22
100
AcDbEntity
  8
Layer 1
100
AcDbLine
 10
9.378001831900126
 20
2.196578279756081
 30
0.0
 11
9.442769375473279
 21
2.295818324457343
 31
0.0
  0
LINE
  5
2BA
330
22
100
AcDbEntity
  8
Layer 1
100
AcDbLine
 10
9.442769375473279
 20
2.295818324457343
 30
0.0
 11
9.464815915795693
 21
2.340573858860472
 31
0.0
  0
LINE
  5
2BD
330
22
100
AcDbEntity
  8
Layer 1
100
AcDbLine
 10
8.585468787554527
 20
2.234772955910485
 30
0.0
 11
8.458163750702446
 21
2.112981417349168
 31
0.0
  0
LINE
  5
2BE
330
22
100
AcDbEntity
  8
Layer 1
100
AcDbLine
 10
8.458163750702446
 20
2.112981417349168
 30
0.0
 11
8.329121824624436
 21
1.998034322339556
 31
0.0
  0
LINE
  5
2BF
330
22
100
AcDbEntity
  8
Layer 1
100
AcDbLine
 10
8.329121824624436
 20
1.998034322339556
 30
0.0
 11
8.195284561639217
 21
1.896397245978035
 31
0.0
  0
LINE
  5
2C0
330
22
100
AcDbEntity
  8
Layer 1
100
AcDbLine
 10
8.195284561639217
 20
1.896397245978035
 30
0.0
 11
8.051540586660919
 21
1.804506504026399
 31
0.0
  0
LINE
  5
2C1
330
22
100
AcDbEntity
  8
Layer 1
100
AcDbLine
 10
8.051540586660919
 20
1.804506504026399
 30
0.0
 11
7.892778666113338
 21
1.718798412246428
 31
0.0
  0
LINE
  5
2C2
330
22
100
AcDbEntity
  8
Layer 1
100
AcDbLine
 10
7.892778666113338
 20
1.718798412246428
 30
0.0
 11
7.739078309261065
 21
1.647376142368493
 31
0.0
  0
LINE
  5
2C3
330
22
100
AcDbEntity
  8
Layer 1
100
AcDbLine
 10
7.739078309261065
 20
1.647376142368493
 30
0.0
 11
7.589375552349277
 21
1.588667569548448
 31
0.0
  0
LINE
  5
2C4
330
22
100
AcDbEntity
  8
Layer 1
100
AcDbLine
 10
7.589375552349277
 20
1.588667569548448
 30
0.0
 11
7.441609967962897
 21
1.541942504084004
 31
0.0
  0
LINE
  5
2C5
330
22
100
AcDbEntity
  8
Layer 1
100
AcDbLine
 10
7.441609967962897
 20
1.541942504084004
 30
0.0
 11
7.29372122302661
 21
1.506470614763258
 31
0.0
  0
LINE
  5
2C6
330
22
100
AcDbEntity
  8
Layer 1
100
AcDbLine
 10
7.29372122302661
 20
1.506470614763258
 30
0.0
 11
7.00879568232048
 21
1.46555786876295
 31
0.0
  0
LINE
  5
2C7
330
22
100
AcDbEntity
  8
Layer 1
100
AcDbLine
 10
7.00879568232048
 20
1.46555786876295
 30
0.0
 11
6.881423145373834
 21
1.4550917691937
 31
0.0
  0
LINE
  5
2C8
330
22
100
AcDbEntity
  8
Layer 1
100
AcDbLine
 10
6.881423145373834
 20
1.4550917691937
 30
0.0
 11
6.815127580791902
 21
1.456601771309293
 31
0.0
  0
LINE
  5
2C9
330
22
100
AcDbEntity
  8
Layer 1
100
AcDbLine
 10
6.815127580791902
 20
1.456601771309293
 30
0.0
 11
6.804425395986223
 21
1.470767734552828
 31
0.0
  0
LINE
  5
2CA
330
22
100
AcDbEntity
  8
Layer 1
100
AcDbLine
 10
6.804425395986223
 20
1.470767734552828
 30
0.0
 11
6.798168123068487
 21
1.513655624829858
 31
0.0
  0
LINE
  5
2CB
330
22
100
AcDbEntity
  8
Layer 1
100
AcDbLine
 10
6.798168123068487
 20
1.513655624829858
 30
0.0
 11
6.794506702844293
 21
1.749170766120563
 31
0.0
  0
LINE
  5
2CC
330
22
100
AcDbEntity
  8
Layer 1
100
AcDbLine
 10
6.794506702844293
 20
1.749170766120563
 30
0.0
 11
6.794506702844293
 21
2.033826636637542
 31
0.0
  0
LINE
  5
2D3
330
22
100
AcDbEntity
  8
Layer 1
100
AcDbLine
 10
6.155511562293169
 20
2.141168107783697
 30
0.0
 11
6.155511562293169
 21
1.50568037780703
 31
0.0
  0
LINE
  5
2D4
330
22
100
AcDbEntity
  8
Layer 1
100
AcDbLine
 10
6.155511562293169
 20
1.50568037780703
 30
0.0
 11
6.155511562293169
 21
0.8701926950002414
 31
0.0
  0
LINE
  5
2D5
330
22
100
AcDbEntity
  8
Layer 1
100
AcDbLine
 10
6.155511562293169
 20
0.8701926950002414
 30
0.0
 11
6.29778996918038
 21
0.8468443604011213
 31
0.0
  0
LINE
  5
2D6
330
22
100
AcDbEntity
  8
Layer 1
100
AcDbLine
 10
6.29778996918038
 20
0.8468443604011213
 30
0.0
 11
6.519363062635608
 21
0.8191539914166837
 31
0.0
  0
LINE
  5
2D7
330
22
100
AcDbEntity
  8
Layer 1
100
AcDbLine
 10
6.519363062635608
 20
0.8191539914166837
 30
0.0
 11
6.745805219516438
 21
0.8078526076582759
 31
0.0
  0
LINE
  5
2D8
330
22
100
AcDbEntity
  8
Layer 1
100
AcDbLine
 10
6.745805219516438
 20
0.8078526076582759
 30
0.0
 11
6.975589928250181
 21
0.8129609638719799
 31
0.0
  0
LINE
  5
2D9
330
22
100
AcDbEntity
  8
Layer 1
100
AcDbLine
 10
6.975589928250181
 20
0.8129609638719799
 30
0.0
 11
7.207190724434028
 21
0.8344996261243196
 31
0.0
  0
LINE
  5
2DA
330
22
100
AcDbEntity
  8
Layer 1
100
AcDbLine
 10
7.207190724434028
 20
0.8344996261243196
 30
0.0
 11
7.207190724434028
 21
0.8344996261243196
 31
0.0
  0
LINE
  5
477
330
22
100
AcDbEntity
  8
Layer 1
100
AcDbLine
 10
5.75613991784539
 20
2.074714429772696
 30
0.0
 11
5.75613991784539
 21
2.337956119343814
 31
0.0
  0
LINE
  5
478
330
22
100
AcDbEntity
  8
Layer 1
100
AcDbLine
 10
5.75613991784539
 20
2.337956119343814
 30
0.0
 11
5.673728906156517
 21
2.397539834899425
 31
0.0
  0
LINE
  5
479
330
22
100
AcDbEntity
  8
Layer 1
100
AcDbLine
 10
5.673728906156517
 20
2.397539834899425
 30
0.0
 11
5.56181120218371
 21
2.486836752462259
 31
0.0
  0
LINE
  5
47A
330
22
100
AcDbEntity
  8
Layer 1
100
AcDbLine
 10
5.56181120218371
 20
2.486836752462259
 30
0.0
 11
5.455560298603242
 21
2.588235998301883
 31
0.0
  0
LINE
  5
47B
330
22
100
AcDbEntity
  8
Layer 1
100
AcDbLine
 10
5.455560298603242
 20
2.588235998301883
 30
0.0
 11
5.356165536704088
 21
2.700037051167853
 31
0.0
  0
LINE
  5
47C
330
22
100
AcDbEntity
  8
Layer 1
100
AcDbLine
 10
5.356165536704088
 20
2.700037051167853
 30
0.0
 11
5.264816352114968
 21
2.82053929546997
 31
0.0
  0
LINE
  5
47D
330
22
100
AcDbEntity
  8
Layer 1
100
AcDbLine
 10
5.264816352114968
 20
2.82053929546997
 30
0.0
 11
5.182702133294752
 21
2.948042304297529
 31
0.0
  0
LINE
  5
47E
330
22
100
AcDbEntity
  8
Layer 1
100
AcDbLine
 10
5.182702133294752
 20
2.948042304297529
 30
0.0
 11
5.111012315872157
 21
3.08084546206033
 31
0.0
  0
LINE
  5
47F
330
22
100
AcDbEntity
  8
Layer 1
100
AcDbLine
 10
5.111012315872157
 20
3.08084546206033
 30
0.0
 11
5.050936288306038
 21
3.217248341847678
 31
0.0
  0
LINE
  5
480
330
22
100
AcDbEntity
  8
Layer 1
100
AcDbLine
 10
5.050936288306038
 20
3.217248341847678
 30
0.0
 11
5.003663486225129
 21
3.355550328069361
 31
0.0
  0
LINE
  5
481
330
22
100
AcDbEntity
  8
Layer 1
100
AcDbLine
 10
5.003663486225129
 20
3.355550328069361
 30
0.0
 11
4.974571134144353
 21
3.455234194147151
 31
0.0
  0
LINE
  5
482
330
22
100
AcDbEntity
  8
Layer 1
100
AcDbLine
 10
4.974571134144353
 20
3.455234194147151
 30
0.0
 11
4.7443362832705
 21
3.478915595250653
 31
0.0
  0
LINE
  5
483
330
22
100
AcDbEntity
  8
Layer 1
100
AcDbLine
 10
4.7443362832705
 20
3.478915595250653
 30
0.0
 11
4.509008689412373
 21
3.497504064690374
 31
0.0
  0
LINE
  5
484
330
22
100
AcDbEntity
  8
Layer 1
100
AcDbLine
 10
4.509008689412373
 20
3.497504064690374
 30
0.0
 11
4.513049685640075
 21
3.452654237702303
 31
0.0
  0
LINE
  5
485
330
22
100
AcDbEntity
  8
Layer 1
100
AcDbLine
 10
4.513049685640075
 20
3.452654237702303
 30
0.0
 11
4.535505094459855
 21
3.35395556168406
 31
0.0
  0
LINE
  5
486
330
22
100
AcDbEntity
  8
Layer 1
100
AcDbLine
 10
4.535505094459855
 20
3.35395556168406
 30
0.0
 11
4.604837408579453
 21
3.117298956529949
 31
0.0
  0
LINE
  5
487
330
22
100
AcDbEntity
  8
Layer 1
100
AcDbLine
 10
4.604837408579453
 20
3.117298956529949
 30
0.0
 11
4.677244396818164
 21
2.936657854385003
 31
0.0
  0
LINE
  5
488
330
22
100
AcDbEntity
  8
Layer 1
100
AcDbLine
 10
4.677244396818164
 20
2.936657854385003
 30
0.0
 11
4.76740414577855
 21
2.75777029243273
 31
0.0
  0
LINE
  5
489
330
22
100
AcDbEntity
  8
Layer 1
100
AcDbLine
 10
4.76740414577855
 20
2.75777029243273
 30
0.0
 11
4.872524151548152
 21
2.585655475818497
 31
0.0
  0
LINE
  5
48A
330
22
100
AcDbEntity
  8
Layer 1
100
AcDbLine
 10
4.872524151548152
 20
2.585655475818497
 30
0.0
 11
4.989811957384394
 21
2.42533260968772
 31
0.0
  0
LINE
  5
48B
330
22
100
AcDbEntity
  8
Layer 1
100
AcDbLine
 10
4.989811957384394
 20
2.42533260968772
 30
0.0
 11
5.082186945297512
 21
2.321174775077494
 31
0.0
  0
LINE
  5
48C
330
22
100
AcDbEntity
  8
Layer 1
100
AcDbLine
 10
5.082186945297512
 20
2.321174775077494
 30
0.0
 11
5.199408430286116
 21
2.204463951181714
 31
0.0
  0
LINE
  5
48D
330
22
100
AcDbEntity
  8
Layer 1
100
AcDbLine
 10
5.199408430286116
 20
2.204463951181714
 30
0.0
 11
5.322769357838691
 21
2.092946625128348
 31
0.0
  0
LINE
  5
48E
330
22
100
AcDbEntity
  8
Layer 1
100
AcDbLine
 10
5.322769357838691
 20
2.092946625128348
 30
0.0
 11
5.43356267344371
 21
2.004369236875504
 31
0.0
  0
LINE
  5
48F
330
22
100
AcDbEntity
  8
Layer 1
100
AcDbLine
 10
5.43356267344371
 20
2.004369236875504
 30
0.0
 11
5.618386139938945
 21
1.885009399834351
 31
0.0
  0
LINE
  5
490
330
22
100
AcDbEntity
  8
Layer 1
100
AcDbLine
 10
5.618386139938945
 20
1.885009399834351
 30
0.0
 11
5.752811847144838
 21
1.811640476285645
 31
0.0
  0
LINE
  5
491
330
22
100
AcDbEntity
  8
Layer 1
100
AcDbLine
 10
5.752811847144838
 20
1.811640476285645
 30
0.0
 11
5.75613991784539
 21
2.074714429772696
 31
0.0
  0
LINE
  5
492
330
22
100
AcDbEntity
  8
Layer 1
100
AcDbLine
 10
5.75613991784539
 20
2.074714429772696
 30
0.0
 11
5.75613991784539
 21
2.074714429772696
 31
0.0
  0
LINE
  5
4BE
330
22
100
AcDbEntity
  8
Layer 1
100
AcDbLine
 10
7.340407797871085
 20
1.922655395974729
 30
0.0
 11
7.546656577403255
 21
1.99089563309257
 31
0.0
  0
LINE
  5
4BF
330
22
100
AcDbEntity
  8
Layer 1
100
AcDbLine
 10
7.546656577403255
 20
1.99089563309257
 30
0.0
 11
7.734562925576267
 21
2.076873866760458
 31
0.0
  0
LINE
  5
4C0
330
22
100
AcDbEntity
  8
Layer 1
100
AcDbLine
 10
7.734562925576267
 20
2.076873866760458
 30
0.0
 11
7.813584592893841
 21
2.118075669769516
 31
0.0
  0
LINE
  5
4C1
330
22
100
AcDbEntity
  8
Layer 1
100
AcDbLine
 10
7.813584592893841
 20
2.118075669769516
 30
0.0
 11
7.843158077724181
 21
2.138434141689109
 31
0.0
  0
LINE
  5
4C2
330
22
100
AcDbEntity
  8
Layer 1
100
AcDbLine
 10
7.843158077724181
 20
2.138434141689109
 30
0.0
 11
7.57714695031066
 21
2.109884762067181
 31
0.0
  0
LINE
  5
4C3
330
22
100
AcDbEntity
  8
Layer 1
100
AcDbLine
 10
7.57714695031066
 20
2.109884762067181
 30
0.0
 11
7.264107832479981
 21
2.06705191903709
 31
0.0
  0
LINE
  5
4C4
330
22
100
AcDbEntity
  8
Layer 1
100
AcDbLine
 10
7.264107832479981
 20
2.06705191903709
 30
0.0
 11
7.213846913005001
 21
2.056658413909168
 31
0.0
  0
LINE
  5
4C5
330
22
100
AcDbEntity
  8
Layer 1
100
AcDbLine
 10
7.213846913005001
 20
2.056658413909168
 30
0.0
 11
7.209882473488335
 21
1.974002590556544
 31
0.0
  0
LINE
  5
4C6
330
22
100
AcDbEntity
  8
Layer 1
100
AcDbLine
 10
7.209882473488335
 20
1.974002590556544
 30
0.0
 11
7.210231106052264
 21
1.915627037070996
 31
0.0
  0
LINE
  5
4C7
330
22
100
AcDbEntity
  8
Layer 1
100
AcDbLine
 10
7.210231106052264
 20
1.915627037070996
 30
0.0
 11
7.216633190493642
 21
1.891346908713551
 31
0.0
  0
LINE
  5
4C8
330
22
100
AcDbEntity
  8
Layer 1
100
AcDbLine
 10
7.216633190493642
 20
1.891346908713551
 30
0.0
 11
7.340407797871085
 21
1.922655395974729
 31
0.0
  0
LINE
  5
4C9
330
22
100
AcDbEntity
  8
Layer 1
100
AcDbLine
 10
7.340407797871085
 20
1.922655395974729
 30
0.0
 11
7.340407797871085
 21
1.922655395974729
 31
0.0
  0
LINE
  5
4D3
330
22
100
AcDbEntity
  8
Layer 1
100
AcDbLine
 10
7.147284980125353
 20
2.117855056252878
 30
0.0
 11
9.982823528345916
 21
2.464400353103073
 31
0.0
  0
LINE
  5
4D4
330
22
100
AcDbEntity
  8
Layer 1
100
AcDbLine
 10
9.982823528345916
 20
2.464400353103073
 30
0.0
 11
10.16067330582534
 21
2.490555342577863
 31
0.0
  0
LINE
  5
4D5
330
22
100
AcDbEntity
  8
Layer 1
100
AcDbLine
 10
10.16067330582534
 20
2.490555342577863
 30
0.0
 11
10.29290264202946
 21
2.523043689982663
 31
0.0
  0
LINE
  5
4D6
330
22
100
AcDbEntity
  8
Layer 1
100
AcDbLine
 10
10.29290264202946
 20
2.523043689982663
 30
0.0
 11
10.39307193331567
 21
2.566284175093308
 31
0.0
  0
LINE
  5
4D7
330
22
100
AcDbEntity
  8
Layer 1
100
AcDbLine
 10
10.39307193331567
 20
2.566284175093308
 30
0.0
 11
10.47474152887143
 21
2.624695483345931
 31
0.0
  0
LINE
  5
4D8
330
22
100
AcDbEntity
  8
Layer 1
100
AcDbLine
 10
10.47474152887143
 20
2.624695483345931
 30
0.0
 11
10.55811438153054
 21
2.714705986814194
 31
0.0
  0
LINE
  5
4D9
330
22
100
AcDbEntity
  8
Layer 1
100
AcDbLine
 10
10.55811438153054
 20
2.714705986814194
 30
0.0
 11
10.58942098199662
 21
2.758085623063201
 31
0.0
  0
LINE
  5
4DA
330
22
100
AcDbEntity
  8
Layer 1
100
AcDbLine
 10
10.58942098199662
 20
2.758085623063201
 30
0.0
 11
10.60184953714558
 21
2.785274293231529
 31
0.0
  0
LINE
  5
4E1
330
22
100
AcDbEntity
  8
Layer 1
100
AcDbLine
 10
10.25368310594862
 20
2.838577433949963
 30
0.0
 11
10.28231715550049
 21
2.84648489785895
 31
0.0
  0
LINE
  5
4E2
330
22
100
AcDbEntity
  8
Layer 1
100
AcDbLine
 10
10.28231715550049
 20
2.84648489785895
 30
0.0
 11
10.56370825729241
 21
2.849838817652326
 31
0.0
  0
LINE
  5
4E3
330
22
100
AcDbEntity
  8
Layer 1
100
AcDbLine
 10
10.56370825729241
 20
2.849838817652326
 30
0.0
 11
10.77584803564423
 21
2.852237830447442
 31
0.0
  0
LINE
  5
4E4
330
22
100
AcDbEntity
  8
Layer 1
100
AcDbLine
 10
10.77584803564423
 20
2.852237830447442
 30
0.0
 11
10.91694493144212
 21
2.861919023256618
 31
0.0
  0
LINE
  5
4E5
330
22
100
AcDbEntity
  8
Layer 1
100
AcDbLine
 10
10.91694493144212
 20
2.861919023256618
 30
0.0
 11
11.01652992945687
 21
2.882608957904756
 31
0.0
  0
LINE
  5
4E6
330
22
100
AcDbEntity
  8
Layer 1
100
AcDbLine
 10
11.01652992945687
 20
2.882608957904756
 30
0.0
 11
11.10413392011951
 21
2.918034054707113
 31
0.0
  0
LINE
  5
4E7
330
22
100
AcDbEntity
  8
Layer 1
100
AcDbLine
 10
11.10413392011951
 20
2.918034054707113
 30
0.0
 11
11.18707153631978
 21
2.969984882210126
 31
0.0
  0
LINE
  5
4E8
330
22
100
AcDbEntity
  8
Layer 1
100
AcDbLine
 10
11.18707153631978
 20
2.969984882210126
 30
0.0
 11
11.25934456210664
 21
3.038793374841104
 31
0.0
  0
LINE
  5
4E9
330
22
100
AcDbEntity
  8
Layer 1
100
AcDbLine
 10
11.25934456210664
 20
3.038793374841104
 30
0.0
 11
11.31639478354665
 21
3.119199996929268
 31
0.0
  0
LINE
  5
4EA
330
22
100
AcDbEntity
  8
Layer 1
100
AcDbLine
 10
11.31639478354665
 20
3.119199996929268
 30
0.0
 11
11.35366398670629
 21
3.205945212803803
 31
0.0
  0
LINE
  5
4EB
330
22
100
AcDbEntity
  8
Layer 1
100
AcDbLine
 10
11.35366398670629
 20
3.205945212803803
 30
0.0
 11
11.36244881033508
 21
3.235898084958151
 31
0.0
  0
LINE
  5
4F2
330
22
100
AcDbEntity
  8
Layer 1
100
AcDbLine
 10
10.99485405003114
 20
3.283867020089849
 30
0.0
 11
11.289897670951
 21
3.291923918170468
 31
0.0
  0
LINE
  5
4F3
330
22
100
AcDbEntity
  8
Layer 1
100
AcDbLine
 10
11.289897670951
 20
3.291923918170468
 30
0.0
 11
11.59252814212311
 21
3.30118058208297
 31
0.0
  0
LINE
  5
4F4
330
22
100
AcDbEntity
  8
Layer 1
100
AcDbLine
 10
11.59252814212311
 20
3.30118058208297
 30
0.0
 11
11.66260158935656
 21
3.310819227662725
 31
0.0
  0
LINE
  5
4F5
330
22
100
AcDbEntity
  8
Layer 1
100
AcDbLine
 10
11.66260158935656
 20
3.310819227662725
 30
0.0
 11
11.71780968557413
 21
3.327021089985088
 31
0.0
  0
LINE
  5
4F6
330
22
100
AcDbEntity
  8
Layer 1
100
AcDbLine
 10
11.71780968557413
 20
3.327021089985088
 30
0.0
 11
11.78853605825065
 21
3.355380610850438
 31
0.0
  0
LINE
  5
4F7
330
22
100
AcDbEntity
  8
Layer 1
100
AcDbLine
 10
11.78853605825065
 20
3.355380610850438
 30
0.0
 11
11.84938086047877
 21
3.387680750444373
 31
0.0
  0
LINE
  5
4F8
330
22
100
AcDbEntity
  8
Layer 1
100
AcDbLine
 10
11.84938086047877
 20
3.387680750444373
 30
0.0
 11
11.90339263426551
 21
3.425790520819447
 31
0.0
  0
LINE
  5
4F9
330
22
100
AcDbEntity
  8
Layer 1
100
AcDbLine
 10
11.90339263426551
 20
3.425790520819447
 30
0.0
 11
11.95362001595765
 21
3.471578981198064
 31
0.0
  0
LINE
  5
4FA
330
22
100
AcDbEntity
  8
Layer 1
100
AcDbLine
 10
11.95362001595765
 20
3.471578981198064
 30
0.0
 11
11.99171837122238
 21
3.517195130014513
 31
0.0
  0
LINE
  5
4FB
330
22
100
AcDbEntity
  8
Layer 1
100
AcDbLine
 10
11.99171837122238
 20
3.517195130014513
 30
0.0
 11
12.02311402841701
 21
3.567717606459716
 31
0.0
  0
LINE
  5
4FC
330
22
100
AcDbEntity
  8
Layer 1
100
AcDbLine
 10
12.02311402841701
 20
3.567717606459716
 30
0.0
 11
12.04450938858179
 21
3.616917628221904
 31
0.0
  0
LINE
  5
4FD
330
22
100
AcDbEntity
  8
Layer 1
100
AcDbLine
 10
12.04450938858179
 20
3.616917628221904
 30
0.0
 11
12.05260694709674
 21
3.65856636581941
 31
0.0
  0
LINE
  5
505
330
22
100
AcDbEntity
  8
Layer 1
100
AcDbLine
 10
11.56034144608434
 20
3.731118873129922
 30
0.0
 11
11.65728243096072
 21
3.738640393101959
 31
0.0
  0
LINE
  5
506
330
22
100
AcDbEntity
  8
Layer 1
100
AcDbLine
 10
11.65728243096072
 20
3.738640393101959
 30
0.0
 11
11.89035421977155
 21
3.741768793711435
 31
0.0
  0
LINE
  5
507
330
22
100
AcDbEntity
  8
Layer 1
100
AcDbLine
 10
11.89035421977155
 20
3.741768793711435
 30
0.0
 11
12.1674382400573
 21
3.746104082804293
 31
0.0
  0
LINE
  5
508
330
22
100
AcDbEntity
  8
Layer 1
100
AcDbLine
 10
12.1674382400573
 20
3.746104082804293
 30
0.0
 11
12.29971012349085
 21
3.762301039459408
 31
0.0
  0
LINE
  5
509
330
22
100
AcDbEntity
  8
Layer 1
100
AcDbLine
 10
12.29971012349085
 20
3.762301039459408
 30
0.0
 11
12.40796400157571
 21
3.802908171823978
 31
0.0
  0
LINE
  5
50A
330
22
100
AcDbEntity
  8
Layer 1
100
AcDbLine
 10
12.40796400157571
 20
3.802908171823978
 30
0.0
 11
12.50456130672529
 21
3.86369759661602
 31
0.0
  0
LINE
  5
50B
330
22
100
AcDbEntity
  8
Layer 1
100
AcDbLine
 10
12.50456130672529
 20
3.86369759661602
 30
0.0
 11
12.58379122905162
 21
3.940209826455464
 31
0.0
  0
LINE
  5
50C
330
22
100
AcDbEntity
  8
Layer 1
100
AcDbLine
 10
12.58379122905162
 20
3.940209826455464
 30
0.0
 11
12.63994281715711
 21
4.027985138112845
 31
0.0
  0
LINE
  5
50D
330
22
100
AcDbEntity
  8
Layer 1
100
AcDbLine
 10
12.63994281715711
 20
4.027985138112845
 30
0.0
 11
12.66358459556359
 21
4.085124274771763
 31
0.0
  0
LINE
  5
517
330
22
100
AcDbEntity
  8
Layer 1
100
AcDbLine
 10
12.35989162290285
 20
4.177712140341617
 30
0.0
 11
12.55391019662058
 21
4.181077616754961
 31
0.0
  0
LINE
  5
518
330
22
100
AcDbEntity
  8
Layer 1
100
AcDbLine
 10
12.55391019662058
 20
4.181077616754961
 30
0.0
 11
12.75060566088122
 21
4.187971399998446
 31
0.0
  0
LINE
  5
519
330
22
100
AcDbEntity
  8
Layer 1
100
AcDbLine
 10
12.75060566088122
 20
4.187971399998446
 30
0.0
 11
12.89690317717302
 21
4.211950726047653
 31
0.0
  0
LINE
  5
51A
330
22
100
AcDbEntity
  8
Layer 1
100
AcDbLine
 10
12.89690317717302
 20
4.211950726047653
 30
0.0
 11
12.95690873294228
 21
4.23189325398826
 31
0.0
  0
LINE
  5
51B
330
22
100
AcDbEntity
  8
Layer 1
100
AcDbLine
 10
12.95690873294228
 20
4.23189325398826
 30
0.0
 11
13.01122201658542
 21
4.257962252776542
 31
0.0
  0
LINE
  5
51C
330
22
100
AcDbEntity
  8
Layer 1
100
AcDbLine
 10
13.01122201658542
 20
4.257962252776542
 30
0.0
 11
13.11198145020788
 21
4.330952826738553
 31
0.0
  0
LINE
  5
51D
330
22
100
AcDbEntity
  8
Layer 1
100
AcDbLine
 10
13.11198145020788
 20
4.330952826738553
 30
0.0
 11
13.15393443351467
 21
4.377091429117179
 31
0.0
  0
LINE
  5
51E
330
22
100
AcDbEntity
  8
Layer 1
100
AcDbLine
 10
13.15393443351467
 20
4.377091429117179
 30
0.0
 11
13.19467217926978
 21
4.436205002504648
 31
0.0
  0
LINE
  5
51F
330
22
100
AcDbEntity
  8
Layer 1
100
AcDbLine
 10
13.19467217926978
 20
4.436205002504648
 30
0.0
 11
13.22549476962378
 21
4.494071687352721
 31
0.0
  0
LINE
  5
520
330
22
100
AcDbEntity
  8
Layer 1
100
AcDbLine
 10
13.22549476962378
 20
4.494071687352721
 30
0.0
 11
13.23770228672719
 21
4.536469624113101
 31
0.0
  0
LINE
  5
521
330
22
100
AcDbEntity
  8
Layer 1
100
AcDbLine
 10
13.23770228672719
 20
4.536469624113101
 30
0.0
 11
13.13873153485606
 21
4.545172230645562
 31
0.0
  0
LINE
  5
522
330
22
100
AcDbEntity
  8
Layer 1
100
AcDbLine
 10
13.13873153485606
 20
4.545172230645562
 30
0.0
 11
12.77351168353988
 21
4.550472285241048
 31
0.0
  0
LINE
  5
523
330
22
100
AcDbEntity
  8
Layer 1
100
AcDbLine
 10
12.77351168353988
 20
4.550472285241048
 30
0.0
 11
10.8344795328846
 21
4.553824459748958
 31
0.0
  0
LINE
  5
524
330
22
100
AcDbEntity
  8
Layer 1
100
AcDbLine
 10
10.8344795328846
 20
4.553824459748958
 30
0.0
 11
8.43125809979857
 21
4.553824459748958
 31
0.0
  0
LINE
  5
525
330
22
100
AcDbEntity
  8
Layer 1
100
AcDbLine
 10
8.43125809979857
 20
4.553824459748958
 30
0.0
 11
8.384422468141485
 21
4.656598330156014
 31
0.0
  0
LINE
  5
526
330
22
100
AcDbEntity
  8
Layer 1
100
AcDbLine
 10
8.384422468141485
 20
4.656598330156014
 30
0.0
 11
8.326110877009702
 21
4.767086409484328
 31
0.0
  0
LINE
  5
527
330
22
100
AcDbEntity
  8
Layer 1
100
AcDbLine
 10
8.326110877009702
 20
4.767086409484328
 30
0.0
 11
8.251684640658893
 21
4.888407239838983
 31
0.0
  0
LINE
  5
528
330
22
100
AcDbEntity
  8
Layer 1
100
AcDbLine
 10
8.251684640658893
 20
4.888407239838983
 30
0.0
 11
8.148843883365666
 21
5.028023897713929
 31
0.0
  0
LINE
  5
529
330
22
100
AcDbEntity
  8
Layer 1
100
AcDbLine
 10
8.148843883365666
 20
5.028023897713929
 30
0.0
 11
8.034489713715087
 21
5.155551623557236
 31
0.0
  0
LINE
  5
52A
330
22
100
AcDbEntity
  8
Layer 1
100
AcDbLine
 10
8.034489713715087
 20
5.155551623557236
 30
0.0
 11
7.909243264652862
 21
5.270568294136026
 31
0.0
  0
LINE
  5
52B
330
22
100
AcDbEntity
  8
Layer 1
100
AcDbLine
 10
7.909243264652862
 20
5.270568294136026
 30
0.0
 11
7.773725480445208
 21
5.372651597537831
 31
0.0
  0
LINE
  5
52C
330
22
100
AcDbEntity
  8
Layer 1
100
AcDbLine
 10
7.773725480445208
 20
5.372651597537831
 30
0.0
 11
7.628557494037838
 21
5.461379410529723
 31
0.0
  0
LINE
  5
52D
330
22
100
AcDbEntity
  8
Layer 1
100
AcDbLine
 10
7.628557494037838
 20
5.461379410529723
 30
0.0
 11
7.474360249696941
 21
5.536329468369153
 31
0.0
  0
LINE
  5
52E
330
22
100
AcDbEntity
  8
Layer 1
100
AcDbLine
 10
7.474360249696941
 20
5.536329468369153
 30
0.0
 11
7.311754833198368
 21
5.597079600653317
 31
0.0
  0
LINE
  5
52F
330
22
100
AcDbEntity
  8
Layer 1
100
AcDbLine
 10
7.311754833198368
 20
5.597079600653317
 30
0.0
 11
7.141362283148077
 21
5.643207636979403
 31
0.0
  0
LINE
  5
530
330
22
100
AcDbEntity
  8
Layer 1
100
AcDbLine
 10
7.141362283148077
 20
5.643207636979403
 30
0.0
 11
6.987536312912267
 21
5.677384099956888
 31
0.0
  0
LINE
  5
531
330
22
100
AcDbEntity
  8
Layer 1
100
AcDbLine
 10
6.987536312912267
 20
5.677384099956888
 30
0.0
 11
5.123801531903773
 21
5.682480758040995
 31
0.0
  0
LINE
  5
532
330
22
100
AcDbEntity
  8
Layer 1
100
AcDbLine
 10
5.123801531903773
 20
5.682480758040995
 30
0.0
 11
1.807047828341655
 21
5.678204431294901
 31
0.0
  0
LINE
  5
533
330
22
100
AcDbEntity
  8
Layer 1
100
AcDbLine
 10
1.807047828341655
 20
5.678204431294901
 30
0.0
 11
0.3540284812591334
 21
5.668831163445446
 31
0.0
  0
LINE
  5
534
330
22
100
AcDbEntity
  8
Layer 1
100
AcDbLine
 10
0.3540284812591334
 20
5.668831163445446
 30
0.0
 11
0.3738632731997349
 21
5.610619572453772
 31
0.0
  0
LINE
  5
535
330
22
100
AcDbEntity
  8
Layer 1
100
AcDbLine
 10
0.3738632731997349
 20
5.610619572453772
 30
0.0
 11
0.4055965723768509
 21
5.548131607546131
 31
0.0
  0
LINE
  5
536
330
22
100
AcDbEntity
  8
Layer 1
100
AcDbLine
 10
0.4055965723768509
 20
5.548131607546131
 30
0.0
 11
0.456010605273896
 21
5.484921566155115
 31
0.0
  0
LINE
  5
537
330
22
100
AcDbEntity
  8
Layer 1
100
AcDbLine
 10
0.456010605273896
 20
5.484921566155115
 30
0.0
 11
0.5193443260834698
 21
5.427118371962051
 31
0.0
  0
LINE
  5
538
330
22
100
AcDbEntity
  8
Layer 1
100
AcDbLine
 10
0.5193443260834698
 20
5.427118371962051
 30
0.0
 11
0.5898366418282972
 21
5.380851184497608
 31
0.0
  0
LINE
  5
539
330
22
100
AcDbEntity
  8
Layer 1
100
AcDbLine
 10
0.5898366418282972
 20
5.380851184497608
 30
0.0
 11
0.6777930386450583
 21
5.342175281253886
 31
0.0
  0
LINE
  5
53A
330
22
100
AcDbEntity
  8
Layer 1
100
AcDbLine
 10
0.6777930386450583
 20
5.342175281253886
 30
0.0
 11
0.7764442145967491
 21
5.317180953782603
 31
0.0
  0
LINE
  5
53B
330
22
100
AcDbEntity
  8
Layer 1
100
AcDbLine
 10
0.7764442145967491
 20
5.317180953782603
 30
0.0
 11
0.8982330173051789
 21
5.303696265078478
 31
0.0
  0
LINE
  5
53C
330
22
100
AcDbEntity
  8
Layer 1
100
AcDbLine
 10
0.8982330173051789
 20
5.303696265078478
 30
0.0
 11
1.055602341562031
 21
5.299549278136231
 31
0.0
  0
LINE
  5
53D
330
22
100
AcDbEntity
  8
Layer 1
100
AcDbLine
 10
1.055602341562031
 20
5.299549278136231
 30
0.0
 11
1.231676833535307
 21
5.295977905208012
 31
0.0
  0
LINE
  5
53E
330
22
100
AcDbEntity
  8
Layer 1
100
AcDbLine
 10
1.231676833535307
 20
5.295977905208012
 30
0.0
 11
1.247148411815633
 21
5.288043035600252
 31
0.0
  0
LINE
  5
544
330
22
100
AcDbEntity
  8
Layer 1
100
AcDbLine
 10
0.9256018292353278
 20
5.246068589999246
 30
0.0
 11
0.9373774117713171
 21
5.205009617378968
 31
0.0
  0
LINE
  5
545
330
22
100
AcDbEntity
  8
Layer 1
100
AcDbLine
 10
0.9373774117713171
 20
5.205009617378968
 30
0.0
 11
0.971483827480849
 21
5.124191438110422
 31
0.0
  0
LINE
  5
546
330
22
100
AcDbEntity
  8
Layer 1
100
AcDbLine
 10
0.971483827480849
 20
5.124191438110422
 30
0.0
 11
1.024419750703656
 21
5.050072136151911
 31
0.0
  0
LINE
  5
547
330
22
100
AcDbEntity
  8
Layer 1
100
AcDbLine
 10
1.024419750703656
 20
5.050072136151911
 30
0.0
 11
1.09372673459909
 21
4.985442139941277
 31
0.0
  0
LINE
  5
548
330
22
100
AcDbEntity
  8
Layer 1
100
AcDbLine
 10
1.09372673459909
 20
4.985442139941277
 30
0.0
 11
1.176946332326497
 21
4.933091830746491
 31
0.0
  0
LINE
  5
549
330
22
100
AcDbEntity
  8
Layer 1
100
AcDbLine
 10
1.176946332326497
 20
4.933091830746491
 30
0.0
 11
1.265924711707189
 21
4.894639182532549
 31
0.0
  0
LINE
  5
54A
330
22
100
AcDbEntity
  8
Layer 1
100
AcDbLine
 10
1.265924711707189
 20
4.894639182532549
 30
0.0
 11
1.364521076261332
 21
4.872520802486853
 31
0.0
  0
LINE
  5
54B
330
22
100
AcDbEntity
  8
Layer 1
100
AcDbLine
 10
1.364521076261332
 20
4.872520802486853
 30
0.0
 11
1.50475032933417
 21
4.862417344935117
 31
0.0
  0
LINE
  5
54C
330
22
100
AcDbEntity
  8
Layer 1
100
AcDbLine
 10
1.50475032933417
 20
4.862417344935117
 30
0.0
 11
1.718627232761316
 21
4.860009369863298
 31
0.0
  0
LINE
  5
54D
330
22
100
AcDbEntity
  8
Layer 1
100
AcDbLine
 10
1.718627232761316
 20
4.860009369863298
 30
0.0
 11
2.04198377070766
 21
4.851492612647816
 31
0.0
  0
LINE
  5
555
330
22
100
AcDbEntity
  8
Layer 1
100
AcDbLine
 10
1.53624310930638
 20
4.790119319113215
 30
0.0
 11
1.547694068746045
 21
4.748721147904511
 31
0.0
  0
LINE
  5
556
330
22
100
AcDbEntity
  8
Layer 1
100
AcDbLine
 10
1.547694068746045
 20
4.748721147904511
 30
0.0
 11
1.576186231306675
 21
4.691104840765723
 31
0.0
  0
LINE
  5
557
330
22
100
AcDbEntity
  8
Layer 1
100
AcDbLine
 10
1.576186231306675
 20
4.691104840765723
 30
0.0
 11
1.61359614221063
 21
4.631695606586646
 31
0.0
  0
LINE
  5
558
330
22
100
AcDbEntity
  8
Layer 1
100
AcDbLine
 10
1.61359614221063
 20
4.631695606586646
 30
0.0
 11
1.651800488189895
 21
4.58491846557755
 31
0.0
  0
LINE
  5
559
330
22
100
AcDbEntity
  8
Layer 1
100
AcDbLine
 10
1.651800488189895
 20
4.58491846557755
 30
0.0
 11
1.707851227097489
 21
4.538230286957244
 31
0.0
  0
LINE
  5
55A
330
22
100
AcDbEntity
  8
Layer 1
100
AcDbLine
 10
1.707851227097489
 20
4.538230286957244
 30
0.0
 11
1.770421739290594
 21
4.497684899962202
 31
0.0
  0
LINE
  5
55B
330
22
100
AcDbEntity
  8
Layer 1
100
AcDbLine
 10
1.770421739290594
 20
4.497684899962202
 30
0.0
 11
1.858995731312264
 21
4.457291966010933
 31
0.0
  0
LINE
  5
55C
330
22
100
AcDbEntity
  8
Layer 1
100
AcDbLine
 10
1.858995731312264
 20
4.457291966010933
 30
0.0
 11
1.958523700945224
 21
4.433980140896926
 31
0.0
  0
LINE
  5
55D
330
22
100
AcDbEntity
  8
Layer 1
100
AcDbLine
 10
1.958523700945224
 20
4.433980140896926
 30
0.0
 11
2.10081644747517
 21
4.423274654199828
 31
0.0
  0
LINE
  5
55E
330
22
100
AcDbEntity
  8
Layer 1
100
AcDbLine
 10
2.10081644747517
 20
4.423274654199828
 30
0.0
 11
2.317684675848044
 21
4.420700593989657
 31
0.0
  0
LINE
  5
55F
330
22
100
AcDbEntity
  8
Layer 1
100
AcDbLine
 10
2.317684675848044
 20
4.420700593989657
 30
0.0
 11
2.546055231657086
 21
4.417572146210297
 31
0.0
  0
LINE
  5
560
330
22
100
AcDbEntity
  8
Layer 1
100
AcDbLine
 10
2.546055231657086
 20
4.417572146210297
 30
0.0
 11
2.641041213794391
 21
4.410050673408137
 31
0.0
  0
LINE
  5
569
330
22
100
AcDbEntity
  8
Layer 1
100
AcDbLine
 10
2.241493484194244
 20
4.33994783934107
 30
0.0
 11
2.244507356341377
 21
4.319280734913596
 31
0.0
  0
LINE
  5
56A
330
22
100
AcDbEntity
  8
Layer 1
100
AcDbLine
 10
2.244507356341377
 20
4.319280734913596
 30
0.0
 11
2.275590230078909
 21
4.251359130317645
 31
0.0
  0
LINE
  5
56B
330
22
100
AcDbEntity
  8
Layer 1
100
AcDbLine
 10
2.275590230078909
 20
4.251359130317645
 30
0.0
 11
2.330102712114338
 21
4.170190478859956
 31
0.0
  0
LINE
  5
56C
330
22
100
AcDbEntity
  8
Layer 1
100
AcDbLine
 10
2.330102712114338
 20
4.170190478859956
 30
0.0
 11
2.406467394577247
 21
4.09812419864577
 31
0.0
  0
LINE
  5
56D
330
22
100
AcDbEntity
  8
Layer 1
100
AcDbLine
 10
2.406467394577247
 20
4.09812419864577
 30
0.0
 11
2.500436016798603
 21
4.038446096165465
 31
0.0
  0
LINE
  5
56E
330
22
100
AcDbEntity
  8
Layer 1
100
AcDbLine
 10
2.500436016798603
 20
4.038446096165465
 30
0.0
 11
2.607760270939504
 21
3.994442072249206
 31
0.0
  0
LINE
  5
56F
330
22
100
AcDbEntity
  8
Layer 1
100
AcDbLine
 10
2.607760270939504
 20
3.994442072249206
 30
0.0
 11
2.738774180912447
 21
3.980084127604618
 31
0.0
  0
LINE
  5
570
330
22
100
AcDbEntity
  8
Layer 1
100
AcDbLine
 10
2.738774180912447
 20
3.980084127604618
 30
0.0
 11
3.006226112231408
 21
3.969638688441668
 31
0.0
  0
LINE
  5
571
330
22
100
AcDbEntity
  8
Layer 1
100
AcDbLine
 10
3.006226112231408
 20
3.969638688441668
 30
0.0
 11
3.298800342899066
 21
3.959269145611471
 31
0.0
  0
LINE
  5
572
330
22
100
AcDbEntity
  8
Layer 1
100
AcDbLine
 10
3.298800342899066
 20
3.959269145611471
 30
0.0
 11
3.333424306503522
 21
3.951310832574634
 31
0.0
  0
LINE
  5
578
330
22
100
AcDbEntity
  8
Layer 1
100
AcDbLine
 10
2.981619757001805
 20
3.914829838066481
 30
0.0
 11
3.040969179776325
 21
3.853861497929429
 31
0.0
  0
LINE
  5
579
330
22
100
AcDbEntity
  8
Layer 1
100
AcDbLine
 10
3.040969179776325
 20
3.853861497929429
 30
0.0
 11
3.099524403324918
 21
3.800955291729386
 31
0.0
  0
LINE
  5
57A
330
22
100
AcDbEntity
  8
Layer 1
100
AcDbLine
 10
3.099524403324918
 20
3.800955291729386
 30
0.0
 11
3.156964153612558
 21
3.759370044786876
 31
0.0
  0
LINE
  5
57B
330
22
100
AcDbEntity
  8
Layer 1
100
AcDbLine
 10
3.156964153612558
 20
3.759370044786876
 30
0.0
 11
3.249867066793626
 21
3.712372526110519
 31
0.0
  0
LINE
  5
57C
330
22
100
AcDbEntity
  8
Layer 1
100
AcDbLine
 10
3.249867066793626
 20
3.712372526110519
 30
0.0
 11
3.308462101718751
 21
3.694880850660303
 31
0.0
  0
LINE
  5
57D
330
22
100
AcDbEntity
  8
Layer 1
100
AcDbLine
 10
3.308462101718751
 20
3.694880850660303
 30
0.0
 11
3.390068772658058
 21
3.678972290635669
 31
0.0
  0
LINE
  5
57E
330
22
100
AcDbEntity
  8
Layer 1
100
AcDbLine
 10
3.390068772658058
 20
3.678972290635669
 30
0.0
 11
3.667065198481471
 21
3.644639365174818
 31
0.0
  0
LINE
  5
57F
330
22
100
AcDbEntity
  8
Layer 1
100
AcDbLine
 10
3.667065198481471
 20
3.644639365174818
 30
0.0
 11
4.170352460218984
 21
3.594843965219992
 31
0.0
  0
LINE
  5
580
330
22
100
AcDbEntity
  8
Layer 1
100
AcDbLine
 10
4.170352460218984
 20
3.594843965219992
 30
0.0
 11
5.013974302557953
 21
3.515566967356008
 31
0.0
  0
LINE
  5
581
330
22
100
AcDbEntity
  8
Layer 1
100
AcDbLine
 10
5.013974302557953
 20
3.515566967356008
 30
0.0
 11
5.030427580326902
 21
3.509671157208848
 31
0.0
  0
LINE
  5
582
330
22
100
AcDbEntity
  8
Layer 1
100
AcDbLine
 10
5.030427580326902
 20
3.509671157208848
 30
0.0
 11
5.037270986141309
 21
3.495648873411901
 31
0.0
  0
LINE
  5
583
330
22
100
AcDbEntity
  8
Layer 1
100
AcDbLine
 10
5.037270986141309
 20
3.495648873411901
 30
0.0
 11
5.05166416668433
 21
3.430584112441194
 31
0.0
  0
LINE
  5
584
330
22
100
AcDbEntity
  8
Layer 1
100
AcDbLine
 10
5.05166416668433
 20
3.430584112441194
 30
0.0
 11
5.087474594215238
 21
3.321840328009563
 31
0.0
  0
LINE
  5
585
330
22
100
AcDbEntity
  8
Layer 1
100
AcDbLine
 10
5.087474594215238
 20
3.321840328009563
 30
0.0
 11
5.179133118860396
 21
3.097428740011415
 31
0.0
  0
LINE
  5
586
330
22
100
AcDbEntity
  8
Layer 1
100
AcDbLine
 10
5.179133118860396
 20
3.097428740011415
 30
0.0
 11
5.285470248976769
 21
2.910471072412839
 31
0.0
  0
LINE
  5
587
330
22
100
AcDbEntity
  8
Layer 1
100
AcDbLine
 10
5.285470248976769
 20
2.910471072412839
 30
0.0
 11
5.409861744010962
 21
2.740730928936982
 31
0.0
  0
LINE
  5
588
330
22
100
AcDbEntity
  8
Layer 1
100
AcDbLine
 10
5.409861744010962
 20
2.740730928936982
 30
0.0
 11
5.551348876204651
 21
2.588924820021681
 31
0.0
  0
LINE
  5
589
330
22
100
AcDbEntity
  8
Layer 1
100
AcDbLine
 10
5.551348876204651
 20
2.588924820021681
 30
0.0
 11
5.708973012139263
 21
2.455769161765005
 31
0.0
  0
LINE
  5
58A
330
22
100
AcDbEntity
  8
Layer 1
100
AcDbLine
 10
5.708973012139263
 20
2.455769161765005
 30
0.0
 11
5.881775424056476
 21
2.34198051177467
 31
0.0
  0
LINE
  5
58B
330
22
100
AcDbEntity
  8
Layer 1
100
AcDbLine
 10
5.881775424056476
 20
2.34198051177467
 30
0.0
 11
6.068797431367834
 21
2.248275286148768
 31
0.0
  0
LINE
  5
58C
330
22
100
AcDbEntity
  8
Layer 1
100
AcDbLine
 10
6.068797431367834
 20
2.248275286148768
 30
0.0
 11
6.269080400654781
 21
2.175369948155235
 31
0.0
  0
LINE
  5
58D
330
22
100
AcDbEntity
  8
Layer 1
100
AcDbLine
 10
6.269080400654781
 20
2.175369948155235
 30
0.0
 11
6.481665604158971
 21
2.123981055401784
 31
0.0
  0
LINE
  5
58E
330
22
100
AcDbEntity
  8
Layer 1
100
AcDbLine
 10
6.481665604158971
 20
2.123981055401784
 30
0.0
 11
6.617414898124946
 21
2.111595849370174
 31
0.0
  0
LINE
  5
58F
330
22
100
AcDbEntity
  8
Layer 1
100
AcDbLine
 10
6.617414898124946
 20
2.111595849370174
 30
0.0
 11
6.814639042371585
 21
2.106068766154713
 31
0.0
  0
LINE
  5
590
330
22
100
AcDbEntity
  8
Layer 1
100
AcDbLine
 10
6.814639042371585
 20
2.106068766154713
 30
0.0
 11
7.011781252541167
 21
2.107966315983104
 31
0.0
  0
LINE
  5
591
330
22
100
AcDbEntity
  8
Layer 1
100
AcDbLine
 10
7.011781252541167
 20
2.107966315983104
 30
0.0
 11
7.147284980125353
 21
2.117855056252878
 31
0.0
  0
LINE
  5
592
330
22
100
AcDbEntity
  8
Layer 1
100
AcDbLine
 10
7.147284980125353
 20
2.117855056252878
 30
0.0
 11
7.147284980125353
 21
2.117855056252878
 31
0.0
  0
LINE
  5
676
330
22
100
AcDbEntity
  8
Layer 1
100
AcDbLine
 10
5.543141742064486
 20
3.828299339473899
 30
0.0
 11
5.543141742064486
 21
4.181077616754961
 31
0.0
  0
LINE
  5
677
330
22
100
AcDbEntity
  8
Layer 1
100
AcDbLine
 10
5.543141742064486
 20
4.181077616754961
 30
0.0
 11
5.625181055119377
 21
4.181077616754961
 31
0.0
  0
LINE
  5
678
330
22
100
AcDbEntity
  8
Layer 1
100
AcDbLine
 10
5.625181055119377
 20
4.181077616754961
 30
0.0
 11
5.673706736314133
 21
4.179644265690149
 31
0.0
  0
LINE
  5
679
330
22
100
AcDbEntity
  8
Layer 1
100
AcDbLine
 10
5.673706736314133
 20
4.179644265690149
 30
0.0
 11
5.70895070078725
 21
4.17069599843615
 31
0.0
  0
LINE
  5
67A
330
22
100
AcDbEntity
  8
Layer 1
100
AcDbLine
 10
5.70895070078725
 20
4.17069599843615
 30
0.0
 11
5.746609479964408
 21
4.147260258054181
 31
0.0
  0
LINE
  5
67B
330
22
100
AcDbEntity
  8
Layer 1
100
AcDbLine
 10
5.746609479964408
 20
4.147260258054181
 30
0.0
 11
5.802379558101423
 21
4.102364487605511
 31
0.0
  0
LINE
  5
67C
330
22
100
AcDbEntity
  8
Layer 1
100
AcDbLine
 10
5.802379558101423
 20
4.102364487605511
 30
0.0
 11
5.897538936708079
 21
4.023651405625955
 31
0.0
  0
LINE
  5
67D
330
22
100
AcDbEntity
  8
Layer 1
100
AcDbLine
 10
5.897538936708079
 20
4.023651405625955
 30
0.0
 11
5.989916235945186
 21
4.102189440190457
 31
0.0
  0
LINE
  5
67E
330
22
100
AcDbEntity
  8
Layer 1
100
AcDbLine
 10
5.989916235945186
 20
4.102189440190457
 30
0.0
 11
6.04427022719252
 21
4.147170116418458
 31
0.0
  0
LINE
  5
67F
330
22
100
AcDbEntity
  8
Layer 1
100
AcDbLine
 10
6.04427022719252
 20
4.147170116418458
 30
0.0
 11
6.081102212758471
 21
4.170553262387108
 31
0.0
  0
LINE
  5
680
330
22
100
AcDbEntity
  8
Layer 1
100
AcDbLine
 10
6.081102212758471
 20
4.170553262387108
 30
0.0
 11
6.116236082737715
 21
4.179432755959851
 31
0.0
  0
LINE
  5
681
330
22
100
AcDbEntity
  8
Layer 1
100
AcDbLine
 10
6.116236082737715
 20
4.179432755959851
 30
0.0
 11
6.165495868734572
 21
4.180902522170022
 31
0.0
  0
LINE
  5
682
330
22
100
AcDbEntity
  8
Layer 1
100
AcDbLine
 10
6.165495868734572
 20
4.180902522170022
 30
0.0
 11
6.248698249456727
 21
4.181077616754961
 31
0.0
  0
LINE
  5
683
330
22
100
AcDbEntity
  8
Layer 1
100
AcDbLine
 10
6.248698249456727
 20
4.181077616754961
 30
0.0
 11
6.248698249456727
 21
3.828299339473899
 31
0.0
  0
LINE
  5
684
330
22
100
AcDbEntity
  8
Layer 1
100
AcDbLine
 10
6.248698249456727
 20
3.828299339473899
 30
0.0
 11
6.248698249456727
 21
3.475521062192838
 31
0.0
  0
LINE
  5
685
330
22
100
AcDbEntity
  8
Layer 1
100
AcDbLine
 10
6.248698249456727
 20
3.475521062192838
 30
0.0
 11
6.162167750864143
 21
3.475521062192838
 31
0.0
  0
LINE
  5
686
330
22
100
AcDbEntity
  8
Layer 1
100
AcDbLine
 10
6.162167750864143
 20
3.475521062192838
 30
0.0
 11
6.075637252271564
 21
3.475521062192838
 31
0.0
  0
LINE
  5
687
330
22
100
AcDbEntity
  8
Layer 1
100
AcDbLine
 10
6.075637252271564
 20
3.475521062192838
 30
0.0
 11
6.075637252271564
 21
3.708487850856556
 31
0.0
  0
LINE
  5
688
330
22
100
AcDbEntity
  8
Layer 1
100
AcDbLine
 10
6.075637252271564
 20
3.708487850856556
 30
0.0
 11
6.067929882982536
 21
3.941454639520273
 31
0.0
  0
LINE
  5
689
330
22
100
AcDbEntity
  8
Layer 1
100
AcDbLine
 10
6.067929882982536
 20
3.941454639520273
 30
0.0
 11
5.983694812134285
 21
3.874892659470738
 31
0.0
  0
LINE
  5
68A
330
22
100
AcDbEntity
  8
Layer 1
100
AcDbLine
 10
5.983694812134285
 20
3.874892659470738
 30
0.0
 11
5.896363557702812
 21
3.808330726591087
 31
0.0
  0
LINE
  5
68B
330
22
100
AcDbEntity
  8
Layer 1
100
AcDbLine
 10
5.896363557702812
 20
3.808330726591087
 30
0.0
 11
5.800881537134688
 21
3.882674557166068
 31
0.0
  0
LINE
  5
68C
330
22
100
AcDbEntity
  8
Layer 1
100
AcDbLine
 10
5.800881537134688
 20
3.882674557166068
 30
0.0
 11
5.716202786419524
 21
3.957018387741051
 31
0.0
  0
LINE
  5
68D
330
22
100
AcDbEntity
  8
Layer 1
100
AcDbLine
 10
5.716202786419524
 20
3.957018387741051
 30
0.0
 11
5.716202786419524
 21
3.71626974855188
 31
0.0
  0
LINE
  5
68E
330
22
100
AcDbEntity
  8
Layer 1
100
AcDbLine
 10
5.716202786419524
 20
3.71626974855188
 30
0.0
 11
5.716202786419524
 21
3.475521062192838
 31
0.0
  0
LINE
  5
68F
330
22
100
AcDbEntity
  8
Layer 1
100
AcDbLine
 10
5.716202786419524
 20
3.475521062192838
 30
0.0
 11
5.629672240657066
 21
3.475521062192838
 31
0.0
  0
LINE
  5
690
330
22
100
AcDbEntity
  8
Layer 1
100
AcDbLine
 10
5.629672240657066
 20
3.475521062192838
 30
0.0
 11
5.543141742064486
 21
3.475521062192838
 31
0.0
  0
LINE
  5
691
330
22
100
AcDbEntity
  8
Layer 1
100
AcDbLine
 10
5.543141742064486
 20
3.475521062192838
 30
0.0
 11
5.543141742064486
 21
3.828299339473899
 31
0.0
  0
LINE
  5
692
330
22
100
AcDbEntity
  8
Layer 1
100
AcDbLine
 10
5.543141742064486
 20
3.828299339473899
 30
0.0
 11
5.543141742064486
 21
3.828299339473899
 31
0.0
  0
LINE
  5
693
330
22
100
AcDbEntity
  8
Layer 1
100
AcDbLine
 10
5.649640806369998
 20
3.795018349449136
 30
0.0
 11
5.65315137732624
 21
3.99722386859949
 31
0.0
  0
LINE
  5
694
330
22
100
AcDbEntity
  8
Layer 1
100
AcDbLine
 10
5.65315137732624
 20
3.99722386859949
 30
0.0
 11
5.657694921427847
 21
4.04557054010948
 31
0.0
  0
LINE
  5
695
330
22
100
AcDbEntity
  8
Layer 1
100
AcDbLine
 10
5.657694921427847
 20
4.04557054010948
 30
0.0
 11
5.664235449459424
 21
4.061266128137609
 31
0.0
  0
LINE
  5
696
330
22
100
AcDbEntity
  8
Layer 1
100
AcDbLine
 10
5.664235449459424
 20
4.061266128137609
 30
0.0
 11
5.700562151298567
 21
4.038943927051633
 31
0.0
  0
LINE
  5
697
330
22
100
AcDbEntity
  8
Layer 1
100
AcDbLine
 10
5.700562151298567
 20
4.038943927051633
 30
0.0
 11
5.767406490234266
 21
3.985275691482064
 31
0.0
  0
LINE
  5
698
330
22
100
AcDbEntity
  8
Layer 1
100
AcDbLine
 10
5.767406490234266
 20
3.985275691482064
 30
0.0
 11
5.876679473520534
 21
3.892378627365785
 31
0.0
  0
LINE
  5
699
330
22
100
AcDbEntity
  8
Layer 1
100
AcDbLine
 10
5.876679473520534
 20
3.892378627365785
 30
0.0
 11
5.891715956851641
 21
3.88737805432197
 31
0.0
  0
LINE
  5
69A
330
22
100
AcDbEntity
  8
Layer 1
100
AcDbLine
 10
5.891715956851641
 20
3.88737805432197
 30
0.0
 11
5.915247169065477
 21
3.896754765572481
 31
0.0
  0
LINE
  5
69B
330
22
100
AcDbEntity
  8
Layer 1
100
AcDbLine
 10
5.915247169065477
 20
3.896754765572481
 30
0.0
 11
6.016459527850811
 21
3.975734404529276
 31
0.0
  0
LINE
  5
69C
330
22
100
AcDbEntity
  8
Layer 1
100
AcDbLine
 10
6.016459527850811
 20
3.975734404529276
 30
0.0
 11
6.135542996580236
 21
4.075996667643856
 31
0.0
  0
LINE
  5
69D
330
22
100
AcDbEntity
  8
Layer 1
100
AcDbLine
 10
6.135542996580236
 20
4.075996667643856
 30
0.0
 11
6.139141161998829
 21
3.802383689957068
 31
0.0
  0
LINE
  5
69E
330
22
100
AcDbEntity
  8
Layer 1
100
AcDbLine
 10
6.139141161998829
 20
3.802383689957068
 30
0.0
 11
6.145927633771206
 21
3.567105247111207
 31
0.0
  0
LINE
  5
69F
330
22
100
AcDbEntity
  8
Layer 1
100
AcDbLine
 10
6.145927633771206
 20
3.567105247111207
 30
0.0
 11
6.154228966156558
 21
3.534595673261569
 31
0.0
  0
LINE
  5
6A0
330
22
100
AcDbEntity
  8
Layer 1
100
AcDbLine
 10
6.154228966156558
 20
3.534595673261569
 30
0.0
 11
6.169094034153162
 21
3.528770617930539
 31
0.0
  0
LINE
  5
6A1
330
22
100
AcDbEntity
  8
Layer 1
100
AcDbLine
 10
6.169094034153162
 20
3.528770617930539
 30
0.0
 11
6.183962922909842
 21
3.534842654739684
 31
0.0
  0
LINE
  5
6A2
330
22
100
AcDbEntity
  8
Layer 1
100
AcDbLine
 10
6.183962922909842
 20
3.534842654739684
 30
0.0
 11
6.191827792419528
 21
3.569923505776721
 31
0.0
  0
LINE
  5
6A3
330
22
100
AcDbEntity
  8
Layer 1
100
AcDbLine
 10
6.191827792419528
 20
3.569923505776721
 30
0.0
 11
6.195448740888911
 21
3.828299339473899
 31
0.0
  0
LINE
  5
6A4
330
22
100
AcDbEntity
  8
Layer 1
100
AcDbLine
 10
6.195448740888911
 20
3.828299339473899
 30
0.0
 11
6.195448740888911
 21
4.127828061017261
 31
0.0
  0
LINE
  5
6A5
330
22
100
AcDbEntity
  8
Layer 1
100
AcDbLine
 10
6.195448740888911
 20
4.127828061017261
 30
0.0
 11
6.15117915056284
 21
4.127828061017261
 31
0.0
  0
LINE
  5
6A6
330
22
100
AcDbEntity
  8
Layer 1
100
AcDbLine
 10
6.15117915056284
 20
4.127828061017261
 30
0.0
 11
6.124918689242155
 21
4.123997017913906
 31
0.0
  0
LINE
  5
6A7
330
22
100
AcDbEntity
  8
Layer 1
100
AcDbLine
 10
6.124918689242155
 20
4.123997017913906
 30
0.0
 11
6.095482751774338
 21
4.11040114980873
 31
0.0
  0
LINE
  5
6A8
330
22
100
AcDbEntity
  8
Layer 1
100
AcDbLine
 10
6.095482751774338
 20
4.11040114980873
 30
0.0
 11
6.005901211171223
 21
4.041297515254811
 31
0.0
  0
LINE
  5
6A9
330
22
100
AcDbEntity
  8
Layer 1
100
AcDbLine
 10
6.005901211171223
 20
4.041297515254811
 30
0.0
 11
5.898437381363079
 21
3.954767016662223
 31
0.0
  0
LINE
  5
6AA
330
22
100
AcDbEntity
  8
Layer 1
100
AcDbLine
 10
5.898437381363079
 20
3.954767016662223
 30
0.0
 11
5.787904066122331
 21
4.041297515254811
 31
0.0
  0
LINE
  5
6AB
330
22
100
AcDbEntity
  8
Layer 1
100
AcDbLine
 10
5.787904066122331
 20
4.041297515254811
 30
0.0
 11
5.696269833964036
 21
4.109989451118707
 31
0.0
  0
LINE
  5
6AC
330
22
100
AcDbEntity
  8
Layer 1
100
AcDbLine
 10
5.696269833964036
 20
4.109989451118707
 30
0.0
 11
5.666185216342094
 21
4.123842630905151
 31
0.0
  0
LINE
  5
6AD
330
22
100
AcDbEntity
  8
Layer 1
100
AcDbLine
 10
5.666185216342094
 20
4.123842630905151
 30
0.0
 11
5.640108764713184
 21
4.127828061017261
 31
0.0
  0
LINE
  5
6AE
330
22
100
AcDbEntity
  8
Layer 1
100
AcDbLine
 10
5.640108764713184
 20
4.127828061017261
 30
0.0
 11
5.596391297802179
 21
4.127828061017261
 31
0.0
  0
LINE
  5
6AF
330
22
100
AcDbEntity
  8
Layer 1
100
AcDbLine
 10
5.596391297802179
 20
4.127828061017261
 30
0.0
 11
5.596391297802179
 21
3.828299339473899
 31
0.0
  0
LINE
  5
6B0
330
22
100
AcDbEntity
  8
Layer 1
100
AcDbLine
 10
5.596391297802179
 20
3.828299339473899
 30
0.0
 11
5.600015217973835
 21
3.569539825993877
 31
0.0
  0
LINE
  5
6B1
330
22
100
AcDbEntity
  8
Layer 1
100
AcDbLine
 10
5.600015217973835
 20
3.569539825993877
 30
0.0
 11
5.607956408345172
 21
3.534698786613589
 31
0.0
  0
LINE
  5
6B2
330
22
100
AcDbEntity
  8
Layer 1
100
AcDbLine
 10
5.607956408345172
 20
3.534698786613589
 30
0.0
 11
5.623016052086087
 21
3.528770617930539
 31
0.0
  0
LINE
  5
6B3
330
22
100
AcDbEntity
  8
Layer 1
100
AcDbLine
 10
5.623016052086087
 20
3.528770617930539
 30
0.0
 11
5.638034091995133
 21
3.534178785885038
 31
0.0
  0
LINE
  5
6B4
330
22
100
AcDbEntity
  8
Layer 1
100
AcDbLine
 10
5.638034091995133
 20
3.534178785885038
 30
0.0
 11
5.645979905014451
 21
3.56537967865585
 31
0.0
  0
LINE
  5
6B5
330
22
100
AcDbEntity
  8
Layer 1
100
AcDbLine
 10
5.645979905014451
 20
3.56537967865585
 30
0.0
 11
5.649640806369998
 21
3.795018349449136
 31
0.0
  0
LINE
  5
6B6
330
22
100
AcDbEntity
  8
Layer 1
100
AcDbLine
 10
5.649640806369998
 20
3.795018349449136
 30
0.0
 11
5.649640806369998
 21
3.795018349449136
 31
0.0
  0
LINE
  5
6B7
330
22
100
AcDbEntity
  8
Layer 1
100
AcDbLine
 10
6.341884983790164
 20
3.824971221603468
 30
0.0
 11
6.338556865919736
 21
4.17774949888453
 31
0.0
  0
LINE
  5
6B8
330
22
100
AcDbEntity
  8
Layer 1
100
AcDbLine
 10
6.338556865919736
 20
4.17774949888453
 30
0.0
 11
6.401707803454354
 21
4.185873095171806
 31
0.0
  0
LINE
  5
6B9
330
22
100
AcDbEntity
  8
Layer 1
100
AcDbLine
 10
6.401707803454354
 20
4.185873095171806
 30
0.0
 11
6.558211796310146
 21
4.191383763269924
 31
0.0
  0
LINE
  5
6BA
330
22
100
AcDbEntity
  8
Layer 1
100
AcDbLine
 10
6.558211796310146
 20
4.191383763269924
 30
0.0
 11
6.781194325702334
 21
4.195033768383787
 31
0.0
  0
LINE
  5
6BB
330
22
100
AcDbEntity
  8
Layer 1
100
AcDbLine
 10
6.781194325702334
 20
4.195033768383787
 30
0.0
 11
6.781194325702334
 21
4.108181335377892
 31
0.0
  0
LINE
  5
6BC
330
22
100
AcDbEntity
  8
Layer 1
100
AcDbLine
 10
6.781194325702334
 20
4.108181335377892
 30
0.0
 11
6.781194325702334
 21
4.021328949541873
 31
0.0
  0
LINE
  5
6BD
330
22
100
AcDbEntity
  8
Layer 1
100
AcDbLine
 10
6.781194325702334
 20
4.021328949541873
 30
0.0
 11
6.648070412773159
 21
4.021328949541873
 31
0.0
  0
LINE
  5
6BE
330
22
100
AcDbEntity
  8
Layer 1
100
AcDbLine
 10
6.648070412773159
 20
4.021328949541873
 30
0.0
 11
6.514946547013857
 21
4.021328949541873
 31
0.0
  0
LINE
  5
6BF
330
22
100
AcDbEntity
  8
Layer 1
100
AcDbLine
 10
6.514946547013857
 20
4.021328949541873
 30
0.0
 11
6.514946547013857
 21
3.974735582375153
 31
0.0
  0
LINE
  5
6C0
330
22
100
AcDbEntity
  8
Layer 1
100
AcDbLine
 10
6.514946547013857
 20
3.974735582375153
 30
0.0
 11
6.514946547013857
 21
3.928142215208437
 31
0.0
  0
LINE
  5
6C1
330
22
100
AcDbEntity
  8
Layer 1
100
AcDbLine
 10
6.514946547013857
 20
3.928142215208437
 30
0.0
 11
6.628101847060227
 21
3.928142215208437
 31
0.0
  0
LINE
  5
6C2
330
22
100
AcDbEntity
  8
Layer 1
100
AcDbLine
 10
6.628101847060227
 20
3.928142215208437
 30
0.0
 11
6.741257147106596
 21
3.928142215208437
 31
0.0
  0
LINE
  5
6C3
330
22
100
AcDbEntity
  8
Layer 1
100
AcDbLine
 10
6.741257147106596
 20
3.928142215208437
 30
0.0
 11
6.741257147106596
 21
3.834955528044872
 31
0.0
  0
LINE
  5
6C4
330
22
100
AcDbEntity
  8
Layer 1
100
AcDbLine
 10
6.741257147106596
 20
3.834955528044872
 30
0.0
 11
6.741257147106596
 21
3.741768793711435
 31
0.0
  0
LINE
  5
6C5
330
22
100
AcDbEntity
  8
Layer 1
100
AcDbLine
 10
6.741257147106596
 20
3.741768793711435
 30
0.0
 11
6.628101847060227
 21
3.741768793711435
 31
0.0
  0
LINE
  5
6C6
330
22
100
AcDbEntity
  8
Layer 1
100
AcDbLine
 10
6.628101847060227
 20
3.741768793711435
 30
0.0
 11
6.514946547013857
 21
3.741768793711435
 31
0.0
  0
LINE
  5
6C7
330
22
100
AcDbEntity
  8
Layer 1
100
AcDbLine
 10
6.514946547013857
 20
3.741768793711435
 30
0.0
 11
6.514946547013857
 21
3.701831662285569
 31
0.0
  0
LINE
  5
6C8
330
22
100
AcDbEntity
  8
Layer 1
100
AcDbLine
 10
6.514946547013857
 20
3.701831662285569
 30
0.0
 11
6.514946547013857
 21
3.661894483689835
 31
0.0
  0
LINE
  5
6C9
330
22
100
AcDbEntity
  8
Layer 1
100
AcDbLine
 10
6.514946547013857
 20
3.661894483689835
 30
0.0
 11
6.648070412773159
 21
3.661894483689835
 31
0.0
  0
LINE
  5
6CA
330
22
100
AcDbEntity
  8
Layer 1
100
AcDbLine
 10
6.648070412773159
 20
3.661894483689835
 30
0.0
 11
6.781194325702334
 21
3.661894483689835
 31
0.0
  0
LINE
  5
6CB
330
22
100
AcDbEntity
  8
Layer 1
100
AcDbLine
 10
6.781194325702334
 20
3.661894483689835
 30
0.0
 11
6.781194325702334
 21
3.572035867226822
 31
0.0
  0
LINE
  5
6CC
330
22
100
AcDbEntity
  8
Layer 1
100
AcDbLine
 10
6.781194325702334
 20
3.572035867226822
 30
0.0
 11
6.781194325702334
 21
3.48217725076381
 31
0.0
  0
LINE
  5
6CD
330
22
100
AcDbEntity
  8
Layer 1
100
AcDbLine
 10
6.781194325702334
 20
3.48217725076381
 30
0.0
 11
6.561539914180575
 21
3.48217725076381
 31
0.0
  0
LINE
  5
6CE
330
22
100
AcDbEntity
  8
Layer 1
100
AcDbLine
 10
6.561539914180575
 20
3.48217725076381
 30
0.0
 11
6.341884983790164
 21
3.48217725076381
 31
0.0
  0
LINE
  5
6CF
330
22
100
AcDbEntity
  8
Layer 1
100
AcDbLine
 10
6.341884983790164
 20
3.48217725076381
 30
0.0
 11
6.341884983790164
 21
3.824971221603468
 31
0.0
  0
LINE
  5
6D0
330
22
100
AcDbEntity
  8
Layer 1
100
AcDbLine
 10
6.341884983790164
 20
3.824971221603468
 30
0.0
 11
6.341884983790164
 21
3.824971221603468
 31
0.0
  0
LINE
  5
6D1
330
22
100
AcDbEntity
  8
Layer 1
100
AcDbLine
 10
6.727944769964642
 20
3.568242088326619
 30
0.0
 11
6.724269764815752
 21
3.582580080113068
 31
0.0
  0
LINE
  5
6D2
330
22
100
AcDbEntity
  8
Layer 1
100
AcDbLine
 10
6.724269764815752
 20
3.582580080113068
 30
0.0
 11
6.706773749736816
 21
3.590931082379326
 31
0.0
  0
LINE
  5
6D3
330
22
100
AcDbEntity
  8
Layer 1
100
AcDbLine
 10
6.706773749736816
 20
3.590931082379326
 30
0.0
 11
6.591492786334911
 21
3.598194960480958
 31
0.0
  0
LINE
  5
6D4
330
22
100
AcDbEntity
  8
Layer 1
100
AcDbLine
 10
6.591492786334911
 20
3.598194960480958
 30
0.0
 11
6.455040802705186
 21
3.601988739381162
 31
0.0
  0
LINE
  5
6D5
330
22
100
AcDbEntity
  8
Layer 1
100
AcDbLine
 10
6.455040802705186
 20
3.601988739381162
 30
0.0
 11
6.455040802705186
 21
3.701831662285569
 31
0.0
  0
LINE
  5
6D6
330
22
100
AcDbEntity
  8
Layer 1
100
AcDbLine
 10
6.455040802705186
 20
3.701831662285569
 30
0.0
 11
6.455040802705186
 21
3.801674538020115
 31
0.0
  0
LINE
  5
6D7
330
22
100
AcDbEntity
  8
Layer 1
100
AcDbLine
 10
6.455040802705186
 20
3.801674538020115
 30
0.0
 11
6.571524220621977
 21
3.805520911333622
 31
0.0
  0
LINE
  5
6D8
330
22
100
AcDbEntity
  8
Layer 1
100
AcDbLine
 10
6.571524220621977
 20
3.805520911333622
 30
0.0
 11
6.672455729957226
 21
3.813227856093753
 31
0.0
  0
LINE
  5
6D9
330
22
100
AcDbEntity
  8
Layer 1
100
AcDbLine
 10
6.672455729957226
 20
3.813227856093753
 30
0.0
 11
6.685815748675361
 21
3.82343027604829
 31
0.0
  0
LINE
  5
6DA
330
22
100
AcDbEntity
  8
Layer 1
100
AcDbLine
 10
6.685815748675361
 20
3.82343027604829
 30
0.0
 11
6.688007591368902
 21
3.842129972058933
 31
0.0
  0
LINE
  5
6DB
330
22
100
AcDbEntity
  8
Layer 1
100
AcDbLine
 10
6.688007591368902
 20
3.842129972058933
 30
0.0
 11
6.685939522433682
 21
3.860910234220206
 31
0.0
  0
LINE
  5
6DC
330
22
100
AcDbEntity
  8
Layer 1
100
AcDbLine
 10
6.685939522433682
 20
3.860910234220206
 30
0.0
 11
6.672508465880173
 21
3.870654493155477
 31
0.0
  0
LINE
  5
6DD
330
22
100
AcDbEntity
  8
Layer 1
100
AcDbLine
 10
6.672508465880173
 20
3.870654493155477
 30
0.0
 11
6.56819610275155
 21
3.874892659470738
 31
0.0
  0
LINE
  5
6DE
330
22
100
AcDbEntity
  8
Layer 1
100
AcDbLine
 10
6.56819610275155
 20
3.874892659470738
 30
0.0
 11
6.44838461413421
 21
3.874892659470738
 31
0.0
  0
LINE
  5
6DF
330
22
100
AcDbEntity
  8
Layer 1
100
AcDbLine
 10
6.44838461413421
 20
3.874892659470738
 30
0.0
 11
6.44838461413421
 21
3.974735582375153
 31
0.0
  0
LINE
  5
6E0
330
22
100
AcDbEntity
  8
Layer 1
100
AcDbLine
 10
6.44838461413421
 20
3.974735582375153
 30
0.0
 11
6.44838461413421
 21
4.074578505279568
 31
0.0
  0
LINE
  5
6E1
330
22
100
AcDbEntity
  8
Layer 1
100
AcDbLine
 10
6.44838461413421
 20
4.074578505279568
 30
0.0
 11
6.588164668464488
 21
4.074578505279568
 31
0.0
  0
LINE
  5
6E2
330
22
100
AcDbEntity
  8
Layer 1
100
AcDbLine
 10
6.588164668464488
 20
4.074578505279568
 30
0.0
 11
6.707143986104592
 21
4.078540491962606
 31
0.0
  0
LINE
  5
6E3
330
22
100
AcDbEntity
  8
Layer 1
100
AcDbLine
 10
6.707143986104592
 20
4.078540491962606
 30
0.0
 11
6.72451259534465
 21
4.086523946544112
 31
0.0
  0
LINE
  5
6E4
330
22
100
AcDbEntity
  8
Layer 1
100
AcDbLine
 10
6.72451259534465
 20
4.086523946544112
 30
0.0
 11
6.727944769964642
 21
4.101203259563475
 31
0.0
  0
LINE
  5
6E5
330
22
100
AcDbEntity
  8
Layer 1
100
AcDbLine
 10
6.727944769964642
 20
4.101203259563475
 30
0.0
 11
6.724096604195787
 21
4.115996629346426
 31
0.0
  0
LINE
  5
6E6
330
22
100
AcDbEntity
  8
Layer 1
100
AcDbLine
 10
6.724096604195787
 20
4.115996629346426
 30
0.0
 11
6.703815868234163
 21
4.123967442400775
 31
0.0
  0
LINE
  5
6E7
330
22
100
AcDbEntity
  8
Layer 1
100
AcDbLine
 10
6.703815868234163
 20
4.123967442400775
 30
0.0
 11
6.561539914180575
 21
4.127828061017261
 31
0.0
  0
LINE
  5
6E8
330
22
100
AcDbEntity
  8
Layer 1
100
AcDbLine
 10
6.561539914180575
 20
4.127828061017261
 30
0.0
 11
6.395134539527861
 21
4.127828061017261
 31
0.0
  0
LINE
  5
6E9
330
22
100
AcDbEntity
  8
Layer 1
100
AcDbLine
 10
6.395134539527861
 20
4.127828061017261
 30
0.0
 11
6.395134539527861
 21
3.834955528044872
 31
0.0
  0
LINE
  5
6EA
330
22
100
AcDbEntity
  8
Layer 1
100
AcDbLine
 10
6.395134539527861
 20
3.834955528044872
 30
0.0
 11
6.395134539527861
 21
3.542082995072489
 31
0.0
  0
LINE
  5
6EB
330
22
100
AcDbEntity
  8
Layer 1
100
AcDbLine
 10
6.395134539527861
 20
3.542082995072489
 30
0.0
 11
6.561539914180575
 21
3.542082995072489
 31
0.0
  0
LINE
  5
6EC
330
22
100
AcDbEntity
  8
Layer 1
100
AcDbLine
 10
6.561539914180575
 20
3.542082995072489
 30
0.0
 11
6.703445490356753
 21
3.545934274053251
 31
0.0
  0
LINE
  5
6ED
330
22
100
AcDbEntity
  8
Layer 1
100
AcDbLine
 10
6.703445490356753
 20
3.545934274053251
 30
0.0
 11
6.723957688906818
 21
3.553772917111096
 31
0.0
  0
LINE
  5
6EE
330
22
100
AcDbEntity
  8
Layer 1
100
AcDbLine
 10
6.723957688906818
 20
3.553772917111096
 30
0.0
 11
6.727944769964642
 21
3.568242088326619
 31
0.0
  0
LINE
  5
6EF
330
22
100
AcDbEntity
  8
Layer 1
100
AcDbLine
 10
6.727944769964642
 20
3.568242088326619
 30
0.0
 11
6.727944769964642
 21
3.568242088326619
 31
0.0
  0
LINE
  5
6F0
330
22
100
AcDbEntity
  8
Layer 1
100
AcDbLine
 10
7.69017210866526
 20
3.490076931643031
 30
0.0
 11
7.613387708633171
 21
3.508855590028459
 31
0.0
  0
LINE
  5
6F1
330
22
100
AcDbEntity
  8
Layer 1
100
AcDbLine
 10
7.613387708633171
 20
3.508855590028459
 30
0.0
 11
7.546001293466296
 21
3.542735637496313
 31
0.0
  0
LINE
  5
6F2
330
22
100
AcDbEntity
  8
Layer 1
100
AcDbLine
 10
7.546001293466296
 20
3.542735637496313
 30
0.0
 11
7.489214468621743
 21
3.589756033563212
 31
0.0
  0
LINE
  5
6F3
330
22
100
AcDbEntity
  8
Layer 1
100
AcDbLine
 10
7.489214468621743
 20
3.589756033563212
 30
0.0
 11
7.444228745216856
 21
3.647955879255412
 31
0.0
  0
LINE
  5
6F4
330
22
100
AcDbEntity
  8
Layer 1
100
AcDbLine
 10
7.444228745216856
 20
3.647955879255412
 30
0.0
 11
7.412245728708745
 21
3.715374134089528
 31
0.0
  0
LINE
  5
6F5
330
22
100
AcDbEntity
  8
Layer 1
100
AcDbLine
 10
7.412245728708745
 20
3.715374134089528
 30
0.0
 11
7.394466883044861
 21
3.790049757582194
 31
0.0
  0
LINE
  5
6F6
330
22
100
AcDbEntity
  8
Layer 1
100
AcDbLine
 10
7.394466883044861
 20
3.790049757582194
 30
0.0
 11
7.392093813682323
 21
3.870021803589792
 31
0.0
  0
LINE
  5
6F7
330
22
100
AcDbEntity
  8
Layer 1
100
AcDbLine
 10
7.392093813682323
 20
3.870021803589792
 30
0.0
 11
7.406328078908346
 21
3.95332927879881
 31
0.0
  0
LINE
  5
6F8
330
22
100
AcDbEntity
  8
Layer 1
100
AcDbLine
 10
7.406328078908346
 20
3.95332927879881
 30
0.0
 11
7.438467322050444
 21
4.019712343503336
 31
0.0
  0
LINE
  5
6F9
330
22
100
AcDbEntity
  8
Layer 1
100
AcDbLine
 10
7.438467322050444
 20
4.019712343503336
 30
0.0
 11
7.493607210625278
 21
4.084837246067735
 31
0.0
  0
LINE
  5
6FA
330
22
100
AcDbEntity
  8
Layer 1
100
AcDbLine
 10
7.493607210625278
 20
4.084837246067735
 30
0.0
 11
7.561934145977798
 21
4.139206142996336
 31
0.0
  0
LINE
  5
6FB
330
22
100
AcDbEntity
  8
Layer 1
100
AcDbLine
 10
7.561934145977798
 20
4.139206142996336
 30
0.0
 11
7.633634435113177
 21
4.173321143623553
 31
0.0
  0
LINE
  5
6FC
330
22
100
AcDbEntity
  8
Layer 1
100
AcDbLine
 10
7.633634435113177
 20
4.173321143623553
 30
0.0
 11
7.736206371275054
 21
4.194389993896912
 31
0.0
  0
LINE
  5
6FD
330
22
100
AcDbEntity
  8
Layer 1
100
AcDbLine
 10
7.736206371275054
 20
4.194389993896912
 30
0.0
 11
7.832839148172441
 21
4.177500064572797
 31
0.0
  0
LINE
  5
6FE
330
22
100
AcDbEntity
  8
Layer 1
100
AcDbLine
 10
7.832839148172441
 20
4.177500064572797
 30
0.0
 11
7.874615008589562
 21
4.1621386751261
 31
0.0
  0
LINE
  5
6FF
330
22
100
AcDbEntity
  8
Layer 1
100
AcDbLine
 10
7.874615008589562
 20
4.1621386751261
 30
0.0
 11
7.894819470859415
 21
4.147278371287106
 31
0.0
  0
LINE
  5
700
330
22
100
AcDbEntity
  8
Layer 1
100
AcDbLine
 10
7.894819470859415
 20
4.147278371287106
 30
0.0
 11
7.889145406305956
 21
4.115287666088973
 31
0.0
  0
LINE
  5
701
330
22
100
AcDbEntity
  8
Layer 1
100
AcDbLine
 10
7.889145406305956
 20
4.115287666088973
 30
0.0
 11
7.866476082092132
 21
4.061902166764588
 31
0.0
  0
LINE
  5
702
330
22
100
AcDbEntity
  8
Layer 1
100
AcDbLine
 10
7.866476082092132
 20
4.061902166764588
 30
0.0
 11
7.832624996929007
 21
4.006794306536511
 31
0.0
  0
LINE
  5
703
330
22
100
AcDbEntity
  8
Layer 1
100
AcDbLine
 10
7.832624996929007
 20
4.006794306536511
 30
0.0
 11
7.81894422304449
 21
4.000535854371847
 31
0.0
  0
LINE
  5
704
330
22
100
AcDbEntity
  8
Layer 1
100
AcDbLine
 10
7.81894422304449
 20
4.000535854371847
 30
0.0
 11
7.80233429411267
 21
4.003866802434912
 31
0.0
  0
LINE
  5
705
330
22
100
AcDbEntity
  8
Layer 1
100
AcDbLine
 10
7.80233429411267
 20
4.003866802434912
 30
0.0
 11
7.762919474739352
 21
4.011970445864044
 31
0.0
  0
LINE
  5
706
330
22
100
AcDbEntity
  8
Layer 1
100
AcDbLine
 10
7.762919474739352
 20
4.011970445864044
 30
0.0
 11
7.718704884490341
 21
4.011522426368421
 31
0.0
  0
LINE
  5
707
330
22
100
AcDbEntity
  8
Layer 1
100
AcDbLine
 10
7.718704884490341
 20
4.011522426368421
 30
0.0
 11
7.675942560426976
 21
4.00315642408114
 31
0.0
  0
LINE
  5
708
330
22
100
AcDbEntity
  8
Layer 1
100
AcDbLine
 10
7.675942560426976
 20
4.00315642408114
 30
0.0
 11
7.640884350931092
 21
3.987505883285925
 31
0.0
  0
LINE
  5
709
330
22
100
AcDbEntity
  8
Layer 1
100
AcDbLine
 10
7.640884350931092
 20
3.987505883285925
 30
0.0
 11
7.608689683183048
 21
3.959385796718301
 31
0.0
  0
LINE
  5
70A
330
22
100
AcDbEntity
  8
Layer 1
100
AcDbLine
 10
7.608689683183048
 20
3.959385796718301
 30
0.0
 11
7.58545106571878
 21
3.923276123485108
 31
0.0
  0
LINE
  5
70B
330
22
100
AcDbEntity
  8
Layer 1
100
AcDbLine
 10
7.58545106571878
 20
3.923276123485108
 30
0.0
 11
7.571364300699412
 21
3.879596062286893
 31
0.0
  0
LINE
  5
70C
330
22
100
AcDbEntity
  8
Layer 1
100
AcDbLine
 10
7.571364300699412
 20
3.879596062286893
 30
0.0
 11
7.566625190286062
 21
3.828764858994041
 31
0.0
  0
LINE
  5
70D
330
22
100
AcDbEntity
  8
Layer 1
100
AcDbLine
 10
7.566625190286062
 20
3.828764858994041
 30
0.0
 11
7.575174400377195
 21
3.770071663554027
 31
0.0
  0
LINE
  5
70E
330
22
100
AcDbEntity
  8
Layer 1
100
AcDbLine
 10
7.575174400377195
 20
3.770071663554027
 30
0.0
 11
7.612226763610392
 21
3.718276590986221
 31
0.0
  0
LINE
  5
70F
330
22
100
AcDbEntity
  8
Layer 1
100
AcDbLine
 10
7.612226763610392
 20
3.718276590986221
 30
0.0
 11
7.639826377750699
 21
3.690174145952738
 31
0.0
  0
LINE
  5
710
330
22
100
AcDbEntity
  8
Layer 1
100
AcDbLine
 10
7.639826377750699
 20
3.690174145952738
 30
0.0
 11
7.664107638185209
 21
3.675343700646152
 31
0.0
  0
LINE
  5
711
330
22
100
AcDbEntity
  8
Layer 1
100
AcDbLine
 10
7.664107638185209
 20
3.675343700646152
 30
0.0
 11
7.696746457498933
 21
3.669555909518258
 31
0.0
  0
LINE
  5
712
330
22
100
AcDbEntity
  8
Layer 1
100
AcDbLine
 10
7.696746457498933
 20
3.669555909518258
 30
0.0
 11
7.749418889786536
 21
3.668581427020881
 31
0.0
  0
LINE
  5
713
330
22
100
AcDbEntity
  8
Layer 1
100
AcDbLine
 10
7.749418889786536
 20
3.668581427020881
 30
0.0
 11
7.841008121881781
 21
3.668612323290587
 31
0.0
  0
LINE
  5
714
330
22
100
AcDbEntity
  8
Layer 1
100
AcDbLine
 10
7.841008121881781
 20
3.668612323290587
 30
0.0
 11
7.870302030848725
 21
3.602019494141238
 31
0.0
  0
LINE
  5
715
330
22
100
AcDbEntity
  8
Layer 1
100
AcDbLine
 10
7.870302030848725
 20
3.602019494141238
 30
0.0
 11
7.899514760456644
 21
3.526474859997065
 31
0.0
  0
LINE
  5
716
330
22
100
AcDbEntity
  8
Layer 1
100
AcDbLine
 10
7.899514760456644
 20
3.526474859997065
 30
0.0
 11
7.863036454631505
 21
3.50698822892162
 31
0.0
  0
LINE
  5
717
330
22
100
AcDbEntity
  8
Layer 1
100
AcDbLine
 10
7.863036454631505
 20
3.50698822892162
 30
0.0
 11
7.786279554637947
 21
3.486190935632491
 31
0.0
  0
LINE
  5
718
330
22
100
AcDbEntity
  8
Layer 1
100
AcDbLine
 10
7.786279554637947
 20
3.486190935632491
 30
0.0
 11
7.69017210866526
 21
3.490076931643031
 31
0.0
  0
LINE
  5
719
330
22
100
AcDbEntity
  8
Layer 1
100
AcDbLine
 10
7.69017210866526
 20
3.490076931643031
 30
0.0
 11
7.69017210866526
 21
3.490076931643031
 31
0.0
  0
LINE
  5
71A
330
22
100
AcDbEntity
  8
Layer 1
100
AcDbLine
 10
7.812904356091737
 20
3.575129928165551
 30
0.0
 11
7.810506286694172
 21
3.588863626652524
 31
0.0
  0
LINE
  5
71B
330
22
100
AcDbEntity
  8
Layer 1
100
AcDbLine
 10
7.810506286694172
 20
3.588863626652524
 30
0.0
 11
7.800879622263275
 21
3.597072647587778
 31
0.0
  0
LINE
  5
71C
330
22
100
AcDbEntity
  8
Layer 1
100
AcDbLine
 10
7.800879622263275
 20
3.597072647587778
 30
0.0
 11
7.745345299173548
 21
3.602920863328626
 31
0.0
  0
LINE
  5
71D
330
22
100
AcDbEntity
  8
Layer 1
100
AcDbLine
 10
7.745345299173548
 20
3.602920863328626
 30
0.0
 11
7.695279474311535
 21
3.608280116120261
 31
0.0
  0
LINE
  5
71E
330
22
100
AcDbEntity
  8
Layer 1
100
AcDbLine
 10
7.695279474311535
 20
3.608280116120261
 30
0.0
 11
7.649679929291932
 21
3.62175989915714
 31
0.0
  0
LINE
  5
71F
330
22
100
AcDbEntity
  8
Layer 1
100
AcDbLine
 10
7.649679929291932
 20
3.62175989915714
 30
0.0
 11
7.609218410338915
 21
3.642701107742232
 31
0.0
  0
LINE
  5
720
330
22
100
AcDbEntity
  8
Layer 1
100
AcDbLine
 10
7.609218410338915
 20
3.642701107742232
 30
0.0
 11
7.574566663676668
 21
3.670444731518266
 31
0.0
  0
LINE
  5
721
330
22
100
AcDbEntity
  8
Layer 1
100
AcDbLine
 10
7.574566663676668
 20
3.670444731518266
 30
0.0
 11
7.546396529869101
 21
3.704331760127978
 31
0.0
  0
LINE
  5
722
330
22
100
AcDbEntity
  8
Layer 1
100
AcDbLine
 10
7.546396529869101
 20
3.704331760127978
 30
0.0
 11
7.525379660800642
 21
3.743703136044203
 31
0.0
  0
LINE
  5
723
330
22
100
AcDbEntity
  8
Layer 1
100
AcDbLine
 10
7.525379660800642
 20
3.743703136044203
 30
0.0
 11
7.512187849865346
 21
3.787899896079558
 31
0.0
  0
LINE
  5
724
330
22
100
AcDbEntity
  8
Layer 1
100
AcDbLine
 10
7.512187849865346
 20
3.787899896079558
 30
0.0
 11
7.507492890457254
 21
3.836262935537007
 31
0.0
  0
LINE
  5
725
330
22
100
AcDbEntity
  8
Layer 1
100
AcDbLine
 10
7.507492890457254
 20
3.836262935537007
 30
0.0
 11
7.514476579487081
 21
3.906529732097943
 31
0.0
  0
LINE
  5
726
330
22
100
AcDbEntity
  8
Layer 1
100
AcDbLine
 10
7.514476579487081
 20
3.906529732097943
 30
0.0
 11
7.542670864271878
 21
3.96444603965704
 31
0.0
  0
LINE
  5
727
330
22
100
AcDbEntity
  8
Layer 1
100
AcDbLine
 10
7.542670864271878
 20
3.96444603965704
 30
0.0
 11
7.584141629921921
 21
4.010988935054938
 31
0.0
  0
LINE
  5
728
330
22
100
AcDbEntity
  8
Layer 1
100
AcDbLine
 10
7.584141629921921
 20
4.010988935054938
 30
0.0
 11
7.637028590811977
 21
4.046523701822265
 31
0.0
  0
LINE
  5
729
330
22
100
AcDbEntity
  8
Layer 1
100
AcDbLine
 10
7.637028590811977
 20
4.046523701822265
 30
0.0
 11
7.695341219681059
 21
4.067980194148177
 31
0.0
  0
LINE
  5
72A
330
22
100
AcDbEntity
  8
Layer 1
100
AcDbLine
 10
7.695341219681059
 20
4.067980194148177
 30
0.0
 11
7.753089130777807
 21
4.072288077542252
 31
0.0
  0
LINE
  5
72B
330
22
100
AcDbEntity
  8
Layer 1
100
AcDbLine
 10
7.753089130777807
 20
4.072288077542252
 30
0.0
 11
7.784660024067005
 21
4.071760906992337
 31
0.0
  0
LINE
  5
72C
330
22
100
AcDbEntity
  8
Layer 1
100
AcDbLine
 10
7.784660024067005
 20
4.071760906992337
 30
0.0
 11
7.805155713159981
 21
4.078083510190281
 31
0.0
  0
LINE
  5
72D
330
22
100
AcDbEntity
  8
Layer 1
100
AcDbLine
 10
7.805155713159981
 20
4.078083510190281
 30
0.0
 11
7.816235964533086
 21
4.092337492425058
 31
0.0
  0
LINE
  5
72E
330
22
100
AcDbEntity
  8
Layer 1
100
AcDbLine
 10
7.816235964533086
 20
4.092337492425058
 30
0.0
 11
7.819560544662707
 21
4.115604458985649
 31
0.0
  0
LINE
  5
72F
330
22
100
AcDbEntity
  8
Layer 1
100
AcDbLine
 10
7.819560544662707
 20
4.115604458985649
 30
0.0
 11
7.796325229089861
 21
4.125868577139846
 31
0.0
  0
LINE
  5
730
330
22
100
AcDbEntity
  8
Layer 1
100
AcDbLine
 10
7.796325229089861
 20
4.125868577139846
 30
0.0
 11
7.741200812234812
 21
4.127255182856139
 31
0.0
  0
LINE
  5
731
330
22
100
AcDbEntity
  8
Layer 1
100
AcDbLine
 10
7.741200812234812
 20
4.127255182856139
 30
0.0
 11
7.676059683232582
 21
4.120703617073252
 31
0.0
  0
LINE
  5
732
330
22
100
AcDbEntity
  8
Layer 1
100
AcDbLine
 10
7.676059683232582
 20
4.120703617073252
 30
0.0
 11
7.6227741840483
 21
4.107153220729898
 31
0.0
  0
LINE
  5
733
330
22
100
AcDbEntity
  8
Layer 1
100
AcDbLine
 10
7.6227741840483
 20
4.107153220729898
 30
0.0
 11
7.57047557303916
 21
4.078544265552807
 31
0.0
  0
LINE
  5
734
330
22
100
AcDbEntity
  8
Layer 1
100
AcDbLine
 10
7.57047557303916
 20
4.078544265552807
 30
0.0
 11
7.526582068145666
 21
4.04084062782222
 31
0.0
  0
LINE
  5
735
330
22
100
AcDbEntity
  8
Layer 1
100
AcDbLine
 10
7.526582068145666
 20
4.04084062782222
 30
0.0
 11
7.491713906085862
 21
3.995680800399823
 31
0.0
  0
LINE
  5
736
330
22
100
AcDbEntity
  8
Layer 1
100
AcDbLine
 10
7.491713906085862
 20
3.995680800399823
 30
0.0
 11
7.466491417917549
 21
3.944703228977381
 31
0.0
  0
LINE
  5
737
330
22
100
AcDbEntity
  8
Layer 1
100
AcDbLine
 10
7.466491417917549
 20
3.944703228977381
 30
0.0
 11
7.451534698849139
 21
3.889546264906933
 31
0.0
  0
LINE
  5
738
330
22
100
AcDbEntity
  8
Layer 1
100
AcDbLine
 10
7.451534698849139
 20
3.889546264906933
 30
0.0
 11
7.447464127108303
 21
3.831848353880232
 31
0.0
  0
LINE
  5
739
330
22
100
AcDbEntity
  8
Layer 1
100
AcDbLine
 10
7.447464127108303
 20
3.831848353880232
 30
0.0
 11
7.454899845073328
 21
3.773247941589083
 31
0.0
  0
LINE
  5
73A
330
22
100
AcDbEntity
  8
Layer 1
100
AcDbLine
 10
7.454899845073328
 20
3.773247941589083
 30
0.0
 11
7.474462183802023
 21
3.7153833793855
 31
0.0
  0
LINE
  5
73B
330
22
100
AcDbEntity
  8
Layer 1
100
AcDbLine
 10
7.474462183802023
 20
3.7153833793855
 30
0.0
 11
7.500512975017626
 21
3.664481751465685
 31
0.0
  0
LINE
  5
73C
330
22
100
AcDbEntity
  8
Layer 1
100
AcDbLine
 10
7.500512975017626
 20
3.664481751465685
 30
0.0
 11
7.528135089189455
 21
3.628120615616026
 31
0.0
  0
LINE
  5
73D
330
22
100
AcDbEntity
  8
Layer 1
100
AcDbLine
 10
7.528135089189455
 20
3.628120615616026
 30
0.0
 11
7.563609808702857
 21
3.599867321314596
 31
0.0
  0
LINE
  5
73E
330
22
100
AcDbEntity
  8
Layer 1
100
AcDbLine
 10
7.563609808702857
 20
3.599867321314596
 30
0.0
 11
7.613218557452783
 21
3.573289218039448
 31
0.0
  0
LINE
  5
73F
330
22
100
AcDbEntity
  8
Layer 1
100
AcDbLine
 10
7.613218557452783
 20
3.573289218039448
 30
0.0
 11
7.680783557775521
 21
3.550459752091811
 31
0.0
  0
LINE
  5
740
330
22
100
AcDbEntity
  8
Layer 1
100
AcDbLine
 10
7.680783557775521
 20
3.550459752091811
 30
0.0
 11
7.745385063380202
 21
3.543237808011205
 31
0.0
  0
LINE
  5
741
330
22
100
AcDbEntity
  8
Layer 1
100
AcDbLine
 10
7.745385063380202
 20
3.543237808011205
 30
0.0
 11
7.793824801058318
 21
3.551501781853643
 31
0.0
  0
LINE
  5
742
330
22
100
AcDbEntity
  8
Layer 1
100
AcDbLine
 10
7.793824801058318
 20
3.551501781853643
 30
0.0
 11
7.807859490533028
 21
3.561402927801181
 31
0.0
  0
LINE
  5
743
330
22
100
AcDbEntity
  8
Layer 1
100
AcDbLine
 10
7.807859490533028
 20
3.561402927801181
 30
0.0
 11
7.812904356091737
 21
3.575129928165551
 31
0.0
  0
LINE
  5
744
330
22
100
AcDbEntity
  8
Layer 1
100
AcDbLine
 10
7.812904356091737
 20
3.575129928165551
 30
0.0
 11
7.812904356091737
 21
3.575129928165551
 31
0.0
  0
LINE
  5
745
330
22
100
AcDbEntity
  8
Layer 1
100
AcDbLine
 10
7.953370024590142
 20
3.502145816476748
 30
0.0
 11
8.069876036878213
 21
3.854924093757808
 31
0.0
  0
LINE
  5
746
330
22
100
AcDbEntity
  8
Layer 1
100
AcDbLine
 10
8.069876036878213
 20
3.854924093757808
 30
0.0
 11
8.185651199085723
 21
4.187733805325939
 31
0.0
  0
LINE
  5
747
330
22
100
AcDbEntity
  8
Layer 1
100
AcDbLine
 10
8.185651199085723
 20
4.187733805325939
 30
0.0
 11
8.300273529489375
 21
4.191552961620188
 31
0.0
  0
LINE
  5
748
330
22
100
AcDbEntity
  8
Layer 1
100
AcDbLine
 10
8.300273529489375
 20
4.191552961620188
 30
0.0
 11
8.414895859893022
 21
4.195372306593944
 31
0.0
  0
LINE
  5
749
330
22
100
AcDbEntity
  8
Layer 1
100
AcDbLine
 10
8.414895859893022
 20
4.195372306593944
 30
0.0
 11
8.531576259217873
 21
3.858743297221933
 31
0.0
  0
LINE
  5
74A
330
22
100
AcDbEntity
  8
Layer 1
100
AcDbLine
 10
8.531576259217873
 20
3.858743297221933
 30
0.0
 11
8.649919396721374
 21
3.504343036536312
 31
0.0
  0
LINE
  5
74B
330
22
100
AcDbEntity
  8
Layer 1
100
AcDbLine
 10
8.649919396721374
 20
3.504343036536312
 30
0.0
 11
8.645661702076857
 21
3.495911751138698
 31
0.0
  0
LINE
  5
74C
330
22
100
AcDbEntity
  8
Layer 1
100
AcDbLine
 10
8.645661702076857
 20
3.495911751138698
 30
0.0
 11
8.629445594451523
 21
3.490367592427623
 31
0.0
  0
LINE
  5
74D
330
22
100
AcDbEntity
  8
Layer 1
100
AcDbLine
 10
8.629445594451523
 20
3.490367592427623
 30
0.0
 11
8.551741853508742
 21
3.486204756406578
 31
0.0
  0
LINE
  5
74E
330
22
100
AcDbEntity
  8
Layer 1
100
AcDbLine
 10
8.551741853508742
 20
3.486204756406578
 30
0.0
 11
8.451898977774208
 21
3.48583777476034
 31
0.0
  0
LINE
  5
74F
330
22
100
AcDbEntity
  8
Layer 1
100
AcDbLine
 10
8.451898977774208
 20
3.48583777476034
 30
0.0
 11
8.430187768110293
 21
3.543913186315932
 31
0.0
  0
LINE
  5
750
330
22
100
AcDbEntity
  8
Layer 1
100
AcDbLine
 10
8.430187768110293
 20
3.543913186315932
 30
0.0
 11
8.408476605616268
 21
3.601988739381162
 31
0.0
  0
LINE
  5
751
330
22
100
AcDbEntity
  8
Layer 1
100
AcDbLine
 10
8.408476605616268
 20
3.601988739381162
 30
0.0
 11
8.30167400314963
 21
3.60583454665614
 31
0.0
  0
LINE
  5
752
330
22
100
AcDbEntity
  8
Layer 1
100
AcDbLine
 10
8.30167400314963
 20
3.60583454665614
 30
0.0
 11
8.194870032756549
 21
3.609680212421493
 31
0.0
  0
LINE
  5
753
330
22
100
AcDbEntity
  8
Layer 1
100
AcDbLine
 10
8.194870032756549
 20
3.609680212421493
 30
0.0
 11
8.175901232595283
 21
3.552584990918446
 31
0.0
  0
LINE
  5
754
330
22
100
AcDbEntity
  8
Layer 1
100
AcDbLine
 10
8.175901232595283
 20
3.552584990918446
 30
0.0
 11
8.15693238526415
 21
3.495489627905776
 31
0.0
  0
LINE
  5
755
330
22
100
AcDbEntity
  8
Layer 1
100
AcDbLine
 10
8.15693238526415
 20
3.495489627905776
 30
0.0
 11
8.054783798752009
 21
3.488833439334796
 31
0.0
  0
LINE
  5
756
330
22
100
AcDbEntity
  8
Layer 1
100
AcDbLine
 10
8.054783798752009
 20
3.488833439334796
 30
0.0
 11
7.971941465704113
 21
3.487173106819895
 31
0.0
  0
LINE
  5
757
330
22
100
AcDbEntity
  8
Layer 1
100
AcDbLine
 10
7.971941465704113
 20
3.487173106819895
 30
0.0
 11
7.956993284383512
 21
3.492269057355834
 31
0.0
  0
LINE
  5
758
330
22
100
AcDbEntity
  8
Layer 1
100
AcDbLine
 10
7.956993284383512
 20
3.492269057355834
 30
0.0
 11
7.953370024590142
 21
3.502145816476748
 31
0.0
  0
LINE
  5
759
330
22
100
AcDbEntity
  8
Layer 1
100
AcDbLine
 10
7.953370024590142
 20
3.502145816476748
 30
0.0
 11
7.953370024590142
 21
3.502145816476748
 31
0.0
  0
LINE
  5
75A
330
22
100
AcDbEntity
  8
Layer 1
100
AcDbLine
 10
8.129073572647481
 20
3.598660621510738
 30
0.0
 11
8.147931900955851
 21
3.655238295118856
 31
0.0
  0
LINE
  5
75B
330
22
100
AcDbEntity
  8
Layer 1
100
AcDbLine
 10
8.147931900955851
 20
3.655238295118856
 30
0.0
 11
8.299915415780088
 21
3.655238295118856
 31
0.0
  0
LINE
  5
75C
330
22
100
AcDbEntity
  8
Layer 1
100
AcDbLine
 10
8.299915415780088
 20
3.655238295118856
 30
0.0
 11
8.451898977774208
 21
3.655238295118856
 31
0.0
  0
LINE
  5
75D
330
22
100
AcDbEntity
  8
Layer 1
100
AcDbLine
 10
8.451898977774208
 20
3.655238295118856
 30
0.0
 11
8.471456174986256
 21
3.598660621510738
 31
0.0
  0
LINE
  5
75E
330
22
100
AcDbEntity
  8
Layer 1
100
AcDbLine
 10
8.471456174986256
 20
3.598660621510738
 30
0.0
 11
8.495021255172071
 21
3.551068951058546
 31
0.0
  0
LINE
  5
75F
330
22
100
AcDbEntity
  8
Layer 1
100
AcDbLine
 10
8.495021255172071
 20
3.551068951058546
 30
0.0
 11
8.511058919151176
 21
3.54368464825989
 31
0.0
  0
LINE
  5
760
330
22
100
AcDbEntity
  8
Layer 1
100
AcDbLine
 10
8.511058919151176
 20
3.54368464825989
 30
0.0
 11
8.53580027456992
 21
3.542082995072489
 31
0.0
  0
LINE
  5
761
330
22
100
AcDbEntity
  8
Layer 1
100
AcDbLine
 10
8.53580027456992
 20
3.542082995072489
 30
0.0
 11
8.566125411396766
 21
3.545530782921892
 31
0.0
  0
LINE
  5
762
330
22
100
AcDbEntity
  8
Layer 1
100
AcDbLine
 10
8.566125411396766
 20
3.545530782921892
 30
0.0
 11
8.576147453740096
 21
3.553820134158391
 31
0.0
  0
LINE
  5
763
330
22
100
AcDbEntity
  8
Layer 1
100
AcDbLine
 10
8.576147453740096
 20
3.553820134158391
 30
0.0
 11
8.471867543487141
 21
3.853895318731531
 31
0.0
  0
LINE
  5
764
330
22
100
AcDbEntity
  8
Layer 1
100
AcDbLine
 10
8.471867543487141
 20
3.853895318731531
 30
0.0
 11
8.372024620582722
 21
4.142233505728404
 31
0.0
  0
LINE
  5
765
330
22
100
AcDbEntity
  8
Layer 1
100
AcDbLine
 10
8.372024620582722
 20
4.142233505728404
 30
0.0
 11
8.300260227583946
 21
4.138358830488441
 31
0.0
  0
LINE
  5
766
330
22
100
AcDbEntity
  8
Layer 1
100
AcDbLine
 10
8.300260227583946
 20
4.138358830488441
 30
0.0
 11
8.228497108171856
 21
4.134484249588246
 31
0.0
  0
LINE
  5
767
330
22
100
AcDbEntity
  8
Layer 1
100
AcDbLine
 10
8.228497108171856
 20
4.134484249588246
 30
0.0
 11
8.125957106016985
 21
3.838283598745426
 31
0.0
  0
LINE
  5
768
330
22
100
AcDbEntity
  8
Layer 1
100
AcDbLine
 10
8.125957106016985
 20
3.838283598745426
 30
0.0
 11
8.023418471788557
 21
3.542082995072489
 31
0.0
  0
LINE
  5
769
330
22
100
AcDbEntity
  8
Layer 1
100
AcDbLine
 10
8.023418471788557
 20
3.542082995072489
 30
0.0
 11
8.066815513722326
 21
3.542082995072489
 31
0.0
  0
LINE
  5
76A
330
22
100
AcDbEntity
  8
Layer 1
100
AcDbLine
 10
8.066815513722326
 20
3.542082995072489
 30
0.0
 11
8.090693801894135
 21
3.543732384175832
 31
0.0
  0
LINE
  5
76B
330
22
100
AcDbEntity
  8
Layer 1
100
AcDbLine
 10
8.090693801894135
 20
3.543732384175832
 30
0.0
 11
8.106261465214737
 21
3.551196168217912
 31
0.0
  0
LINE
  5
76C
330
22
100
AcDbEntity
  8
Layer 1
100
AcDbLine
 10
8.106261465214737
 20
3.551196168217912
 30
0.0
 11
8.129073572647481
 21
3.598660621510738
 31
0.0
  0
LINE
  5
76D
330
22
100
AcDbEntity
  8
Layer 1
100
AcDbLine
 10
8.129073572647481
 20
3.598660621510738
 30
0.0
 11
8.129073572647481
 21
3.598660621510738
 31
0.0
  0
LINE
  5
76E
330
22
100
AcDbEntity
  8
Layer 1
100
AcDbLine
 10
8.175427269667087
 20
3.723148390264718
 30
0.0
 11
8.187115729439502
 21
3.778264505221343
 31
0.0
  0
LINE
  5
76F
330
22
100
AcDbEntity
  8
Layer 1
100
AcDbLine
 10
8.187115729439502
 20
3.778264505221343
 30
0.0
 11
8.226457671352227
 21
3.89953750532031
 31
0.0
  0
LINE
  5
770
330
22
100
AcDbEntity
  8
Layer 1
100
AcDbLine
 10
8.226457671352227
 20
3.89953750532031
 30
0.0
 11
8.285492801233571
 21
4.071250387409143
 31
0.0
  0
LINE
  5
771
330
22
100
AcDbEntity
  8
Layer 1
100
AcDbLine
 10
8.285492801233571
 20
4.071250387409143
 30
0.0
 11
8.302516645839652
 21
4.074578505279568
 31
0.0
  0
LINE
  5
772
330
22
100
AcDbEntity
  8
Layer 1
100
AcDbLine
 10
8.302516645839652
 20
4.074578505279568
 30
0.0
 11
8.328554795528111
 21
4.025137115254685
 31
0.0
  0
LINE
  5
773
330
22
100
AcDbEntity
  8
Layer 1
100
AcDbLine
 10
8.328554795528111
 20
4.025137115254685
 30
0.0
 11
8.372394385251729
 21
3.913569364602373
 31
0.0
  0
LINE
  5
774
330
22
100
AcDbEntity
  8
Layer 1
100
AcDbLine
 10
8.372394385251729
 20
3.913569364602373
 30
0.0
 11
8.413648546824715
 21
3.795009623021818
 31
0.0
  0
LINE
  5
775
330
22
100
AcDbEntity
  8
Layer 1
100
AcDbLine
 10
8.413648546824715
 20
3.795009623021818
 30
0.0
 11
8.431930364891398
 21
3.724592496061575
 31
0.0
  0
LINE
  5
776
330
22
100
AcDbEntity
  8
Layer 1
100
AcDbLine
 10
8.431930364891398
 20
3.724592496061575
 30
0.0
 11
8.39344974494015
 21
3.717947722600924
 31
0.0
  0
LINE
  5
777
330
22
100
AcDbEntity
  8
Layer 1
100
AcDbLine
 10
8.39344974494015
 20
3.717947722600924
 30
0.0
 11
8.307940144004314
 21
3.715323615150821
 31
0.0
  0
LINE
  5
778
330
22
100
AcDbEntity
  8
Layer 1
100
AcDbLine
 10
8.307940144004314
 20
3.715323615150821
 30
0.0
 11
8.220299832536072
 21
3.71697290991441
 31
0.0
  0
LINE
  5
779
330
22
100
AcDbEntity
  8
Layer 1
100
AcDbLine
 10
8.220299832536072
 20
3.71697290991441
 30
0.0
 11
8.175427269667087
 21
3.723148390264718
 31
0.0
  0
LINE
  5
77A
330
22
100
AcDbEntity
  8
Layer 1
100
AcDbLine
 10
8.175427269667087
 20
3.723148390264718
 30
0.0
 11
8.175427269667087
 21
3.723148390264718
 31
0.0
  0
LINE
  5
77B
330
22
100
AcDbEntity
  8
Layer 1
100
AcDbLine
 10
8.344394770550996
 20
3.811658844461511
 30
0.0
 11
8.318303837769715
 21
3.888205083782573
 31
0.0
  0
LINE
  5
77C
330
22
100
AcDbEntity
  8
Layer 1
100
AcDbLine
 10
8.318303837769715
 20
3.888205083782573
 30
0.0
 11
8.307572030281024
 21
3.915432716269633
 31
0.0
  0
LINE
  5
77D
330
22
100
AcDbEntity
  8
Layer 1
100
AcDbLine
 10
8.307572030281024
 20
3.915432716269633
 30
0.0
 11
8.298661215909675
 21
3.919384891618178
 31
0.0
  0
LINE
  5
77E
330
22
100
AcDbEntity
  8
Layer 1
100
AcDbLine
 10
8.298661215909675
 20
3.919384891618178
 30
0.0
 11
8.266337585716794
 21
3.838283598745426
 31
0.0
  0
LINE
  5
77F
330
22
100
AcDbEntity
  8
Layer 1
100
AcDbLine
 10
8.266337585716794
 20
3.838283598745426
 30
0.0
 11
8.246737746935563
 21
3.781705972307178
 31
0.0
  0
LINE
  5
780
330
22
100
AcDbEntity
  8
Layer 1
100
AcDbLine
 10
8.246737746935563
 20
3.781705972307178
 30
0.0
 11
8.300293482347521
 21
3.781705972307178
 31
0.0
  0
LINE
  5
781
330
22
100
AcDbEntity
  8
Layer 1
100
AcDbLine
 10
8.300293482347521
 20
3.781705972307178
 30
0.0
 11
8.344168779668331
 21
3.786307818377267
 31
0.0
  0
LINE
  5
782
330
22
100
AcDbEntity
  8
Layer 1
100
AcDbLine
 10
8.344168779668331
 20
3.786307818377267
 30
0.0
 11
8.348144304106186
 21
3.795307312118139
 31
0.0
  0
LINE
  5
783
330
22
100
AcDbEntity
  8
Layer 1
100
AcDbLine
 10
8.348144304106186
 20
3.795307312118139
 30
0.0
 11
8.344394770550996
 21
3.811658844461511
 31
0.0
  0
LINE
  5
784
330
22
100
AcDbEntity
  8
Layer 1
100
AcDbLine
 10
8.344394770550996
 20
3.811658844461511
 30
0.0
 11
8.344394770550996
 21
3.811658844461511
 31
0.0
  0
LINE
  5
785
330
22
100
AcDbEntity
  8
Layer 1
100
AcDbLine
 10
9.546842823172822
 20
3.486169614847908
 30
0.0
 11
9.470296631021648
 21
3.490162167611508
 31
0.0
  0
LINE
  5
786
330
22
100
AcDbEntity
  8
Layer 1
100
AcDbLine
 10
9.470296631021648
 20
3.490162167611508
 30
0.0
 11
9.470296631021648
 21
3.842276009999395
 31
0.0
  0
LINE
  5
787
330
22
100
AcDbEntity
  8
Layer 1
100
AcDbLine
 10
9.470296631021648
 20
3.842276009999395
 30
0.0
 11
9.470296631021648
 21
4.194389993896912
 31
0.0
  0
LINE
  5
788
330
22
100
AcDbEntity
  8
Layer 1
100
AcDbLine
 10
9.470296631021648
 20
4.194389993896912
 30
0.0
 11
9.556827129614227
 21
4.194389993896912
 31
0.0
  0
LINE
  5
789
330
22
100
AcDbEntity
  8
Layer 1
100
AcDbLine
 10
9.556827129614227
 20
4.194389993896912
 30
0.0
 11
9.643357628206805
 21
4.194389993896912
 31
0.0
  0
LINE
  5
78A
330
22
100
AcDbEntity
  8
Layer 1
100
AcDbLine
 10
9.643357628206805
 20
4.194389993896912
 30
0.0
 11
9.643357628206805
 21
3.842397425263839
 31
0.0
  0
LINE
  5
78B
330
22
100
AcDbEntity
  8
Layer 1
100
AcDbLine
 10
9.643357628206805
 20
3.842397425263839
 30
0.0
 11
9.640424746739187
 21
3.592594197916993
 31
0.0
  0
LINE
  5
78C
330
22
100
AcDbEntity
  8
Layer 1
100
AcDbLine
 10
9.640424746739187
 20
3.592594197916993
 30
0.0
 11
9.633373368935286
 21
3.486291030112353
 31
0.0
  0
LINE
  5
78D
330
22
100
AcDbEntity
  8
Layer 1
100
AcDbLine
 10
9.633373368935286
 20
3.486291030112353
 30
0.0
 11
9.546842823172822
 21
3.486169614847908
 31
0.0
  0
LINE
  5
78E
330
22
100
AcDbEntity
  8
Layer 1
100
AcDbLine
 10
9.546842823172822
 20
3.486169614847908
 30
0.0
 11
9.546842823172822
 21
3.486169614847908
 31
0.0
  0
LINE
  5
78F
330
22
100
AcDbEntity
  8
Layer 1
100
AcDbLine
 10
9.590108119638992
 20
3.833402884360103
 30
0.0
 11
9.586407076717776
 21
4.083991395826046
 31
0.0
  0
LINE
  5
790
330
22
100
AcDbEntity
  8
Layer 1
100
AcDbLine
 10
9.586407076717776
 20
4.083991395826046
 30
0.0
 11
9.578673009278139
 21
4.121179608306184
 31
0.0
  0
LINE
  5
791
330
22
100
AcDbEntity
  8
Layer 1
100
AcDbLine
 10
9.578673009278139
 20
4.121179608306184
 30
0.0
 11
9.564254121151936
 21
4.131483773686291
 31
0.0
  0
LINE
  5
792
330
22
100
AcDbEntity
  8
Layer 1
100
AcDbLine
 10
9.564254121151936
 20
4.131483773686291
 30
0.0
 11
9.530973131127174
 21
4.130817593507656
 31
0.0
  0
LINE
  5
793
330
22
100
AcDbEntity
  8
Layer 1
100
AcDbLine
 10
9.530973131127174
 20
4.130817593507656
 30
0.0
 11
9.523546139589463
 21
3.832736751351339
 31
0.0
  0
LINE
  5
794
330
22
100
AcDbEntity
  8
Layer 1
100
AcDbLine
 10
9.523546139589463
 20
3.832736751351339
 30
0.0
 11
9.523546139589463
 21
3.542082995072489
 31
0.0
  0
LINE
  5
795
330
22
100
AcDbEntity
  8
Layer 1
100
AcDbLine
 10
9.523546139589463
 20
3.542082995072489
 30
0.0
 11
9.556827129614227
 21
3.542082995072489
 31
0.0
  0
LINE
  5
796
330
22
100
AcDbEntity
  8
Layer 1
100
AcDbLine
 10
9.556827129614227
 20
3.542082995072489
 30
0.0
 11
9.590108119638992
 21
3.542082995072489
 31
0.0
  0
LINE
  5
797
330
22
100
AcDbEntity
  8
Layer 1
100
AcDbLine
 10
9.590108119638992
 20
3.542082995072489
 30
0.0
 11
9.590108119638992
 21
3.833402884360103
 31
0.0
  0
LINE
  5
798
330
22
100
AcDbEntity
  8
Layer 1
100
AcDbLine
 10
9.590108119638992
 20
3.833402884360103
 30
0.0
 11
9.590108119638992
 21
3.833402884360103
 31
0.0
  0
LINE
  5
799
330
22
100
AcDbEntity
  8
Layer 1
100
AcDbLine
 10
10.2501589028978
 20
3.485484849737573
 30
0.0
 11
10.36779383186189
 21
3.84155313162811
 31
0.0
  0
LINE
  5
79A
330
22
100
AcDbEntity
  8
Layer 1
100
AcDbLine
 10
10.36779383186189
 20
3.84155313162811
 30
0.0
 11
10.48869428426909
 21
4.194313814544897
 31
0.0
  0
LINE
  5
79B
330
22
100
AcDbEntity
  8
Layer 1
100
AcDbLine
 10
10.48869428426909
 20
4.194313814544897
 30
0.0
 11
10.60340043554489
 21
4.194351927805846
 31
0.0
  0
LINE
  5
79C
330
22
100
AcDbEntity
  8
Layer 1
100
AcDbLine
 10
10.60340043554489
 20
4.194351927805846
 30
0.0
 11
10.71810663399057
 21
4.194389993896912
 31
0.0
  0
LINE
  5
79D
330
22
100
AcDbEntity
  8
Layer 1
100
AcDbLine
 10
10.71810663399057
 20
4.194389993896912
 30
0.0
 11
10.8380951983277
 21
3.844939787316404
 31
0.0
  0
LINE
  5
79E
330
22
100
AcDbEntity
  8
Layer 1
100
AcDbLine
 10
10.8380951983277
 20
3.844939787316404
 30
0.0
 11
10.95433894609739
 21
3.488833439334796
 31
0.0
  0
LINE
  5
79F
330
22
100
AcDbEntity
  8
Layer 1
100
AcDbLine
 10
10.95433894609739
 20
3.488833439334796
 30
0.0
 11
10.85020813982692
 21
3.486530275730571
 31
0.0
  0
LINE
  5
7A0
330
22
100
AcDbEntity
  8
Layer 1
100
AcDbLine
 10
10.85020813982692
 20
3.486530275730571
 30
0.0
 11
10.74982073502758
 21
3.490883159187696
 31
0.0
  0
LINE
  5
7A1
330
22
100
AcDbEntity
  8
Layer 1
100
AcDbLine
 10
10.74982073502758
 20
3.490883159187696
 30
0.0
 11
10.73134047328664
 21
3.546436020039243
 31
0.0
  0
LINE
  5
7A2
330
22
100
AcDbEntity
  8
Layer 1
100
AcDbLine
 10
10.73134047328664
 20
3.546436020039243
 30
0.0
 11
10.71286157947214
 21
3.601988739381162
 31
0.0
  0
LINE
  5
7A3
330
22
100
AcDbEntity
  8
Layer 1
100
AcDbLine
 10
10.71286157947214
 20
3.601988739381162
 30
0.0
 11
10.60538798549937
 21
3.60583454665614
 31
0.0
  0
LINE
  5
7A4
330
22
100
AcDbEntity
  8
Layer 1
100
AcDbLine
 10
10.60538798549937
 20
3.60583454665614
 30
0.0
 11
10.49791307077003
 21
3.609680212421493
 31
0.0
  0
LINE
  5
7A5
330
22
100
AcDbEntity
  8
Layer 1
100
AcDbLine
 10
10.49791307077003
 20
3.609680212421493
 30
0.0
 11
10.47894427060877
 21
3.552584990918446
 31
0.0
  0
LINE
  5
7A6
330
22
100
AcDbEntity
  8
Layer 1
100
AcDbLine
 10
10.47894427060877
 20
3.552584990918446
 30
0.0
 11
10.45997547044751
 21
3.495489627905776
 31
0.0
  0
LINE
  5
7A7
330
22
100
AcDbEntity
  8
Layer 1
100
AcDbLine
 10
10.45997547044751
 20
3.495489627905776
 30
0.0
 11
10.35670060877249
 21
3.488833439334796
 31
0.0
  0
LINE
  5
7A8
330
22
100
AcDbEntity
  8
Layer 1
100
AcDbLine
 10
10.35670060877249
 20
3.488833439334796
 30
0.0
 11
10.2501589028978
 21
3.485484849737573
 31
0.0
  0
LINE
  5
7A9
330
22
100
AcDbEntity
  8
Layer 1
100
AcDbLine
 10
10.2501589028978
 20
3.485484849737573
 30
0.0
 11
10.2501589028978
 21
3.485484849737573
 31
0.0
  0
LINE
  5
7AA
330
22
100
AcDbEntity
  8
Layer 1
100
AcDbLine
 10
10.43211661066096
 20
3.598660621510738
 30
0.0
 11
10.45097493896933
 21
3.655238295118856
 31
0.0
  0
LINE
  5
7AB
330
22
100
AcDbEntity
  8
Layer 1
100
AcDbLine
 10
10.45097493896933
 20
3.655238295118856
 30
0.0
 11
10.60295850096345
 21
3.655238295118856
 31
0.0
  0
LINE
  5
7AC
330
22
100
AcDbEntity
  8
Layer 1
100
AcDbLine
 10
10.60295850096345
 20
3.655238295118856
 30
0.0
 11
10.75494201578769
 21
3.655238295118856
 31
0.0
  0
LINE
  5
7AD
330
22
100
AcDbEntity
  8
Layer 1
100
AcDbLine
 10
10.75494201578769
 20
3.655238295118856
 30
0.0
 11
10.77449926016962
 21
3.598660621510738
 31
0.0
  0
LINE
  5
7AE
330
22
100
AcDbEntity
  8
Layer 1
100
AcDbLine
 10
10.77449926016962
 20
3.598660621510738
 30
0.0
 11
10.79788778350429
 21
3.551291498540158
 31
0.0
  0
LINE
  5
7AF
330
22
100
AcDbEntity
  8
Layer 1
100
AcDbLine
 10
10.79788778350429
 20
3.551291498540158
 30
0.0
 11
10.81348403177061
 21
3.543768138942901
 31
0.0
  0
LINE
  5
7B0
330
22
100
AcDbEntity
  8
Layer 1
100
AcDbLine
 10
10.81348403177061
 20
3.543768138942901
 30
0.0
 11
10.83714731964118
 21
3.542082995072489
 31
0.0
  0
LINE
  5
7B1
330
22
100
AcDbEntity
  8
Layer 1
100
AcDbLine
 10
10.83714731964118
 20
3.542082995072489
 30
0.0
 11
10.88023822907057
 21
3.542082995072489
 31
0.0
  0
LINE
  5
7B2
330
22
100
AcDbEntity
  8
Layer 1
100
AcDbLine
 10
10.88023822907057
 20
3.542082995072489
 30
0.0
 11
10.77765294383339
 21
3.842028792671904
 31
0.0
  0
LINE
  5
7B3
330
22
100
AcDbEntity
  8
Layer 1
100
AcDbLine
 10
10.77765294383339
 20
3.842028792671904
 30
0.0
 11
10.67506770576608
 21
4.141974448761678
 31
0.0
  0
LINE
  5
7B4
330
22
100
AcDbEntity
  8
Layer 1
100
AcDbLine
 10
10.67506770576608
 20
4.141974448761678
 30
0.0
 11
10.60266958546433
 21
4.138229396344839
 31
0.0
  0
LINE
  5
7B5
330
22
100
AcDbEntity
  8
Layer 1
100
AcDbLine
 10
10.60266958546433
 20
4.138229396344839
 30
0.0
 11
10.53027151233244
 21
4.134484249588246
 31
0.0
  0
LINE
  5
7B6
330
22
100
AcDbEntity
  8
Layer 1
100
AcDbLine
 10
10.53027151233244
 20
4.134484249588246
 30
0.0
 11
10.50716388561773
 21
4.067922316708588
 31
0.0
  0
LINE
  5
7B7
330
22
100
AcDbEntity
  8
Layer 1
100
AcDbLine
 10
10.50716388561773
 20
4.067922316708588
 30
0.0
 11
10.40386374088843
 21
3.771721665865776
 31
0.0
  0
LINE
  5
7B8
330
22
100
AcDbEntity
  8
Layer 1
100
AcDbLine
 10
10.40386374088843
 20
3.771721665865776
 30
0.0
 11
10.32367259080027
 21
3.542082995072489
 31
0.0
  0
LINE
  5
7B9
330
22
100
AcDbEntity
  8
Layer 1
100
AcDbLine
 10
10.32367259080027
 20
3.542082995072489
 30
0.0
 11
10.36846477619815
 21
3.542082995072489
 31
0.0
  0
LINE
  5
7BA
330
22
100
AcDbEntity
  8
Layer 1
100
AcDbLine
 10
10.36846477619815
 20
3.542082995072489
 30
0.0
 11
10.39323009391462
 21
3.543664884081258
 31
0.0
  0
LINE
  5
7BB
330
22
100
AcDbEntity
  8
Layer 1
100
AcDbLine
 10
10.39323009391462
 20
3.543664884081258
 30
0.0
 11
10.40916223887796
 21
3.551016120795842
 31
0.0
  0
LINE
  5
7BC
330
22
100
AcDbEntity
  8
Layer 1
100
AcDbLine
 10
10.40916223887796
 20
3.551016120795842
 30
0.0
 11
10.43211661066096
 21
3.598660621510738
 31
0.0
  0
LINE
  5
7BD
330
22
100
AcDbEntity
  8
Layer 1
100
AcDbLine
 10
10.43211661066096
 20
3.598660621510738
 30
0.0
 11
10.43211661066096
 21
3.598660621510738
 31
0.0
  0
LINE
  5
7BE
330
22
100
AcDbEntity
  8
Layer 1
100
AcDbLine
 10
10.47732016455972
 20
3.724299240933723
 30
0.0
 11
10.48916805851778
 21
3.783158002643446
 31
0.0
  0
LINE
  5
7BF
330
22
100
AcDbEntity
  8
Layer 1
100
AcDbLine
 10
10.48916805851778
 20
3.783158002643446
 30
0.0
 11
10.52842726446553
 21
3.900704252238006
 31
0.0
  0
LINE
  5
7C0
330
22
100
AcDbEntity
  8
Layer 1
100
AcDbLine
 10
10.52842726446553
 20
3.900704252238006
 30
0.0
 11
10.57310812895273
 21
4.015953753331678
 31
0.0
  0
LINE
  5
7C1
330
22
100
AcDbEntity
  8
Layer 1
100
AcDbLine
 10
10.57310812895273
 20
4.015953753331678
 30
0.0
 11
10.6012212343785
 21
4.067922316708588
 31
0.0
  0
LINE
  5
7C2
330
22
100
AcDbEntity
  8
Layer 1
100
AcDbLine
 10
10.6012212343785
 20
4.067922316708588
 30
0.0
 11
10.63052599241724
 21
4.016959839646921
 31
0.0
  0
LINE
  5
7C3
330
22
100
AcDbEntity
  8
Layer 1
100
AcDbLine
 10
10.63052599241724
 20
4.016959839646921
 30
0.0
 11
10.67617044316014
 21
3.90384373776868
 31
0.0
  0
LINE
  5
7C4
330
22
100
AcDbEntity
  8
Layer 1
100
AcDbLine
 10
10.67617044316014
 20
3.90384373776868
 30
0.0
 11
10.71588997994151
 21
3.788230934279205
 31
0.0
  0
LINE
  5
7C5
330
22
100
AcDbEntity
  8
Layer 1
100
AcDbLine
 10
10.71588997994151
 20
3.788230934279205
 30
0.0
 11
10.72741999609571
 21
3.729778493893491
 31
0.0
  0
LINE
  5
7C6
330
22
100
AcDbEntity
  8
Layer 1
100
AcDbLine
 10
10.72741999609571
 20
3.729778493893491
 30
0.0
 11
10.60222180181809
 21
3.720270084345258
 31
0.0
  0
LINE
  5
7C7
330
22
100
AcDbEntity
  8
Layer 1
100
AcDbLine
 10
10.60222180181809
 20
3.720270084345258
 30
0.0
 11
10.47732016455972
 21
3.724299240933723
 31
0.0
  0
LINE
  5
7C8
330
22
100
AcDbEntity
  8
Layer 1
100
AcDbLine
 10
10.47732016455972
 20
3.724299240933723
 30
0.0
 11
10.47732016455972
 21
3.724299240933723
 31
0.0
  0
LINE
  5
7C9
330
22
100
AcDbEntity
  8
Layer 1
100
AcDbLine
 10
10.64743780856448
 20
3.811658844461511
 30
0.0
 11
10.61198275888996
 21
3.911138464970129
 31
0.0
  0
LINE
  5
7CA
330
22
100
AcDbEntity
  8
Layer 1
100
AcDbLine
 10
10.61198275888996
 20
3.911138464970129
 30
0.0
 11
10.60240722660618
 21
3.919987298122562
 31
0.0
  0
LINE
  5
7CB
330
22
100
AcDbEntity
  8
Layer 1
100
AcDbLine
 10
10.60240722660618
 20
3.919987298122562
 30
0.0
 11
10.5946582063154
 21
3.908173649495502
 31
0.0
  0
LINE
  5
7CC
330
22
100
AcDbEntity
  8
Layer 1
100
AcDbLine
 10
10.5946582063154
 20
3.908173649495502
 30
0.0
 11
10.5666023651208
 21
3.836657888920541
 31
0.0
  0
LINE
  5
7CD
330
22
100
AcDbEntity
  8
Layer 1
100
AcDbLine
 10
10.5666023651208
 20
3.836657888920541
 30
0.0
 11
10.54860002857776
 21
3.786736451053271
 31
0.0
  0
LINE
  5
7CE
330
22
100
AcDbEntity
  8
Layer 1
100
AcDbLine
 10
10.54860002857776
 20
3.786736451053271
 30
0.0
 11
10.60274548179707
 21
3.781705972307178
 31
0.0
  0
LINE
  5
7CF
330
22
100
AcDbEntity
  8
Layer 1
100
AcDbLine
 10
10.60274548179707
 20
3.781705972307178
 30
0.0
 11
10.6471504496713
 21
3.78629395043331
 31
0.0
  0
LINE
  5
7D0
330
22
100
AcDbEntity
  8
Layer 1
100
AcDbLine
 10
10.6471504496713
 20
3.78629395043331
 30
0.0
 11
10.65118621004262
 21
3.795291698888718
 31
0.0
  0
LINE
  5
7D1
330
22
100
AcDbEntity
  8
Layer 1
100
AcDbLine
 10
10.65118621004262
 20
3.795291698888718
 30
0.0
 11
10.64743780856448
 21
3.811658844461511
 31
0.0
  0
LINE
  5
7D2
330
22
100
AcDbEntity
  8
Layer 1
100
AcDbLine
 10
10.64743780856448
 20
3.811658844461511
 30
0.0
 11
10.64743780856448
 21
3.811658844461511
 31
0.0
  0
LINE
  5
7D3
330
22
100
AcDbEntity
  8
Layer 1
100
AcDbLine
 10
7.03854803532595
 20
3.514611399979465
 30
0.0
 11
6.990650279539257
 21
3.541087899338676
 31
0.0
  0
LINE
  5
7D4
330
22
100
AcDbEntity
  8
Layer 1
100
AcDbLine
 10
6.990650279539257
 20
3.541087899338676
 30
0.0
 11
6.948477626113377
 21
3.574076105934373
 31
0.0
  0
LINE
  5
7D5
330
22
100
AcDbEntity
  8
Layer 1
100
AcDbLine
 10
6.948477626113377
 20
3.574076105934373
 30
0.0
 11
6.912426207678786
 21
3.612875641426774
 31
0.0
  0
LINE
  5
7D6
330
22
100
AcDbEntity
  8
Layer 1
100
AcDbLine
 10
6.912426207678786
 20
3.612875641426774
 30
0.0
 11
6.882891968186449
 21
3.656786221815891
 31
0.0
  0
LINE
  5
7D7
330
22
100
AcDbEntity
  8
Layer 1
100
AcDbLine
 10
6.882891968186449
 20
3.656786221815891
 30
0.0
 11
6.860270993096968
 21
3.705107468761958
 31
0.0
  0
LINE
  5
7D8
330
22
100
AcDbEntity
  8
Layer 1
100
AcDbLine
 10
6.860270993096968
 20
3.705107468761958
 30
0.0
 11
6.844959273531178
 21
3.757139051095086
 31
0.0
  0
LINE
  5
7D9
330
22
100
AcDbEntity
  8
Layer 1
100
AcDbLine
 10
6.844959273531178
 20
3.757139051095086
 30
0.0
 11
6.837352894949686
 21
3.812180590475533
 31
0.0
  0
LINE
  5
7DA
330
22
100
AcDbEntity
  8
Layer 1
100
AcDbLine
 10
6.837352894949686
 20
3.812180590475533
 30
0.0
 11
6.837847848473331
 21
3.869531802903273
 31
0.0
  0
LINE
  5
7DB
330
22
100
AcDbEntity
  8
Layer 1
100
AcDbLine
 10
6.837847848473331
 20
3.869531802903273
 30
0.0
 11
6.849255600305289
 21
3.936674066784681
 31
0.0
  0
LINE
  5
7DC
330
22
100
AcDbEntity
  8
Layer 1
100
AcDbLine
 10
6.849255600305289
 20
3.936674066784681
 30
0.0
 11
6.871611622193372
 21
3.997822171324536
 31
0.0
  0
LINE
  5
7DD
330
22
100
AcDbEntity
  8
Layer 1
100
AcDbLine
 10
6.871611622193372
 20
3.997822171324536
 30
0.0
 11
6.903932044834592
 21
4.052062671846833
 31
0.0
  0
LINE
  5
7DE
330
22
100
AcDbEntity
  8
Layer 1
100
AcDbLine
 10
6.903932044834592
 20
4.052062671846833
 30
0.0
 11
6.945233046095844
 21
4.098482312355051
 31
0.0
  0
LINE
  5
7DF
330
22
100
AcDbEntity
  8
Layer 1
100
AcDbLine
 10
6.945233046095844
 20
4.098482312355051
 30
0.0
 11
6.994530756674135
 21
4.136167695343067
 31
0.0
  0
LINE
  5
7E0
330
22
100
AcDbEntity
  8
Layer 1
100
AcDbLine
 10
6.994530756674135
 20
4.136167695343067
 30
0.0
 11
7.050841401606253
 21
4.164205517644504
 31
0.0
  0
LINE
  5
7E1
330
22
100
AcDbEntity
  8
Layer 1
100
AcDbLine
 10
7.050841401606253
 20
4.164205517644504
 30
0.0
 11
7.113181064419324
 21
4.181682476092973
 31
0.0
  0
LINE
  5
7E2
330
22
100
AcDbEntity
  8
Layer 1
100
AcDbLine
 10
7.113181064419324
 20
4.181682476092973
 30
0.0
 11
7.180565922980242
 21
4.187685220352206
 31
0.0
  0
LINE
  5
7E3
330
22
100
AcDbEntity
  8
Layer 1
100
AcDbLine
 10
7.180565922980242
 20
4.187685220352206
 30
0.0
 11
7.254022535331044
 21
4.182453750758468
 31
0.0
  0
LINE
  5
7E4
330
22
100
AcDbEntity
  8
Layer 1
100
AcDbLine
 10
7.254022535331044
 20
4.182453750758468
 30
0.0
 11
7.309121008753516
 21
4.169943638891481
 31
0.0
  0
LINE
  5
7E5
330
22
100
AcDbEntity
  8
Layer 1
100
AcDbLine
 10
7.309121008753516
 20
4.169943638891481
 30
0.0
 11
7.351145548764336
 21
4.152250406555096
 31
0.0
  0
LINE
  5
7E6
330
22
100
AcDbEntity
  8
Layer 1
100
AcDbLine
 10
7.351145548764336
 20
4.152250406555096
 30
0.0
 11
7.317129746389302
 21
4.076805395192018
 31
0.0
  0
LINE
  5
7E7
330
22
100
AcDbEntity
  8
Layer 1
100
AcDbLine
 10
7.317129746389302
 20
4.076805395192018
 30
0.0
 11
7.281011912767324
 21
3.998393021180937
 31
0.0
  0
LINE
  5
7E8
330
22
100
AcDbEntity
  8
Layer 1
100
AcDbLine
 10
7.281011912767324
 20
3.998393021180937
 30
0.0
 11
7.229066981498986
 21
4.009188319324613
 31
0.0
  0
LINE
  5
7E9
330
22
100
AcDbEntity
  8
Layer 1
100
AcDbLine
 10
7.229066981498986
 20
4.009188319324613
 30
0.0
 11
7.161478962276069
 21
4.014819459289633
 31
0.0
  0
LINE
  5
7EA
330
22
100
AcDbEntity
  8
Layer 1
100
AcDbLine
 10
7.161478962276069
 20
4.014819459289633
 30
0.0
 11
7.103429777172314
 21
3.995985800827149
 31
0.0
  0
LINE
  5
7EB
330
22
100
AcDbEntity
  8
Layer 1
100
AcDbLine
 10
7.103429777172314
 20
3.995985800827149
 30
0.0
 11
7.057346222040622
 21
3.958363578304981
 31
0.0
  0
LINE
  5
7EC
330
22
100
AcDbEntity
  8
Layer 1
100
AcDbLine
 10
7.057346222040622
 20
3.958363578304981
 30
0.0
 11
7.025655187073668
 21
3.907628931751189
 31
0.0
  0
LINE
  5
7ED
330
22
100
AcDbEntity
  8
Layer 1
100
AcDbLine
 10
7.025655187073668
 20
3.907628931751189
 30
0.0
 11
7.010783468124346
 21
3.849458048363722
 31
0.0
  0
LINE
  5
7EE
330
22
100
AcDbEntity
  8
Layer 1
100
AcDbLine
 10
7.010783468124346
 20
3.849458048363722
 30
0.0
 11
7.015157955385324
 21
3.789527021000758
 31
0.0
  0
LINE
  5
7EF
330
22
100
AcDbEntity
  8
Layer 1
100
AcDbLine
 10
7.015157955385324
 20
3.789527021000758
 30
0.0
 11
7.041205491879386
 21
3.733512084030116
 31
0.0
  0
LINE
  5
7F0
330
22
100
AcDbEntity
  8
Layer 1
100
AcDbLine
 10
7.041205491879386
 20
3.733512084030116
 30
0.0
 11
7.091352967799197
 21
3.687089377479863
 31
0.0
  0
LINE
  5
7F1
330
22
100
AcDbEntity
  8
Layer 1
100
AcDbLine
 10
7.091352967799197
 20
3.687089377479863
 30
0.0
 11
7.140462187547369
 21
3.666897651076915
 31
0.0
  0
LINE
  5
7F2
330
22
100
AcDbEntity
  8
Layer 1
100
AcDbLine
 10
7.140462187547369
 20
3.666897651076915
 30
0.0
 11
7.208564547113547
 21
3.666270008688123
 31
0.0
  0
LINE
  5
7F3
330
22
100
AcDbEntity
  8
Layer 1
100
AcDbLine
 10
7.208564547113547
 20
3.666270008688123
 30
0.0
 11
7.283157859170136
 21
3.672327800194287
 31
0.0
  0
LINE
  5
7F4
330
22
100
AcDbEntity
  8
Layer 1
100
AcDbLine
 10
7.283157859170136
 20
3.672327800194287
 30
0.0
 11
7.311735540718505
 21
3.613505547969694
 31
0.0
  0
LINE
  5
7F5
330
22
100
AcDbEntity
  8
Layer 1
100
AcDbLine
 10
7.311735540718505
 20
3.613505547969694
 30
0.0
 11
7.33232462616875
 21
3.566146425013123
 31
0.0
  0
LINE
  5
7F6
330
22
100
AcDbEntity
  8
Layer 1
100
AcDbLine
 10
7.33232462616875
 20
3.566146425013123
 30
0.0
 11
7.338423408298391
 21
3.535029400284351
 31
0.0
  0
LINE
  5
7F7
330
22
100
AcDbEntity
  8
Layer 1
100
AcDbLine
 10
7.338423408298391
 20
3.535029400284351
 30
0.0
 11
7.329786084876258
 21
3.51522814612658
 31
0.0
  0
LINE
  5
7F8
330
22
100
AcDbEntity
  8
Layer 1
100
AcDbLine
 10
7.329786084876258
 20
3.51522814612658
 30
0.0
 11
7.306166995180815
 21
3.501816334883051
 31
0.0
  0
LINE
  5
7F9
330
22
100
AcDbEntity
  8
Layer 1
100
AcDbLine
 10
7.306166995180815
 20
3.501816334883051
 30
0.0
 11
7.248439980339763
 21
3.490580658763882
 31
0.0
  0
LINE
  5
7FA
330
22
100
AcDbEntity
  8
Layer 1
100
AcDbLine
 10
7.248439980339763
 20
3.490580658763882
 30
0.0
 11
7.173526196136053
 21
3.489497119509933
 31
0.0
  0
LINE
  5
7FB
330
22
100
AcDbEntity
  8
Layer 1
100
AcDbLine
 10
7.173526196136053
 20
3.489497119509933
 30
0.0
 11
7.098028024321139
 21
3.497771942424178
 31
0.0
  0
LINE
  5
7FC
330
22
100
AcDbEntity
  8
Layer 1
100
AcDbLine
 10
7.098028024321139
 20
3.497771942424178
 30
0.0
 11
7.03854803532595
 21
3.514611399979465
 31
0.0
  0
LINE
  5
7FD
330
22
100
AcDbEntity
  8
Layer 1
100
AcDbLine
 10
7.03854803532595
 20
3.514611399979465
 30
0.0
 11
7.03854803532595
 21
3.514611399979465
 31
0.0
  0
LINE
  5
7FE
330
22
100
AcDbEntity
  8
Layer 1
100
AcDbLine
 10
7.264408681958088
 20
3.550489516284456
 30
0.0
 11
7.266416373450227
 21
3.563768733002596
 31
0.0
  0
LINE
  5
7FF
330
22
100
AcDbEntity
  8
Layer 1
100
AcDbLine
 10
7.266416373450227
 20
3.563768733002596
 30
0.0
 11
7.259439193863482
 21
3.583890412137598
 31
0.0
  0
LINE
  5
800
330
22
100
AcDbEntity
  8
Layer 1
100
AcDbLine
 10
7.259439193863482
 20
3.583890412137598
 30
0.0
 11
7.241957659936909
 21
3.601237276064168
 31
0.0
  0
LINE
  5
801
330
22
100
AcDbEntity
  8
Layer 1
100
AcDbLine
 10
7.241957659936909
 20
3.601237276064168
 30
0.0
 11
7.215100924195906
 21
3.601114257023886
 31
0.0
  0
LINE
  5
802
330
22
100
AcDbEntity
  8
Layer 1
100
AcDbLine
 10
7.215100924195906
 20
3.601114257023886
 30
0.0
 11
7.184925080031058
 21
3.597907365738399
 31
0.0
  0
LINE
  5
803
330
22
100
AcDbEntity
  8
Layer 1
100
AcDbLine
 10
7.184925080031058
 20
3.597907365738399
 30
0.0
 11
7.151648288125383
 21
3.601846616540533
 31
0.0
  0
LINE
  5
804
330
22
100
AcDbEntity
  8
Layer 1
100
AcDbLine
 10
7.151648288125383
 20
3.601846616540533
 30
0.0
 11
7.081997341483888
 21
3.627865709598516
 31
0.0
  0
LINE
  5
805
330
22
100
AcDbEntity
  8
Layer 1
100
AcDbLine
 10
7.081997341483888
 20
3.627865709598516
 30
0.0
 11
7.018559186565733
 21
3.672575725069946
 31
0.0
  0
LINE
  5
806
330
22
100
AcDbEntity
  8
Layer 1
100
AcDbLine
 10
7.018559186565733
 20
3.672575725069946
 30
0.0
 11
6.973744689815838
 21
3.729381087676323
 31
0.0
  0
LINE
  5
807
330
22
100
AcDbEntity
  8
Layer 1
100
AcDbLine
 10
6.973744689815838
 20
3.729381087676323
 30
0.0
 11
6.959674339913813
 21
3.775924218923598
 31
0.0
  0
LINE
  5
808
330
22
100
AcDbEntity
  8
Layer 1
100
AcDbLine
 10
6.959674339913813
 20
3.775924218923598
 30
0.0
 11
6.954942588001342
 21
3.834827320318083
 31
0.0
  0
LINE
  5
809
330
22
100
AcDbEntity
  8
Layer 1
100
AcDbLine
 10
6.954942588001342
 20
3.834827320318083
 30
0.0
 11
6.959561603906803
 21
3.893696931099596
 31
0.0
  0
LINE
  5
80A
330
22
100
AcDbEntity
  8
Layer 1
100
AcDbLine
 10
6.959561603906803
 20
3.893696931099596
 30
0.0
 11
6.973543651798326
 21
3.94013963767788
 31
0.0
  0
LINE
  5
80B
330
22
100
AcDbEntity
  8
Layer 1
100
AcDbLine
 10
6.973543651798326
 20
3.94013963767788
 30
0.0
 11
7.018299893749619
 21
4.000104155653801
 31
0.0
  0
LINE
  5
80C
330
22
100
AcDbEntity
  8
Layer 1
100
AcDbLine
 10
7.018299893749619
 20
4.000104155653801
 30
0.0
 11
7.078801393609962
 21
4.044884218393185
 31
0.0
  0
LINE
  5
80D
330
22
100
AcDbEntity
  8
Layer 1
100
AcDbLine
 10
7.078801393609962
 20
4.044884218393185
 30
0.0
 11
7.146913894699779
 21
4.070055763093897
 31
0.0
  0
LINE
  5
80E
330
22
100
AcDbEntity
  8
Layer 1
100
AcDbLine
 10
7.146913894699779
 20
4.070055763093897
 30
0.0
 11
7.214503187509388
 21
4.071194632614044
 31
0.0
  0
LINE
  5
80F
330
22
100
AcDbEntity
  8
Layer 1
100
AcDbLine
 10
7.214503187509388
 20
4.071194632614044
 30
0.0
 11
7.243512709285433
 21
4.072300011521234
 31
0.0
  0
LINE
  5
810
330
22
100
AcDbEntity
  8
Layer 1
100
AcDbLine
 10
7.243512709285433
 20
4.072300011521234
 30
0.0
 11
7.261989810644588
 21
4.090786971384765
 31
0.0
  0
LINE
  5
811
330
22
100
AcDbEntity
  8
Layer 1
100
AcDbLine
 10
7.261989810644588
 20
4.090786971384765
 30
0.0
 11
7.270572935877579
 21
4.111827661241314
 31
0.0
  0
LINE
  5
812
330
22
100
AcDbEntity
  8
Layer 1
100
AcDbLine
 10
7.270572935877579
 20
4.111827661241314
 30
0.0
 11
7.264482738665624
 21
4.123552488989211
 31
0.0
  0
LINE
  5
813
330
22
100
AcDbEntity
  8
Layer 1
100
AcDbLine
 10
7.264482738665624
 20
4.123552488989211
 30
0.0
 11
7.18800088622723
 21
4.129729856134615
 31
0.0
  0
LINE
  5
814
330
22
100
AcDbEntity
  8
Layer 1
100
AcDbLine
 10
7.18800088622723
 20
4.129729856134615
 30
0.0
 11
7.09719052314775
 21
4.116710356761493
 31
0.0
  0
LINE
  5
815
330
22
100
AcDbEntity
  8
Layer 1
100
AcDbLine
 10
7.09719052314775
 20
4.116710356761493
 30
0.0
 11
7.020062018859964
 21
4.080768702631629
 31
0.0
  0
LINE
  5
816
330
22
100
AcDbEntity
  8
Layer 1
100
AcDbLine
 10
7.020062018859964
 20
4.080768702631629
 30
0.0
 11
6.958767499020632
 21
4.026579947464853
 31
0.0
  0
LINE
  5
817
330
22
100
AcDbEntity
  8
Layer 1
100
AcDbLine
 10
6.958767499020632
 20
4.026579947464853
 30
0.0
 11
6.915458900607005
 21
3.958819192150868
 31
0.0
  0
LINE
  5
818
330
22
100
AcDbEntity
  8
Layer 1
100
AcDbLine
 10
6.915458900607005
 20
3.958819192150868
 30
0.0
 11
6.892288302105963
 21
3.882161631919131
 31
0.0
  0
LINE
  5
819
330
22
100
AcDbEntity
  8
Layer 1
100
AcDbLine
 10
6.892288302105963
 20
3.882161631919131
 30
0.0
 11
6.891407734834499
 21
3.801282367659338
 31
0.0
  0
LINE
  5
81A
330
22
100
AcDbEntity
  8
Layer 1
100
AcDbLine
 10
6.891407734834499
 20
3.801282367659338
 30
0.0
 11
6.914969277279504
 21
3.720856453091321
 31
0.0
  0
LINE
  5
81B
330
22
100
AcDbEntity
  8
Layer 1
100
AcDbLine
 10
6.914969277279504
 20
3.720856453091321
 30
0.0
 11
6.965124913588111
 21
3.645559130614408
 31
0.0
  0
LINE
  5
81C
330
22
100
AcDbEntity
  8
Layer 1
100
AcDbLine
 10
6.965124913588111
 20
3.645559130614408
 30
0.0
 11
7.015398663269737
 21
3.600023642288326
 31
0.0
  0
LINE
  5
81D
330
22
100
AcDbEntity
  8
Layer 1
100
AcDbLine
 10
7.015398663269737
 20
3.600023642288326
 30
0.0
 11
7.067410622933871
 21
3.566919397794215
 31
0.0
  0
LINE
  5
81E
330
22
100
AcDbEntity
  8
Layer 1
100
AcDbLine
 10
7.067410622933871
 20
3.566919397794215
 30
0.0
 11
7.117263334289753
 21
3.552078386435083
 31
0.0
  0
LINE
  5
81F
330
22
100
AcDbEntity
  8
Layer 1
100
AcDbLine
 10
7.117263334289753
 20
3.552078386435083
 30
0.0
 11
7.178479882321732
 21
3.543411817688961
 31
0.0
  0
LINE
  5
820
330
22
100
AcDbEntity
  8
Layer 1
100
AcDbLine
 10
7.178479882321732
 20
3.543411817688961
 30
0.0
 11
7.233411327208298
 21
3.542391533240611
 31
0.0
  0
LINE
  5
821
330
22
100
AcDbEntity
  8
Layer 1
100
AcDbLine
 10
7.233411327208298
 20
3.542391533240611
 30
0.0
 11
7.264408681958088
 21
3.550489516284456
 31
0.0
  0
LINE
  5
822
330
22
100
AcDbEntity
  8
Layer 1
100
AcDbLine
 10
7.264408681958088
 20
3.550489516284456
 30
0.0
 11
7.264408681958088
 21
3.550489516284456
 31
0.0
  0
LINE
  5
823
330
22
100
AcDbEntity
  8
Layer 1
100
AcDbLine
 10
8.72791002485855
 20
3.838283598745426
 30
0.0
 11
8.731459086434762
 21
4.187733805325939
 31
0.0
  0
LINE
  5
824
330
22
100
AcDbEntity
  8
Layer 1
100
AcDbLine
 10
8.731459086434762
 20
4.187733805325939
 30
0.0
 11
8.814042504025563
 21
4.191681027837346
 31
0.0
  0
LINE
  5
825
330
22
100
AcDbEntity
  8
Layer 1
100
AcDbLine
 10
8.814042504025563
 20
4.191681027837346
 30
0.0
 11
8.896625874446488
 21
4.195628297518638
 31
0.0
  0
LINE
  5
826
330
22
100
AcDbEntity
  8
Layer 1
100
AcDbLine
 10
8.896625874446488
 20
4.195628297518638
 30
0.0
 11
9.053665481260255
 21
3.986377249629177
 31
0.0
  0
LINE
  5
827
330
22
100
AcDbEntity
  8
Layer 1
100
AcDbLine
 10
9.053665481260255
 20
3.986377249629177
 30
0.0
 11
9.210705040904146
 21
3.777126248909596
 31
0.0
  0
LINE
  5
828
330
22
100
AcDbEntity
  8
Layer 1
100
AcDbLine
 10
9.210705040904146
 20
3.777126248909596
 30
0.0
 11
9.21436995169927
 21
3.985758097818318
 31
0.0
  0
LINE
  5
829
330
22
100
AcDbEntity
  8
Layer 1
100
AcDbLine
 10
9.21436995169927
 20
3.985758097818318
 30
0.0
 11
9.218036183250962
 21
4.194389993896912
 31
0.0
  0
LINE
  5
82A
330
22
100
AcDbEntity
  8
Layer 1
100
AcDbLine
 10
9.218036183250962
 20
4.194389993896912
 30
0.0
 11
9.304228568162278
 21
4.194389993896912
 31
0.0
  0
LINE
  5
82B
330
22
100
AcDbEntity
  8
Layer 1
100
AcDbLine
 10
9.304228568162278
 20
4.194389993896912
 30
0.0
 11
9.390422273830166
 21
4.194389993896912
 31
0.0
  0
LINE
  5
82C
330
22
100
AcDbEntity
  8
Layer 1
100
AcDbLine
 10
9.390422273830166
 20
4.194389993896912
 30
0.0
 11
9.390422273830166
 21
3.841611716615851
 31
0.0
  0
LINE
  5
82D
330
22
100
AcDbEntity
  8
Layer 1
100
AcDbLine
 10
9.390422273830166
 20
3.841611716615851
 30
0.0
 11
9.390422273830166
 21
3.488833439334796
 31
0.0
  0
LINE
  5
82E
330
22
100
AcDbEntity
  8
Layer 1
100
AcDbLine
 10
9.390422273830166
 20
3.488833439334796
 30
0.0
 11
9.300403940162251
 21
3.488833439334796
 31
0.0
  0
LINE
  5
82F
330
22
100
AcDbEntity
  8
Layer 1
100
AcDbLine
 10
9.300403940162251
 20
3.488833439334796
 30
0.0
 11
9.210386880081024
 21
3.488833439334796
 31
0.0
  0
LINE
  5
830
330
22
100
AcDbEntity
  8
Layer 1
100
AcDbLine
 10
9.210386880081024
 20
3.488833439334796
 30
0.0
 11
9.057452845057131
 21
3.691847355844166
 31
0.0
  0
LINE
  5
831
330
22
100
AcDbEntity
  8
Layer 1
100
AcDbLine
 10
9.057452845057131
 20
3.691847355844166
 30
0.0
 11
8.904520130789803
 21
3.894861272353551
 31
0.0
  0
LINE
  5
832
330
22
100
AcDbEntity
  8
Layer 1
100
AcDbLine
 10
8.904520130789803
 20
3.894861272353551
 30
0.0
 11
8.900844606772265
 21
3.691847355844166
 31
0.0
  0
LINE
  5
833
330
22
100
AcDbEntity
  8
Layer 1
100
AcDbLine
 10
8.900844606772265
 20
3.691847355844166
 30
0.0
 11
8.897170356341408
 21
3.488833439334796
 31
0.0
  0
LINE
  5
834
330
22
100
AcDbEntity
  8
Layer 1
100
AcDbLine
 10
8.897170356341408
 20
3.488833439334796
 30
0.0
 11
8.810764999433596
 21
3.488833439334796
 31
0.0
  0
LINE
  5
835
330
22
100
AcDbEntity
  8
Layer 1
100
AcDbLine
 10
8.810764999433596
 20
3.488833439334796
 30
0.0
 11
8.724359595355901
 21
3.488833439334796
 31
0.0
  0
LINE
  5
836
330
22
100
AcDbEntity
  8
Layer 1
100
AcDbLine
 10
8.724359595355901
 20
3.488833439334796
 30
0.0
 11
8.72791002485855
 21
3.838283598745426
 31
0.0
  0
LINE
  5
837
330
22
100
AcDbEntity
  8
Layer 1
100
AcDbLine
 10
8.72791002485855
 20
3.838283598745426
 30
0.0
 11
8.72791002485855
 21
3.838283598745426
 31
0.0
  0
LINE
  5
838
330
22
100
AcDbEntity
  8
Layer 1
100
AcDbLine
 10
8.847660286975024
 20
3.802063123470205
 30
0.0
 11
8.851270575052105
 21
4.062043299037796
 31
0.0
  0
LINE
  5
839
330
22
100
AcDbEntity
  8
Layer 1
100
AcDbLine
 10
8.851270575052105
 20
4.062043299037796
 30
0.0
 11
9.044300185120079
 21
3.802571284559526
 31
0.0
  0
LINE
  5
83A
330
22
100
AcDbEntity
  8
Layer 1
100
AcDbLine
 10
9.044300185120079
 20
3.802571284559526
 30
0.0
 11
9.215100801779831
 21
3.581535361668229
 31
0.0
  0
LINE
  5
83B
330
22
100
AcDbEntity
  8
Layer 1
100
AcDbLine
 10
9.215100801779831
 20
3.581535361668229
 30
0.0
 11
9.252010287454362
 21
3.549204844673241
 31
0.0
  0
LINE
  5
83C
330
22
100
AcDbEntity
  8
Layer 1
100
AcDbLine
 10
9.252010287454362
 20
3.549204844673241
 30
0.0
 11
9.28059509165422
 21
3.542591108991935
 31
0.0
  0
LINE
  5
83D
330
22
100
AcDbEntity
  8
Layer 1
100
AcDbLine
 10
9.28059509165422
 20
3.542591108991935
 30
0.0
 11
9.311294804477569
 21
3.545165169202113
 31
0.0
  0
LINE
  5
83E
330
22
100
AcDbEntity
  8
Layer 1
100
AcDbLine
 10
9.311294804477569
 20
3.545165169202113
 30
0.0
 11
9.324350247297275
 21
3.552067301513893
 31
0.0
  0
LINE
  5
83F
330
22
100
AcDbEntity
  8
Layer 1
100
AcDbLine
 10
9.324350247297275
 20
3.552067301513893
 30
0.0
 11
9.327678317997827
 21
3.844028842643893
 31
0.0
  0
LINE
  5
840
330
22
100
AcDbEntity
  8
Layer 1
100
AcDbLine
 10
9.327678317997827
 20
3.844028842643893
 30
0.0
 11
9.330516529521494
 21
4.126006266011991
 31
0.0
  0
LINE
  5
841
330
22
100
AcDbEntity
  8
Layer 1
100
AcDbLine
 10
9.330516529521494
 20
4.126006266011991
 30
0.0
 11
9.300837903034407
 21
4.131674670180166
 31
0.0
  0
LINE
  5
842
330
22
100
AcDbEntity
  8
Layer 1
100
AcDbLine
 10
9.300837903034407
 20
4.131674670180166
 30
0.0
 11
9.271160597303891
 21
4.137343215857966
 31
0.0
  0
LINE
  5
843
330
22
100
AcDbEntity
  8
Layer 1
100
AcDbLine
 10
9.271160597303891
 20
4.137343215857966
 30
0.0
 11
9.267556913009645
 21
3.876322142605602
 31
0.0
  0
LINE
  5
844
330
22
100
AcDbEntity
  8
Layer 1
100
AcDbLine
 10
9.267556913009645
 20
3.876322142605602
 30
0.0
 11
9.263954596641843
 21
3.615301116523113
 31
0.0
  0
LINE
  5
845
330
22
100
AcDbEntity
  8
Layer 1
100
AcDbLine
 10
9.263954596641843
 20
3.615301116523113
 30
0.0
 11
9.073365131502079
 21
3.868236470899766
 31
0.0
  0
LINE
  5
846
330
22
100
AcDbEntity
  8
Layer 1
100
AcDbLine
 10
9.073365131502079
 20
3.868236470899766
 30
0.0
 11
8.931581395119248
 21
4.049538281517556
 31
0.0
  0
LINE
  5
847
330
22
100
AcDbEntity
  8
Layer 1
100
AcDbLine
 10
8.931581395119248
 20
4.049538281517556
 30
0.0
 11
8.858332801927812
 21
4.130248394596961
 31
0.0
  0
LINE
  5
848
330
22
100
AcDbEntity
  8
Layer 1
100
AcDbLine
 10
8.858332801927812
 20
4.130248394596961
 30
0.0
 11
8.809299289832882
 21
4.132906983227464
 31
0.0
  0
LINE
  5
849
330
22
100
AcDbEntity
  8
Layer 1
100
AcDbLine
 10
8.809299289832882
 20
4.132906983227464
 30
0.0
 11
8.795794601100736
 21
4.122335553321953
 31
0.0
  0
LINE
  5
84A
330
22
100
AcDbEntity
  8
Layer 1
100
AcDbLine
 10
8.795794601100736
 20
4.122335553321953
 30
0.0
 11
8.788896714077917
 21
4.08435700954584
 31
0.0
  0
LINE
  5
84B
330
22
100
AcDbEntity
  8
Layer 1
100
AcDbLine
 10
8.788896714077917
 20
4.08435700954584
 30
0.0
 11
8.788530628659351
 21
3.834286045974819
 31
0.0
  0
LINE
  5
84C
330
22
100
AcDbEntity
  8
Layer 1
100
AcDbLine
 10
8.788530628659351
 20
3.834286045974819
 30
0.0
 11
8.795478044053448
 21
3.583525883324988
 31
0.0
  0
LINE
  5
84D
330
22
100
AcDbEntity
  8
Layer 1
100
AcDbLine
 10
8.795478044053448
 20
3.583525883324988
 30
0.0
 11
8.803664706466816
 21
3.548492721034008
 31
0.0
  0
LINE
  5
84E
330
22
100
AcDbEntity
  8
Layer 1
100
AcDbLine
 10
8.803664706466816
 20
3.548492721034008
 30
0.0
 11
8.81820260419372
 21
3.542082995072489
 31
0.0
  0
LINE
  5
84F
330
22
100
AcDbEntity
  8
Layer 1
100
AcDbLine
 10
8.81820260419372
 20
3.542082995072489
 30
0.0
 11
8.832693945251618
 21
3.547933569307211
 31
0.0
  0
LINE
  5
850
330
22
100
AcDbEntity
  8
Layer 1
100
AcDbLine
 10
8.832693945251618
 20
3.547933569307211
 30
0.0
 11
8.840862966130838
 21
3.579349556718995
 31
0.0
  0
LINE
  5
851
330
22
100
AcDbEntity
  8
Layer 1
100
AcDbLine
 10
8.840862966130838
 20
3.579349556718995
 30
0.0
 11
8.847660286975024
 21
3.802063123470205
 31
0.0
  0
LINE
  5
852
330
22
100
AcDbEntity
  8
Layer 1
100
AcDbLine
 10
8.847660286975024
 20
3.802063123470205
 30
0.0
 11
8.847660286975024
 21
3.802063123470205
 31
0.0
  0
LINE
  5
853
330
22
100
AcDbEntity
  8
Layer 1
100
AcDbLine
 10
9.885906694446775
 20
3.523149430809651
 30
0.0
 11
9.804281863104668
 21
3.577776865836326
 31
0.0
  0
LINE
  5
854
330
22
100
AcDbEntity
  8
Layer 1
100
AcDbLine
 10
9.804281863104668
 20
3.577776865836326
 30
0.0
 11
9.745218855825775
 21
3.648657200992714
 31
0.0
  0
LINE
  5
855
330
22
100
AcDbEntity
  8
Layer 1
100
AcDbLine
 10
9.745218855825775
 20
3.648657200992714
 30
0.0
 11
9.709247814862287
 21
3.734913736937308
 31
0.0
  0
LINE
  5
856
330
22
100
AcDbEntity
  8
Layer 1
100
AcDbLine
 10
9.709247814862287
 20
3.734913736937308
 30
0.0
 11
9.696898740956767
 21
3.835669868668346
 31
0.0
  0
LINE
  5
857
330
22
100
AcDbEntity
  8
Layer 1
100
AcDbLine
 10
9.696898740956767
 20
3.835669868668346
 30
0.0
 11
9.701323133948042
 21
3.893506694984011
 31
0.0
  0
LINE
  5
858
330
22
100
AcDbEntity
  8
Layer 1
100
AcDbLine
 10
9.701323133948042
 20
3.893506694984011
 30
0.0
 11
9.714546878890351
 21
3.948774178077242
 31
0.0
  0
LINE
  5
859
330
22
100
AcDbEntity
  8
Layer 1
100
AcDbLine
 10
9.714546878890351
 20
3.948774178077242
 30
0.0
 11
9.735904220133935
 21
4.000549014767634
 31
0.0
  0
LINE
  5
85A
330
22
100
AcDbEntity
  8
Layer 1
100
AcDbLine
 10
9.735904220133935
 20
4.000549014767634
 30
0.0
 11
9.764729354859195
 21
4.047908043384452
 31
0.0
  0
LINE
  5
85B
330
22
100
AcDbEntity
  8
Layer 1
100
AcDbLine
 10
9.764729354859195
 20
4.047908043384452
 30
0.0
 11
9.800356527416376
 21
4.089928007917158
 31
0.0
  0
LINE
  5
85C
330
22
100
AcDbEntity
  8
Layer 1
100
AcDbLine
 10
9.800356527416376
 20
4.089928007917158
 30
0.0
 11
9.842119982155738
 21
4.125685699525121
 31
0.0
  0
LINE
  5
85D
330
22
100
AcDbEntity
  8
Layer 1
100
AcDbLine
 10
9.842119982155738
 20
4.125685699525121
 30
0.0
 11
9.889353963427538
 21
4.154257862197852
 31
0.0
  0
LINE
  5
85E
330
22
100
AcDbEntity
  8
Layer 1
100
AcDbLine
 10
9.889353963427538
 20
4.154257862197852
 30
0.0
 11
9.941392715582042
 21
4.174721334264546
 31
0.0
  0
LINE
  5
85F
330
22
100
AcDbEntity
  8
Layer 1
100
AcDbLine
 10
9.941392715582042
 20
4.174721334264546
 30
0.0
 11
9.999349872254965
 21
4.188794891718237
 31
0.0
  0
LINE
  5
860
330
22
100
AcDbEntity
  8
Layer 1
100
AcDbLine
 10
9.999349872254965
 20
4.188794891718237
 30
0.0
 11
10.05008753768091
 21
4.193288530089552
 31
0.0
  0
LINE
  5
861
330
22
100
AcDbEntity
  8
Layer 1
100
AcDbLine
 10
10.05008753768091
 20
4.193288530089552
 30
0.0
 11
10.09934524820317
 21
4.188166070082508
 31
0.0
  0
LINE
  5
862
330
22
100
AcDbEntity
  8
Layer 1
100
AcDbLine
 10
10.09934524820317
 20
4.188166070082508
 30
0.0
 11
10.15286268167467
 21
4.173391426740883
 31
0.0
  0
LINE
  5
863
330
22
100
AcDbEntity
  8
Layer 1
100
AcDbLine
 10
10.15286268167467
 20
4.173391426740883
 30
0.0
 11
10.21448970197985
 21
4.152392859584863
 31
0.0
  0
LINE
  5
864
330
22
100
AcDbEntity
  8
Layer 1
100
AcDbLine
 10
10.21448970197985
 20
4.152392859584863
 30
0.0
 11
10.17871531223527
 21
4.076876621706908
 31
0.0
  0
LINE
  5
865
330
22
100
AcDbEntity
  8
Layer 1
100
AcDbLine
 10
10.17871531223527
 20
4.076876621706908
 30
0.0
 11
10.14232592162905
 21
3.998711983891964
 31
0.0
  0
LINE
  5
866
330
22
100
AcDbEntity
  8
Layer 1
100
AcDbLine
 10
10.14232592162905
 20
3.998711983891964
 30
0.0
 11
10.08614895612952
 21
4.010167188620599
 31
0.0
  0
LINE
  5
867
330
22
100
AcDbEntity
  8
Layer 1
100
AcDbLine
 10
10.08614895612952
 20
4.010167188620599
 30
0.0
 11
10.03005986811159
 21
4.016718660063729
 31
0.0
  0
LINE
  5
868
330
22
100
AcDbEntity
  8
Layer 1
100
AcDbLine
 10
10.03005986811159
 20
4.016718660063729
 30
0.0
 11
9.972065777424649
 21
3.995941272462872
 31
0.0
  0
LINE
  5
869
330
22
100
AcDbEntity
  8
Layer 1
100
AcDbLine
 10
9.972065777424649
 20
3.995941272462872
 30
0.0
 11
9.92264773648908
 21
3.964003397527442
 31
0.0
  0
LINE
  5
86A
330
22
100
AcDbEntity
  8
Layer 1
100
AcDbLine
 10
9.92264773648908
 20
3.964003397527442
 30
0.0
 11
9.889920709504602
 21
3.923753576984232
 31
0.0
  0
LINE
  5
86B
330
22
100
AcDbEntity
  8
Layer 1
100
AcDbLine
 10
9.889920709504602
 20
3.923753576984232
 30
0.0
 11
9.873478516656847
 21
3.874451668286845
 31
0.0
  0
LINE
  5
86C
330
22
100
AcDbEntity
  8
Layer 1
100
AcDbLine
 10
9.873478516656847
 20
3.874451668286845
 30
0.0
 11
9.87291511964108
 21
3.815357576058743
 31
0.0
  0
LINE
  5
86D
330
22
100
AcDbEntity
  8
Layer 1
100
AcDbLine
 10
9.87291511964108
 20
3.815357576058743
 30
0.0
 11
9.887606036450296
 21
3.756613767340268
 31
0.0
  0
LINE
  5
86E
330
22
100
AcDbEntity
  8
Layer 1
100
AcDbLine
 10
9.887606036450296
 20
3.756613767340268
 30
0.0
 11
9.921754291841088
 21
3.710196626835553
 31
0.0
  0
LINE
  5
86F
330
22
100
AcDbEntity
  8
Layer 1
100
AcDbLine
 10
9.921754291841088
 20
3.710196626835553
 30
0.0
 11
9.946975317743198
 21
3.687368811833627
 31
0.0
  0
LINE
  5
870
330
22
100
AcDbEntity
  8
Layer 1
100
AcDbLine
 10
9.946975317743198
 20
3.687368811833627
 30
0.0
 11
9.97116421955774
 21
3.674874596215325
 31
0.0
  0
LINE
  5
871
330
22
100
AcDbEntity
  8
Layer 1
100
AcDbLine
 10
9.97116421955774
 20
3.674874596215325
 30
0.0
 11
10.05609622534471
 21
3.668614162915801
 31
0.0
  0
LINE
  5
872
330
22
100
AcDbEntity
  8
Layer 1
100
AcDbLine
 10
10.05609622534471
 20
3.668614162915801
 30
0.0
 11
10.14875843064136
 21
3.668677795080427
 31
0.0
  0
LINE
  5
873
330
22
100
AcDbEntity
  8
Layer 1
100
AcDbLine
 10
10.14875843064136
 20
3.668677795080427
 30
0.0
 11
10.17561752487623
 21
3.606240584960878
 31
0.0
  0
LINE
  5
874
330
22
100
AcDbEntity
  8
Layer 1
100
AcDbLine
 10
10.17561752487623
 20
3.606240584960878
 30
0.0
 11
10.19497807086938
 21
3.558287168718841
 31
0.0
  0
LINE
  5
875
330
22
100
AcDbEntity
  8
Layer 1
100
AcDbLine
 10
10.19497807086938
 20
3.558287168718841
 30
0.0
 11
10.19974656811634
 21
3.530804347195001
 31
0.0
  0
LINE
  5
876
330
22
100
AcDbEntity
  8
Layer 1
100
AcDbLine
 10
10.19974656811634
 20
3.530804347195001
 30
0.0
 11
10.18868447714603
 21
3.515341542511868
 31
0.0
  0
LINE
  5
877
330
22
100
AcDbEntity
  8
Layer 1
100
AcDbLine
 10
10.18868447714603
 20
3.515341542511868
 30
0.0
 11
10.16055321131745
 21
3.50344817679199
 31
0.0
  0
LINE
  5
878
330
22
100
AcDbEntity
  8
Layer 1
100
AcDbLine
 10
10.16055321131745
 20
3.50344817679199
 30
0.0
 11
10.09580595079158
 21
3.489871035128146
 31
0.0
  0
LINE
  5
879
330
22
100
AcDbEntity
  8
Layer 1
100
AcDbLine
 10
10.09580595079158
 20
3.489871035128146
 30
0.0
 11
10.02280660323237
 21
3.489033581124636
 31
0.0
  0
LINE
  5
87A
330
22
100
AcDbEntity
  8
Layer 1
100
AcDbLine
 10
10.02280660323237
 20
3.489033581124636
 30
0.0
 11
9.950019001252854
 21
3.5003287856291
 31
0.0
  0
LINE
  5
87B
330
22
100
AcDbEntity
  8
Layer 1
100
AcDbLine
 10
9.950019001252854
 20
3.5003287856291
 30
0.0
 11
9.885906694446775
 21
3.523149430809651
 31
0.0
  0
LINE
  5
87C
330
22
100
AcDbEntity
  8
Layer 1
100
AcDbLine
 10
9.885906694446775
 20
3.523149430809651
 30
0.0
 11
9.885906694446775
 21
3.523149430809651
 31
0.0
  0
LINE
  5
87D
330
22
100
AcDbEntity
  8
Layer 1
100
AcDbLine
 10
10.11461484506843
 20
3.550069893055031
 30
0.0
 11
10.12906944079183
 21
3.565117838666353
 31
0.0
  0
LINE
  5
87E
330
22
100
AcDbEntity
  8
Layer 1
100
AcDbLine
 10
10.12906944079183
 20
3.565117838666353
 30
0.0
 11
10.12353764058863
 21
3.584278384379281
 31
0.0
  0
LINE
  5
87F
330
22
100
AcDbEntity
  8
Layer 1
100
AcDbLine
 10
10.12353764058863
 20
3.584278384379281
 30
0.0
 11
10.10420676444838
 21
3.59909581079971
 31
0.0
  0
LINE
  5
880
330
22
100
AcDbEntity
  8
Layer 1
100
AcDbLine
 10
10.10420676444838
 20
3.59909581079971
 30
0.0
 11
10.07726427387026
 21
3.601114257023886
 31
0.0
  0
LINE
  5
881
330
22
100
AcDbEntity
  8
Layer 1
100
AcDbLine
 10
10.07726427387026
 20
3.601114257023886
 30
0.0
 11
10.01604324469993
 21
3.602010484694651
 31
0.0
  0
LINE
  5
882
330
22
100
AcDbEntity
  8
Layer 1
100
AcDbLine
 10
10.01604324469993
 20
3.602010484694651
 30
0.0
 11
9.947076119771224
 21
3.626625990880468
 31
0.0
  0
LINE
  5
883
330
22
100
AcDbEntity
  8
Layer 1
100
AcDbLine
 10
9.947076119771224
 20
3.626625990880468
 30
0.0
 11
9.884052163546586
 21
3.668105765977095
 31
0.0
  0
LINE
  5
884
330
22
100
AcDbEntity
  8
Layer 1
100
AcDbLine
 10
9.884052163546586
 20
3.668105765977095
 30
0.0
 11
9.84066054614872
 21
3.719594894720031
 31
0.0
  0
LINE
  5
885
330
22
100
AcDbEntity
  8
Layer 1
100
AcDbLine
 10
9.84066054614872
 20
3.719594894720031
 30
0.0
 11
9.817436975875347
 21
3.782275407067253
 31
0.0
  0
LINE
  5
886
330
22
100
AcDbEntity
  8
Layer 1
100
AcDbLine
 10
9.817436975875347
 20
3.782275407067253
 30
0.0
 11
9.812222110078462
 21
3.845619175060711
 31
0.0
  0
LINE
  5
887
330
22
100
AcDbEntity
  8
Layer 1
100
AcDbLine
 10
9.812222110078462
 20
3.845619175060711
 30
0.0
 11
9.823190804691499
 21
3.906645864336119
 31
0.0
  0
LINE
  5
888
330
22
100
AcDbEntity
  8
Layer 1
100
AcDbLine
 10
9.823190804691499
 20
3.906645864336119
 30
0.0
 11
9.848517868478024
 21
3.962374951849674
 31
0.0
  0
LINE
  5
889
330
22
100
AcDbEntity
  8
Layer 1
100
AcDbLine
 10
9.848517868478024
 20
3.962374951849674
 30
0.0
 11
9.886378015861842
 21
4.00982610323706
 31
0.0
  0
LINE
  5
88A
330
22
100
AcDbEntity
  8
Layer 1
100
AcDbLine
 10
9.886378015861842
 20
4.00982610323706
 30
0.0
 11
9.934946197116142
 21
4.046018795454493
 31
0.0
  0
LINE
  5
88B
330
22
100
AcDbEntity
  8
Layer 1
100
AcDbLine
 10
9.934946197116142
 20
4.046018795454493
 30
0.0
 11
9.992397126664723
 21
4.067972694137658
 31
0.0
  0
LINE
  5
88C
330
22
100
AcDbEntity
  8
Layer 1
100
AcDbLine
 10
9.992397126664723
 20
4.067972694137658
 30
0.0
 11
10.05690566044104
 21
4.072707323412656
 31
0.0
  0
LINE
  5
88D
330
22
100
AcDbEntity
  8
Layer 1
100
AcDbLine
 10
10.05690566044104
 20
4.072707323412656
 30
0.0
 11
10.10271836613664
 21
4.074752184768185
 31
0.0
  0
LINE
  5
88E
330
22
100
AcDbEntity
  8
Layer 1
100
AcDbLine
 10
10.10271836613664
 20
4.074752184768185
 30
0.0
 11
10.12499316149582
 21
4.092634332463588
 31
0.0
  0
LINE
  5
88F
330
22
100
AcDbEntity
  8
Layer 1
100
AcDbLine
 10
10.12499316149582
 20
4.092634332463588
 30
0.0
 11
10.133144116312
 21
4.112334548743945
 31
0.0
  0
LINE
  5
890
330
22
100
AcDbEntity
  8
Layer 1
100
AcDbLine
 10
10.133144116312
 20
4.112334548743945
 30
0.0
 11
10.12697806993717
 21
4.123540696519852
 31
0.0
  0
LINE
  5
891
330
22
100
AcDbEntity
  8
Layer 1
100
AcDbLine
 10
10.12697806993717
 20
4.123540696519852
 30
0.0
 11
10.05398089219232
 21
4.129722780653003
 31
0.0
  0
LINE
  5
892
330
22
100
AcDbEntity
  8
Layer 1
100
AcDbLine
 10
10.05398089219232
 20
4.129722780653003
 30
0.0
 11
9.963577180625984
 21
4.118962671237865
 31
0.0
  0
LINE
  5
893
330
22
100
AcDbEntity
  8
Layer 1
100
AcDbLine
 10
9.963577180625984
 20
4.118962671237865
 30
0.0
 11
9.887715659245385
 21
4.086723427955668
 31
0.0
  0
LINE
  5
894
330
22
100
AcDbEntity
  8
Layer 1
100
AcDbLine
 10
9.887715659245385
 20
4.086723427955668
 30
0.0
 11
9.826448969633736
 21
4.033037833871205
 31
0.0
  0
LINE
  5
895
330
22
100
AcDbEntity
  8
Layer 1
100
AcDbLine
 10
9.826448969633736
 20
4.033037833871205
 30
0.0
 11
9.779829611864556
 21
3.957938813558918
 31
0.0
  0
LINE
  5
896
330
22
100
AcDbEntity
  8
Layer 1
100
AcDbLine
 10
9.779829611864556
 20
3.957938813558918
 30
0.0
 11
9.760008593528164
 21
3.900552884101401
 31
0.0
  0
LINE
  5
897
330
22
100
AcDbEntity
  8
Layer 1
100
AcDbLine
 10
9.760008593528164
 20
3.900552884101401
 30
0.0
 11
9.752226224134057
 21
3.842922473169281
 31
0.0
  0
LINE
  5
898
330
22
100
AcDbEntity
  8
Layer 1
100
AcDbLine
 10
9.752226224134057
 20
3.842922473169281
 30
0.0
 11
9.755968729377523
 21
3.786388384527881
 31
0.0
  0
LINE
  5
899
330
22
100
AcDbEntity
  8
Layer 1
100
AcDbLine
 10
9.755968729377523
 20
3.786388384527881
 30
0.0
 11
9.770722429293565
 21
3.732291563452171
 31
0.0
  0
LINE
  5
89A
330
22
100
AcDbEntity
  8
Layer 1
100
AcDbLine
 10
9.770722429293565
 20
3.732291563452171
 30
0.0
 11
9.795973502407584
 21
3.681972955217126
 31
0.0
  0
LINE
  5
89B
330
22
100
AcDbEntity
  8
Layer 1
100
AcDbLine
 10
9.795973502407584
 20
3.681972955217126
 30
0.0
 11
9.831208315924484
 21
3.636773316418199
 31
0.0
  0
LINE
  5
89C
330
22
100
AcDbEntity
  8
Layer 1
100
AcDbLine
 10
9.831208315924484
 20
3.636773316418199
 30
0.0
 11
9.875913048369648
 21
3.598033686670099
 31
0.0
  0
LINE
  5
89D
330
22
100
AcDbEntity
  8
Layer 1
100
AcDbLine
 10
9.875913048369648
 20
3.598033686670099
 30
0.0
 11
9.929573972608222
 21
3.567094822568293
 31
0.0
  0
LINE
  5
89E
330
22
100
AcDbEntity
  8
Layer 1
100
AcDbLine
 10
9.929573972608222
 20
3.567094822568293
 30
0.0
 11
9.974960121102427
 21
3.552078433604961
 31
0.0
  0
LINE
  5
89F
330
22
100
AcDbEntity
  8
Layer 1
100
AcDbLine
 10
9.974960121102427
 20
3.552078433604961
 30
0.0
 11
10.02660981610806
 21
3.543712761506824
 31
0.0
  0
LINE
  5
8A0
330
22
100
AcDbEntity
  8
Layer 1
100
AcDbLine
 10
10.02660981610806
 20
3.543712761506824
 30
0.0
 11
10.07600177210142
 21
3.542781911146049
 31
0.0
  0
LINE
  5
8A1
330
22
100
AcDbEntity
  8
Layer 1
100
AcDbLine
 10
10.07600177210142
 20
3.542781911146049
 30
0.0
 11
10.11461484506843
 21
3.550069893055031
 31
0.0
  0
LINE
  5
8A2
330
22
100
AcDbEntity
  8
Layer 1
100
AcDbLine
 10
10.11461484506843
 20
3.550069893055031
 30
0.0
 11
10.11461484506843
 21
3.550069893055031
 31
0.0
  0
LINE
  5
8A3
330
22
100
AcDbEntity
  8
Layer 1
 62
     1
100
AcDbLine
 10
3.17353672400147
 20
4.926280170259587
 30
0.0
 11
3.17353672400147
 21
5.461357995405387
 31
0.0
  0
LINE
  5
8A4
330
22
100
AcDbEntity
  8
Layer 1
100
AcDbLine
 10
3.17353672400147
 20
5.461357995405387
 30
0.0
 11
3.323301084773153
 21
5.456821526785383
 31
0.0
  0
LINE
  5
8A5
330
22
100
AcDbEntity
  8
Layer 1
100
AcDbLine
 10
3.323301084773153
 20
5.456821526785383
 30
0.0
 11
3.461754627810951
 21
5.446487738722261
 31
0.0
  0
LINE
  5
8A6
330
22
100
AcDbEntity
  8
Layer 1
100
AcDbLine
 10
3.461754627810951
 20
5.446487738722261
 30
0.0
 11
3.507679692154548
 21
5.434212627184513
 31
0.0
  0
LINE
  5
8A7
330
22
100
AcDbEntity
  8
Layer 1
100
AcDbLine
 10
3.507679692154548
 20
5.434212627184513
 30
0.0
 11
3.556568345555961
 21
5.413786041961947
 31
0.0
  0
LINE
  5
8A8
330
22
100
AcDbEntity
  8
Layer 1
100
AcDbLine
 10
3.556568345555961
 20
5.413786041961947
 30
0.0
 11
3.638669262470751
 21
5.363668518914295
 31
0.0
  0
LINE
  5
8A9
330
22
100
AcDbEntity
  8
Layer 1
100
AcDbLine
 10
3.638669262470751
 20
5.363668518914295
 30
0.0
 11
3.716547862149083
 21
5.294116345996093
 31
0.0
  0
LINE
  5
8AA
330
22
100
AcDbEntity
  8
Layer 1
100
AcDbLine
 10
3.716547862149083
 20
5.294116345996093
 30
0.0
 11
3.782134652153072
 21
5.21357189352615
 31
0.0
  0
LINE
  5
8AB
330
22
100
AcDbEntity
  8
Layer 1
100
AcDbLine
 10
3.782134652153072
 20
5.21357189352615
 30
0.0
 11
3.827360423064087
 21
5.130477531823259
 31
0.0
  0
LINE
  5
8AC
330
22
100
AcDbEntity
  8
Layer 1
100
AcDbLine
 10
3.827360423064087
 20
5.130477531823259
 30
0.0
 11
3.851886023463568
 21
5.035895229496816
 31
0.0
  0
LINE
  5
8AD
330
22
100
AcDbEntity
  8
Layer 1
100
AcDbLine
 10
3.851886023463568
 20
5.035895229496816
 30
0.0
 11
3.860092025526673
 21
4.92669191611948
 31
0.0
  0
LINE
  5
8AE
330
22
100
AcDbEntity
  8
Layer 1
100
AcDbLine
 10
3.860092025526673
 20
4.92669191611948
 30
0.0
 11
3.85197262735849
 21
4.817536244318326
 31
0.0
  0
LINE
  5
8AF
330
22
100
AcDbEntity
  8
Layer 1
100
AcDbLine
 10
3.85197262735849
 20
4.817536244318326
 30
0.0
 11
3.827522027064088
 21
4.723097055399938
 31
0.0
  0
LINE
  5
8B0
330
22
100
AcDbEntity
  8
Layer 1
100
AcDbLine
 10
3.827522027064088
 20
4.723097055399938
 30
0.0
 11
3.783834701704746
 21
4.641904111455374
 31
0.0
  0
LINE
  5
8B1
330
22
100
AcDbEntity
  8
Layer 1
100
AcDbLine
 10
3.783834701704746
 20
4.641904111455374
 30
0.0
 11
3.720932821122845
 21
4.564073483542371
 31
0.0
  0
LINE
  5
8B2
330
22
100
AcDbEntity
  8
Layer 1
100
AcDbLine
 10
3.720932821122845
 20
4.564073483542371
 30
0.0
 11
3.644942195787786
 21
4.496038624070762
 31
0.0
  0
LINE
  5
8B3
330
22
100
AcDbEntity
  8
Layer 1
100
AcDbLine
 10
3.644942195787786
 20
4.496038624070762
 30
0.0
 11
3.561988588999083
 21
4.444232891110664
 31
0.0
  0
LINE
  5
8B4
330
22
100
AcDbEntity
  8
Layer 1
100
AcDbLine
 10
3.561988588999083
 20
4.444232891110664
 30
0.0
 11
3.50990766697418
 21
4.420483046515045
 31
0.0
  0
LINE
  5
8B5
330
22
100
AcDbEntity
  8
Layer 1
100
AcDbLine
 10
3.50990766697418
 20
4.420483046515045
 30
0.0
 11
3.463988027166483
 21
4.406784536756624
 31
0.0
  0
LINE
  5
8B6
330
22
100
AcDbEntity
  8
Layer 1
100
AcDbLine
 10
3.463988027166483
 20
4.406784536756624
 30
0.0
 11
3.323581321014837
 21
4.395967068770551
 31
0.0
  0
LINE
  5
8B7
330
22
100
AcDbEntity
  8
Layer 1
100
AcDbLine
 10
3.323581321014837
 20
4.395967068770551
 30
0.0
 11
3.17353672400147
 21
4.391202297943897
 31
0.0
  0
LINE
  5
8B8
330
22
100
AcDbEntity
  8
Layer 1
100
AcDbLine
 10
3.17353672400147
 20
4.391202297943897
 30
0.0
 11
3.17353672400147
 21
4.926280170259587
 31
0.0
  0
LINE
  5
8B9
330
22
100
AcDbEntity
  8
Layer 1
100
AcDbLine
 10
3.17353672400147
 20
4.926280170259587
 30
0.0
 11
3.17353672400147
 21
4.926280170259587
 31
0.0
  0
LINE
  5
8BA
330
22
100
AcDbEntity
  8
Layer 1
100
AcDbLine
 10
3.527460285906006
 20
4.520520733843277
 30
0.0
 11
3.597700384316331
 21
4.565890844579158
 31
0.0
  0
LINE
  5
8BB
330
22
100
AcDbEntity
  8
Layer 1
100
AcDbLine
 10
3.597700384316331
 20
4.565890844579158
 30
0.0
 11
3.664074722593531
 21
4.62824362061815
 31
0.0
  0
LINE
  5
8BC
330
22
100
AcDbEntity
  8
Layer 1
100
AcDbLine
 10
3.664074722593531
 20
4.62824362061815
 30
0.0
 11
3.718874091823356
 21
4.69910409725616
 31
0.0
  0
LINE
  5
8BD
330
22
100
AcDbEntity
  8
Layer 1
100
AcDbLine
 10
3.718874091823356
 20
4.69910409725616
 30
0.0
 11
3.754389471771077
 21
4.769997121109568
 31
0.0
  0
LINE
  5
8BE
330
22
100
AcDbEntity
  8
Layer 1
100
AcDbLine
 10
3.754389471771077
 20
4.769997121109568
 30
0.0
 11
3.771419684310606
 21
4.844816188199429
 31
0.0
  0
LINE
  5
8BF
330
22
100
AcDbEntity
  8
Layer 1
100
AcDbLine
 10
3.771419684310606
 20
4.844816188199429
 30
0.0
 11
3.778363892153043
 21
4.926571302742948
 31
0.0
  0
LINE
  5
8C0
330
22
100
AcDbEntity
  8
Layer 1
100
AcDbLine
 10
3.778363892153043
 20
4.926571302742948
 30
0.0
 11
3.771716854538281
 21
5.012277319048308
 31
0.0
  0
LINE
  5
8C1
330
22
100
AcDbEntity
  8
Layer 1
100
AcDbLine
 10
3.771716854538281
 20
5.012277319048308
 30
0.0
 11
3.751122910590671
 21
5.088984690670584
 31
0.0
  0
LINE
  5
8C2
330
22
100
AcDbEntity
  8
Layer 1
100
AcDbLine
 10
3.751122910590671
 20
5.088984690670584
 30
0.0
 11
3.715602577805816
 21
5.159258751392648
 31
0.0
  0
LINE
  5
8C3
330
22
100
AcDbEntity
  8
Layer 1
100
AcDbLine
 10
3.715602577805816
 20
5.159258751392648
 30
0.0
 11
3.664176609528731
 21
5.225664693487715
 31
0.0
  0
LINE
  5
8C4
330
22
100
AcDbEntity
  8
Layer 1
100
AcDbLine
 10
3.664176609528731
 20
5.225664693487715
 30
0.0
 11
3.597443402824212
 21
5.287705299278016
 31
0.0
  0
LINE
  5
8C5
330
22
100
AcDbEntity
  8
Layer 1
100
AcDbLine
 10
3.597443402824212
 20
5.287705299278016
 30
0.0
 11
3.52542721701983
 21
5.332958475887799
 31
0.0
  0
LINE
  5
8C6
330
22
100
AcDbEntity
  8
Layer 1
100
AcDbLine
 10
3.52542721701983
 20
5.332958475887799
 30
0.0
 11
3.446590314112066
 21
5.362183422493969
 31
0.0
  0
LINE
  5
8C7
330
22
100
AcDbEntity
  8
Layer 1
100
AcDbLine
 10
3.446590314112066
 20
5.362183422493969
 30
0.0
 11
3.359394814587785
 21
5.376139432613165
 31
0.0
  0
LINE
  5
8C8
330
22
100
AcDbEntity
  8
Layer 1
100
AcDbLine
 10
3.359394814587785
 20
5.376139432613165
 30
0.0
 11
3.266723458334906
 21
5.382769913600945
 31
0.0
  0
LINE
  5
8C9
330
22
100
AcDbEntity
  8
Layer 1
100
AcDbLine
 10
3.266723458334906
 20
5.382769913600945
 30
0.0
 11
3.266723458334906
 21
4.926429274242066
 31
0.0
  0
LINE
  5
8CA
330
22
100
AcDbEntity
  8
Layer 1
100
AcDbLine
 10
3.266723458334906
 20
4.926429274242066
 30
0.0
 11
3.266723458334906
 21
4.470088587713314
 31
0.0
  0
LINE
  5
8CB
330
22
100
AcDbEntity
  8
Layer 1
100
AcDbLine
 10
3.266723458334906
 20
4.470088587713314
 30
0.0
 11
3.361852978409165
 21
4.478063929075894
 31
0.0
  0
LINE
  5
8CC
330
22
100
AcDbEntity
  8
Layer 1
100
AcDbLine
 10
3.361852978409165
 20
4.478063929075894
 30
0.0
 11
3.450702348175143
 21
4.492791732729236
 31
0.0
  0
LINE
  5
8CD
330
22
100
AcDbEntity
  8
Layer 1
100
AcDbLine
 10
3.450702348175143
 20
4.492791732729236
 30
0.0
 11
3.527460285906006
 21
4.520520733843277
 31
0.0
  0
LINE
  5
8CE
330
22
100
AcDbEntity
  8
Layer 1
100
AcDbLine
 10
3.527460285906006
 20
4.520520733843277
 30
0.0
 11
3.527460285906006
 21
4.520520733843277
 31
0.0
  0
LINE
  5
8CF
330
22
100
AcDbEntity
  8
Layer 1
100
AcDbLine
 10
3.353007824507171
 20
4.582946340172988
 30
0.0
 11
3.349690791557933
 21
4.940112783979471
 31
0.0
  0
LINE
  5
8D0
330
22
100
AcDbEntity
  8
Layer 1
100
AcDbLine
 10
3.349690791557933
 20
4.940112783979471
 30
0.0
 11
3.353253956927486
 21
5.279349580024002
 31
0.0
  0
LINE
  5
8D1
330
22
100
AcDbEntity
  8
Layer 1
100
AcDbLine
 10
3.353253956927486
 20
5.279349580024002
 30
0.0
 11
3.397376801764946
 21
5.275854527957433
 31
0.0
  0
LINE
  5
8D2
330
22
100
AcDbEntity
  8
Layer 1
100
AcDbLine
 10
3.397376801764946
 20
5.275854527957433
 30
0.0
 11
3.43982525746403
 21
5.267716639197302
 31
0.0
  0
LINE
  5
8D3
330
22
100
AcDbEntity
  8
Layer 1
100
AcDbLine
 10
3.43982525746403
 20
5.267716639197302
 30
0.0
 11
3.48252791163247
 21
5.250702228566701
 31
0.0
  0
LINE
  5
8D4
330
22
100
AcDbEntity
  8
Layer 1
100
AcDbLine
 10
3.48252791163247
 20
5.250702228566701
 30
0.0
 11
3.563647081888761
 21
5.194611253753676
 31
0.0
  0
LINE
  5
8D5
330
22
100
AcDbEntity
  8
Layer 1
100
AcDbLine
 10
3.563647081888761
 20
5.194611253753676
 30
0.0
 11
3.630637034236018
 21
5.11671614461825
 31
0.0
  0
LINE
  5
8D6
330
22
100
AcDbEntity
  8
Layer 1
100
AcDbLine
 10
3.630637034236018
 20
5.11671614461825
 30
0.0
 11
3.655678107055813
 21
5.072446601462061
 31
0.0
  0
LINE
  5
8D7
330
22
100
AcDbEntity
  8
Layer 1
100
AcDbLine
 10
3.655678107055813
 20
5.072446601462061
 30
0.0
 11
3.67340039603668
 21
5.026151442260321
 31
0.0
  0
LINE
  5
8D8
330
22
100
AcDbEntity
  8
Layer 1
100
AcDbLine
 10
3.67340039603668
 20
5.026151442260321
 30
0.0
 11
3.68853301157795
 21
4.93486895587786
 31
0.0
  0
LINE
  5
8D9
330
22
100
AcDbEntity
  8
Layer 1
100
AcDbLine
 10
3.68853301157795
 20
4.93486895587786
 30
0.0
 11
3.679880122096272
 21
4.847623644963028
 31
0.0
  0
LINE
  5
8DA
330
22
100
AcDbEntity
  8
Layer 1
100
AcDbLine
 10
3.679880122096272
 20
4.847623644963028
 30
0.0
 11
3.647574888155578
 21
4.764967963120034
 31
0.0
  0
LINE
  5
8DB
330
22
100
AcDbEntity
  8
Layer 1
100
AcDbLine
 10
3.647574888155578
 20
4.764967963120034
 30
0.0
 11
3.591750423149915
 21
4.687454458292847
 31
0.0
  0
LINE
  5
8DC
330
22
100
AcDbEntity
  8
Layer 1
100
AcDbLine
 10
3.591750423149915
 20
4.687454458292847
 30
0.0
 11
3.525095093913
 21
4.630018528765275
 31
0.0
  0
LINE
  5
8DD
330
22
100
AcDbEntity
  8
Layer 1
100
AcDbLine
 10
3.525095093913
 20
4.630018528765275
 30
0.0
 11
3.450414894942217
 21
4.587908422596838
 31
0.0
  0
LINE
  5
8DE
330
22
100
AcDbEntity
  8
Layer 1
100
AcDbLine
 10
3.450414894942217
 20
4.587908422596838
 30
0.0
 11
3.38671683399954
 21
4.569444292953966
 31
0.0
  0
LINE
  5
8DF
330
22
100
AcDbEntity
  8
Layer 1
100
AcDbLine
 10
3.38671683399954
 20
4.569444292953966
 30
0.0
 11
3.364925765733176
 21
4.571679531934726
 31
0.0
  0
LINE
  5
8E0
330
22
100
AcDbEntity
  8
Layer 1
100
AcDbLine
 10
3.364925765733176
 20
4.571679531934726
 30
0.0
 11
3.353007824507171
 21
4.582946340172988
 31
0.0
  0
LINE
  5
8E1
330
22
100
AcDbEntity
  8
Layer 1
100
AcDbLine
 10
3.353007824507171
 20
4.582946340172988
 30
0.0
 11
3.353007824507171
 21
4.582946340172988
 31
0.0
  0
LINE
  5
8E2
330
22
100
AcDbEntity
  8
Layer 1
100
AcDbLine
 10
3.536695204505027
 20
4.752017661957068
 30
0.0
 11
3.569747986662886
 21
4.799528153050238
 31
0.0
  0
LINE
  5
8E3
330
22
100
AcDbEntity
  8
Layer 1
100
AcDbLine
 10
3.569747986662886
 20
4.799528153050238
 30
0.0
 11
3.590582968684055
 21
4.853300398199492
 31
0.0
  0
LINE
  5
8E4
330
22
100
AcDbEntity
  8
Layer 1
100
AcDbLine
 10
3.590582968684055
 20
4.853300398199492
 30
0.0
 11
3.599575292603566
 21
4.910652459685032
 31
0.0
  0
LINE
  5
8E5
330
22
100
AcDbEntity
  8
Layer 1
100
AcDbLine
 10
3.599575292603566
 20
4.910652459685032
 30
0.0
 11
3.597099958946803
 21
4.968902399787039
 31
0.0
  0
LINE
  5
8E6
330
22
100
AcDbEntity
  8
Layer 1
100
AcDbLine
 10
3.597099958946803
 20
4.968902399787039
 30
0.0
 11
3.583532109748799
 21
5.025368233615829
 31
0.0
  0
LINE
  5
8E7
330
22
100
AcDbEntity
  8
Layer 1
100
AcDbLine
 10
3.583532109748799
 20
5.025368233615829
 30
0.0
 11
3.559246745534964
 21
5.077368070621466
 31
0.0
  0
LINE
  5
8E8
330
22
100
AcDbEntity
  8
Layer 1
100
AcDbLine
 10
3.559246745534964
 20
5.077368070621466
 30
0.0
 11
3.524619008340314
 21
5.122219925914264
 31
0.0
  0
LINE
  5
8E9
330
22
100
AcDbEntity
  8
Layer 1
100
AcDbLine
 10
3.524619008340314
 20
5.122219925914264
 30
0.0
 11
3.480023945860123
 21
5.157241814604532
 31
0.0
  0
LINE
  5
8EA
330
22
100
AcDbEntity
  8
Layer 1
100
AcDbLine
 10
3.480023945860123
 20
5.157241814604532
 30
0.0
 11
3.43978450268995
 21
5.181011895077566
 31
0.0
  0
LINE
  5
8EB
330
22
100
AcDbEntity
  8
Layer 1
100
AcDbLine
 10
3.43978450268995
 20
5.181011895077566
 30
0.0
 11
3.43978450268995
 21
4.92685550125433
 31
0.0
  0
LINE
  5
8EC
330
22
100
AcDbEntity
  8
Layer 1
100
AcDbLine
 10
3.43978450268995
 20
4.92685550125433
 30
0.0
 11
3.441062523348446
 21
4.763114611466781
 31
0.0
  0
LINE
  5
8ED
330
22
100
AcDbEntity
  8
Layer 1
100
AcDbLine
 10
3.441062523348446
 20
4.763114611466781
 30
0.0
 11
3.451268481043798
 21
4.690890217823515
 31
0.0
  0
LINE
  5
8EE
330
22
100
AcDbEntity
  8
Layer 1
100
AcDbLine
 10
3.451268481043798
 20
4.690890217823515
 30
0.0
 11
3.462706232917789
 21
4.683708179459195
 31
0.0
  0
LINE
  5
8EF
330
22
100
AcDbEntity
  8
Layer 1
100
AcDbLine
 10
3.462706232917789
 20
4.683708179459195
 30
0.0
 11
3.479960077846113
 21
4.692938994278875
 31
0.0
  0
LINE
  5
8F0
330
22
100
AcDbEntity
  8
Layer 1
100
AcDbLine
 10
3.479960077846113
 20
4.692938994278875
 30
0.0
 11
3.536695204505027
 21
4.752017661957068
 31
0.0
  0
LINE
  5
8F1
330
22
100
AcDbEntity
  8
Layer 1
100
AcDbLine
 10
3.536695204505027
 20
4.752017661957068
 30
0.0
 11
3.536695204505027
 21
4.752017661957068
 31
0.0
  0
LINE
  5
8F2
330
22
100
AcDbEntity
  8
Layer 1
100
AcDbLine
 10
4.175606335504481
 20
4.427551263965185
 30
0.0
 11
4.121646778772037
 21
4.460173337972427
 31
0.0
  0
LINE
  5
8F3
330
22
100
AcDbEntity
  8
Layer 1
100
AcDbLine
 10
4.121646778772037
 20
4.460173337972427
 30
0.0
 11
4.076793319703406
 21
4.499617072480603
 31
0.0
  0
LINE
  5
8F4
330
22
100
AcDbEntity
  8
Layer 1
100
AcDbLine
 10
4.076793319703406
 20
4.499617072480603
 30
0.0
 11
4.039140672610305
 21
4.547908602403906
 31
0.0
  0
LINE
  5
8F5
330
22
100
AcDbEntity
  8
Layer 1
100
AcDbLine
 10
4.039140672610305
 20
4.547908602403906
 30
0.0
 11
4.006783551804464
 21
4.607074015486651
 31
0.0
  0
LINE
  5
8F6
330
22
100
AcDbEntity
  8
Layer 1
100
AcDbLine
 10
4.006783551804464
 20
4.607074015486651
 30
0.0
 11
3.991339567902423
 21
4.649618697735646
 31
0.0
  0
LINE
  5
8F7
330
22
100
AcDbEntity
  8
Layer 1
100
AcDbLine
 10
3.991339567902423
 20
4.649618697735646
 30
0.0
 11
3.982999603387473
 21
4.716193979690602
 31
0.0
  0
LINE
  5
8F8
330
22
100
AcDbEntity
  8
Layer 1
100
AcDbLine
 10
3.982999603387473
 20
4.716193979690602
 30
0.0
 11
3.978936201468006
 21
5.064160552116987
 31
0.0
  0
LINE
  5
8F9
330
22
100
AcDbEntity
  8
Layer 1
 62
     1
100
AcDbLine
 10
3.978936201468006
 20
5.064160552116987
 30
0.0
 11
3.978936201468006
 21
5.461341344438665
 31
0.0
  0
LINE
  5
8FB
330
22
100
AcDbEntity
  8
Layer 1
100
AcDbLine
 10
4.105403878656329
 20
5.461373702974561
 30
0.0
 11
4.231871555844649
 21
5.461406061510459
 31
0.0
  0
LINE
  5
8FC
330
22
100
AcDbEntity
  8
Layer 1
100
AcDbLine
 10
4.231871555844649
 20
5.461406061510459
 30
0.0
 11
4.238527744415631
 21
5.084161476365827
 31
0.0
  0
LINE
  5
8FD
330
22
100
AcDbEntity
  8
Layer 1
100
AcDbLine
 10
4.238527744415631
 20
5.084161476365827
 30
0.0
 11
4.246541434888547
 21
4.812603171369076
 31
0.0
  0
LINE
  5
8FE
330
22
100
AcDbEntity
  8
Layer 1
100
AcDbLine
 10
4.246541434888547
 20
4.812603171369076
 30
0.0
 11
4.256461401617163
 21
4.689455310152752
 31
0.0
  0
LINE
  5
8FF
330
22
100
AcDbEntity
  8
Layer 1
100
AcDbLine
 10
4.256461401617163
 20
4.689455310152752
 30
0.0
 11
4.277487232962326
 21
4.669651272972223
 31
0.0
  0
LINE
  5
900
330
22
100
AcDbEntity
  8
Layer 1
100
AcDbLine
 10
4.277487232962326
 20
4.669651272972223
 30
0.0
 11
4.307237746342581
 21
4.657392859571081
 31
0.0
  0
LINE
  5
901
330
22
100
AcDbEntity
  8
Layer 1
100
AcDbLine
 10
4.307237746342581
 20
4.657392859571081
 30
0.0
 11
4.340577793053857
 21
4.653957383059669
 31
0.0
  0
LINE
  5
902
330
22
100
AcDbEntity
  8
Layer 1
100
AcDbLine
 10
4.340577793053857
 20
4.653957383059669
 30
0.0
 11
4.372372460241491
 21
4.660622156548341
 31
0.0
  0
LINE
  5
903
330
22
100
AcDbEntity
  8
Layer 1
100
AcDbLine
 10
4.372372460241491
 20
4.660622156548341
 30
0.0
 11
4.392868715372988
 21
4.671039246614967
 31
0.0
  0
LINE
  5
904
330
22
100
AcDbEntity
  8
Layer 1
100
AcDbLine
 10
4.392868715372988
 20
4.671039246614967
 30
0.0
 11
4.40862001102634
 21
4.68595563543819
 31
0.0
  0
LINE
  5
905
330
22
100
AcDbEntity
  8
Layer 1
100
AcDbLine
 10
4.40862001102634
 20
4.68595563543819
 30
0.0
 11
4.420246395240085
 21
4.709543687354305
 31
0.0
  0
LINE
  5
906
330
22
100
AcDbEntity
  8
Layer 1
100
AcDbLine
 10
4.420246395240085
 20
4.709543687354305
 30
0.0
 11
4.428368104732268
 21
4.745975530850195
 31
0.0
  0
LINE
  5
907
330
22
100
AcDbEntity
  8
Layer 1
100
AcDbLine
 10
4.428368104732268
 20
4.745975530850195
 30
0.0
 11
4.436577738875933
 21
4.874059908416818
 31
0.0
  0
LINE
  5
908
330
22
100
AcDbEntity
  8
Layer 1
100
AcDbLine
 10
4.436577738875933
 20
4.874059908416818
 30
0.0
 11
4.438209816634269
 21
5.103586786600651
 31
0.0
  0
LINE
  5
909
330
22
100
AcDbEntity
  8
Layer 1
100
AcDbLine
 10
4.438209816634269
 20
5.103586786600651
 30
0.0
 11
4.438205948704316
 21
5.465723001521005
 31
0.0
  0
LINE
  5
90A
330
22
100
AcDbEntity
  8
Layer 1
100
AcDbLine
 10
4.438205948704316
 20
5.465723001521005
 30
0.0
 11
4.568005611693018
 21
5.463382007675098
 31
0.0
  0
LINE
  5
90C
330
22
100
AcDbEntity
  8
Layer 1
100
AcDbLine
 10
4.69780513317208
 20
5.46104091948944
 30
0.0
 11
4.697166641711481
 21
5.077322787539158
 31
0.0
  0
LINE
  5
90D
330
22
100
AcDbEntity
  8
Layer 1
100
AcDbLine
 10
4.697166641711481
 20
5.077322787539158
 30
0.0
 11
4.695105082219346
 21
4.834826598731758
 31
0.0
  0
LINE
  5
90E
330
22
100
AcDbEntity
  8
Layer 1
100
AcDbLine
 10
4.695105082219346
 20
4.834826598731758
 30
0.0
 11
4.686532758888287
 21
4.691507199820023
 31
0.0
  0
LINE
  5
90F
330
22
100
AcDbEntity
  8
Layer 1
100
AcDbLine
 10
4.686532758888287
 20
4.691507199820023
 30
0.0
 11
4.66634258909129
 21
4.606892930327282
 31
0.0
  0
LINE
  5
910
330
22
100
AcDbEntity
  8
Layer 1
100
AcDbLine
 10
4.66634258909129
 20
4.606892930327282
 30
0.0
 11
4.629427490201348
 21
4.540512082606993
 31
0.0
  0
LINE
  5
911
330
22
100
AcDbEntity
  8
Layer 1
100
AcDbLine
 10
4.629427490201348
 20
4.540512082606993
 30
0.0
 11
4.587416770964613
 21
4.49391871544028
 31
0.0
  0
LINE
  5
912
330
22
100
AcDbEntity
  8
Layer 1
100
AcDbLine
 10
4.587416770964613
 20
4.49391871544028
 30
0.0
 11
4.529856029941424
 21
4.447325348273564
 31
0.0
  0
LINE
  5
913
330
22
100
AcDbEntity
  8
Layer 1
100
AcDbLine
 10
4.529856029941424
 20
4.447325348273564
 30
0.0
 11
4.489753426585613
 21
4.422075077047458
 31
0.0
  0
LINE
  5
914
330
22
100
AcDbEntity
  8
Layer 1
100
AcDbLine
 10
4.489753426585613
 20
4.422075077047458
 30
0.0
 11
4.454942151397963
 21
4.407496377376587
 31
0.0
  0
LINE
  5
915
330
22
100
AcDbEntity
  8
Layer 1
100
AcDbLine
 10
4.454942151397963
 20
4.407496377376587
 30
0.0
 11
4.353202905081976
 21
4.396563343190877
 31
0.0
  0
LINE
  5
916
330
22
100
AcDbEntity
  8
Layer 1
100
AcDbLine
 10
4.353202905081976
 20
4.396563343190877
 30
0.0
 11
4.251712291189808
 21
4.3990732051979
 31
0.0
  0
LINE
  5
917
330
22
100
AcDbEntity
  8
Layer 1
100
AcDbLine
 10
4.251712291189808
 20
4.3990732051979
 30
0.0
 11
4.175606335504481
 21
4.427551263965185
 31
0.0
  0
LINE
  5
918
330
22
100
AcDbEntity
  8
Layer 1
100
AcDbLine
 10
4.175606335504481
 20
4.427551263965185
 30
0.0
 11
4.175606335504481
 21
4.427551263965185
 31
0.0
  0
LINE
  5
919
330
22
100
AcDbEntity
  8
Layer 1
100
AcDbLine
 10
4.444869731625556
 20
4.499265892743294
 30
0.0
 11
4.492127816704718
 21
4.525385740659422
 31
0.0
  0
LINE
  5
91A
330
22
100
AcDbEntity
  8
Layer 1
100
AcDbLine
 10
4.492127816704718
 20
4.525385740659422
 30
0.0
 11
4.530199851177853
 21
4.556204085724452
 31
0.0
  0
LINE
  5
91B
330
22
100
AcDbEntity
  8
Layer 1
100
AcDbLine
 10
4.530199851177853
 20
4.556204085724452
 30
0.0
 11
4.560857488470546
 21
4.59347611907674
 31
0.0
  0
LINE
  5
91C
330
22
100
AcDbEntity
  8
Layer 1
100
AcDbLine
 10
4.560857488470546
 20
4.59347611907674
 30
0.0
 11
4.585872429178263
 21
4.638956890345028
 31
0.0
  0
LINE
  5
91D
330
22
100
AcDbEntity
  8
Layer 1
100
AcDbLine
 10
4.585872429178263
 20
4.638956890345028
 30
0.0
 11
4.599095042043505
 21
4.67863024781642
 31
0.0
  0
LINE
  5
91E
330
22
100
AcDbEntity
  8
Layer 1
100
AcDbLine
 10
4.599095042043505
 20
4.67863024781642
 30
0.0
 11
4.606628071465629
 21
4.741326043203925
 31
0.0
  0
LINE
  5
91F
330
22
100
AcDbEntity
  8
Layer 1
100
AcDbLine
 10
4.606628071465629
 20
4.741326043203925
 30
0.0
 11
4.610982275679324
 21
5.036398484918889
 31
0.0
  0
LINE
  5
920
330
22
100
AcDbEntity
  8
Layer 1
100
AcDbLine
 10
4.610982275679324
 20
5.036398484918889
 30
0.0
 11
4.611274587409623
 21
5.379192502928424
 31
0.0
  0
LINE
  5
921
330
22
100
AcDbEntity
  8
Layer 1
100
AcDbLine
 10
4.611274587409623
 20
5.379192502928424
 30
0.0
 11
4.564681220242901
 21
5.379192502928424
 31
0.0
  0
LINE
  5
922
330
22
100
AcDbEntity
  8
Layer 1
100
AcDbLine
 10
4.564681220242901
 20
5.379192502928424
 30
0.0
 11
4.518087900246063
 21
5.379192502928424
 31
0.0
  0
LINE
  5
923
330
22
100
AcDbEntity
  8
Layer 1
100
AcDbLine
 10
4.518087900246063
 20
5.379192502928424
 30
0.0
 11
4.518087900246063
 21
5.042847031689511
 31
0.0
  0
LINE
  5
924
330
22
100
AcDbEntity
  8
Layer 1
100
AcDbLine
 10
4.518087900246063
 20
5.042847031689511
 30
0.0
 11
4.514070300277556
 21
4.754561580615578
 31
0.0
  0
LINE
  5
925
330
22
100
AcDbEntity
  8
Layer 1
100
AcDbLine
 10
4.514070300277556
 20
4.754561580615578
 30
0.0
 11
4.506726610743355
 21
4.695638101834056
 31
0.0
  0
LINE
  5
926
330
22
100
AcDbEntity
  8
Layer 1
100
AcDbLine
 10
4.506726610743355
 20
4.695638101834056
 30
0.0
 11
4.493762535976178
 21
4.661144374261127
 31
0.0
  0
LINE
  5
927
330
22
100
AcDbEntity
  8
Layer 1
100
AcDbLine
 10
4.493762535976178
 20
4.661144374261127
 30
0.0
 11
4.465374901863886
 21
4.622623282555068
 31
0.0
  0
LINE
  5
928
330
22
100
AcDbEntity
  8
Layer 1
100
AcDbLine
 10
4.465374901863886
 20
4.622623282555068
 30
0.0
 11
4.428824614805824
 21
4.594495318617909
 31
0.0
  0
LINE
  5
929
330
22
100
AcDbEntity
  8
Layer 1
100
AcDbLine
 10
4.428824614805824
 20
4.594495318617909
 30
0.0
 11
4.386745782266111
 21
4.576859586362083
 31
0.0
  0
LINE
  5
92A
330
22
100
AcDbEntity
  8
Layer 1
100
AcDbLine
 10
4.386745782266111
 20
4.576859586362083
 30
0.0
 11
4.341772653218495
 21
4.56981542554942
 31
0.0
  0
LINE
  5
92B
330
22
100
AcDbEntity
  8
Layer 1
100
AcDbLine
 10
4.341772653218495
 20
4.56981542554942
 30
0.0
 11
4.296539287957213
 21
4.573461987262233
 31
0.0
  0
LINE
  5
92C
330
22
100
AcDbEntity
  8
Layer 1
100
AcDbLine
 10
4.296539287957213
 20
4.573461987262233
 30
0.0
 11
4.253679841116271
 21
4.587898469752707
 31
0.0
  0
LINE
  5
92D
330
22
100
AcDbEntity
  8
Layer 1
100
AcDbLine
 10
4.253679841116271
 20
4.587898469752707
 30
0.0
 11
4.215828514499524
 21
4.613224118442913
 31
0.0
  0
LINE
  5
92E
330
22
100
AcDbEntity
  8
Layer 1
100
AcDbLine
 10
4.215828514499524
 20
4.613224118442913
 30
0.0
 11
4.185619368401232
 21
4.649538131585032
 31
0.0
  0
LINE
  5
92F
330
22
100
AcDbEntity
  8
Layer 1
100
AcDbLine
 10
4.185619368401232
 20
4.649538131585032
 30
0.0
 11
4.170828357112155
 21
4.682309875613299
 31
0.0
  0
LINE
  5
930
330
22
100
AcDbEntity
  8
Layer 1
100
AcDbLine
 10
4.170828357112155
 20
4.682309875613299
 30
0.0
 11
4.162763676001763
 21
4.738282784223166
 31
0.0
  0
LINE
  5
931
330
22
100
AcDbEntity
  8
Layer 1
100
AcDbLine
 10
4.162763676001763
 20
4.738282784223166
 30
0.0
 11
4.15870319861469
 21
5.036398484918889
 31
0.0
  0
LINE
  5
932
330
22
100
AcDbEntity
  8
Layer 1
100
AcDbLine
 10
4.15870319861469
 20
5.036398484918889
 30
0.0
 11
4.158653434394026
 21
5.379192502928424
 31
0.0
  0
LINE
  5
933
330
22
100
AcDbEntity
  8
Layer 1
100
AcDbLine
 10
4.158653434394026
 20
5.379192502928424
 30
0.0
 11
4.112060067227305
 21
5.379192502928424
 31
0.0
  0
LINE
  5
934
330
22
100
AcDbEntity
  8
Layer 1
100
AcDbLine
 10
4.112060067227305
 20
5.379192502928424
 30
0.0
 11
4.065466700060587
 21
5.379192502928424
 31
0.0
  0
LINE
  5
935
330
22
100
AcDbEntity
  8
Layer 1
100
AcDbLine
 10
4.065466700060587
 20
5.379192502928424
 30
0.0
 11
4.065466700060587
 21
5.030617203234078
 31
0.0
  0
LINE
  5
936
330
22
100
AcDbEntity
  8
Layer 1
100
AcDbLine
 10
4.065466700060587
 20
5.030617203234078
 30
0.0
 11
4.069614017191968
 21
4.725128190321143
 31
0.0
  0
LINE
  5
937
330
22
100
AcDbEntity
  8
Layer 1
100
AcDbLine
 10
4.069614017191968
 20
4.725128190321143
 30
0.0
 11
4.078003934607093
 21
4.664620652716492
 31
0.0
  0
LINE
  5
938
330
22
100
AcDbEntity
  8
Layer 1
100
AcDbLine
 10
4.078003934607093
 20
4.664620652716492
 30
0.0
 11
4.093454286442583
 21
4.624227530085717
 31
0.0
  0
LINE
  5
939
330
22
100
AcDbEntity
  8
Layer 1
100
AcDbLine
 10
4.093454286442583
 20
4.624227530085717
 30
0.0
 11
4.121170363010213
 21
4.579251004806933
 31
0.0
  0
LINE
  5
93A
330
22
100
AcDbEntity
  8
Layer 1
100
AcDbLine
 10
4.121170363010213
 20
4.579251004806933
 30
0.0
 11
4.156412393518353
 21
4.541632838894222
 31
0.0
  0
LINE
  5
93B
330
22
100
AcDbEntity
  8
Layer 1
100
AcDbLine
 10
4.156412393518353
 20
4.541632838894222
 30
0.0
 11
4.197733253297995
 21
4.511887561370357
 31
0.0
  0
LINE
  5
93C
330
22
100
AcDbEntity
  8
Layer 1
100
AcDbLine
 10
4.197733253297995
 20
4.511887561370357
 30
0.0
 11
4.243685723340361
 21
4.490529842767755
 31
0.0
  0
LINE
  5
93D
330
22
100
AcDbEntity
  8
Layer 1
100
AcDbLine
 10
4.243685723340361
 20
4.490529842767755
 30
0.0
 11
4.292822773316208
 21
4.478074212109162
 31
0.0
  0
LINE
  5
93E
330
22
100
AcDbEntity
  8
Layer 1
100
AcDbLine
 10
4.292822773316208
 20
4.478074212109162
 30
0.0
 11
4.343697184216756
 21
4.47503524558725
 31
0.0
  0
LINE
  5
93F
330
22
100
AcDbEntity
  8
Layer 1
100
AcDbLine
 10
4.343697184216756
 20
4.47503524558725
 30
0.0
 11
4.394861925712755
 21
4.481927613734419
 31
0.0
  0
LINE
  5
940
330
22
100
AcDbEntity
  8
Layer 1
100
AcDbLine
 10
4.394861925712755
 20
4.481927613734419
 30
0.0
 11
4.444869731625556
 21
4.499265892743294
 31
0.0
  0
LINE
  5
941
330
22
100
AcDbEntity
  8
Layer 1
100
AcDbLine
 10
4.444869731625556
 20
4.499265892743294
 30
0.0
 11
4.444869731625556
 21
4.499265892743294
 31
0.0
  0
LINE
  5
942
330
22
100
AcDbEntity
  8
Layer 1
100
AcDbLine
 10
5.190363464783422
 20
4.412741762084166
 30
0.0
 11
5.086072658288783
 21
4.457126682760502
 31
0.0
  0
LINE
  5
943
330
22
100
AcDbEntity
  8
Layer 1
100
AcDbLine
 10
5.086072658288783
 20
4.457126682760502
 30
0.0
 11
4.996349183524552
 21
4.519441251198792
 31
0.0
  0
LINE
  5
944
330
22
100
AcDbEntity
  8
Layer 1
100
AcDbLine
 10
4.996349183524552
 20
4.519441251198792
 30
0.0
 11
4.921418418164972
 21
4.599490561465579
 31
0.0
  0
LINE
  5
945
330
22
100
AcDbEntity
  8
Layer 1
100
AcDbLine
 10
4.921418418164972
 20
4.599490561465579
 30
0.0
 11
4.861505834224081
 21
4.697079707627416
 31
0.0
  0
LINE
  5
946
330
22
100
AcDbEntity
  8
Layer 1
100
AcDbLine
 10
4.861505834224081
 20
4.697079707627416
 30
0.0
 11
4.837261036104811
 21
4.749716904016593
 31
0.0
  0
LINE
  5
947
330
22
100
AcDbEntity
  8
Layer 1
100
AcDbLine
 10
4.837261036104811
 20
4.749716904016593
 30
0.0
 11
4.824106017673893
 21
4.793758569495032
 31
0.0
  0
LINE
  5
948
330
22
100
AcDbEntity
  8
Layer 1
100
AcDbLine
 10
4.824106017673893
 20
4.793758569495032
 30
0.0
 11
4.817616621789431
 21
4.926291349520519
 31
0.0
  0
LINE
  5
949
330
22
100
AcDbEntity
  8
Layer 1
100
AcDbLine
 10
4.817616621789431
 20
4.926291349520519
 30
0.0
 11
4.823980640139741
 21
5.058089647384888
 31
0.0
  0
LINE
  5
94A
330
22
100
AcDbEntity
  8
Layer 1
100
AcDbLine
 10
4.823980640139741
 20
5.058089647384888
 30
0.0
 11
4.836373204672232
 21
5.101983105108517
 31
0.0
  0
LINE
  5
94B
330
22
100
AcDbEntity
  8
Layer 1
100
AcDbLine
 10
4.836373204672232
 20
5.101983105108517
 30
0.0
 11
4.858850500315126
 21
5.152881902835686
 31
0.0
  0
LINE
  5
94C
330
22
100
AcDbEntity
  8
Layer 1
100
AcDbLine
 10
4.858850500315126
 20
5.152881902835686
 30
0.0
 11
4.897691922658671
 21
5.222512283410629
 31
0.0
  0
LINE
  5
94D
330
22
100
AcDbEntity
  8
Layer 1
100
AcDbLine
 10
4.897691922658671
 20
5.222512283410629
 30
0.0
 11
4.943640713450603
 21
5.283705529523153
 31
0.0
  0
LINE
  5
94E
330
22
100
AcDbEntity
  8
Layer 1
100
AcDbLine
 10
4.943640713450603
 20
5.283705529523153
 30
0.0
 11
4.996282107958873
 21
5.336200555901831
 31
0.0
  0
LINE
  5
94F
330
22
100
AcDbEntity
  8
Layer 1
100
AcDbLine
 10
4.996282107958873
 20
5.336200555901831
 30
0.0
 11
5.055201388621306
 21
5.379736324445061
 31
0.0
  0
LINE
  5
950
330
22
100
AcDbEntity
  8
Layer 1
100
AcDbLine
 10
5.055201388621306
 20
5.379736324445061
 30
0.0
 11
5.11998374353597
 21
5.414051891391025
 31
0.0
  0
LINE
  5
951
330
22
100
AcDbEntity
  8
Layer 1
100
AcDbLine
 10
5.11998374353597
 20
5.414051891391025
 30
0.0
 11
5.190214502310565
 21
5.438886171468261
 31
0.0
  0
LINE
  5
952
330
22
100
AcDbEntity
  8
Layer 1
100
AcDbLine
 10
5.190214502310565
 20
5.438886171468261
 30
0.0
 11
5.265478853043168
 21
5.453978126575207
 31
0.0
  0
LINE
  5
953
330
22
100
AcDbEntity
  8
Layer 1
100
AcDbLine
 10
5.265478853043168
 20
5.453978126575207
 30
0.0
 11
5.345362125341481
 21
5.45906681295002
 31
0.0
  0
LINE
  5
954
330
22
100
AcDbEntity
  8
Layer 1
100
AcDbLine
 10
5.345362125341481
 20
5.45906681295002
 30
0.0
 11
5.418449727741323
 21
5.454623552007781
 31
0.0
  0
LINE
  5
955
330
22
100
AcDbEntity
  8
Layer 1
100
AcDbLine
 10
5.418449727741323
 20
5.454623552007781
 30
0.0
 11
5.490415630456388
 21
5.442892969534844
 31
0.0
  0
LINE
  5
956
330
22
100
AcDbEntity
  8
Layer 1
100
AcDbLine
 10
5.490415630456388
 20
5.442892969534844
 30
0.0
 11
5.550119063160858
 21
5.42627374813717
 31
0.0
  0
LINE
  5
957
330
22
100
AcDbEntity
  8
Layer 1
 62
     1
100
AcDbLine
 10
5.550119063160858
 20
5.42627374813717
 30
0.0
 11
5.586419491378288
 21
5.407164617590622
 31
0.0
  0
LINE
  5
959
330
22
100
AcDbEntity
  8
Layer 1
100
AcDbLine
 10
5.545279103549613
 20
5.292964504759659
 30
0.0
 11
5.485155623086822
 21
5.170345748058231
 31
0.0
  0
LINE
  5
95A
330
22
100
AcDbEntity
  8
Layer 1
100
AcDbLine
 10
5.485155623086822
 20
5.170345748058231
 30
0.0
 11
5.418451378687028
 21
5.188980679827188
 31
0.0
  0
LINE
  5
95B
330
22
100
AcDbEntity
  8
Layer 1
100
AcDbLine
 10
5.418451378687028
 20
5.188980679827188
 30
0.0
 11
5.37434650557287
 21
5.199233524380679
 31
0.0
  0
LINE
  5
95C
330
22
100
AcDbEntity
  8
Layer 1
100
AcDbLine
 10
5.37434650557287
 20
5.199233524380679
 30
0.0
 11
5.330042198217027
 21
5.201456687872813
 31
0.0
  0
LINE
  5
95D
330
22
100
AcDbEntity
  8
Layer 1
100
AcDbLine
 10
5.330042198217027
 20
5.201456687872813
 30
0.0
 11
5.286442891848933
 21
5.19601045382724
 31
0.0
  0
LINE
  5
95E
330
22
100
AcDbEntity
  8
Layer 1
100
AcDbLine
 10
5.286442891848933
 20
5.19601045382724
 30
0.0
 11
5.244452974528128
 21
5.18325520010736
 31
0.0
  0
LINE
  5
95F
330
22
100
AcDbEntity
  8
Layer 1
100
AcDbLine
 10
5.244452974528128
 20
5.18325520010736
 30
0.0
 11
5.204976881484054
 21
5.16355135174644
 31
0.0
  0
LINE
  5
960
330
22
100
AcDbEntity
  8
Layer 1
100
AcDbLine
 10
5.204976881484054
 20
5.16355135174644
 30
0.0
 11
5.168919047946137
 21
5.137259192268138
 31
0.0
  0
LINE
  5
961
330
22
100
AcDbEntity
  8
Layer 1
100
AcDbLine
 10
5.168919047946137
 20
5.137259192268138
 30
0.0
 11
5.13718386197392
 21
5.104739052365978
 31
0.0
  0
LINE
  5
962
330
22
100
AcDbEntity
  8
Layer 1
100
AcDbLine
 10
5.13718386197392
 20
5.104739052365978
 30
0.0
 11
5.110675758796847
 21
5.066351357073222
 31
0.0
  0
LINE
  5
963
330
22
100
AcDbEntity
  8
Layer 1
100
AcDbLine
 10
5.110675758796847
 20
5.066351357073222
 30
0.0
 11
5.087067187984058
 21
5.016609259079863
 31
0.0
  0
LINE
  5
964
330
22
100
AcDbEntity
  8
Layer 1
100
AcDbLine
 10
5.087067187984058
 20
5.016609259079863
 30
0.0
 11
5.073496414253665
 21
4.967281878648677
 31
0.0
  0
LINE
  5
965
330
22
100
AcDbEntity
  8
Layer 1
100
AcDbLine
 10
5.073496414253665
 20
4.967281878648677
 30
0.0
 11
5.069930654540852
 21
4.918181338157943
 31
0.0
  0
LINE
  5
966
330
22
100
AcDbEntity
  8
Layer 1
100
AcDbLine
 10
5.069930654540852
 20
4.918181338157943
 30
0.0
 11
5.076337267290464
 21
4.869119712816079
 31
0.0
  0
LINE
  5
967
330
22
100
AcDbEntity
  8
Layer 1
100
AcDbLine
 10
5.076337267290464
 20
4.869119712816079
 30
0.0
 11
5.095684794397433
 21
4.813718974819173
 31
0.0
  0
LINE
  5
968
330
22
100
AcDbEntity
  8
Layer 1
100
AcDbLine
 10
5.095684794397433
 20
4.813718974819173
 30
0.0
 11
5.125512336187496
 21
4.764770085484308
 31
0.0
  0
LINE
  5
969
330
22
100
AcDbEntity
  8
Layer 1
100
AcDbLine
 10
5.125512336187496
 20
4.764770085484308
 30
0.0
 11
5.164019418439974
 21
4.723327763270339
 31
0.0
  0
LINE
  5
96A
330
22
100
AcDbEntity
  8
Layer 1
100
AcDbLine
 10
5.164019418439974
 20
4.723327763270339
 30
0.0
 11
5.209405614104055
 21
4.690446585126494
 31
0.0
  0
LINE
  5
96B
330
22
100
AcDbEntity
  8
Layer 1
100
AcDbLine
 10
5.209405614104055
 20
4.690446585126494
 30
0.0
 11
5.259870448959068
 21
4.667181222341731
 31
0.0
  0
LINE
  5
96C
330
22
100
AcDbEntity
  8
Layer 1
100
AcDbLine
 10
5.259870448959068
 20
4.667181222341731
 30
0.0
 11
5.313613448784332
 21
4.654586346205036
 31
0.0
  0
LINE
  5
96D
330
22
100
AcDbEntity
  8
Layer 1
100
AcDbLine
 10
5.313613448784332
 20
4.654586346205036
 30
0.0
 11
5.368834186529046
 21
4.653716628005382
 31
0.0
  0
LINE
  5
96E
330
22
100
AcDbEntity
  8
Layer 1
100
AcDbLine
 10
5.368834186529046
 20
4.653716628005382
 30
0.0
 11
5.423732140802661
 21
4.665626691861858
 31
0.0
  0
LINE
  5
96F
330
22
100
AcDbEntity
  8
Layer 1
100
AcDbLine
 10
5.423732140802661
 20
4.665626691861858
 30
0.0
 11
5.484743358358273
 21
4.683030631340094
 31
0.0
  0
LINE
  5
970
330
22
100
AcDbEntity
  8
Layer 1
100
AcDbLine
 10
5.484743358358273
 20
4.683030631340094
 30
0.0
 11
5.545672641836827
 21
4.559577675356699
 31
0.0
  0
LINE
  5
972
330
22
100
AcDbEntity
  8
Layer 1
100
AcDbLine
 10
5.586609585984243
 20
4.446634969947815
 30
0.0
 11
5.558679216663546
 21
4.430175937453824
 31
0.0
  0
LINE
  5
973
330
22
100
AcDbEntity
  8
Layer 1
100
AcDbLine
 10
5.558679216663546
 20
4.430175937453824
 30
0.0
 11
5.517231800102825
 21
4.416580729726923
 31
0.0
  0
LINE
  5
974
330
22
100
AcDbEntity
  8
Layer 1
100
AcDbLine
 10
5.517231800102825
 20
4.416580729726923
 30
0.0
 11
5.408476883580125
 21
4.399238299768832
 31
0.0
  0
LINE
  5
975
330
22
100
AcDbEntity
  8
Layer 1
100
AcDbLine
 10
5.408476883580125
 20
4.399238299768832
 30
0.0
 11
5.289726764374347
 21
4.397120891141844
 31
0.0
  0
LINE
  5
976
330
22
100
AcDbEntity
  8
Layer 1
100
AcDbLine
 10
5.289726764374347
 20
4.397120891141844
 30
0.0
 11
5.190363464783422
 21
4.412741762084166
 31
0.0
  0
LINE
  5
977
330
22
100
AcDbEntity
  8
Layer 1
100
AcDbLine
 10
5.190363464783422
 20
4.412741762084166
 30
0.0
 11
5.190363464783422
 21
4.412741762084166
 31
0.0
  0
LINE
  5
978
330
22
100
AcDbEntity
  8
Layer 1
100
AcDbLine
 10
5.471949849867813
 20
4.491507579986673
 30
0.0
 11
5.473238530918612
 21
4.508187744865948
 31
0.0
  0
LINE
  5
979
330
22
100
AcDbEntity
  8
Layer 1
100
AcDbLine
 10
5.473238530918612
 20
4.508187744865948
 30
0.0
 11
5.464802717212768
 21
4.536757171685778
 31
0.0
  0
LINE
  5
97A
330
22
100
AcDbEntity
  8
Layer 1
100
AcDbLine
 10
5.464802717212768
 20
4.536757171685778
 30
0.0
 11
5.454074730484141
 21
4.557709135002922
 31
0.0
  0
LINE
  5
97B
330
22
100
AcDbEntity
  8
Layer 1
100
AcDbLine
 10
5.454074730484141
 20
4.557709135002922
 30
0.0
 11
5.437513999734461
 21
4.568807027910182
 31
0.0
  0
LINE
  5
97C
330
22
100
AcDbEntity
  8
Layer 1
100
AcDbLine
 10
5.437513999734461
 20
4.568807027910182
 30
0.0
 11
5.346527362823101
 21
4.574230195885704
 31
0.0
  0
LINE
  5
97D
330
22
100
AcDbEntity
  8
Layer 1
100
AcDbLine
 10
5.346527362823101
 20
4.574230195885704
 30
0.0
 11
5.25369798748091
 21
4.580684544551252
 31
0.0
  0
LINE
  5
97E
330
22
100
AcDbEntity
  8
Layer 1
100
AcDbLine
 10
5.25369798748091
 20
4.580684544551252
 30
0.0
 11
5.188573603785163
 21
4.603668963546161
 31
0.0
  0
LINE
  5
97F
330
22
100
AcDbEntity
  8
Layer 1
100
AcDbLine
 10
5.188573603785163
 20
4.603668963546161
 30
0.0
 11
5.102875700698715
 21
4.663068905259393
 31
0.0
  0
LINE
  5
980
330
22
100
AcDbEntity
  8
Layer 1
100
AcDbLine
 10
5.102875700698715
 20
4.663068905259393
 30
0.0
 11
5.06902211553209
 21
4.698654898513594
 31
0.0
  0
LINE
  5
981
330
22
100
AcDbEntity
  8
Layer 1
100
AcDbLine
 10
5.06902211553209
 20
4.698654898513594
 30
0.0
 11
5.041209812414547
 21
4.738091038671498
 31
0.0
  0
LINE
  5
982
330
22
100
AcDbEntity
  8
Layer 1
100
AcDbLine
 10
5.041209812414547
 20
4.738091038671498
 30
0.0
 11
5.019471998939782
 21
4.781321806787403
 31
0.0
  0
LINE
  5
983
330
22
100
AcDbEntity
  8
Layer 1
100
AcDbLine
 10
5.019471998939782
 20
4.781321806787403
 30
0.0
 11
5.003841882701483
 21
4.828291778255355
 31
0.0
  0
LINE
  5
984
330
22
100
AcDbEntity
  8
Layer 1
100
AcDbLine
 10
5.003841882701483
 20
4.828291778255355
 30
0.0
 11
4.991037855328363
 21
4.93322749131392
 31
0.0
  0
LINE
  5
985
330
22
100
AcDbEntity
  8
Layer 1
100
AcDbLine
 10
4.991037855328363
 20
4.93322749131392
 30
0.0
 11
4.998087959545577
 21
5.022841484792691
 31
0.0
  0
LINE
  5
986
330
22
100
AcDbEntity
  8
Layer 1
100
AcDbLine
 10
4.998087959545577
 20
5.022841484792691
 30
0.0
 11
5.03173489347928
 21
5.099632347097987
 31
0.0
  0
LINE
  5
987
330
22
100
AcDbEntity
  8
Layer 1
100
AcDbLine
 10
5.03173489347928
 20
5.099632347097987
 30
0.0
 11
5.060782670025898
 21
5.143639059697256
 31
0.0
  0
LINE
  5
988
330
22
100
AcDbEntity
  8
Layer 1
100
AcDbLine
 10
5.060782670025898
 20
5.143639059697256
 30
0.0
 11
5.095275831560305
 21
5.1823247271056
 31
0.0
  0
LINE
  5
989
330
22
100
AcDbEntity
  8
Layer 1
100
AcDbLine
 10
5.095275831560305
 20
5.1823247271056
 30
0.0
 11
5.134548480923116
 21
5.215337980906197
 31
0.0
  0
LINE
  5
98A
330
22
100
AcDbEntity
  8
Layer 1
100
AcDbLine
 10
5.134548480923116
 20
5.215337980906197
 30
0.0
 11
5.177934532275449
 21
5.242327452682231
 31
0.0
  0
LINE
  5
98B
330
22
100
AcDbEntity
  8
Layer 1
100
AcDbLine
 10
5.177934532275449
 20
5.242327452682231
 30
0.0
 11
5.224768041288053
 21
5.262941679677132
 31
0.0
  0
LINE
  5
98C
330
22
100
AcDbEntity
  8
Layer 1
100
AcDbLine
 10
5.224768041288053
 20
5.262941679677132
 30
0.0
 11
5.274383016461801
 21
5.276829246304195
 31
0.0
  0
LINE
  5
98D
330
22
100
AcDbEntity
  8
Layer 1
100
AcDbLine
 10
5.274383016461801
 20
5.276829246304195
 30
0.0
 11
5.326113419127683
 21
5.283638784146631
 31
0.0
  0
LINE
  5
98E
330
22
100
AcDbEntity
  8
Layer 1
100
AcDbLine
 10
5.326113419127683
 20
5.283638784146631
 30
0.0
 11
5.379293257786568
 21
5.283018877617728
 31
0.0
  0
LINE
  5
98F
330
22
100
AcDbEntity
  8
Layer 1
100
AcDbLine
 10
5.379293257786568
 20
5.283018877617728
 30
0.0
 11
5.440954995121527
 21
5.283542557596716
 31
0.0
  0
LINE
  5
990
330
22
100
AcDbEntity
  8
Layer 1
100
AcDbLine
 10
5.440954995121527
 20
5.283542557596716
 30
0.0
 11
5.454041192701304
 21
5.294238657488221
 31
0.0
  0
LINE
  5
991
330
22
100
AcDbEntity
  8
Layer 1
100
AcDbLine
 10
5.454041192701304
 20
5.294238657488221
 30
0.0
 11
5.464392009090173
 21
5.315345621022521
 31
0.0
  0
LINE
  5
992
330
22
100
AcDbEntity
  8
Layer 1
100
AcDbLine
 10
5.464392009090173
 20
5.315345621022521
 30
0.0
 11
5.472713577352931
 21
5.345044153197868
 31
0.0
  0
LINE
  5
993
330
22
100
AcDbEntity
  8
Layer 1
100
AcDbLine
 10
5.472713577352931
 20
5.345044153197868
 30
0.0
 11
5.470573385675157
 21
5.362978800966827
 31
0.0
  0
LINE
  5
994
330
22
100
AcDbEntity
  8
Layer 1
100
AcDbLine
 10
5.470573385675157
 20
5.362978800966827
 30
0.0
 11
5.429918894753667
 21
5.36970791416828
 31
0.0
  0
LINE
  5
995
330
22
100
AcDbEntity
  8
Layer 1
100
AcDbLine
 10
5.429918894753667
 20
5.36970791416828
 30
0.0
 11
5.345641937054272
 21
5.372465182182309
 31
0.0
  0
LINE
  5
996
330
22
100
AcDbEntity
  8
Layer 1
100
AcDbLine
 10
5.345641937054272
 20
5.372465182182309
 30
0.0
 11
5.238171078934389
 21
5.365960691937075
 31
0.0
  0
LINE
  5
997
330
22
100
AcDbEntity
  8
Layer 1
100
AcDbLine
 10
5.238171078934389
 20
5.365960691937075
 30
0.0
 11
5.157082474758658
 21
5.337890511099743
 31
0.0
  0
LINE
  5
998
330
22
100
AcDbEntity
  8
Layer 1
100
AcDbLine
 10
5.157082474758658
 20
5.337890511099743
 30
0.0
 11
5.089009737875493
 21
5.29828257824831
 31
0.0
  0
LINE
  5
999
330
22
100
AcDbEntity
  8
Layer 1
100
AcDbLine
 10
5.089009737875493
 20
5.29828257824831
 30
0.0
 11
5.028690360911828
 21
5.247676799799606
 31
0.0
  0
LINE
  5
99A
330
22
100
AcDbEntity
  8
Layer 1
100
AcDbLine
 10
5.028690360911828
 20
5.247676799799606
 30
0.0
 11
4.977290949275723
 21
5.187232847189704
 31
0.0
  0
LINE
  5
99B
330
22
100
AcDbEntity
  8
Layer 1
100
AcDbLine
 10
4.977290949275723
 20
5.187232847189704
 30
0.0
 11
4.935978108375242
 21
5.118110203175183
 31
0.0
  0
LINE
  5
99C
330
22
100
AcDbEntity
  8
Layer 1
100
AcDbLine
 10
4.935978108375242
 20
5.118110203175183
 30
0.0
 11
4.904256412987966
 21
5.033614282904856
 31
0.0
  0
LINE
  5
99D
330
22
100
AcDbEntity
  8
Layer 1
100
AcDbLine
 10
4.904256412987966
 20
5.033614282904856
 30
0.0
 11
4.897490931811033
 21
4.926571302742948
 31
0.0
  0
LINE
  5
99E
330
22
100
AcDbEntity
  8
Layer 1
100
AcDbLine
 10
4.897490931811033
 20
4.926571302742948
 30
0.0
 11
4.904125563748037
 21
4.82018195557228
 31
0.0
  0
LINE
  5
99F
330
22
100
AcDbEntity
  8
Layer 1
100
AcDbLine
 10
4.904125563748037
 20
4.82018195557228
 30
0.0
 11
4.934516785573132
 21
4.73801915177833
 31
0.0
  0
LINE
  5
9A0
330
22
100
AcDbEntity
  8
Layer 1
100
AcDbLine
 10
4.934516785573132
 20
4.73801915177833
 30
0.0
 11
4.97006513726516
 21
4.675901470408347
 31
0.0
  0
LINE
  5
9A1
330
22
100
AcDbEntity
  8
Layer 1
100
AcDbLine
 10
4.97006513726516
 20
4.675901470408347
 30
0.0
 11
5.011572648249704
 21
4.621868800365922
 31
0.0
  0
LINE
  5
9A2
330
22
100
AcDbEntity
  8
Layer 1
100
AcDbLine
 10
5.011572648249704
 20
4.621868800365922
 30
0.0
 11
5.058704082208021
 21
4.576122226838434
 31
0.0
  0
LINE
  5
9A3
330
22
100
AcDbEntity
  8
Layer 1
100
AcDbLine
 10
5.058704082208021
 20
4.576122226838434
 30
0.0
 11
5.11112420282137
 21
4.538862693503659
 31
0.0
  0
LINE
  5
9A4
330
22
100
AcDbEntity
  8
Layer 1
100
AcDbLine
 10
5.11112420282137
 20
4.538862693503659
 30
0.0
 11
5.168497773771003
 21
4.51029128554898
 31
0.0
  0
LINE
  5
9A5
330
22
100
AcDbEntity
  8
Layer 1
100
AcDbLine
 10
5.168497773771003
 20
4.51029128554898
 30
0.0
 11
5.230489605908059
 21
4.490608899482288
 31
0.0
  0
LINE
  5
9A6
330
22
100
AcDbEntity
  8
Layer 1
100
AcDbLine
 10
5.230489605908059
 20
4.490608899482288
 30
0.0
 11
5.296764415743926
 21
4.480016620490964
 31
0.0
  0
LINE
  5
9A7
330
22
100
AcDbEntity
  8
Layer 1
100
AcDbLine
 10
5.296764415743926
 20
4.480016620490964
 30
0.0
 11
5.366987014129738
 21
4.478715439422657
 31
0.0
  0
LINE
  5
9A8
330
22
100
AcDbEntity
  8
Layer 1
100
AcDbLine
 10
5.366987014129738
 20
4.478715439422657
 30
0.0
 11
5.471949849867813
 21
4.491507579986673
 31
0.0
  0
LINE
  5
9A9
330
22
100
AcDbEntity
  8
Layer 1
100
AcDbLine
 10
5.471949849867813
 20
4.491507579986673
 30
0.0
 11
5.471949849867813
 21
4.491507579986673
 31
0.0
  0
LINE
  5
9AA
330
22
100
AcDbEntity
  8
Layer 1
100
AcDbLine
 10
5.676265607823784
 20
4.400318489961478
 30
0.0
 11
5.980958346036187
 21
5.439098247237089
 31
0.0
  0
LINE
  5
9AB
330
22
100
AcDbEntity
  8
Layer 1
100
AcDbLine
 10
5.980958346036187
 20
5.439098247237089
 30
0.0
 11
5.990847793854127
 21
5.453585767534923
 31
0.0
  0
LINE
  5
9AC
330
22
100
AcDbEntity
  8
Layer 1
100
AcDbLine
 10
5.990847793854127
 20
5.453585767534923
 30
0.0
 11
6.012809003868295
 21
5.461055825170703
 31
0.0
  0
LINE
  5
9AD
330
22
100
AcDbEntity
  8
Layer 1
100
AcDbLine
 10
6.012809003868295
 20
5.461055825170703
 30
0.0
 11
6.139809983690602
 21
5.461574599482438
 31
0.0
  0
LINE
  5
9AE
330
22
100
AcDbEntity
  8
Layer 1
100
AcDbLine
 10
6.139809983690602
 20
5.461574599482438
 30
0.0
 11
6.287524624609379
 21
5.457426055934256
 31
0.0
  0
LINE
  5
9AF
330
22
100
AcDbEntity
  8
Layer 1
100
AcDbLine
 10
6.287524624609379
 20
5.457426055934256
 30
0.0
 11
6.32030240638195
 21
5.348419299436073
 31
0.0
  0
LINE
  5
9B0
330
22
100
AcDbEntity
  8
Layer 1
 62
     1
100
AcDbLine
 10
6.32030240638195
 20
5.348419299436073
 30
0.0
 11
6.59482090420534
 21
4.403331230031553
 31
0.0
  0
LINE
  5
9B3
330
22
100
AcDbEntity
  8
Layer 1
100
AcDbLine
 10
6.462260105272664
 20
4.394075792535858
 30
0.0
 11
6.329700013888151
 21
4.394075792535858
 31
0.0
  0
LINE
  5
9B4
330
22
100
AcDbEntity
  8
Layer 1
100
AcDbLine
 10
6.329700013888151
 20
4.394075792535858
 30
0.0
 11
6.301947805194424
 21
4.4872625268693
 31
0.0
  0
LINE
  5
9B6
330
22
100
AcDbEntity
  8
Layer 1
100
AcDbLine
 10
6.274195596500697
 20
4.58044921403286
 30
0.0
 11
6.136275969305286
 21
4.58044921403286
 31
0.0
  0
LINE
  5
9B7
330
22
100
AcDbEntity
  8
Layer 1
 62
     1
100
AcDbLine
 10
6.136275969305286
 20
4.58044921403286
 30
0.0
 11
5.998356153430361
 21
4.58044921403286
 31
0.0
  0
LINE
  5
9B9
330
22
100
AcDbEntity
  8
Layer 1
100
AcDbLine
 10
5.970051632642062
 20
4.4872625268693
 30
0.0
 11
5.941746970344127
 21
4.394075792535858
 31
0.0
  0
LINE
  5
9BA
330
22
100
AcDbEntity
  8
Layer 1
100
AcDbLine
 10
5.941746970344127
 20
4.394075792535858
 30
0.0
 11
5.809006359838773
 21
4.394075792535858
 31
0.0
  0
LINE
  5
9BC
330
22
100
AcDbEntity
  8
Layer 1
100
AcDbLine
 10
5.676265607823784
 20
4.400318489961478
 30
0.0
 11
5.676265607823784
 21
4.400318489961478
 31
0.0
  0
LINE
  5
9BD
330
22
100
AcDbEntity
  8
Layer 1
100
AcDbLine
 10
5.907406733552281
 20
4.57046495476134
 30
0.0
 11
5.933028137373839
 21
4.660323571224338
 31
0.0
  0
LINE
  5
9BE
330
22
100
AcDbEntity
  8
Layer 1
100
AcDbLine
 10
5.933028137373839
 20
4.660323571224338
 30
0.0
 11
6.135473232331549
 21
4.660323571224338
 31
0.0
  0
LINE
  5
9BF
330
22
100
AcDbEntity
  8
Layer 1
100
AcDbLine
 10
6.135473232331549
 20
4.660323571224338
 30
0.0
 11
6.337918138609748
 21
4.660323571224338
 31
0.0
  0
LINE
  5
9C0
330
22
100
AcDbEntity
  8
Layer 1
100
AcDbLine
 10
6.337918138609748
 20
4.660323571224338
 30
0.0
 11
6.364621477909424
 21
4.57046495476134
 31
0.0
  0
LINE
  5
9C1
330
22
100
AcDbEntity
  8
Layer 1
100
AcDbLine
 10
6.364621477909424
 20
4.57046495476134
 30
0.0
 11
6.380727396701137
 21
4.51920379803591
 31
0.0
  0
LINE
  5
9C2
330
22
100
AcDbEntity
  8
Layer 1
100
AcDbLine
 10
6.380727396701137
 20
4.51920379803591
 30
0.0
 11
6.394214019370236
 21
4.491970599503311
 31
0.0
  0
LINE
  5
9C3
330
22
100
AcDbEntity
  8
Layer 1
100
AcDbLine
 10
6.394214019370236
 20
4.491970599503311
 30
0.0
 11
6.411704845762656
 21
4.480486998508481
 31
0.0
  0
LINE
  5
9C4
330
22
100
AcDbEntity
  8
Layer 1
100
AcDbLine
 10
6.411704845762656
 20
4.480486998508481
 30
0.0
 11
6.439823422894215
 21
4.476474540056613
 31
0.0
  0
LINE
  5
9C5
330
22
100
AcDbEntity
  8
Layer 1
100
AcDbLine
 10
6.439823422894215
 20
4.476474540056613
 30
0.0
 11
6.48832179272995
 21
4.476474540056613
 31
0.0
  0
LINE
  5
9C6
330
22
100
AcDbEntity
  8
Layer 1
100
AcDbLine
 10
6.48832179272995
 20
4.476474540056613
 30
0.0
 11
6.357027693685197
 21
4.926571302742948
 31
0.0
  0
LINE
  5
9C7
330
22
100
AcDbEntity
  8
Layer 1
100
AcDbLine
 10
6.357027693685197
 20
4.926571302742948
 30
0.0
 11
6.22573439652836
 21
5.37253626718757
 31
0.0
  0
LINE
  5
9C8
330
22
100
AcDbEntity
  8
Layer 1
100
AcDbLine
 10
6.22573439652836
 20
5.37253626718757
 30
0.0
 11
6.138635689592519
 21
5.37644386700196
 31
0.0
  0
LINE
  5
9C9
330
22
100
AcDbEntity
  8
Layer 1
100
AcDbLine
 10
6.138635689592519
 20
5.37644386700196
 30
0.0
 11
6.051537171336186
 21
5.380351466816349
 31
0.0
  0
LINE
  5
9CA
330
22
100
AcDbEntity
  8
Layer 1
100
AcDbLine
 10
6.051537171336186
 20
5.380351466816349
 30
0.0
 11
6.031011293521672
 21
5.316538122693279
 31
0.0
  0
LINE
  5
9CB
330
22
100
AcDbEntity
  8
Layer 1
100
AcDbLine
 10
6.031011293521672
 20
5.316538122693279
 30
0.0
 11
5.901512385671329
 21
4.879977935576228
 31
0.0
  0
LINE
  5
9CC
330
22
100
AcDbEntity
  8
Layer 1
100
AcDbLine
 10
5.901512385671329
 20
4.879977935576228
 30
0.0
 11
5.785878874605679
 21
4.489681256673172
 31
0.0
  0
LINE
  5
9CD
330
22
100
AcDbEntity
  8
Layer 1
100
AcDbLine
 10
5.785878874605679
 20
4.489681256673172
 30
0.0
 11
5.785399628651206
 21
4.481653037878018
 31
0.0
  0
LINE
  5
9CE
330
22
100
AcDbEntity
  8
Layer 1
100
AcDbLine
 10
5.785399628651206
 20
4.481653037878018
 30
0.0
 11
5.792033788889434
 21
4.476950153930522
 31
0.0
  0
LINE
  5
9CF
330
22
100
AcDbEntity
  8
Layer 1
100
AcDbLine
 10
5.792033788889434
 20
4.476950153930522
 30
0.0
 11
5.830501861653293
 21
4.476368832361345
 31
0.0
  0
LINE
  5
9D0
330
22
100
AcDbEntity
  8
Layer 1
100
AcDbLine
 10
5.830501861653293
 20
4.476368832361345
 30
0.0
 11
5.860479450823392
 21
4.480265394424414
 31
0.0
  0
LINE
  5
9D1
330
22
100
AcDbEntity
  8
Layer 1
100
AcDbLine
 10
5.860479450823392
 20
4.480265394424414
 30
0.0
 11
5.878539664806011
 21
4.491435410074237
 31
0.0
  0
LINE
  5
9D2
330
22
100
AcDbEntity
  8
Layer 1
100
AcDbLine
 10
5.878539664806011
 20
4.491435410074237
 30
0.0
 11
5.891807230564428
 21
4.518596155675132
 31
0.0
  0
LINE
  5
9D3
330
22
100
AcDbEntity
  8
Layer 1
100
AcDbLine
 10
5.891807230564428
 20
4.518596155675132
 30
0.0
 11
5.907406733552281
 21
4.57046495476134
 31
0.0
  0
LINE
  5
9D4
330
22
100
AcDbEntity
  8
Layer 1
100
AcDbLine
 10
5.907406733552281
 20
4.57046495476134
 30
0.0
 11
5.907406733552281
 21
4.57046495476134
 31
0.0
  0
LINE
  5
9D5
330
22
100
AcDbEntity
  8
Layer 1
100
AcDbLine
 10
5.969138140796172
 20
4.768560704002722
 30
0.0
 11
6.110458055774449
 21
5.262709085011628
 31
0.0
  0
LINE
  5
9D6
330
22
100
AcDbEntity
  8
Layer 1
100
AcDbLine
 10
6.110458055774449
 20
5.262709085011628
 30
0.0
 11
6.124233876961937
 21
5.286134353680799
 31
0.0
  0
LINE
  5
9D7
330
22
100
AcDbEntity
  8
Layer 1
100
AcDbLine
 10
6.124233876961937
 20
5.286134353680799
 30
0.0
 11
6.141893005476957
 21
5.280782176370777
 31
0.0
  0
LINE
  5
9D8
330
22
100
AcDbEntity
  8
Layer 1
100
AcDbLine
 10
6.141893005476957
 20
5.280782176370777
 30
0.0
 11
6.162009212906178
 21
5.248088923018521
 31
0.0
  0
LINE
  5
9D9
330
22
100
AcDbEntity
  8
Layer 1
100
AcDbLine
 10
6.162009212906178
 20
5.248088923018521
 30
0.0
 11
6.183156459515791
 21
5.189490963560992
 31
0.0
  0
LINE
  5
9DA
330
22
100
AcDbEntity
  8
Layer 1
100
AcDbLine
 10
6.183156459515791
 20
5.189490963560992
 30
0.0
 11
6.301947805194424
 21
4.770381461270693
 31
0.0
  0
LINE
  5
9DB
330
22
100
AcDbEntity
  8
Layer 1
100
AcDbLine
 10
6.301947805194424
 20
4.770381461270693
 30
0.0
 11
6.293590199145321
 21
4.762379044398477
 31
0.0
  0
LINE
  5
9DC
330
22
100
AcDbEntity
  8
Layer 1
100
AcDbLine
 10
6.293590199145321
 20
4.762379044398477
 30
0.0
 11
6.265793792276469
 21
4.757175829561311
 31
0.0
  0
LINE
  5
9DD
330
22
100
AcDbEntity
  8
Layer 1
100
AcDbLine
 10
6.265793792276469
 20
4.757175829561311
 30
0.0
 11
6.135542996580236
 21
4.753510258387898
 31
0.0
  0
LINE
  5
9DE
330
22
100
AcDbEntity
  8
Layer 1
100
AcDbLine
 10
6.135542996580236
 20
4.753510258387898
 30
0.0
 11
6.009263338523262
 21
4.757139367246074
 31
0.0
  0
LINE
  5
9DF
330
22
100
AcDbEntity
  8
Layer 1
100
AcDbLine
 10
6.009263338523262
 20
4.757139367246074
 30
0.0
 11
5.978984947044929
 21
4.761825930415987
 31
0.0
  0
LINE
  5
9E0
330
22
100
AcDbEntity
  8
Layer 1
100
AcDbLine
 10
5.978984947044929
 20
4.761825930415987
 30
0.0
 11
5.969138140796172
 21
4.768560704002722
 31
0.0
  0
LINE
  5
9E1
330
22
100
AcDbEntity
  8
Layer 1
100
AcDbLine
 10
5.969138140796172
 20
4.768560704002722
 30
0.0
 11
5.969138140796172
 21
4.768560704002722
 31
0.0
  0
LINE
  5
9E2
330
22
100
AcDbEntity
  8
Layer 1
100
AcDbLine
 10
6.195490910759311
 20
4.843368874850916
 30
0.0
 11
6.166265020755592
 21
4.952097517751893
 31
0.0
  0
LINE
  5
9E3
330
22
100
AcDbEntity
  8
Layer 1
100
AcDbLine
 10
6.166265020755592
 20
4.952097517751893
 30
0.0
 11
6.136996960881472
 21
5.0508417598717
 31
0.0
  0
LINE
  5
9E4
330
22
100
AcDbEntity
  8
Layer 1
100
AcDbLine
 10
6.136996960881472
 20
5.0508417598717
 30
0.0
 11
6.106569229571268
 21
4.952097517751893
 31
0.0
  0
LINE
  5
9E5
330
22
100
AcDbEntity
  8
Layer 1
100
AcDbLine
 10
6.106569229571268
 20
4.952097517751893
 30
0.0
 11
6.075889516775942
 21
4.843368874850916
 31
0.0
  0
LINE
  5
9E6
330
22
100
AcDbEntity
  8
Layer 1
100
AcDbLine
 10
6.075889516775942
 20
4.843368874850916
 30
0.0
 11
6.093308644954707
 21
4.836317497047011
 31
0.0
  0
LINE
  5
9E7
330
22
100
AcDbEntity
  8
Layer 1
100
AcDbLine
 10
6.093308644954707
 20
4.836317497047011
 30
0.0
 11
6.135542996580236
 21
4.833384568409512
 31
0.0
  0
LINE
  5
9E8
330
22
100
AcDbEntity
  8
Layer 1
100
AcDbLine
 10
6.135542996580236
 20
4.833384568409512
 30
0.0
 11
6.177863810591057
 21
4.836317497047011
 31
0.0
  0
LINE
  5
9E9
330
22
100
AcDbEntity
  8
Layer 1
100
AcDbLine
 10
6.177863810591057
 20
4.836317497047011
 30
0.0
 11
6.195490910759311
 21
4.843368874850916
 31
0.0
  0
LINE
  5
9EA
330
22
100
AcDbEntity
  8
Layer 1
100
AcDbLine
 10
6.195490910759311
 20
4.843368874850916
 30
0.0
 11
6.195490910759311
 21
4.843368874850916
 31
0.0
  0
LINE
  5
9EB
330
22
100
AcDbEntity
  8
Layer 1
100
AcDbLine
 10
6.741257147106596
 20
4.800103625554619
 30
0.0
 11
6.741257147106596
 21
5.206131458573381
 31
0.0
  0
LINE
  5
9EC
330
22
100
AcDbEntity
  8
Layer 1
100
AcDbLine
 10
6.741257147106596
 20
5.206131458573381
 30
0.0
 11
6.648070412773159
 21
5.206131458573381
 31
0.0
  0
LINE
  5
9ED
330
22
100
AcDbEntity
  8
Layer 1
100
AcDbLine
 10
6.648070412773159
 20
5.206131458573381
 30
0.0
 11
6.554883725609598
 21
5.206131458573381
 31
0.0
  0
LINE
  5
9EE
330
22
100
AcDbEntity
  8
Layer 1
100
AcDbLine
 10
6.554883725609598
 20
5.206131458573381
 30
0.0
 11
6.554882404853031
 21
5.33592720646225
 31
0.0
  0
LINE
  5
9F0
330
22
100
AcDbEntity
  8
Layer 1
100
AcDbLine
 10
6.554882404853031
 20
5.465723001521005
 30
0.0
 11
6.871051574238902
 21
5.462890120193492
 31
0.0
  0
LINE
  5
9F1
330
22
100
AcDbEntity
  8
Layer 1
 62
     1
100
AcDbLine
 10
6.871051574238902
 20
5.462890120193492
 30
0.0
 11
7.187222111551215
 21
5.460057238865971
 31
0.0
  0
LINE
  5
9F3
330
22
100
AcDbEntity
  8
Layer 1
100
AcDbLine
 10
7.187222111551215
 20
5.336422443005169
 30
0.0
 11
7.187222111551215
 21
5.212787647144351
 31
0.0
  0
LINE
  5
9F4
330
22
100
AcDbEntity
  8
Layer 1
100
AcDbLine
 10
7.187222111551215
 20
5.212787647144351
 30
0.0
 11
7.090707306517233
 21
5.208876320909644
 31
0.0
  0
LINE
  5
9F6
330
22
100
AcDbEntity
  8
Layer 1
100
AcDbLine
 10
6.994192501483242
 20
5.204964994674945
 30
0.0
 11
6.994192501483242
 21
4.79952041719035
 31
0.0
  0
LINE
  5
9F7
330
22
100
AcDbEntity
  8
Layer 1
 62
     1
100
AcDbLine
 10
6.994192501483242
 20
4.79952041719035
 30
0.0
 11
6.994192501483242
 21
4.394075792535858
 31
0.0
  0
LINE
  5
9F9
330
22
100
AcDbEntity
  8
Layer 1
100
AcDbLine
 10
6.867724824294918
 20
4.394075792535858
 30
0.0
 11
6.741257147106596
 21
4.394075792535858
 31
0.0
  0
LINE
  5
9FA
330
22
100
AcDbEntity
  8
Layer 1
100
AcDbLine
 10
6.741257147106596
 20
4.394075792535858
 30
0.0
 11
6.741257147106596
 21
4.800103625554619
 31
0.0
  0
LINE
  5
9FB
330
22
100
AcDbEntity
  8
Layer 1
100
AcDbLine
 10
6.741257147106596
 20
4.800103625554619
 30
0.0
 11
6.741257147106596
 21
4.800103625554619
 31
0.0
  0
LINE
  5
9FC
330
22
100
AcDbEntity
  8
Layer 1
100
AcDbLine
 10
6.914318191461638
 20
4.879977935576228
 30
0.0
 11
6.914318191461638
 21
5.286005768594987
 31
0.0
  0
LINE
  5
9FD
330
22
100
AcDbEntity
  8
Layer 1
100
AcDbLine
 10
6.914318191461638
 20
5.286005768594987
 30
0.0
 11
7.007504878625196
 21
5.286005768594987
 31
0.0
  0
LINE
  5
9FE
330
22
100
AcDbEntity
  8
Layer 1
100
AcDbLine
 10
7.007504878625196
 20
5.286005768594987
 30
0.0
 11
7.100691612958632
 21
5.286005768594987
 31
0.0
  0
LINE
  5
9FF
330
22
100
AcDbEntity
  8
Layer 1
100
AcDbLine
 10
7.100691612958632
 20
5.286005768594987
 30
0.0
 11
7.100691612958632
 21
5.332599135761704
 31
0.0
  0
LINE
  5
A00
330
22
100
AcDbEntity
  8
Layer 1
100
AcDbLine
 10
7.100691612958632
 20
5.332599135761704
 30
0.0
 11
7.100691612958632
 21
5.379192502928424
 31
0.0
  0
LINE
  5
A01
330
22
100
AcDbEntity
  8
Layer 1
100
AcDbLine
 10
7.100691612958632
 20
5.379192502928424
 30
0.0
 11
6.867724824294918
 21
5.379192502928424
 31
0.0
  0
LINE
  5
A02
330
22
100
AcDbEntity
  8
Layer 1
100
AcDbLine
 10
6.867724824294918
 20
5.379192502928424
 30
0.0
 11
6.634758035631206
 21
5.379192502928424
 31
0.0
  0
LINE
  5
A03
330
22
100
AcDbEntity
  8
Layer 1
100
AcDbLine
 10
6.634758035631206
 20
5.379192502928424
 30
0.0
 11
6.634758035631206
 21
5.332599135761704
 31
0.0
  0
LINE
  5
A04
330
22
100
AcDbEntity
  8
Layer 1
100
AcDbLine
 10
6.634758035631206
 20
5.332599135761704
 30
0.0
 11
6.634758035631206
 21
5.286005768594987
 31
0.0
  0
LINE
  5
A05
330
22
100
AcDbEntity
  8
Layer 1
100
AcDbLine
 10
6.634758035631206
 20
5.286005768594987
 30
0.0
 11
6.727944769964642
 21
5.286005768594987
 31
0.0
  0
LINE
  5
A06
330
22
100
AcDbEntity
  8
Layer 1
100
AcDbLine
 10
6.727944769964642
 20
5.286005768594987
 30
0.0
 11
6.821131457128201
 21
5.286005768594987
 31
0.0
  0
LINE
  5
A07
330
22
100
AcDbEntity
  8
Layer 1
100
AcDbLine
 10
6.821131457128201
 20
5.286005768594987
 30
0.0
 11
6.821131457128201
 21
4.879977935576228
 31
0.0
  0
LINE
  5
A08
330
22
100
AcDbEntity
  8
Layer 1
100
AcDbLine
 10
6.821131457128201
 20
4.879977935576228
 30
0.0
 11
6.821131457128201
 21
4.473950102557472
 31
0.0
  0
LINE
  5
A09
330
22
100
AcDbEntity
  8
Layer 1
100
AcDbLine
 10
6.821131457128201
 20
4.473950102557472
 30
0.0
 11
6.867724824294918
 21
4.473950102557472
 31
0.0
  0
LINE
  5
A0A
330
22
100
AcDbEntity
  8
Layer 1
100
AcDbLine
 10
6.867724824294918
 20
4.473950102557472
 30
0.0
 11
6.914318191461638
 21
4.473950102557472
 31
0.0
  0
LINE
  5
A0B
330
22
100
AcDbEntity
  8
Layer 1
100
AcDbLine
 10
6.914318191461638
 20
4.473950102557472
 30
0.0
 11
6.914318191461638
 21
4.879977935576228
 31
0.0
  0
LINE
  5
A0C
330
22
100
AcDbEntity
  8
Layer 1
100
AcDbLine
 10
6.914318191461638
 20
4.879977935576228
 30
0.0
 11
6.914318191461638
 21
4.879977935576228
 31
0.0
  0
LINE
  5
A0D
330
22
100
AcDbEntity
  8
Layer 1
100
AcDbLine
 10
7.300377411597589
 20
4.934651785762269
 30
0.0
 11
7.303785246560832
 21
5.386431475334781
 31
0.0
  0
LINE
  5
A0E
330
22
100
AcDbEntity
  8
Layer 1
 62
     1
100
AcDbLine
 10
7.303785246560832
 20
5.386431475334781
 30
0.0
 11
7.310133274322701
 21
5.455568694841416
 31
0.0
  0
LINE
  5
A12
330
22
100
AcDbEntity
  8
Layer 1
100
AcDbLine
 10
7.447901297532124
 20
5.45906681295002
 30
0.0
 11
7.553312813144112
 21
5.45906681295002
 31
0.0
  0
LINE
  5
A13
330
22
100
AcDbEntity
  8
Layer 1
100
AcDbLine
 10
7.553312813144112
 20
5.45906681295002
 30
0.0
 11
7.553312813144112
 21
4.926571302742948
 31
0.0
  0
LINE
  5
A14
330
22
100
AcDbEntity
  8
Layer 1
100
AcDbLine
 10
7.553312813144112
 20
4.926571302742948
 30
0.0
 11
7.553312813144112
 21
4.394075792535858
 31
0.0
  0
LINE
  5
A15
330
22
100
AcDbEntity
  8
Layer 1
100
AcDbLine
 10
7.553312813144112
 20
4.394075792535858
 30
0.0
 11
7.426845088785906
 21
4.394075792535858
 31
0.0
  0
LINE
  5
A17
330
22
100
AcDbEntity
  8
Layer 1
100
AcDbLine
 10
7.300377411597589
 20
4.394075792535858
 30
0.0
 11
7.300377411597589
 21
4.934651785762269
 31
0.0
  0
LINE
  5
A18
330
22
100
AcDbEntity
  8
Layer 1
100
AcDbLine
 10
7.300377411597589
 20
4.934651785762269
 30
0.0
 11
7.300377411597589
 21
4.934651785762269
 31
0.0
  0
LINE
  5
A19
330
22
100
AcDbEntity
  8
Layer 1
100
AcDbLine
 10
7.47343845595263
 20
4.926571302742948
 30
0.0
 11
7.47343845595263
 21
5.379192502928424
 31
0.0
  0
LINE
  5
A1A
330
22
100
AcDbEntity
  8
Layer 1
100
AcDbLine
 10
7.47343845595263
 20
5.379192502928424
 30
0.0
 11
7.426845088785906
 21
5.379192502928424
 31
0.0
  0
LINE
  5
A1B
330
22
100
AcDbEntity
  8
Layer 1
100
AcDbLine
 10
7.426845088785906
 20
5.379192502928424
 30
0.0
 11
7.380251768789067
 21
5.379192502928424
 31
0.0
  0
LINE
  5
A1C
330
22
100
AcDbEntity
  8
Layer 1
100
AcDbLine
 10
7.380251768789067
 20
5.379192502928424
 30
0.0
 11
7.380251768789067
 21
4.926571302742948
 31
0.0
  0
LINE
  5
A1D
330
22
100
AcDbEntity
  8
Layer 1
100
AcDbLine
 10
7.380251768789067
 20
4.926571302742948
 30
0.0
 11
7.380251768789067
 21
4.473950102557472
 31
0.0
  0
LINE
  5
A1E
330
22
100
AcDbEntity
  8
Layer 1
100
AcDbLine
 10
7.380251768789067
 20
4.473950102557472
 30
0.0
 11
7.426845088785906
 21
4.473950102557472
 31
0.0
  0
LINE
  5
A1F
330
22
100
AcDbEntity
  8
Layer 1
100
AcDbLine
 10
7.426845088785906
 20
4.473950102557472
 30
0.0
 11
7.47343845595263
 21
4.473950102557472
 31
0.0
  0
LINE
  5
A20
330
22
100
AcDbEntity
  8
Layer 1
100
AcDbLine
 10
7.47343845595263
 20
4.473950102557472
 30
0.0
 11
7.47343845595263
 21
4.926571302742948
 31
0.0
  0
LINE
  5
A21
330
22
100
AcDbEntity
  8
Layer 1
100
AcDbLine
 10
7.47343845595263
 20
4.926571302742948
 30
0.0
 11
7.47343845595263
 21
4.926571302742948
 31
0.0
  0
LINE
  5
BB1
330
22
100
AcDbEntity
  8
Layer 1
100
AcDbLine
 10
8.690804406833761
 20
4.650339264782934
 30
0.0
 11
8.609482500444364
 21
4.823722951099455
 31
0.0
  0
LINE
  5
BB2
330
22
100
AcDbEntity
  8
Layer 1
100
AcDbLine
 10
8.609482500444364
 20
4.823722951099455
 30
0.0
 11
8.491483325686932
 21
5.026414225647356
 31
0.0
  0
LINE
  5
BB3
330
22
100
AcDbEntity
  8
Layer 1
100
AcDbLine
 10
8.491483325686932
 20
5.026414225647356
 30
0.0
 11
8.403455277826388
 21
5.147279017627233
 31
0.0
  0
LINE
  5
BB4
330
22
100
AcDbEntity
  8
Layer 1
100
AcDbLine
 10
8.403455277826388
 20
5.147279017627233
 30
0.0
 11
8.305129715538447
 21
5.262235452272562
 31
0.0
  0
LINE
  5
BB5
330
22
100
AcDbEntity
  8
Layer 1
100
AcDbLine
 10
8.305129715538447
 20
5.262235452272562
 30
0.0
 11
8.19746876281261
 21
5.370506547362686
 31
0.0
  0
LINE
  5
BB6
330
22
100
AcDbEntity
  8
Layer 1
100
AcDbLine
 10
8.19746876281261
 20
5.370506547362686
 30
0.0
 11
8.081434685148003
 21
5.47131541501666
 31
0.0
  0
LINE
  5
BB7
330
22
100
AcDbEntity
  8
Layer 1
100
AcDbLine
 10
8.081434685148003
 20
5.47131541501666
 30
0.0
 11
7.957989559364259
 21
5.563885073013849
 31
0.0
  0
LINE
  5
BB8
330
22
100
AcDbEntity
  8
Layer 1
100
AcDbLine
 10
7.957989559364259
 20
5.563885073013849
 30
0.0
 11
7.828095556620741
 21
5.647438680643182
 31
0.0
  0
LINE
  5
BB9
330
22
100
AcDbEntity
  8
Layer 1
100
AcDbLine
 10
7.828095556620741
 20
5.647438680643182
 30
0.0
 11
7.692714848076838
 21
5.721199208514136
 31
0.0
  0
LINE
  5
BBA
330
22
100
AcDbEntity
  8
Layer 1
100
AcDbLine
 10
7.692714848076838
 20
5.721199208514136
 30
0.0
 11
7.552809604891917
 21
5.784389768745768
 31
0.0
  0
LINE
  5
BBB
330
22
100
AcDbEntity
  8
Layer 1
100
AcDbLine
 10
7.552809604891917
 20
5.784389768745768
 30
0.0
 11
7.366702079993872
 21
5.846257072406473
 31
0.0
  0
LINE
  5
BBC
330
22
100
AcDbEntity
  8
Layer 1
100
AcDbLine
 10
7.366702079993872
 20
5.846257072406473
 30
0.0
 11
7.217174983705552
 21
5.885053777706231
 31
0.0
  0
LINE
  5
BBD
330
22
100
AcDbEntity
  8
Layer 1
100
AcDbLine
 10
7.217174983705552
 20
5.885053777706231
 30
0.0
 11
7.210123605901651
 21
5.855731566812848
 31
0.0
  0
LINE
  5
BBE
330
22
100
AcDbEntity
  8
Layer 1
100
AcDbLine
 10
7.210123605901651
 20
5.855731566812848
 30
0.0
 11
7.207190724434028
 21
5.785220288777295
 31
0.0
  0
LINE
  5
BBF
330
22
100
AcDbEntity
  8
Layer 1
100
AcDbLine
 10
7.207190724434028
 20
5.785220288777295
 30
0.0
 11
7.211370635950695
 21
5.701703709501727
 31
0.0
  0
LINE
  5
BC0
330
22
100
AcDbEntity
  8
Layer 1
100
AcDbLine
 10
7.211370635950695
 20
5.701703709501727
 30
0.0
 11
7.219082958076843
 21
5.688379681400049
 31
0.0
  0
LINE
  5
BC1
330
22
100
AcDbEntity
  8
Layer 1
100
AcDbLine
 10
7.219082958076843
 20
5.688379681400049
 30
0.0
 11
7.232754486665387
 21
5.685377413042757
 31
0.0
  0
LINE
  5
BC2
330
22
100
AcDbEntity
  8
Layer 1
100
AcDbLine
 10
7.232754486665387
 20
5.685377413042757
 30
0.0
 11
7.292265088911009
 21
5.672002064114472
 31
0.0
  0
LINE
  5
BC3
330
22
100
AcDbEntity
  8
Layer 1
100
AcDbLine
 10
7.292265088911009
 20
5.672002064114472
 30
0.0
 11
7.391204001114893
 21
5.63779088410721
 31
0.0
  0
LINE
  5
BC4
330
22
100
AcDbEntity
  8
Layer 1
100
AcDbLine
 10
7.391204001114893
 20
5.63779088410721
 30
0.0
 11
7.613014877922132
 21
5.542349523973406
 31
0.0
  0
LINE
  5
BC5
330
22
100
AcDbEntity
  8
Layer 1
100
AcDbLine
 10
7.613014877922132
 20
5.542349523973406
 30
0.0
 11
7.743331003898576
 21
5.471259754561329
 31
0.0
  0
LINE
  5
BC6
330
22
100
AcDbEntity
  8
Layer 1
100
AcDbLine
 10
7.743331003898576
 20
5.471259754561329
 30
0.0
 11
7.858458995388042
 21
5.394809788960059
 31
0.0
  0
LINE
  5
BC7
330
22
100
AcDbEntity
  8
Layer 1
100
AcDbLine
 10
7.858458995388042
 20
5.394809788960059
 30
0.0
 11
7.969247358155933
 21
5.305016597117016
 31
0.0
  0
LINE
  5
BC8
330
22
100
AcDbEntity
  8
Layer 1
100
AcDbLine
 10
7.969247358155933
 20
5.305016597117016
 30
0.0
 11
8.086544456458023
 21
5.193897243319347
 31
0.0
  0
LINE
  5
BC9
330
22
100
AcDbEntity
  8
Layer 1
100
AcDbLine
 10
8.086544456458023
 20
5.193897243319347
 30
0.0
 11
8.192078896770537
 21
5.082565011864936
 31
0.0
  0
LINE
  5
BCA
330
22
100
AcDbEntity
  8
Layer 1
100
AcDbLine
 10
8.192078896770537
 20
5.082565011864936
 30
0.0
 11
8.276888826914772
 21
4.978444252778351
 31
0.0
  0
LINE
  5
BCB
330
22
100
AcDbEntity
  8
Layer 1
100
AcDbLine
 10
8.276888826914772
 20
4.978444252778351
 30
0.0
 11
8.351457610635112
 21
4.867380606605897
 31
0.0
  0
LINE
  5
BCC
330
22
100
AcDbEntity
  8
Layer 1
100
AcDbLine
 10
8.351457610635112
 20
4.867380606605897
 30
0.0
 11
8.426268611675936
 21
4.735219855403535
 31
0.0
  0
LINE
  5
BCD
330
22
100
AcDbEntity
  8
Layer 1
100
AcDbLine
 10
8.426268611675936
 20
4.735219855403535
 30
0.0
 11
8.487356480282345
 21
4.620386392628596
 31
0.0
  0
LINE
  5
BCE
330
22
100
AcDbEntity
  8
Layer 1
100
AcDbLine
 10
8.487356480282345
 20
4.620386392628596
 30
0.0
 11
8.593663893375952
 21
4.620386392628596
 31
0.0
  0
LINE
  5
BCF
330
22
100
AcDbEntity
  8
Layer 1
100
AcDbLine
 10
8.593663893375952
 20
4.620386392628596
 30
0.0
 11
8.684632417054382
 21
4.624365171787998
 31
0.0
  0
LINE
  5
BD0
330
22
100
AcDbEntity
  8
Layer 1
100
AcDbLine
 10
8.684632417054382
 20
4.624365171787998
 30
0.0
 11
8.694049835909092
 21
4.633286788061275
 31
0.0
  0
LINE
  5
BD1
330
22
100
AcDbEntity
  8
Layer 1
100
AcDbLine
 10
8.694049835909092
 20
4.633286788061275
 30
0.0
 11
8.690804406833761
 21
4.650339264782934
 31
0.0
  0
LINE
  5
BD2
330
22
100
AcDbEntity
  8
Layer 1
100
AcDbLine
 10
8.690804406833761
 20
4.650339264782934
 30
0.0
 11
8.690804406833761
 21
4.650339264782934
 31
0.0
  0
LINE
  5
BD3
330
22
100
AcDbEntity
  8
Layer 1
100
AcDbLine
 10
9.781654708761246
 20
4.690276443378677
 30
0.0
 11
9.713560462413983
 21
4.907050756525642
 31
0.0
  0
LINE
  5
BD4
330
22
100
AcDbEntity
  8
Layer 1
100
AcDbLine
 10
9.713560462413983
 20
4.907050756525642
 30
0.0
 11
9.638763565166495
 21
5.102208152593624
 31
0.0
  0
LINE
  5
BD5
330
22
100
AcDbEntity
  8
Layer 1
100
AcDbLine
 10
9.638763565166495
 20
5.102208152593624
 30
0.0
 11
9.553231511369016
 21
5.285261333589722
 31
0.0
  0
LINE
  5
BD6
330
22
100
AcDbEntity
  8
Layer 1
100
AcDbLine
 10
9.553231511369016
 20
5.285261333589722
 30
0.0
 11
9.452931936881414
 21
5.465723001521005
 31
0.0
  0
LINE
  5
BD7
330
22
100
AcDbEntity
  8
Layer 1
100
AcDbLine
 10
9.452931936881414
 20
5.465723001521005
 30
0.0
 11
9.338754229742221
 21
5.643071033014428
 31
0.0
  0
LINE
  5
BD8
330
22
100
AcDbEntity
  8
Layer 1
100
AcDbLine
 10
9.338754229742221
 20
5.643071033014428
 30
0.0
 11
9.214343395058287
 21
5.810744569821267
 31
0.0
  0
LINE
  5
BD9
330
22
100
AcDbEntity
  8
Layer 1
100
AcDbLine
 10
9.214343395058287
 20
5.810744569821267
 30
0.0
 11
9.080252735491622
 21
5.968439979440652
 31
0.0
  0
LINE
  5
BDA
330
22
100
AcDbEntity
  8
Layer 1
100
AcDbLine
 10
9.080252735491622
 20
5.968439979440652
 30
0.0
 11
8.937035600874105
 21
6.115853487862054
 31
0.0
  0
LINE
  5
BDB
330
22
100
AcDbEntity
  8
Layer 1
100
AcDbLine
 10
8.937035600874105
 20
6.115853487862054
 30
0.0
 11
8.785245293867737
 21
6.252681462584604
 31
0.0
  0
LINE
  5
BDC
330
22
100
AcDbEntity
  8
Layer 1
100
AcDbLine
 10
8.785245293867737
 20
6.252681462584604
 30
0.0
 11
8.625435211474258
 21
6.378620176767661
 31
0.0
  0
LINE
  5
BDD
330
22
100
AcDbEntity
  8
Layer 1
100
AcDbLine
 10
8.625435211474258
 20
6.378620176767661
 30
0.0
 11
8.458158609185806
 21
6.493365950740495
 31
0.0
  0
LINE
  5
BDE
330
22
100
AcDbEntity
  8
Layer 1
100
AcDbLine
 10
8.458158609185806
 20
6.493365950740495
 30
0.0
 11
8.283968836834262
 21
6.59661505766244
 31
0.0
  0
LINE
  5
BDF
330
22
100
AcDbEntity
  8
Layer 1
100
AcDbLine
 10
8.283968836834262
 20
6.59661505766244
 30
0.0
 11
8.103419244251492
 21
6.688063865032646
 31
0.0
  0
LINE
  5
BE0
330
22
100
AcDbEntity
  8
Layer 1
100
AcDbLine
 10
8.103419244251492
 20
6.688063865032646
 30
0.0
 11
7.917063134099508
 21
6.767408598840582
 31
0.0
  0
LINE
  5
BE1
330
22
100
AcDbEntity
  8
Layer 1
100
AcDbLine
 10
7.917063134099508
 20
6.767408598840582
 30
0.0
 11
7.725453856210178
 21
6.834345673755263
 31
0.0
  0
LINE
  5
BE2
330
22
100
AcDbEntity
  8
Layer 1
100
AcDbLine
 10
7.725453856210178
 20
6.834345673755263
 30
0.0
 11
7.529144713245508
 21
6.888571315766171
 31
0.0
  0
LINE
  5
BE3
330
22
100
AcDbEntity
  8
Layer 1
100
AcDbLine
 10
7.529144713245508
 20
6.888571315766171
 30
0.0
 11
7.328689007867497
 21
6.929781798032677
 31
0.0
  0
LINE
  5
BE4
330
22
100
AcDbEntity
  8
Layer 1
100
AcDbLine
 10
7.328689007867497
 20
6.929781798032677
 30
0.0
 11
7.124640184247778
 21
6.957673535223776
 31
0.0
  0
LINE
  5
BE5
330
22
100
AcDbEntity
  8
Layer 1
100
AcDbLine
 10
7.124640184247778
 20
6.957673535223776
 30
0.0
 11
6.917551450708598
 21
6.971942753328968
 31
0.0
  0
LINE
  5
BE6
330
22
100
AcDbEntity
  8
Layer 1
100
AcDbLine
 10
6.917551450708598
 20
6.971942753328968
 30
0.0
 11
6.707976157081831
 21
6.972285772677479
 31
0.0
  0
LINE
  5
BE7
330
22
100
AcDbEntity
  8
Layer 1
100
AcDbLine
 10
6.707976157081831
 20
6.972285772677479
 30
0.0
 11
6.445472110053627
 21
6.957180562834983
 31
0.0
  0
LINE
  5
BE8
330
22
100
AcDbEntity
  8
Layer 1
100
AcDbLine
 10
6.445472110053627
 20
6.957180562834983
 30
0.0
 11
6.225401613043247
 21
6.922194334572027
 31
0.0
  0
LINE
  5
BE9
330
22
100
AcDbEntity
  8
Layer 1
100
AcDbLine
 10
6.225401613043247
 20
6.922194334572027
 30
0.0
 11
6.155511562293169
 21
6.908229362176128
 31
0.0
  0
LINE
  5
BEA
330
22
100
AcDbEntity
  8
Layer 1
100
AcDbLine
 10
6.155511562293169
 20
6.908229362176128
 30
0.0
 11
6.155511562293169
 21
6.32342816547829
 31
0.0
  0
LINE
  5
BEB
330
22
100
AcDbEntity
  8
Layer 1
100
AcDbLine
 10
6.155511562293169
 20
6.32342816547829
 30
0.0
 11
6.155511562293169
 21
5.738626968780456
 31
0.0
  0
LINE
  5
BEE
330
22
100
AcDbEntity
  8
Layer 1
100
AcDbLine
 10
6.793987504003657
 20
5.738626968780456
 30
0.0
 11
6.797575197709464
 21
6.028171383882422
 31
0.0
  0
LINE
  5
BEF
330
22
100
AcDbEntity
  8
Layer 1
100
AcDbLine
 10
6.797575197709464
 20
6.028171383882422
 30
0.0
 11
6.801162891415266
 21
6.317715798984379
 31
0.0
  0
LINE
  5
BF0
330
22
100
AcDbEntity
  8
Layer 1
100
AcDbLine
 10
6.801162891415266
 20
6.317715798984379
 30
0.0
 11
6.927630568603594
 21
6.314576737982612
 31
0.0
  0
LINE
  5
BF1
330
22
100
AcDbEntity
  8
Layer 1
100
AcDbLine
 10
6.927630568603594
 20
6.314576737982612
 30
0.0
 11
7.045109978481866
 21
6.307944228690081
 31
0.0
  0
LINE
  5
BF2
330
22
100
AcDbEntity
  8
Layer 1
100
AcDbLine
 10
7.045109978481866
 20
6.307944228690081
 30
0.0
 11
7.164777551803242
 21
6.293964916651454
 31
0.0
  0
LINE
  5
BF3
330
22
100
AcDbEntity
  8
Layer 1
100
AcDbLine
 10
7.164777551803242
 20
6.293964916651454
 30
0.0
 11
7.407066240319911
 21
6.244899376209764
 31
0.0
  0
LINE
  5
BF4
330
22
100
AcDbEntity
  8
Layer 1
100
AcDbLine
 10
7.407066240319911
 20
6.244899376209764
 30
0.0
 11
7.647274171204348
 21
6.169247147575227
 31
0.0
  0
LINE
  5
BF5
330
22
100
AcDbEntity
  8
Layer 1
100
AcDbLine
 10
7.647274171204348
 20
6.169247147575227
 30
0.0
 11
7.878178975847028
 21
6.068875072986045
 31
0.0
  0
LINE
  5
BF6
330
22
100
AcDbEntity
  8
Layer 1
100
AcDbLine
 10
7.878178975847028
 20
6.068875072986045
 30
0.0
 11
8.09194974705001
 21
5.94880547079952
 31
0.0
  0
LINE
  5
BF7
330
22
100
AcDbEntity
  8
Layer 1
100
AcDbLine
 10
8.09194974705001
 20
5.94880547079952
 30
0.0
 11
8.289929694242362
 21
5.810872022830031
 31
0.0
  0
LINE
  5
BF8
330
22
100
AcDbEntity
  8
Layer 1
100
AcDbLine
 10
8.289929694242362
 20
5.810872022830031
 30
0.0
 11
8.471567590236697
 21
5.655709588457603
 31
0.0
  0
LINE
  5
BF9
330
22
100
AcDbEntity
  8
Layer 1
100
AcDbLine
 10
8.471567590236697
 20
5.655709588457603
 30
0.0
 11
8.636312443695006
 21
5.483953074232175
 31
0.0
  0
LINE
  5
BFA
330
22
100
AcDbEntity
  8
Layer 1
100
AcDbLine
 10
8.636312443695006
 20
5.483953074232175
 30
0.0
 11
8.783613121769644
 21
5.296237292363882
 31
0.0
  0
LINE
  5
BFB
330
22
100
AcDbEntity
  8
Layer 1
100
AcDbLine
 10
8.783613121769644
 20
5.296237292363882
 30
0.0
 11
8.912918538782859
 21
5.093197149402668
 31
0.0
  0
LINE
  5
BFC
330
22
100
AcDbEntity
  8
Layer 1
100
AcDbLine
 10
8.912918538782859
 20
5.093197149402668
 30
0.0
 11
9.023677561887003
 21
4.875467457558676
 31
0.0
  0
LINE
  5
BFD
330
22
100
AcDbEntity
  8
Layer 1
100
AcDbLine
 10
9.023677561887003
 20
4.875467457558676
 30
0.0
 11
9.115339105404318
 21
4.643683076211964
 31
0.0
  0
LINE
  5
BFE
330
22
100
AcDbEntity
  8
Layer 1
100
AcDbLine
 10
9.115339105404318
 20
4.643683076211964
 30
0.0
 11
9.122076145074743
 21
4.606035571482209
 31
0.0
  0
LINE
  5
C02
330
22
100
AcDbEntity
  8
Layer 1
100
AcDbLine
 10
9.801671246239497
 20
4.620386392628596
 30
0.0
 11
9.781654708761246
 21
4.690276443378677
 31
0.0
  0
LINE
  5
C03
330
22
100
AcDbEntity
  8
Layer 1
100
AcDbLine
 10
9.781654708761246
 20
4.690276443378677
 30
0.0
 11
9.781654708761246
 21
4.690276443378677
 31
0.0
  0
LINE
  5
DEA
330
22
100
AcDbEntity
  8
0
  6
Continuous
100
AcDbLine
 10
0.0000000000000006
 20
2.711669573234701
 30
0.0
 11
0.0
 21
0.0
 31
0.0
  0
LINE
  5
DEC
330
22
100
AcDbEntity
  8
0
  6
Continuous
100
AcDbLine
 10
0.0
 20
0.0
 30
0.0
 11
2.612527348136835
 21
0.0
 31
0.0
  0
ARC
  5
E06
330
22
100
AcDbEntity
  8
0
  6
Continuous
100
AcDbCircle
 10
6.801016418013176
 20
3.904449614405807
 30
0.0
 40
2.45359653758455
100
AcDbArc
 50
115.2050863344919
 51
131.6065819063963
  0
LINE
  5
E08
330
22
100
AcDbEntity
  8
0
  6
Continuous
100
AcDbLine
 10
5.75613991784539
 20
1.684456580938356
 30
0.0
 11
5.756139917845389
 21
0.5710469657750159
 31
0.0
  0
LINE
  5
E09
330
22
100
AcDbEntity
  8
0
  6
Continuous
100
AcDbLine
 10
4.378380517337378
 20
3.515899409150864
 30
0.0
 11
3.329325153017061
 21
3.622645754083519
 31
0.0
  0
LINE
  5
E0A
330
22
100
AcDbEntity
  8
0
  6
Continuous
100
AcDbLine
 10
5.756091790779159
 20
7.213088106463257
 30
0.0
 11
5.756128742732411
 21
6.124437388086836
 31
0.0
  0
LINE
  5
E0B
330
22
100
AcDbEntity
  8
0
  6
Continuous
100
AcDbLine
 10
5.756141840792496
 20
5.738552170515111
 30
0.0
 11
5.353516128596347
 21
5.738900198411608
 31
0.0
  0
ARC
  5
E0C
330
22
100
AcDbEntity
  8
0
  6
Continuous
100
AcDbCircle
 10
6.819998594711366
 20
3.864767844870394
 30
0.0
 40
3.51328140940155
100
AcDbArc
 50
107.6273132899806
 51
147.7366018894718
  0
ARC
  5
E0D
330
22
100
AcDbEntity
  8
0
  6
Continuous
100
AcDbCircle
 10
6.816856595232849
 20
3.904344465481571
 30
0.0
 40
2.346691300218757
100
AcDbArc
 50
116.8725967111424
 51
128.5777486844247
  0
ARC
  5
E0F
330
22
100
AcDbEntity
  8
0
  6
Continuous
100
AcDbCircle
 10
6.809754071283545
 20
3.906229824357404
 30
0.0
 40
1.888268116721161
100
AcDbArc
 50
195.3810041501328
 51
234.5634558362728
  0
ARC
  5
E10
330
22
100
AcDbEntity
  8
0
  6
Continuous
100
AcDbCircle
 10
6.801016418013176
 20
3.904449614405807
 30
0.0
 40
2.45359653758455
100
AcDbArc
 50
189.1116858142811
 51
244.7952020842365
  0
ARC
  5
E13
330
22
100
AcDbEntity
  8
0
  6
Continuous
100
AcDbCircle
 10
6.799646816188785
 20
3.891680241918814
 30
0.0
 40
3.48073440548453
100
AcDbArc
 50
184.4329524654723
 51
252.5547070355443
  0
LINE
  5
E14
330
22
100
AcDbEntity
  8
0
  6
Continuous
100
AcDbLine
 10
5.756133047093572
 20
5.997625529492141
 30
0.0
 11
5.756141840792496
 21
5.738552170515111
 31
0.0
  0
LINE
  5
E15
330
22
100
AcDbEntity
  8
0
  6
Continuous
100
AcDbLine
 10
5.171798598413318
 20
5.739057274246237
 30
0.0
 11
3.849157233404089
 21
5.740200559630503
 31
0.0
  0
LINE
  5
E17
330
22
100
AcDbEntity
  8
0
  6
Continuous
100
AcDbLine
 10
9.464815915795693
 20
2.340573858860472
 30
0.0
 11
8.585468787554527
 21
2.234772955910485
 31
0.0
  0
LINE
  5
E18
330
22
100
AcDbEntity
  8
0
  6
Continuous
100
AcDbLine
 10
6.794506702844293
 20
2.033826636637542
 30
0.0
 11
6.155511562293169
 21
2.141168107783697
 31
0.0
  0
LINE
  5
E19
330
22
100
AcDbEntity
  8
0
  6
Continuous
100
AcDbLine
 10
6.793987504003657
 20
5.738626968780456
 30
0.0
 11
6.155511562293169
 21
5.738626968780456
 31
0.0
  0
LINE
  5
E1A
330
22
100
AcDbEntity
  8
0
  6
Continuous
100
AcDbLine
 10
9.801671246239497
 20
4.620386392628596
 30
0.0
 11
9.122076145074743
 21
4.606035571482209
 31
0.0
  0
ENDSEC
  0
SECTION
  2
OBJECTS
  0
DICTIONARY
  5
C
330
0
100
AcDbDictionary
281
     1
  3
ACAD_COLOR
350
1B
  3
ACAD_GROUP
350
D
  3
ACAD_LAYOUT
350
19
  3
ACAD_MATERIAL
350
1A
  3
ACAD_MLINESTYLE
350
16
  3
ACAD_PLOTSETTINGS
350
18
  3
ACAD_PLOTSTYLENAME
350
E
  3
ACAD_TABLESTYLE
350
1C
  3
ACDBHEADERROUNDTRIPXREC
350
E59
  3
AcDbVariableDictionary
350
DF0
  0
DICTIONARY
  5
E11
330
22
100
AcDbDictionary
280
     1
281
     1
  3
ACAD_SORTENTS
360
E12
  0
DICTIONARY
  5
1B
102
{ACAD_REACTORS
330
C
102
}
330
C
100
AcDbDictionary
281
     1
  0
DICTIONARY
  5
D
102
{ACAD_REACTORS
330
C
102
}
330
C
100
AcDbDictionary
281
     1
  0
DICTIONARY
  5
19
102
{ACAD_REACTORS
330
C
102
}
330
C
100
AcDbDictionary
281
     1
  3
Layout1
350
21
  3
Model
350
25
  0
DICTIONARY
  5
1A
102
{ACAD_REACTORS
330
C
102
}
330
C
100
AcDbDictionary
281
     1
  0
DICTIONARY
  5
16
102
{ACAD_REACTORS
330
C
102
}
330
C
100
AcDbDictionary
281
     1
  3
Standard
350
17
  0
DICTIONARY
  5
18
102
{ACAD_REACTORS
330
C
102
}
330
C
100
AcDbDictionary
281
     1
  0
ACDBDICTIONARYWDFLT
  5
E
102
{ACAD_REACTORS
330
C
102
}
330
C
100
AcDbDictionary
281
     1
  3
Normal
350
F
100
AcDbDictionaryWithDefault
340
F
  0
DICTIONARY
  5
1C
102
{ACAD_REACTORS
330
C
102
}
330
C
100
AcDbDictionary
281
     1
  3
Standard
350
1D
  0
DICTIONARY
  5
E59
102
{ACAD_REACTORS
330
C
102
}
330
C
100
AcDbDictionary
281
     1
  0
DICTIONARY
  5
DF0
102
{ACAD_REACTORS
330
C
102
}
330
C
100
AcDbDictionary
281
     1
  3
CTABLESTYLE
350
DF1
  3
DIMASSOC
350
DF3
  3
PROJECTNAME
350
DF4
  0
SORTENTSTABLE
  5
E12
102
{ACAD_REACTORS
330
E11
102
}
330
E11
100
AcDbSortentsTable
330
22
331
9E7
  5
9E7
331
A1C
  5
A1C
331
975
  5
975
331
9AA
  5
9AA
331
BE1
  5
BE1
331
97C
  5
97C
331
85B
  5
85B
331
898
  5
898
331
8CD
  5
8CD
331
7E9
  5
7E9
331
826
  5
826
331
777
  5
777
331
90A
  5
90A
331
93F
  5
93F
331
7F0
  5
7F0
331
70C
  5
70C
331
741
  5
741
331
77E
  5
77E
331
7B3
  5
7B3
331
585
  5
585
331
69A
  5
69A
331
6CF
  5
6CF
331
4E5
  5
4E5
331
51A
  5
51A
331
2C3
  5
2C3
331
124
  5
124
331
161
  5
161
331
196
  5
196
331
B2
  5
B2
331
EF
  5
EF
331
488
  5
488
331
7C
  5
7C
331
B9
  5
B9
331
5F
  5
5F
331
29
  5
29
331
66
  5
66
331
E09
  5
E0B
331
BC7
  5
BC7
331
9CD
  5
9CD
331
9D4
  5
9D4
331
A09
  5
A09
331
8F0
  5
8F0
331
925
  5
925
331
841
  5
841
331
87E
  5
87E
331
8B3
  5
8B3
331
962
  5
962
331
997
  5
997
331
7CF
  5
7CF
331
80C
  5
80C
331
7A1
  5
7A1
331
7D6
  5
7D6
331
813
  5
813
331
848
  5
848
331
6BD
  5
6BD
331
6F2
  5
6F2
331
72F
  5
72F
331
764
  5
764
331
536
  5
536
331
680
  5
680
331
53D
  5
53D
331
572
  5
572
331
D5
  5
D5
331
10A
  5
10A
331
147
  5
147
331
17C
  5
17C
331
9F
  5
9F
331
DC
  5
DC
331
111
  5
111
331
4C
  5
4C
331
BEA
  5
BEA
331
BB4
  5
BB4
331
BF1
  5
BF1
331
985
  5
985
331
9BA
  5
9BA
331
9F7
  5
9F7
331
8D6
  5
8D6
331
913
  5
913
331
864
  5
864
331
948
  5
948
331
86B
  5
86B
331
8A0
  5
8A0
331
74A
  5
74A
331
787
  5
787
331
7BC
  5
7BC
331
7F9
  5
7F9
331
82E
  5
82E
331
58E
  5
58E
331
6A3
  5
6A3
331
6D8
  5
6D8
331
715
  5
715
331
6AA
  5
6AA
331
523
  5
523
331
2CC
  5
2CC
331
19F
  5
19F
331
491
  5
491
331
12D
  5
12D
331
560
  5
560
331
C2
  5
C2
331
F7
  5
F7
331
134
  5
134
331
169
  5
169
331
85
  5
85
331
6F
  5
6F
331
32
  5
32
331
9DD
  5
9DD
331
A12
  5
A12
331
96B
  5
96B
331
9A0
  5
9A0
331
BD7
  5
BD7
331
887
  5
887
331
8BC
  5
8BC
331
8F9
  5
8F9
331
92E
  5
92E
331
88E
  5
88E
331
8C3
  5
8C3
331
81C
  5
81C
331
851
  5
851
331
900
  5
900
331
6FB
  5
6FB
331
76D
  5
76D
331
7AA
  5
7AA
331
7DF
  5
7DF
331
546
  5
546
331
57B
  5
57B
331
690
  5
690
331
6C5
  5
6C5
331
4D4
  5
4D4
331
509
  5
509
331
702
  5
702
331
2B2
  5
2B2
331
185
  5
185
331
477
  5
477
331
2B9
  5
2B9
331
157
  5
157
331
18C
  5
18C
331
A8
  5
A8
331
E5
  5
E5
331
11A
  5
11A
331
55
  5
55
331
BFA
  5
BFA
331
9C3
  5
9C3
331
A00
  5
A00
331
BBD
  5
BBD
331
8DF
  5
8DF
331
951
  5
951
331
98E
  5
98E
331
874
  5
874
331
8A9
  5
8A9
331
790
  5
790
331
7C5
  5
7C5
331
802
  5
802
331
837
  5
837
331
71E
  5
71E
331
753
  5
753
331
8E6
  5
8E6
331
91B
  5
91B
331
725
  5
725
331
75A
  5
75A
331
676
  5
676
331
52C
  5
52C
331
569
  5
569
331
6B3
  5
6B3
331
6E8
  5
6E8
331
4F7
  5
4F7
331
4C1
  5
4C1
331
2D4
  5
2D4
331
13D
  5
13D
331
172
  5
172
331
1AF
  5
1AF
331
8E
  5
8E
331
CB
  5
CB
331
100
  5
100
331
3B
  5
3B
331
42
  5
42
331
BE0
  5
BE0
331
974
  5
974
331
9A9
  5
9A9
331
937
  5
937
331
9E6
  5
9E6
331
A1B
  5
A1B
331
909
  5
909
331
93E
  5
93E
331
825
  5
825
331
85A
  5
85A
331
897
  5
897
331
8CC
  5
8CC
331
97B
  5
97B
331
776
  5
776
331
7E8
  5
7E8
331
9B0
  5
9B0
331
77D
  5
77D
331
7B2
  5
7B2
331
699
  5
699
331
6CE
  5
6CE
331
70B
  5
70B
331
740
  5
740
331
584
  5
584
331
519
  5
519
331
2C2
  5
2C2
331
160
  5
160
331
195
  5
195
331
487
  5
487
331
B1
  5
B1
331
EE
  5
EE
331
123
  5
123
331
4E4
  5
4E4
331
5E
  5
5E
331
7B
  5
7B
331
B8
  5
B8
331
28
  5
28
331
65
  5
65
331
E08
  5
E0A
331
9CC
  5
9CC
331
BC6
  5
BC6
331
C03
  5
C03
331
961
  5
961
331
996
  5
996
331
87D
  5
87D
331
8B2
  5
8B2
331
80B
  5
80B
331
840
  5
840
331
8EF
  5
8EF
331
924
  5
924
331
9D3
  5
9D3
331
A08
  5
A08
331
7CE
  5
7CE
331
812
  5
812
331
72E
  5
72E
331
763
  5
763
331
7A0
  5
7A0
331
7D5
  5
7D5
331
535
  5
535
331
67F
  5
67F
331
6BC
  5
6BC
331
6F1
  5
6F1
331
146
  5
146
331
17B
  5
17B
331
97
  5
97
331
D4
  5
D4
331
109
  5
109
331
53C
  5
53C
331
571
  5
571
331
9E
  5
9E
331
DB
  5
DB
331
110
  5
110
331
4B
  5
4B
331
BE9
  5
BE9
331
9F6
  5
9F6
331
BB3
  5
BB3
331
912
  5
912
331
947
  5
947
331
984
  5
984
331
9B9
  5
9B9
331
863
  5
863
331
8D5
  5
8D5
331
BF0
  5
BF0
331
7F8
  5
7F8
331
82D
  5
82D
331
714
  5
714
331
749
  5
749
331
786
  5
786
331
7BB
  5
7BB
331
58D
  5
58D
331
6A2
  5
6A2
331
6D7
  5
6D7
331
86A
  5
86A
331
55F
  5
55F
331
6A9
  5
6A9
331
490
  5
490
331
2CB
  5
2CB
331
12C
  5
12C
331
19E
  5
19E
331
522
  5
522
331
168
  5
168
331
84
  5
84
331
C1
  5
C1
331
F6
  5
F6
331
133
  5
133
331
31
  5
31
331
6E
  5
6E
331
BCF
  5
BCF
331
BD6
  5
BD6
331
9DC
  5
9DC
331
8F8
  5
8F8
331
92D
  5
92D
331
886
  5
886
331
8BB
  5
8BB
331
96A
  5
96A
331
99F
  5
99F
331
88D
  5
88D
331
8C2
  5
8C2
331
76C
  5
76C
331
7A9
  5
7A9
331
7DE
  5
7DE
331
81B
  5
81B
331
850
  5
850
331
6FA
  5
6FA
331
737
  5
737
331
701
  5
701
331
545
  5
545
331
57A
  5
57A
331
68F
  5
68F
331
6C4
  5
6C4
331
184
  5
184
331
14F
  5
14F
331
2B1
  5
2B1
331
4D3
  5
4D3
331
508
  5
508
331
2B8
  5
2B8
331
E4
  5
E4
331
119
  5
119
331
156
  5
156
331
18B
  5
18B
331
A7
  5
A7
331
54
  5
54
331
9FF
  5
9FF
331
BBC
  5
BBC
331
BF9
  5
BF9
331
950
  5
950
331
98D
  5
98D
331
8DE
  5
8DE
331
9C2
  5
9C2
331
8E5
  5
8E5
331
91A
  5
91A
331
801
  5
801
331
836
  5
836
331
71D
  5
71D
331
752
  5
752
331
78F
  5
78F
331
7C4
  5
7C4
331
873
  5
873
331
8A8
  5
8A8
331
6B2
  5
6B2
331
6E7
  5
6E7
331
4F6
  5
4F6
331
1A7
  5
1A7
331
52B
  5
52B
331
724
  5
724
331
759
  5
759
331
2D3
  5
2D3
331
171
  5
171
331
1AE
  5
1AE
331
8D
  5
8D
331
CA
  5
CA
331
FF
  5
FF
331
13C
  5
13C
331
4C0
  5
4C0
331
3A
  5
3A
331
77
  5
77
331
41
  5
41
331
9E5
  5
9E5
331
A1A
  5
A1A
331
936
  5
936
331
973
  5
973
331
9A8
  5
9A8
331
BDF
  5
BDF
331
97A
  5
97A
331
896
  5
896
331
8CB
  5
8CB
331
908
  5
908
331
93D
  5
93D
331
7E7
  5
7E7
331
824
  5
824
331
775
  5
775
331
859
  5
859
331
70A
  5
70A
331
73F
  5
73F
331
77C
  5
77C
331
7B1
  5
7B1
331
47F
  5
47F
331
583
  5
583
331
698
  5
698
331
6CD
  5
6CD
331
4E3
  5
4E3
331
518
  5
518
331
2C1
  5
2C1
331
15F
  5
15F
331
194
  5
194
331
486
  5
486
331
B0
  5
B0
331
ED
  5
ED
331
122
  5
122
331
7A
  5
7A
331
5D
  5
5D
331
64
  5
64
331
27
  5
27
331
BC5
  5
BC5
331
C02
  5
C02
331
9CB
  5
9CB
331
9D2
  5
9D2
331
8EE
  5
8EE
331
923
  5
923
331
87C
  5
87C
331
8B1
  5
8B1
331
960
  5
960
331
995
  5
995
331
7CD
  5
7CD
331
80A
  5
80A
331
83F
  5
83F
331
79F
  5
79F
331
7D4
  5
7D4
331
811
  5
811
331
6BB
  5
6BB
331
6F0
  5
6F0
331
72D
  5
72D
331
762
  5
762
331
534
  5
534
331
67E
  5
67E
331
53B
  5
53B
331
570
  5
570
331
4C9
  5
4C9
331
D3
  5
D3
331
108
  5
108
331
145
  5
145
331
17A
  5
17A
331
96
  5
96
331
9D
  5
9D
331
DA
  5
DA
331
4A
  5
4A
331
9EE
  5
9EE
331
BE8
  5
BE8
331
BB2
  5
BB2
331
983
  5
983
331
89F
  5
89F
331
8D4
  5
8D4
331
911
  5
911
331
946
  5
946
331
862
  5
862
331
869
  5
869
331
785
  5
785
331
7BA
  5
7BA
331
7F7
  5
7F7
331
82C
  5
82C
331
557
  5
557
331
58C
  5
58C
331
6A1
  5
6A1
331
6D6
  5
6D6
331
713
  5
713
331
748
  5
748
331
6A8
  5
6A8
331
521
  5
521
331
2CA
  5
2CA
331
19D
  5
19D
331
48F
  5
48F
331
12B
  5
12B
331
55E
  5
55E
331
C0
  5
C0
331
F5
  5
F5
331
132
  5
132
331
83
  5
83
331
6D
  5
6D
331
30
  5
30
331
E10
  5
E07
331
BCE
  5
BCE
331
BD5
  5
BD5
331
969
  5
969
331
99E
  5
99E
331
885
  5
885
331
8BA
  5
8BA
331
8F7
  5
8F7
331
92C
  5
92C
331
9DB
  5
9DB
331
8C1
  5
8C1
331
81A
  5
81A
331
84F
  5
84F
331
6F9
  5
6F9
331
736
  5
736
331
76B
  5
76B
331
687
  5
687
331
7A8
  5
7A8
331
7DD
  5
7DD
331
88C
  5
88C
331
579
  5
579
331
68E
  5
68E
331
6C3
  5
6C3
331
700
  5
700
331
2B0
  5
2B0
331
507
  5
507
331
14E
  5
14E
331
183
  5
183
331
544
  5
544
331
155
  5
155
331
18A
  5
18A
331
A6
  5
A6
331
E3
  5
E3
331
118
  5
118
331
53
  5
53
331
BF8
  5
BF8
331
9C1
  5
9C1
331
9FE
  5
9FE
331
BBB
  5
BBB
331
8DD
  5
8DD
331
94F
  5
94F
331
98C
  5
98C
331
872
  5
872
331
8A7
  5
8A7
331
78E
  5
78E
331
7C3
  5
7C3
331
800
  5
800
331
835
  5
835
331
6DF
  5
6DF
331
71C
  5
71C
331
751
  5
751
331
8E4
  5
8E4
331
919
  5
919
331
723
  5
723
331
758
  5
758
331
52A
  5
52A
331
6B1
  5
6B1
331
6E6
  5
6E6
331
1A6
  5
1A6
331
4F5
  5
4F5
331
13B
  5
13B
331
170
  5
170
331
1AD
  5
1AD
331
8C
  5
8C
331
C9
  5
C9
331
FE
  5
FE
331
39
  5
39
331
76
  5
76
331
40
  5
40
331
BDE
  5
BDE
331
972
  5
972
331
9A7
  5
9A7
331
935
  5
935
331
9E4
  5
9E4
331
A19
  5
A19
331
907
  5
907
331
93C
  5
93C
331
823
  5
823
331
858
  5
858
331
895
  5
895
331
8CA
  5
8CA
331
979
  5
979
331
774
  5
774
331
7E6
  5
7E6
331
7B0
  5
7B0
331
697
  5
697
331
6CC
  5
6CC
331
709
  5
709
331
73E
  5
73E
331
47E
  5
47E
331
54D
  5
54D
331
582
  5
582
331
77B
  5
77B
331
485
  5
485
331
4E2
  5
4E2
331
193
  5
193
331
AF
  5
AF
331
EC
  5
EC
331
121
  5
121
331
15E
  5
15E
331
2C0
  5
2C0
331
5C
  5
5C
331
79
  5
79
331
63
  5
63
331
E06
  5
E06
331
A07
  5
A07
331
BC4
  5
BC4
331
9CA
  5
9CA
331
95F
  5
95F
331
994
  5
994
331
8B0
  5
8B0
331
8ED
  5
8ED
331
922
  5
922
331
9D1
  5
9D1
331
809
  5
809
331
83E
  5
83E
331
797
  5
797
331
7CC
  5
7CC
331
87B
  5
87B
331
810
  5
810
331
72C
  5
72C
331
761
  5
761
331
79E
  5
79E
331
7D3
  5
7D3
331
67D
  5
67D
331
6BA
  5
6BA
331
6EF
  5
6EF
331
533
  5
533
331
4C8
  5
4C8
331
4FD
  5
4FD
331
179
  5
179
331
1B6
  5
1B6
331
53A
  5
53A
331
95
  5
95
331
D2
  5
D2
331
107
  5
107
331
144
  5
144
331
9C
  5
9C
331
D9
  5
D9
331
49
  5
49
331
BE7
  5
BE7
331
DEC
  5
DEC
331
9ED
  5
9ED
331
9F4
  5
9F4
331
BB1
  5
BB1
331
910
  5
910
331
945
  5
945
331
982
  5
982
331
9B7
  5
9B7
331
861
  5
861
331
89E
  5
89E
331
7EF
  5
7EF
331
8D3
  5
8D3
331
7F6
  5
7F6
331
82B
  5
82B
331
712
  5
712
331
747
  5
747
331
784
  5
784
331
7B9
  5
7B9
331
556
  5
556
331
58B
  5
58B
331
6A0
  5
6A0
331
6D5
  5
6D5
331
868
  5
868
331
55D
  5
55D
331
592
  5
592
331
48E
  5
48E
331
4EB
  5
4EB
331
2C9
  5
2C9
331
12A
  5
12A
331
167
  5
167
331
19C
  5
19C
331
520
  5
520
331
82
  5
82
331
BF
  5
BF
331
F4
  5
F4
331
131
  5
131
331
2F
  5
2F
331
6C
  5
6C
331
E0F
  5
E15
331
BCD
  5
BCD
331
BD4
  5
BD4
331
9DA
  5
9DA
331
8F6
  5
8F6
331
92B
  5
92B
331
847
  5
847
331
884
  5
884
331
8B9
  5
8B9
331
968
  5
968
331
99D
  5
99D
331
88B
  5
88B
331
8C0
  5
8C0
331
7A7
  5
7A7
331
7DC
  5
7DC
331
819
  5
819
331
84E
  5
84E
331
686
  5
686
331
6F8
  5
6F8
331
735
  5
735
331
76A
  5
76A
331
578
  5
578
331
68D
  5
68D
331
6C2
  5
6C2
331
182
  5
182
331
14D
  5
14D
331
2AF
  5
2AF
331
506
  5
506
331
E2
  5
E2
331
117
  5
117
331
154
  5
154
331
189
  5
189
331
A5
  5
A5
331
52
  5
52
331
BBA
  5
BBA
331
BF7
  5
BF7
331
94E
  5
94E
331
98B
  5
98B
331
8DC
  5
8DC
331
9C0
  5
9C0
331
9FD
  5
9FD
331
8E3
  5
8E3
331
918
  5
918
331
7FF
  5
7FF
331
834
  5
834
331
71B
  5
71B
331
750
  5
750
331
78D
  5
78D
331
7C2
  5
7C2
331
6DE
  5
6DE
331
871
  5
871
331
8A6
  5
8A6
331
6B0
  5
6B0
331
6E5
  5
6E5
331
4F4
  5
4F4
331
1A5
  5
1A5
331
529
  5
529
331
722
  5
722
331
1AC
  5
1AC
331
8B
  5
8B
331
C8
  5
C8
331
FD
  5
FD
331
13A
  5
13A
331
16F
  5
16F
331
38
  5
38
331
75
  5
75
331
9E3
  5
9E3
331
A18
  5
A18
331
8FF
  5
8FF
331
934
  5
934
331
9A6
  5
9A6
331
BDD
  5
BDD
331
978
  5
978
331
894
  5
894
331
8C9
  5
8C9
331
7E5
  5
7E5
331
822
  5
822
331
857
  5
857
331
773
  5
773
331
906
  5
906
331
93B
  5
93B
331
708
  5
708
331
73D
  5
73D
331
77A
  5
77A
331
54C
  5
54C
331
581
  5
581
331
696
  5
696
331
6CB
  5
6CB
331
47D
  5
47D
331
4DA
  5
4DA
331
4E1
  5
4E1
331
2BF
  5
2BF
331
15D
  5
15D
331
192
  5
192
331
484
  5
484
331
AE
  5
AE
331
EB
  5
EB
331
120
  5
120
331
5B
  5
5B
331
78
  5
78
331
62
  5
62
331
BC3
  5
BC3
331
9C9
  5
9C9
331
A06
  5
A06
331
957
  5
957
331
9D0
  5
9D0
331
8EC
  5
8EC
331
921
  5
921
331
87A
  5
87A
331
8AF
  5
8AF
331
95E
  5
95E
331
993
  5
993
331
796
  5
796
331
7CB
  5
7CB
331
808
  5
808
331
83D
  5
83D
331
7D2
  5
7D2
331
6B9
  5
6B9
331
6EE
  5
6EE
331
72B
  5
72B
331
760
  5
760
331
532
  5
532
331
56F
  5
56F
331
67C
  5
67C
331
79D
  5
79D
331
539
  5
539
331
4C7
  5
4C7
331
4FC
  5
4FC
331
1B5
  5
1B5
331
D1
  5
D1
331
106
  5
106
331
143
  5
143
331
178
  5
178
331
2DA
  5
2DA
331
94
  5
94
331
9B
  5
9B
331
D8
  5
D8
331
48
  5
48
331
A21
  5
A21
331
BE6
  5
BE6
331
9AF
  5
9AF
331
9EC
  5
9EC
331
981
  5
981
331
9B6
  5
9B6
331
8D2
  5
8D2
331
90F
  5
90F
331
944
  5
944
331
9F3
  5
9F3
331
7EE
  5
7EE
331
860
  5
860
331
89D
  5
89D
331
783
  5
783
331
7B8
  5
7B8
331
7F5
  5
7F5
331
82A
  5
82A
331
58A
  5
58A
331
69F
  5
69F
331
6D4
  5
6D4
331
711
  5
711
331
746
  5
746
331
555
  5
555
331
4EA
  5
4EA
331
51F
  5
51F
331
2C8
  5
2C8
331
166
  5
166
331
19B
  5
19B
331
48D
  5
48D
331
B7
  5
B7
331
129
  5
129
331
55C
  5
55C
331
591
  5
591
331
BE
  5
BE
331
F3
  5
F3
331
130
  5
130
331
81
  5
81
331
6B
  5
6B
331
2E
  5
2E
331
BCC
  5
BCC
331
BD3
  5
BD3
331
967
  5
967
331
99C
  5
99C
331
883
  5
883
331
8B8
  5
8B8
331
846
  5
846
331
8F5
  5
8F5
331
92A
  5
92A
331
9D9
  5
9D9
331
A0E
  5
A0E
331
818
  5
818
331
84D
  5
84D
331
6F7
  5
6F7
331
734
  5
734
331
769
  5
769
331
685
  5
685
331
7A6
  5
7A6
331
7DB
  5
7DB
331
88A
  5
88A
331
68C
  5
68C
331
6C1
  5
6C1
331
2AE
  5
2AE
331
505
  5
505
331
14C
  5
14C
331
181
  5
181
331
10F
  5
10F
331
153
  5
153
331
188
  5
188
331
A4
  5
A4
331
E1
  5
E1
331
116
  5
116
331
51
  5
51
331
BEF
  5
BEF
331
BF6
  5
BF6
331
9FC
  5
9FC
331
BB9
  5
BB9
331
8DB
  5
8DB
331
94D
  5
94D
331
98A
  5
98A
331
9BF
  5
9BF
331
870
  5
870
331
8A5
  5
8A5
331
7C1
  5
7C1
331
7FE
  5
7FE
331
833
  5
833
331
8E2
  5
8E2
331
6DD
  5
6DD
331
71A
  5
71A
331
74F
  5
74F
331
78C
  5
78C
331
721
  5
721
331
528
  5
528
331
6AF
  5
6AF
331
6E4
  5
6E4
331
1A4
  5
1A4
331
4F3
  5
4F3
331
139
  5
139
331
16E
  5
16E
331
1AB
  5
1AB
331
8A
  5
8A
331
C7
  5
C7
331
FC
  5
FC
331
37
  5
37
331
74
  5
74
331
BDC
  5
BDC
331
970
  5
970
331
9A5
  5
9A5
331
8FE
  5
8FE
331
933
  5
933
331
9E2
  5
9E2
331
A17
  5
A17
331
905
  5
905
331
93A
  5
93A
331
821
  5
821
331
856
  5
856
331
893
  5
893
331
8C8
  5
8C8
331
772
  5
772
331
7AF
  5
7AF
331
7E4
  5
7E4
331
6CA
  5
6CA
331
707
  5
707
331
73C
  5
73C
331
779
  5
779
331
4D9
  5
4D9
331
47C
  5
47C
331
54B
  5
54B
331
580
  5
580
331
695
  5
695
331
2B7
  5
2B7
331
483
  5
483
331
2BE
  5
2BE
331
AD
  5
AD
331
EA
  5
EA
331
11F
  5
11F
331
15C
  5
15C
331
191
  5
191
331
5A
  5
5A
331
61
  5
61
331
A05
  5
A05
331
BC2
  5
BC2
331
956
  5
956
331
9C8
  5
9C8
331
95D
  5
95D
331
992
  5
992
331
8EB
  5
8EB
331
920
  5
920
331
807
  5
807
331
83C
  5
83C
331
795
  5
795
331
7CA
  5
7CA
331
879
  5
879
331
8AE
  5
8AE
331
72A
  5
72A
331
75F
  5
75F
331
79C
  5
79C
331
7D1
  5
7D1
331
56E
  5
56E
331
67B
  5
67B
331
6B8
  5
6B8
331
6ED
  5
6ED
331
4BF
  5
4BF
331
531
  5
531
331
4C6
  5
4C6
331
4FB
  5
4FB
331
2D9
  5
2D9
331
177
  5
177
331
1B4
  5
1B4
331
538
  5
538
331
93
  5
93
331
D0
  5
D0
331
105
  5
105
331
142
  5
142
331
9A
  5
9A
331
47
  5
47
331
BE5
  5
BE5
331
DEA
  5
DEA
331
9EB
  5
9EB
331
A20
  5
A20
331
9AE
  5
9AE
331
90E
  5
90E
331
943
  5
943
331
980
  5
980
331
85F
  5
85F
331
89C
  5
89C
331
7ED
  5
7ED
331
8D1
  5
8D1
331
7F4
  5
7F4
331
829
  5
829
331
710
  5
710
331
745
  5
745
331
782
  5
782
331
7B7
  5
7B7
331
517
  5
517
331
589
  5
589
331
69E
  5
69E
331
6D3
  5
6D3
331
55B
  5
55B
331
590
  5
590
331
48C
  5
48C
331
4E9
  5
4E9
331
2C7
  5
2C7
331
128
  5
128
331
165
  5
165
331
19A
  5
19A
331
B6
  5
B6
331
51E
  5
51E
331
80
  5
80
331
BD
  5
BD
331
F2
  5
F2
331
2D
  5
2D
331
6A
  5
6A
331
E0D
  5
E14
331
BCB
  5
BCB
331
BD2
  5
BD2
331
9D8
  5
9D8
331
A0D
  5
A0D
331
8F4
  5
8F4
331
929
  5
929
331
845
  5
845
331
882
  5
882
331
8B7
  5
8B7
331
966
  5
966
331
99B
  5
99B
331
889
  5
889
331
7A5
  5
7A5
331
7DA
  5
7DA
331
817
  5
817
331
84C
  5
84C
331
6F6
  5
6F6
331
733
  5
733
331
768
  5
768
331
684
  5
684
331
68B
  5
68B
331
2AD
  5
2AD
331
6C0
  5
6C0
331
10E
  5
10E
331
14B
  5
14B
331
180
  5
180
331
E0
  5
E0
331
115
  5
115
331
152
  5
152
331
A3
  5
A3
331
50
  5
50
331
BEE
  5
BEE
331
BB8
  5
BB8
331
BF5
  5
BF5
331
94C
  5
94C
331
989
  5
989
331
9BE
  5
9BE
331
8DA
  5
8DA
331
917
  5
917
331
9FB
  5
9FB
331
8E1
  5
8E1
331
7FD
  5
7FD
331
832
  5
832
331
719
  5
719
331
74E
  5
74E
331
78B
  5
78B
331
7C0
  5
7C0
331
6A7
  5
6A7
331
6DC
  5
6DC
331
86F
  5
86F
331
8A4
  5
8A4
331
6AE
  5
6AE
331
6E3
  5
6E3
331
4F2
  5
4F2
331
1A3
  5
1A3
331
527
  5
527
331
720
  5
720
331
1AA
  5
1AA
331
C6
  5
C6
331
FB
  5
FB
331
138
  5
138
331
16D
  5
16D
331
89
  5
89
331
36
  5
36
331
73
  5
73
331
9E1
  5
9E1
331
8FD
  5
8FD
331
932
  5
932
331
96F
  5
96F
331
9A4
  5
9A4
331
BDB
  5
BDB
331
892
  5
892
331
8C7
  5
8C7
331
7E3
  5
7E3
331
820
  5
820
331
855
  5
855
331
904
  5
904
331
939
  5
939
331
6FF
  5
6FF
331
771
  5
771
331
7AE
  5
7AE
331
706
  5
706
331
73B
  5
73B
331
778
  5
778
331
54A
  5
54A
331
57F
  5
57F
331
694
  5
694
331
6C9
  5
6C9
331
47B
  5
47B
331
2B6
  5
2B6
331
4D8
  5
4D8
331
50D
  5
50D
331
2BD
  5
2BD
331
15B
  5
15B
331
190
  5
190
331
482
  5
482
331
AC
  5
AC
331
E9
  5
E9
331
11E
  5
11E
331
59
  5
59
331
60
  5
60
331
BC1
  5
BC1
331
BFE
  5
BFE
331
9C7
  5
9C7
331
A04
  5
A04
331
955
  5
955
331
91F
  5
91F
331
95C
  5
95C
331
991
  5
991
331
878
  5
878
331
8AD
  5
8AD
331
794
  5
794
331
7C9
  5
7C9
331
806
  5
806
331
83B
  5
83B
331
757
  5
757
331
8EA
  5
8EA
331
6EC
  5
6EC
331
729
  5
729
331
75E
  5
75E
331
79B
  5
79B
331
530
  5
530
331
56D
  5
56D
331
67A
  5
67A
331
4BE
  5
4BE
331
6B7
  5
6B7
331
7D0
  5
7D0
331
4C5
  5
4C5
331
4FA
  5
4FA
331
2D8
  5
2D8
331
CF
  5
CF
331
104
  5
104
331
141
  5
141
331
176
  5
176
331
92
  5
92
331
1B3
  5
1B3
331
99
  5
99
331
3F
  5
3F
331
46
  5
46
331
BE4
  5
BE4
331
9AD
  5
9AD
331
9EA
  5
9EA
331
A1F
  5
A1F
331
97F
  5
97F
331
9B4
  5
9B4
331
8D0
  5
8D0
331
90D
  5
90D
331
942
  5
942
331
9F1
  5
9F1
331
7EC
  5
7EC
331
85E
  5
85E
331
89B
  5
89B
331
781
  5
781
331
7B6
  5
7B6
331
7F3
  5
7F3
331
828
  5
828
331
588
  5
588
331
69D
  5
69D
331
6D2
  5
6D2
331
70F
  5
70F
331
744
  5
744
331
4E8
  5
4E8
331
51D
  5
51D
331
2C6
  5
2C6
331
164
  5
164
331
199
  5
199
331
48B
  5
48B
331
B5
  5
B5
331
127
  5
127
331
55A
  5
55A
331
F1
  5
F1
331
7F
  5
7F
331
BC
  5
BC
331
69
  5
69
331
2C
  5
2C
331
E0C
  5
E13
331
BCA
  5
BCA
331
BD1
  5
BD1
331
965
  5
965
331
99A
  5
99A
331
881
  5
881
331
8B6
  5
8B6
331
80F
  5
80F
331
844
  5
844
331
8F3
  5
8F3
331
928
  5
928
331
9D7
  5
9D7
331
A0C
  5
A0C
331
816
  5
816
331
84B
  5
84B
331
6F5
  5
6F5
331
732
  5
732
331
767
  5
767
331
683
  5
683
331
7A4
  5
7A4
331
7D9
  5
7D9
331
888
  5
888
331
68A
  5
68A
331
2AC
  5
2AC
331
14A
  5
14A
331
17F
  5
17F
331
10D
  5
10D
331
151
  5
151
331
A2
  5
A2
331
DF
  5
DF
331
114
  5
114
331
4F
  5
4F
331
BF4
  5
BF4
331
9FA
  5
9FA
331
BB7
  5
BB7
331
916
  5
916
331
94B
  5
94B
331
988
  5
988
331
9BD
  5
9BD
331
867
  5
867
331
8D9
  5
8D9
331
86E
  5
86E
331
8A3
  5
8A3
331
7FC
  5
7FC
331
831
  5
831
331
8E0
  5
8E0
331
6DB
  5
6DB
331
718
  5
718
331
74D
  5
74D
331
78A
  5
78A
331
7BF
  5
7BF
331
6A6
  5
6A6
331
526
  5
526
331
6AD
  5
6AD
331
6E2
  5
6E2
331
1A2
  5
1A2
331
137
  5
137
331
16C
  5
16C
331
1A9
  5
1A9
331
88
  5
88
331
C5
  5
C5
331
FA
  5
FA
331
35
  5
35
331
72
  5
72
331
E15
  5
E10
331
BDA
  5
BDA
331
96E
  5
96E
331
9A3
  5
9A3
331
8FC
  5
8FC
331
931
  5
931
331
9E0
  5
9E0
331
A15
  5
A15
331
8BF
  5
8BF
331
903
  5
903
331
938
  5
938
331
81F
  5
81F
331
854
  5
854
331
891
  5
891
331
8C6
  5
8C6
331
770
  5
770
331
7AD
  5
7AD
331
7E2
  5
7E2
331
6FE
  5
6FE
331
705
  5
705
331
73A
  5
73A
331
4D7
  5
4D7
331
50C
  5
50C
331
47A
  5
47A
331
549
  5
549
331
57E
  5
57E
331
693
  5
693
331
2B5
  5
2B5
331
6C8
  5
6C8
331
481
  5
481
331
E8
  5
E8
331
11D
  5
11D
331
15A
  5
15A
331
18F
  5
18F
331
AB
  5
AB
331
58
  5
58
331
A03
  5
A03
331
BC0
  5
BC0
331
BFD
  5
BFD
331
954
  5
954
331
9C6
  5
9C6
331
990
  5
990
331
8E9
  5
8E9
331
91E
  5
91E
331
805
  5
805
331
83A
  5
83A
331
756
  5
756
331
793
  5
793
331
7C8
  5
7C8
331
877
  5
877
331
8AC
  5
8AC
331
95B
  5
95B
331
728
  5
728
331
75D
  5
75D
331
79A
  5
79A
331
56C
  5
56C
331
679
  5
679
331
6B6
  5
6B6
331
6EB
  5
6EB
331
52F
  5
52F
331
4F9
  5
4F9
331
2D7
  5
2D7
331
175
  5
175
331
1B2
  5
1B2
331
91
  5
91
331
CE
  5
CE
331
103
  5
103
331
140
  5
140
331
4C4
  5
4C4
331
3E
  5
3E
331
98
  5
98
331
45
  5
45
331
BE3
  5
BE3
331
9E9
  5
9E9
331
A1E
  5
A1E
331
977
  5
977
331
9AC
  5
9AC
331
9F0
  5
9F0
331
941
  5
941
331
97E
  5
97E
331
9B3
  5
9B3
331
85D
  5
85D
331
89A
  5
89A
331
8CF
  5
8CF
331
7EB
  5
7EB
331
90C
  5
90C
331
7F2
  5
7F2
331
70E
  5
70E
331
743
  5
743
331
780
  5
780
331
7B5
  5
7B5
331
587
  5
587
331
69C
  5
69C
331
6D1
  5
6D1
331
559
  5
559
331
48A
  5
48A
331
4E7
  5
4E7
331
2C5
  5
2C5
331
126
  5
126
331
163
  5
163
331
198
  5
198
331
B4
  5
B4
331
51C
  5
51C
331
7E
  5
7E
331
BB
  5
BB
331
F0
  5
F0
331
2B
  5
2B
331
68
  5
68
331
E0B
  5
E0F
331
BC9
  5
BC9
331
9CF
  5
9CF
331
9D6
  5
9D6
331
A0B
  5
A0B
331
8F2
  5
8F2
331
927
  5
927
331
80E
  5
80E
331
843
  5
843
331
880
  5
880
331
8B5
  5
8B5
331
964
  5
964
331
999
  5
999
331
BD0
  5
BD0
331
7A3
  5
7A3
331
7D8
  5
7D8
331
815
  5
815
331
84A
  5
84A
331
6BF
  5
6BF
331
6F4
  5
6F4
331
731
  5
731
331
766
  5
766
331
682
  5
682
331
689
  5
689
331
D7
  5
D7
331
10C
  5
10C
331
149
  5
149
331
17E
  5
17E
331
113
  5
113
331
150
  5
150
331
A1
  5
A1
331
DE
  5
DE
331
4E
  5
4E
331
BB6
  5
BB6
331
BF3
  5
BF3
331
987
  5
987
331
9BC
  5
9BC
331
9F9
  5
9F9
331
8D8
  5
8D8
331
915
  5
915
331
866
  5
866
331
94A
  5
94A
331
830
  5
830
331
86D
  5
86D
331
8A2
  5
8A2
331
717
  5
717
331
74C
  5
74C
331
789
  5
789
331
7BE
  5
7BE
331
6A5
  5
6A5
331
6DA
  5
6DA
331
7FB
  5
7FB
331
6AC
  5
6AC
331
6E1
  5
6E1
331
1A1
  5
1A1
331
525
  5
525
331
12F
  5
12F
331
1A8
  5
1A8
331
C4
  5
C4
331
F9
  5
F9
331
136
  5
136
331
16B
  5
16B
331
87
  5
87
331
34
  5
34
331
71
  5
71
331
E14
  5
E0D
331
9DF
  5
9DF
331
A14
  5
A14
331
930
  5
930
331
96D
  5
96D
331
9A2
  5
9A2
331
BD9
  5
BD9
331
8BE
  5
8BE
331
8FB
  5
8FB
331
890
  5
890
331
8C5
  5
8C5
331
7E1
  5
7E1
331
81E
  5
81E
331
853
  5
853
331
902
  5
902
331
6FD
  5
6FD
331
76F
  5
76F
331
7AC
  5
7AC
331
739
  5
739
331
548
  5
548
331
57D
  5
57D
331
692
  5
692
331
6C7
  5
6C7
331
479
  5
479
331
2B4
  5
2B4
331
4D6
  5
4D6
331
50B
  5
50B
331
187
  5
187
331
704
  5
704
331
159
  5
159
331
18E
  5
18E
331
480
  5
480
331
AA
  5
AA
331
E7
  5
E7
331
11C
  5
11C
331
57
  5
57
331
BFC
  5
BFC
331
9C5
  5
9C5
331
A02
  5
A02
331
953
  5
953
331
BBF
  5
BBF
331
95A
  5
95A
331
876
  5
876
331
8AB
  5
8AB
331
792
  5
792
331
7C7
  5
7C7
331
804
  5
804
331
839
  5
839
331
755
  5
755
331
8E8
  5
8E8
331
91D
  5
91D
331
727
  5
727
331
75C
  5
75C
331
799
  5
799
331
52E
  5
52E
331
56B
  5
56B
331
678
  5
678
331
6B5
  5
6B5
331
6EA
  5
6EA
331
4C3
  5
4C3
331
4F8
  5
4F8
331
2D6
  5
2D6
331
102
  5
102
331
13F
  5
13F
331
174
  5
174
331
1B1
  5
1B1
331
90
  5
90
331
CD
  5
CD
331
3D
  5
3D
331
44
  5
44
331
BE2
  5
BE2
331
976
  5
976
331
9AB
  5
9AB
331
9E8
  5
9E8
331
A1D
  5
A1D
331
940
  5
940
331
827
  5
827
331
85C
  5
85C
331
899
  5
899
331
8CE
  5
8CE
331
97D
  5
97D
331
7EA
  5
7EA
331
77F
  5
77F
331
7B4
  5
7B4
331
7F1
  5
7F1
331
69B
  5
69B
331
6D0
  5
6D0
331
70D
  5
70D
331
742
  5
742
331
586
  5
586
331
51B
  5
51B
331
558
  5
558
331
2C4
  5
2C4
331
162
  5
162
331
197
  5
197
331
489
  5
489
331
B3
  5
B3
331
125
  5
125
331
4E6
  5
4E6
331
7D
  5
7D
331
BA
  5
BA
331
67
  5
67
331
2A
  5
2A
331
E0A
  5
E0C
331
9CE
  5
9CE
331
BC8
  5
BC8
331
963
  5
963
331
998
  5
998
331
87F
  5
87F
331
8B4
  5
8B4
331
80D
  5
80D
331
842
  5
842
331
8F1
  5
8F1
331
926
  5
926
331
9D5
  5
9D5
331
A0A
  5
A0A
331
814
  5
814
331
849
  5
849
331
730
  5
730
331
765
  5
765
331
7A2
  5
7A2
331
7D7
  5
7D7
331
537
  5
537
331
681
  5
681
331
6BE
  5
6BE
331
6F3
  5
6F3
331
688
  5
688
331
148
  5
148
331
17D
  5
17D
331
D6
  5
D6
331
10B
  5
10B
331
53E
  5
53E
331
A0
  5
A0
331
DD
  5
DD
331
112
  5
112
331
4D
  5
4D
331
BEB
  5
BEB
331
BB5
  5
BB5
331
914
  5
914
331
949
  5
949
331
986
  5
986
331
865
  5
865
331
8D7
  5
8D7
331
BF2
  5
BF2
331
86C
  5
86C
331
8A1
  5
8A1
331
7FA
  5
7FA
331
82F
  5
82F
331
716
  5
716
331
74B
  5
74B
331
788
  5
788
331
7BD
  5
7BD
331
58F
  5
58F
331
6A4
  5
6A4
331
6D9
  5
6D9
331
524
  5
524
331
492
  5
492
331
6AB
  5
6AB
331
6E0
  5
6E0
331
12E
  5
12E
331
1A0
  5
1A0
331
135
  5
135
331
16A
  5
16A
331
86
  5
86
331
C3
  5
C3
331
F8
  5
F8
331
33
  5
33
331
70
  5
70
331
E13
  5
E09
331
BD8
  5
BD8
331
9A1
  5
9A1
331
9DE
  5
9DE
331
A13
  5
A13
331
92F
  5
92F
331
8BD
  5
8BD
331
96C
  5
96C
331
901
  5
901
331
852
  5
852
331
88F
  5
88F
331
8C4
  5
8C4
331
76E
  5
76E
331
7AB
  5
7AB
331
7E0
  5
7E0
331
6FC
  5
6FC
331
81D
  5
81D
331
703
  5
703
331
738
  5
738
331
50A
  5
50A
331
547
  5
547
331
57C
  5
57C
331
691
  5
691
331
6C6
  5
6C6
331
478
  5
478
331
186
  5
186
331
2B3
  5
2B3
331
4D5
  5
4D5
331
2BA
  5
2BA
331
E6
  5
E6
331
11B
  5
11B
331
158
  5
158
331
18D
  5
18D
331
A9
  5
A9
331
56
  5
56
331
A01
  5
A01
331
BBE
  5
BBE
331
BFB
  5
BFB
331
952
  5
952
331
98F
  5
98F
331
9C4
  5
9C4
331
8E7
  5
8E7
331
91C
  5
91C
331
803
  5
803
331
838
  5
838
331
71F
  5
71F
331
754
  5
754
331
791
  5
791
331
7C6
  5
7C6
331
875
  5
875
331
8AA
  5
8AA
331
959
  5
959
331
75B
  5
75B
331
798
  5
798
331
6B4
  5
6B4
331
6E9
  5
6E9
331
56A
  5
56A
331
52D
  5
52D
331
677
  5
677
331
726
  5
726
331
2D5
  5
2D5
331
173
  5
173
331
1B0
  5
1B0
331
8F
  5
8F
331
CC
  5
CC
331
101
  5
101
331
13E
  5
13E
331
4C2
  5
4C2
331
3C
  5
3C
331
43
  5
43
  0
LAYOUT
  5
21
102
{ACAD_XDICTIONARY
360
E5A
102
}
102
{ACAD_REACTORS
330
19
102
}
330
19
100
AcDbPlotSettings
  1

  2
Microsoft XPS Document Writer
  4

  6

 40
0.0
 41
0.0
 42
0.0
 43
0.0
 44
0.0
 45
0.0
 46
0.0
 47
0.0
 48
0.0
 49
0.0
140
0.0
141
0.0
142
1.0
143
1.0
 70
   688
 72
     0
 73
     0
 74
     5
  7

 75
    16
147
1.0
148
0.0
149
0.0
100
AcDbLayout
  1
Layout1
 70
     1
 71
     1
 10
0.0
 20
0.0
 11
12.0
 21
9.0
 12
0.0
 22
0.0
 32
0.0
 14
1.000000000000000E+20
 24
1.000000000000000E+20
 34
1.000000000000000E+20
 15
-1.000000000000000E+20
 25
-1.000000000000000E+20
 35
-1.000000000000000E+20
146
0.0
 13
0.0
 23
0.0
 33
0.0
 16
1.0
 26
0.0
 36
0.0
 17
0.0
 27
1.0
 37
0.0
 76
     0
330
1E
  0
LAYOUT
  5
25
102
{ACAD_XDICTIONARY
360
E5C
102
}
102
{ACAD_REACTORS
330
19
102
}
330
19
100
AcDbPlotSettings
  1

  2
Microsoft XPS Document Writer
  4

  6

 40
0.0
 41
0.0
 42
0.0
 43
0.0
 44
0.0
 45
0.0
 46
0.0
 47
0.0
 48
0.0
 49
0.0
140
0.0
141
0.0
142
1.0
143
1.0
 70
  1712
 72
     0
 73
     0
 74
     0
  7

 75
     0
147
1.0
148
0.0
149
0.0
100
AcDbLayout
  1
Model
 70
     1
 71
     0
 10
0.0
 20
0.0
 11
12.0
 21
9.0
 12
0.0
 22
0.0
 32
0.0
 14
0.0
 24
0.0
 34
0.0
 15
0.0
 25
0.0
 35
0.0
146
0.0
 13
0.0
 23
0.0
 33
0.0
 16
1.0
 26
0.0
 36
0.0
 17
0.0
 27
1.0
 37
0.0
 76
     0
330
22
  0
MLINESTYLE
  5
17
102
{ACAD_REACTORS
330
16
102
}
330
16
100
AcDbMlineStyle
  2
STANDARD
 70
     0
  3

 62
   256
 51
90.0
 52
90.0
 71
     2
 49
0.5
 62
   256
  6
BYLAYER
 49
-0.5
 62
   256
  6
BYLAYER
  0
ACDBPLACEHOLDER
  5
F
102
{ACAD_REACTORS
330
E
102
}
330
E
  0
TABLESTYLE
  5
1D
102
{ACAD_REACTORS
330
1C
102
}
330
1C
100
AcDbTableStyle
  3
Standard
 70
     0
 71
     0
 40
0.06
 41
0.06
280
     0
281
     0
  7
Standard
140
0.18
170
     2
 62
     0
 63
     7
283
     0
274
    -2
284
     1
 64
     0
275
    -2
285
     1
 65
     0
276
    -2
286
     1
 66
     0
277
    -2
287
     1
 67
     0
278
    -2
288
     1
 68
     0
279
    -2
289
     1
 69
     0
  7
Standard
140
0.25
170
     5
 62
     0
 63
     7
283
     0
274
    -2
284
     1
 64
     0
275
    -2
285
     1
 65
     0
276
    -2
286
     1
 66
     0
277
    -2
287
     1
 67
     0
278
    -2
288
     1
 68
     0
279
    -2
289
     1
 69
     0
  7
Standard
140
0.18
170
     5
 62
     0
 63
     7
283
     0
274
    -2
284
     1
 64
     0
275
    -2
285
     1
 65
     0
276
    -2
286
     1
 66
     0
277
    -2
287
     1
 67
     0
278
    -2
288
     1
 68
     0
279
    -2
289
     1
 69
     0
  0
DICTIONARYVAR
  5
DF1
102
{ACAD_REACTORS
330
DF0
102
}
330
DF0
100
DictionaryVariables
280
     0
  1
STANDARD
  0
DICTIONARYVAR
  5
DF3
102
{ACAD_REACTORS
330
DF0
102
}
330
DF0
100
DictionaryVariables
280
     0
  1
1
  0
DICTIONARYVAR
  5
DF4
102
{ACAD_REACTORS
330
DF0
102
}
330
DF0
100
DictionaryVariables
280
     0
  1

  0
DICTIONARY
  5
E5A
330
21
100
AcDbDictionary
280
     1
281
     1
  3
ACAD_XREC_ROUNDTRIP
360
E5B
  0
DICTIONARY
  5
E5C
330
25
100
AcDbDictionary
280
     1
281
     1
  3
ACAD_XREC_ROUNDTRIP
360
E5D
  0
XRECORD
  5
E5B
102
{ACAD_REACTORS
330
E5A
102
}
330
E5A
100
AcDbXrecord
280
     1
102
SHADEPLOT
 70
     0
102
SHADEPLOTRESLEVEL
 70
     2
102
SHADEPLOTCUSTOMDPI
 70
   300
  0
XRECORD
  5
E5D
102
{ACAD_REACTORS
330
E5C
102
}
330
E5C
100
AcDbXrecord
280
     1
102
SHADEPLOT
 70
     0
102
SHADEPLOTRESLEVEL
 70
     2
102
SHADEPLOTCUSTOMDPI
 70
   300
  0
ENDSEC
  0
EOF
