  0
SECTION
  2
HEADER
  9
$ACADVER
  1
AC1009
  9
$LIMMIN
 10
0.000000
 20
0.000000
  9
$LIMMAX
 10
12.047614
 20
11.999913
  0
ENDSEC
  0
SECTION
  2
TABLES
  0
TABLE
  2
LTYPE
 70
     4
  0
LTYPE
  2
CONTINUOUS
 70
     0
  3
Solid line
 72
     65
 73
     0
 40
0.000000
  0
LTYPE
  2
HIDDEN
 70
     0
  3
 _ _ _ _ _ _ _ _ _ _ _
 72
     65
 73
     2
 40
0.375000
 49
0.250000
 49
-0.125000
  0
LTYPE
  2
DASHED
 70
     0
  3
 ___ ___ ___ ___ ___ ___ ___ 
 72
     65
 73
     2
 40
0.750000
 49
0.500000
 49
-0.250000
  0
LTYPE
  2
CENTER
 70
     0
  3
___ _ ___ _ ___ _ ___
 72
     65
 73
     4
 40
2.000000
 49
1.250000
 49
-0.250000
 49
0.250000
 49
-0.250000
  0
LTYPE
  2
BORDER
 70
     0
  3
___ ___ . ___ ___ . ___ ___
 72
     65
 73
     6
 40
1.750000
 49
0.500000
 49
-0.250000
 49
0.500000
 49
-0.250000
 49
0.000000
 49
-0.250000
  0
LTYPE
  2
DOT
 70
     0
  3
.................
 72
     65
 73
     2
 40
0.250000
 49
0.000000
 49
-0.250000
  0
LTYPE
  2
DASHDOT
 70
     0
  3
__ . __ . __ . __
 72
     65
 73
     4
 40
1.000000
 49
0.500000
 49
-0.250000
 49
0.000000
 49
-0.250000
  0
LTYPE
  2
DIVIDE
 70
     0
  3
___ .. ___ .. ___ .. ___
 72
     65
 73
     6
 40
1.250000
 49
0.500000
 49
-0.250000
 49
0.000000
 49
-0.250000
 49
0.000000
 49
-0.250000
  0
ENDTAB
  0
TABLE
  2
LAYER
 70
     8
  0
LAYER
  2
BLACK
 70
     0
 62
     1
  6
CONTINUOUS
  0
LAYER
  2
WHITE
 70
     0
 62
     7
  6
CONTINUOUS
  0
LAYER
  2
RED
 70
     0
 62
     1
  6
CONTINUOUS
  0
LAYER
  2
YELLOW
 70
     0
 62
     2
  6
CONTINUOUS
  0
LAYER
  2
GREEN
 70
     0
 62
     3
  6
CONTINUOUS
  0
LAYER
  2
CYAN
 70
     0
 62
     4
  6
CONTINUOUS
  0
LAYER
  2
BLUE
 70
     0
 62
     5
  6
CONTINUOUS
  0
LAYER
  2
MAGENTA
 70
     0
 62
     6
  6
CONTINUOUS
  0
ENDTAB
  0
TABLE
  2
APPID
 70
     1
  0
APPID
  2
TC_BEND_DATA
 70
     0
  0
ENDTAB
  0
ENDSEC
  0
SECTION
  2
BLOCKS
  0
ENDSEC
  0
SECTION
  2
ENTITIES
  0
ARC
  8
WHITE
 10
8.899562
 20
9.236345
 30
0.000000
 40
1.694680
 50
166.944296
 51
191.471319
  6
CONTINUOUS
  0
ARC
  8
WHITE
 10
7.209333
 20
8.893346
 30
0.000000
 40
0.030000
 50
-144.945772
 51
11.471319
  6
CONTINUOUS
  0
ARC
  8
WHITE
 10
8.158173
 20
9.559070
 30
0.000000
 40
1.189089
 50
171.829788
 51
215.054228
  6
CONTINUOUS
  0
LINE
  8
WHITE
 10
6.981153
 20
9.728057
 30
0.000000
 11
7.077682
 21
10.029244
 31
0.000000
  6
CONTINUOUS
  0
LINE
  8
WHITE
 10
7.077682
 20
10.029244
 30
0.000000
 11
7.153854
 21
10.242047
 31
0.000000
  6
CONTINUOUS
  0
LINE
  8
WHITE
 10
7.153854
 20
10.242047
 30
0.000000
 11
7.205482
 21
10.465329
 31
0.000000
  6
CONTINUOUS
  0
LINE
  8
WHITE
 10
7.205482
 20
10.465329
 30
0.000000
 11
7.232704
 21
10.695536
 31
0.000000
  6
CONTINUOUS
  0
LINE
  8
WHITE
 10
7.232704
 20
10.695536
 30
0.000000
 11
7.235659
 21
10.929113
 31
0.000000
  6
CONTINUOUS
  0
ARC
  8
WHITE
 10
4.989599
 20
10.843617
 30
0.000000
 40
2.247686
 50
2.179913
 51
30.522051
  6
CONTINUOUS
  0
ARC
  8
WHITE
 10
6.899989
 20
11.969913
 30
0.000000
 40
0.030000
 50
30.522051
 51
191.247625
  6
CONTINUOUS
  0
ARC
  8
WHITE
 10
3.535601
 20
11.300839
 30
0.000000
 40
3.400272
 50
-10.849037
 51
11.247625
  6
CONTINUOUS
  0
LINE
  8
WHITE
 10
6.875098
 20
10.660834
 30
0.000000
 11
6.779055
 21
10.416279
 31
0.000000
  6
CONTINUOUS
  0
LINE
  8
WHITE
 10
6.779055
 20
10.416279
 30
0.000000
 11
6.609573
 21
10.129264
 31
0.000000
  6
CONTINUOUS
  0
LINE
  8
WHITE
 10
6.609573
 20
10.129264
 30
0.000000
 11
6.493577
 21
9.923959
 31
0.000000
  6
CONTINUOUS
  0
LINE
  8
WHITE
 10
6.493577
 20
9.923959
 30
0.000000
 11
6.408447
 21
9.710030
 31
0.000000
  6
CONTINUOUS
  0
LINE
  8
WHITE
 10
6.408447
 20
9.710030
 30
0.000000
 11
6.350053
 21
9.474553
 31
0.000000
  6
CONTINUOUS
  0
LINE
  8
WHITE
 10
6.350053
 20
9.474553
 30
0.000000
 11
6.314269
 21
9.204603
 31
0.000000
  6
CONTINUOUS
  0
LINE
  8
WHITE
 10
6.314269
 20
9.204603
 30
0.000000
 11
6.300045
 21
9.044256
 31
0.000000
  6
CONTINUOUS
  0
ARC
  8
WHITE
 10
8.512267
 20
9.707546
 30
0.000000
 40
2.309519
 50
158.459486
 51
196.690292
  6
CONTINUOUS
  0
ARC
  8
WHITE
 10
6.872028
 20
11.288233
 30
0.000000
 40
0.891589
 50
-165.334051
 51
-124.732507
  6
CONTINUOUS
  0
ARC
  8
WHITE
 10
5.980466
 20
11.054903
 30
0.000000
 40
0.030000
 50
14.665949
 51
165.334051
  6
CONTINUOUS
  0
ARC
  8
WHITE
 10
5.088904
 20
11.288233
 30
0.000000
 40
0.891589
 50
-55.267493
 51
-14.665949
  6
CONTINUOUS
  0
ARC
  8
WHITE
 10
3.448665
 20
9.707546
 30
0.000000
 40
2.309519
 50
-16.690292
 51
21.540514
  6
CONTINUOUS
  0
LINE
  8
WHITE
 10
5.660886
 20
9.044256
 30
0.000000
 11
5.646663
 21
9.204603
 31
0.000000
  6
CONTINUOUS
  0
LINE
  8
WHITE
 10
5.646663
 20
9.204603
 30
0.000000
 11
5.610879
 21
9.474553
 31
0.000000
  6
CONTINUOUS
  0
LINE
  8
WHITE
 10
5.610879
 20
9.474553
 30
0.000000
 11
5.552485
 21
9.710030
 31
0.000000
  6
CONTINUOUS
  0
LINE
  8
WHITE
 10
5.552485
 20
9.710030
 30
0.000000
 11
5.467354
 21
9.923959
 31
0.000000
  6
CONTINUOUS
  0
LINE
  8
WHITE
 10
5.467354
 20
9.923959
 30
0.000000
 11
5.351359
 21
10.129264
 31
0.000000
  6
CONTINUOUS
  0
LINE
  8
WHITE
 10
5.351359
 20
10.129264
 30
0.000000
 11
5.181877
 21
10.416279
 31
0.000000
  6
CONTINUOUS
  0
LINE
  8
WHITE
 10
5.181877
 20
10.416279
 30
0.000000
 11
5.085834
 21
10.660834
 31
0.000000
  6
CONTINUOUS
  0
ARC
  8
WHITE
 10
8.425331
 20
11.300839
 30
0.000000
 40
3.400272
 50
168.752375
 51
190.849037
  6
CONTINUOUS
  0
ARC
  8
WHITE
 10
5.060943
 20
11.969913
 30
0.000000
 40
0.030000
 50
-11.247625
 51
149.477949
  6
CONTINUOUS
  0
ARC
  8
WHITE
 10
6.971333
 20
10.843617
 30
0.000000
 40
2.247686
 50
149.477949
 51
177.820087
  6
CONTINUOUS
  0
LINE
  8
WHITE
 10
4.725273
 20
10.929113
 30
0.000000
 11
4.728228
 21
10.695536
 31
0.000000
  6
CONTINUOUS
  0
LINE
  8
WHITE
 10
4.728228
 20
10.695536
 30
0.000000
 11
4.755450
 21
10.465329
 31
0.000000
  6
CONTINUOUS
  0
LINE
  8
WHITE
 10
4.755450
 20
10.465329
 30
0.000000
 11
4.807078
 21
10.242047
 31
0.000000
  6
CONTINUOUS
  0
LINE
  8
WHITE
 10
4.807078
 20
10.242047
 30
0.000000
 11
4.883250
 21
10.029244
 31
0.000000
  6
CONTINUOUS
  0
LINE
  8
WHITE
 10
4.883250
 20
10.029244
 30
0.000000
 11
4.979779
 21
9.728057
 31
0.000000
  6
CONTINUOUS
  0
ARC
  8
WHITE
 10
3.802758
 20
9.559070
 30
0.000000
 40
1.189089
 50
-35.054228
 51
8.170212
  6
CONTINUOUS
  0
ARC
  8
WHITE
 10
4.751599
 20
8.893346
 30
0.000000
 40
0.030000
 50
168.528681
 51
324.945772
  6
CONTINUOUS
  0
ARC
  8
WHITE
 10
3.061370
 20
9.236345
 30
0.000000
 40
1.694680
 50
-11.471319
 51
13.055704
  6
CONTINUOUS
  0
LINE
  8
WHITE
 10
4.712245
 20
9.619171
 30
0.000000
 11
4.622168
 21
9.964498
 31
0.000000
  6
CONTINUOUS
  0
LINE
  8
WHITE
 10
4.622168
 20
9.964498
 30
0.000000
 11
4.510149
 21
10.431672
 31
0.000000
  6
CONTINUOUS
  0
ARC
  8
WHITE
 10
7.123637
 20
10.808600
 30
0.000000
 40
2.640529
 50
170.970149
 51
188.206834
  6
CONTINUOUS
  0
ARC
  8
WHITE
 10
4.486204
 20
11.227737
 30
0.000000
 40
0.030000
 50
-9.029851
 51
136.518666
  6
CONTINUOUS
  0
ARC
  8
WHITE
 10
5.602496
 20
10.169106
 30
0.000000
 40
1.568443
 50
136.518666
 51
164.820839
  6
CONTINUOUS
  0
ARC
  8
WHITE
 10
4.059820
 20
10.587639
 30
0.000000
 40
0.030000
 50
-177.902964
 51
-15.179161
  6
CONTINUOUS
  0
ARC
  8
WHITE
 10
6.294497
 20
10.669465
 30
0.000000
 40
2.266174
 50
148.457010
 51
182.097036
  6
CONTINUOUS
  0
ARC
  8
WHITE
 10
4.337587
 20
11.870682
 30
0.000000
 40
0.030000
 50
-31.542990
 51
112.307447
  6
CONTINUOUS
  0
ARC
  8
WHITE
 10
4.854053
 20
10.611874
 30
0.000000
 40
1.390637
 50
112.307447
 51
180.113295
  6
CONTINUOUS
  0
ARC
  8
WHITE
 10
6.992465
 20
10.718248
 30
0.000000
 40
3.530733
 50
-178.228896
 51
-170.944403
  6
CONTINUOUS
  0
ARC
  8
WHITE
 10
2.689879
 20
9.997511
 30
0.000000
 40
0.832383
 50
-38.688696
 51
11.434982
  6
CONTINUOUS
  0
ARC
  8
WHITE
 10
3.316182
 20
9.495951
 30
0.000000
 40
0.030000
 50
-177.124951
 51
-38.688696
  6
CONTINUOUS
  0
ARC
  8
WHITE
 10
1.396124
 20
9.399523
 30
0.000000
 40
1.892478
 50
2.875049
 51
61.101803
  6
CONTINUOUS
  0
ARC
  8
WHITE
 10
1.988015
 20
10.173955
 30
0.000000
 40
0.939536
 50
69.914453
 51
94.991319
  6
CONTINUOUS
  0
ARC
  8
WHITE
 10
1.908881
 20
11.080042
 30
0.000000
 40
0.030000
 50
94.991319
 51
240.734957
  6
CONTINUOUS
  0
ARC
  8
WHITE
 10
1.207343
 20
9.828127
 30
0.000000
 40
1.405077
 50
15.520859
 51
60.734957
  6
CONTINUOUS
  0
ARC
  8
WHITE
 10
-2.155770
 20
9.077437
 30
0.000000
 40
4.849641
 50
2.220858
 51
13.433751
  6
CONTINUOUS
  0
ARC
  8
WHITE
 10
3.351195
 20
9.292248
 30
0.000000
 40
0.661513
 50
-177.671249
 51
-134.187481
  6
CONTINUOUS
  0
ARC
  8
WHITE
 10
2.869205
 20
8.796390
 30
0.000000
 40
0.030000
 50
-115.823161
 51
45.812519
  6
CONTINUOUS
  0
ARC
  8
WHITE
 10
3.285215
 20
9.656060
 30
0.000000
 40
0.985038
 50
172.259962
 51
244.176839
  6
CONTINUOUS
  0
ARC
  8
WHITE
 10
2.907538
 20
9.688736
 30
0.000000
 40
0.606683
 50
158.528221
 51
170.513797
  6
CONTINUOUS
  0
ARC
  8
WHITE
 10
2.315042
 20
9.921790
 30
0.000000
 40
0.030000
 50
-21.471779
 51
124.532722
  6
CONTINUOUS
  0
ARC
  8
WHITE
 10
2.747236
 20
9.293711
 30
0.000000
 40
0.792414
 50
124.532722
 51
187.016110
  6
CONTINUOUS
  0
ARC
  8
WHITE
 10
4.757991
 20
9.632494
 30
0.000000
 40
2.830945
 50
-171.149210
 51
-161.544108
  6
CONTINUOUS
  0
ARC
  8
WHITE
 10
2.044192
 20
8.726791
 30
0.000000
 40
0.030000
 50
-125.306510
 51
18.455892
  6
CONTINUOUS
  0
ARC
  8
WHITE
 10
3.165986
 20
10.310777
 30
0.000000
 40
1.970987
 50
164.985357
 51
234.693490
  6
CONTINUOUS
  0
ARC
  8
WHITE
 10
1.233313
 20
10.829164
 30
0.000000
 40
0.030000
 50
-15.014643
 51
147.361670
  6
CONTINUOUS
  0
ARC
  8
WHITE
 10
2.955682
 20
9.726039
 30
0.000000
 40
2.075346
 50
147.361670
 51
210.380017
  6
CONTINUOUS
  0
ARC
  8
WHITE
 10
-1.135609
 20
6.907763
 30
0.000000
 40
2.902156
 50
10.183349
 51
37.549401
  6
CONTINUOUS
  0
ARC
  8
WHITE
 10
1.691302
 20
7.415557
 30
0.000000
 40
0.030000
 50
-135.206233
 51
10.183349
  6
CONTINUOUS
  0
ARC
  8
WHITE
 10
-0.895184
 20
4.847624
 30
0.000000
 40
3.614747
 50
44.793767
 51
63.023085
  6
CONTINUOUS
  0
ARC
  8
WHITE
 10
0.235052
 20
7.046383
 30
0.000000
 40
1.142569
 50
63.515915
 51
100.620608
  6
CONTINUOUS
  0
ARC
  8
WHITE
 10
0.030000
 20
8.139893
 30
0.000000
 40
0.030000
 50
100.620608
 51
252.034590
  6
CONTINUOUS
  0
ARC
  8
WHITE
 10
-0.564206
 20
6.307351
 30
0.000000
 40
1.896471
 50
32.187239
 51
72.034590
  6
CONTINUOUS
  0
ARC
  8
WHITE
 10
0.047614
 20
6.698745
 30
0.000000
 40
1.170202
 50
13.401721
 51
31.926144
  6
CONTINUOUS
  0
ARC
  8
WHITE
 10
4.042981
 20
7.733890
 30
0.000000
 40
2.957397
 50
-165.030314
 51
-147.422619
  6
CONTINUOUS
  0
ARC
  8
WHITE
 10
1.525605
 20
6.125362
 30
0.000000
 40
0.030000
 50
-112.027958
 51
32.577381
  6
CONTINUOUS
  0
ARC
  8
WHITE
 10
1.852374
 20
6.933009
 30
0.000000
 40
0.901247
 50
-159.721829
 51
-112.027958
  6
CONTINUOUS
  0
ARC
  8
WHITE
 10
1.306451
 20
6.771009
 30
0.000000
 40
0.335090
 50
-172.960103
 51
-153.340039
  6
CONTINUOUS
  0
ARC
  8
WHITE
 10
0.944113
 20
6.726263
 30
0.000000
 40
0.030000
 50
7.039897
 51
151.800595
  6
CONTINUOUS
  0
ARC
  8
WHITE
 10
1.755513
 20
6.291206
 30
0.000000
 40
0.950676
 50
151.800595
 51
206.234411
  6
CONTINUOUS
  0
ARC
  8
WHITE
 10
2.273094
 20
6.690709
 30
0.000000
 40
1.596806
 50
-149.111758
 51
-110.670616
  6
CONTINUOUS
  0
ARC
  8
WHITE
 10
1.698840
 20
5.168628
 30
0.000000
 40
0.030000
 50
-55.901578
 51
69.329384
  6
CONTINUOUS
  0
ARC
  8
WHITE
 10
1.428625
 20
5.567757
 30
0.000000
 40
0.511996
 50
-120.027180
 51
-55.901578
  6
CONTINUOUS
  0
ARC
  8
WHITE
 10
2.007294
 20
6.506263
 30
0.000000
 40
1.614420
 50
-162.308178
 51
-121.140439
  6
CONTINUOUS
  0
ARC
  8
WHITE
 10
0.440647
 20
6.006529
 30
0.000000
 40
0.030000
 50
17.691822
 51
167.716516
  6
CONTINUOUS
  0
ARC
  8
WHITE
 10
1.801526
 20
5.710220
 30
0.000000
 40
1.422763
 50
167.716516
 51
212.160229
  6
CONTINUOUS
  0
ARC
  8
WHITE
 10
1.557940
 20
5.705592
 30
0.000000
 40
1.220583
 50
-141.926878
 51
-87.999831
  6
CONTINUOUS
  0
ARC
  8
WHITE
 10
1.680102
 20
3.750401
 30
0.000000
 40
0.739643
 50
53.158704
 51
96.175084
  6
CONTINUOUS
  0
ARC
  8
WHITE
 10
1.952616
 20
4.121843
 30
0.000000
 40
0.279017
 50
-7.130553
 51
52.209092
  6
CONTINUOUS
  0
ARC
  8
WHITE
 10
4.158030
 20
3.436816
 30
0.000000
 40
2.035272
 50
161.363651
 51
217.324691
  6
CONTINUOUS
  0
ARC
  8
WHITE
 10
2.563413
 20
2.220957
 30
0.000000
 40
0.030000
 50
-142.675309
 51
18.507882
  6
CONTINUOUS
  0
ARC
  8
WHITE
 10
5.132779
 20
3.081048
 30
0.000000
 40
2.679501
 50
177.922286
 51
198.507882
  6
CONTINUOUS
  0
ARC
  8
WHITE
 10
3.027128
 20
3.139306
 30
0.000000
 40
0.573409
 50
97.304174
 51
176.111279
  6
CONTINUOUS
  0
ARC
  8
WHITE
 10
2.966813
 20
3.434768
 30
0.000000
 40
0.273583
 50
34.839762
 51
92.636805
  6
CONTINUOUS
  0
ARC
  8
WHITE
 10
2.796454
 20
3.312167
 30
0.000000
 40
0.483456
 50
-47.823517
 51
35.231138
  6
CONTINUOUS
  0
ARC
  8
WHITE
 10
3.141197
 20
2.931655
 30
0.000000
 40
0.030000
 50
132.176483
 51
266.286140
  6
CONTINUOUS
  0
ARC
  8
WHITE
 10
3.178980
 20
3.513733
 30
0.000000
 40
0.613303
 50
-93.713860
 51
-43.026216
  6
CONTINUOUS
  0
ARC
  8
WHITE
 10
3.649261
 20
3.074787
 30
0.000000
 40
0.030000
 50
0.580844
 51
136.973784
  6
CONTINUOUS
  0
ARC
  8
WHITE
 10
3.325703
 20
3.071506
 30
0.000000
 40
0.353575
 50
-55.186560
 51
0.580844
  6
CONTINUOUS
  0
ARC
  8
WHITE
 10
3.544688
 20
2.756585
 30
0.000000
 40
0.030000
 50
124.813440
 51
262.198308
  6
CONTINUOUS
  0
ARC
  8
WHITE
 10
3.731693
 20
4.121454
 30
0.000000
 40
1.407620
 50
-97.801692
 51
-64.046367
  6
CONTINUOUS
  0
ARC
  8
WHITE
 10
4.360858
 20
2.828820
 30
0.000000
 40
0.030000
 50
-15.932644
 51
115.953633
  6
CONTINUOUS
  0
ARC
  8
WHITE
 10
6.397233
 20
2.247489
 30
0.000000
 40
2.087727
 50
164.067356
 51
201.352973
  6
CONTINUOUS
  0
ARC
  8
WHITE
 10
4.480758
 20
1.498244
 30
0.000000
 40
0.030000
 50
-158.647027
 51
0.899926
  6
CONTINUOUS
  0
ARC
  8
WHITE
 10
6.444161
 20
1.529085
 30
0.000000
 40
1.933644
 50
139.908367
 51
180.899926
  6
CONTINUOUS
  0
ARC
  8
WHITE
 10
4.987843
 20
2.755055
 30
0.000000
 40
0.030000
 50
10.524121
 51
139.908367
  6
CONTINUOUS
  0
ARC
  8
WHITE
 10
2.808854
 20
2.525931
 30
0.000000
 40
2.220910
 50
-38.943125
 51
6.063685
  6
CONTINUOUS
  0
ARC
  8
WHITE
 10
4.560941
 20
1.112996
 30
0.000000
 40
0.030000
 50
145.517311
 51
285.123038
  6
CONTINUOUS
  0
ARC
  8
WHITE
 10
4.219625
 20
2.375952
 30
0.000000
 40
1.338263
 50
-74.876962
 51
-20.022105
  6
CONTINUOUS
  0
ARC
  8
WHITE
 10
5.505191
 20
1.907482
 30
0.000000
 40
0.030000
 50
0.221994
 51
159.977895
  6
CONTINUOUS
  0
ARC
  8
WHITE
 10
10.097376
 20
1.925275
 30
0.000000
 40
4.562220
 50
-179.778006
 51
-155.280391
  6
CONTINUOUS
  0
ARC
  8
WHITE
 10
5.980466
 20
0.030000
 30
0.000000
 40
0.030000
 50
-155.280391
 51
-24.719609
  6
CONTINUOUS
  0
ARC
  8
WHITE
 10
1.863555
 20
1.925275
 30
0.000000
 40
4.562220
 50
-24.719609
 51
-0.221994
  6
CONTINUOUS
  0
ARC
  8
WHITE
 10
6.455741
 20
1.907482
 30
0.000000
 40
0.030000
 50
20.022105
 51
179.778006
  6
CONTINUOUS
  0
ARC
  8
WHITE
 10
7.741307
 20
2.375952
 30
0.000000
 40
1.338263
 50
-159.977895
 51
-105.123038
  6
CONTINUOUS
  0
ARC
  8
WHITE
 10
7.399991
 20
1.112996
 30
0.000000
 40
0.030000
 50
-105.123038
 51
34.482689
  6
CONTINUOUS
  0
ARC
  8
WHITE
 10
9.173681
 20
2.525931
 30
0.000000
 40
2.237754
 50
172.422132
 51
218.595456
  6
CONTINUOUS
  0
ARC
  8
WHITE
 10
5.516771
 20
1.529085
 30
0.000000
 40
1.933644
 50
-0.899926
 51
41.923716
  6
CONTINUOUS
  0
ARC
  8
WHITE
 10
7.480173
 20
1.498244
 30
0.000000
 40
0.030000
 50
179.100074
 51
338.647027
  6
CONTINUOUS
  0
ARC
  8
WHITE
 10
5.563699
 20
2.247489
 30
0.000000
 40
2.087727
 50
-21.352973
 51
17.871634
  6
CONTINUOUS
  0
ARC
  8
WHITE
 10
8.229239
 20
4.121454
 30
0.000000
 40
1.407620
 50
-118.819839
 51
-82.198308
  6
CONTINUOUS
  0
ARC
  8
WHITE
 10
8.416244
 20
2.756585
 30
0.000000
 40
0.030000
 50
-82.198308
 51
55.186560
  6
CONTINUOUS
  0
ARC
  8
WHITE
 10
8.635229
 20
3.071506
 30
0.000000
 40
0.353575
 50
167.573858
 51
235.186560
  6
CONTINUOUS
  0
ARC
  8
WHITE
 10
8.781952
 20
3.513733
 30
0.000000
 40
0.613303
 50
-143.344367
 51
-86.286140
  6
CONTINUOUS
  0
ARC
  8
WHITE
 10
8.819735
 20
2.931655
 30
0.000000
 40
0.030000
 50
-86.286140
 51
47.823517
  6
CONTINUOUS
  0
ARC
  8
WHITE
 10
9.164478
 20
3.312167
 30
0.000000
 40
0.483456
 50
144.768862
 51
227.823517
  6
CONTINUOUS
  0
ARC
  8
WHITE
 10
8.994119
 20
3.434768
 30
0.000000
 40
0.273583
 50
87.363195
 51
145.160238
  6
CONTINUOUS
  0
ARC
  8
WHITE
 10
8.933804
 20
3.139306
 30
0.000000
 40
0.573409
 50
3.888721
 51
82.695826
  6
CONTINUOUS
  0
ARC
  8
WHITE
 10
6.828153
 20
3.081048
 30
0.000000
 40
2.679501
 50
-18.507882
 51
2.077714
  6
CONTINUOUS
  0
ARC
  8
WHITE
 10
9.397519
 20
2.220957
 30
0.000000
 40
0.030000
 50
161.492118
 51
322.675309
  6
CONTINUOUS
  0
ARC
  8
WHITE
 10
7.802902
 20
3.436816
 30
0.000000
 40
2.035272
 50
-37.324691
 51
18.636349
  6
CONTINUOUS
  0
ARC
  8
WHITE
 10
10.008316
 20
4.121843
 30
0.000000
 40
0.279017
 50
127.790908
 51
187.130553
  6
CONTINUOUS
  0
ARC
  8
WHITE
 10
10.280829
 20
3.750401
 30
0.000000
 40
0.739643
 50
83.824916
 51
126.841296
  6
CONTINUOUS
  0
ARC
  8
WHITE
 10
10.402992
 20
5.705592
 30
0.000000
 40
1.220583
 50
-92.000169
 51
-38.073122
  6
CONTINUOUS
  0
ARC
  8
WHITE
 10
10.159406
 20
5.710220
 30
0.000000
 40
1.422763
 50
-32.160229
 51
16.793962
  6
CONTINUOUS
  0
ARC
  8
WHITE
 10
9.953638
 20
6.506263
 30
0.000000
 40
1.614420
 50
-58.859561
 51
-13.795235
  6
CONTINUOUS
  0
ARC
  8
WHITE
 10
10.532307
 20
5.567757
 30
0.000000
 40
0.511996
 50
-130.470929
 51
-59.972820
  6
CONTINUOUS
  0
ARC
  8
WHITE
 10
9.687838
 20
6.690709
 30
0.000000
 40
1.596806
 50
-71.292603
 51
-30.888242
  6
CONTINUOUS
  0
ARC
  8
WHITE
 10
10.205419
 20
6.291206
 30
0.000000
 40
0.950676
 50
-26.234411
 51
35.155766
  6
CONTINUOUS
  0
ARC
  8
WHITE
 10
10.654481
 20
6.771009
 30
0.000000
 40
0.335090
 50
-26.659961
 51
11.638065
  6
CONTINUOUS
  0
ARC
  8
WHITE
 10
10.108557
 20
6.933009
 30
0.000000
 40
0.901247
 50
-73.700051
 51
-20.278171
  6
CONTINUOUS
  0
ARC
  8
WHITE
 10
7.917951
 20
7.733890
 30
0.000000
 40
2.957397
 50
-34.284367
 51
-14.969686
  6
CONTINUOUS
  0
ARC
  8
WHITE
 10
11.913318
 20
6.698745
 30
0.000000
 40
1.170202
 50
148.073856
 51
166.598279
  6
CONTINUOUS
  0
ARC
  8
WHITE
 10
12.525138
 20
6.307351
 30
0.000000
 40
1.896471
 50
104.583811
 51
147.812761
  6
CONTINUOUS
  0
ARC
  8
WHITE
 10
11.725880
 20
7.046383
 30
0.000000
 40
1.142569
 50
73.644963
 51
116.484085
  6
CONTINUOUS
  0
ARC
  8
WHITE
 10
12.856116
 20
4.847624
 30
0.000000
 40
3.614747
 50
116.976915
 51
136.716990
  6
CONTINUOUS
  0
ARC
  8
WHITE
 10
13.096541
 20
6.907763
 30
0.000000
 40
2.902156
 50
142.450599
 51
171.716024
  6
CONTINUOUS
  0
ARC
  8
WHITE
 10
9.005250
 20
9.726039
 30
0.000000
 40
2.075346
 50
-30.380017
 51
38.047358
  6
CONTINUOUS
  0
ARC
  8
WHITE
 10
8.794946
 20
10.310777
 30
0.000000
 40
1.970987
 50
-57.346322
 51
20.626364
  6
CONTINUOUS
  0
ARC
  8
WHITE
 10
7.202940
 20
9.632494
 30
0.000000
 40
2.830945
 50
-20.279041
 51
-8.850790
  6
CONTINUOUS
  0
ARC
  8
WHITE
 10
9.213695
 20
9.293711
 30
0.000000
 40
0.792414
 50
-7.016110
 51
62.901450
  6
CONTINUOUS
  0
ARC
  8
WHITE
 10
9.053394
 20
9.688736
 30
0.000000
 40
0.606683
 50
9.486203
 51
30.772861
  6
CONTINUOUS
  0
ARC
  8
WHITE
 10
8.675717
 20
9.656060
 30
0.000000
 40
0.985038
 50
-77.057008
 51
7.740038
  6
CONTINUOUS
  0
ARC
  8
WHITE
 10
8.609737
 20
9.292248
 30
0.000000
 40
0.661513
 50
-64.325028
 51
-2.328751
  6
CONTINUOUS
  0
ARC
  8
WHITE
 10
14.116701
 20
9.077437
 30
0.000000
 40
4.849641
 50
166.566249
 51
177.779142
  6
CONTINUOUS
  0
ARC
  8
WHITE
 10
10.753589
 20
9.828127
 30
0.000000
 40
1.405077
 50
115.461169
 51
164.479141
  6
CONTINUOUS
  0
ARC
  8
WHITE
 10
9.972917
 20
10.173955
 30
0.000000
 40
0.939536
 50
79.164067
 51
110.085547
  6
CONTINUOUS
  0
ARC
  8
WHITE
 10
10.564808
 20
9.399523
 30
0.000000
 40
1.892478
 50
118.898197
 51
179.406097
  6
CONTINUOUS
  0
ARC
  8
WHITE
 10
9.271053
 20
9.997511
 30
0.000000
 40
0.832383
 50
168.565018
 51
224.014368
  6
CONTINUOUS
  0
ARC
  8
WHITE
 10
4.968467
 20
10.718248
 30
0.000000
 40
3.530733
 50
-9.055597
 51
-1.771104
  6
CONTINUOUS
  0
ARC
  8
WHITE
 10
7.106879
 20
10.611874
 30
0.000000
 40
1.390637
 50
-0.113295
 51
67.692553
  6
CONTINUOUS
  0
ARC
  8
WHITE
 10
7.623345
 20
11.870682
 30
0.000000
 40
0.030000
 50
67.692553
 51
211.542990
  6
CONTINUOUS
  0
ARC
  8
WHITE
 10
5.666435
 20
10.669465
 30
0.000000
 40
2.266174
 50
-7.474892
 51
31.542990
  6
CONTINUOUS
  0
ARC
  8
WHITE
 10
6.358435
 20
10.169106
 30
0.000000
 40
1.568443
 50
7.530442
 51
43.481334
  6
CONTINUOUS
  0
ARC
  8
WHITE
 10
7.474727
 20
11.227737
 30
0.000000
 40
0.030000
 50
43.481334
 51
189.029851
  6
CONTINUOUS
  0
ARC
  8
WHITE
 10
4.837295
 20
10.808600
 30
0.000000
 40
2.640529
 50
-8.206834
 51
9.029851
  6
CONTINUOUS
  0
LINE
  8
WHITE
 10
7.450783
 20
10.431672
 30
0.000000
 11
7.338764
 21
9.964498
 31
0.000000
  6
CONTINUOUS
  0
LINE
  8
WHITE
 10
7.338764
 20
9.964498
 30
0.000000
 11
7.248687
 21
9.619171
 31
0.000000
  6
CONTINUOUS
  0
ARC
  8
WHITE
 10
2.604444
 20
8.025614
 30
0.000000
 40
0.221311
 50
131.363361
 51
201.135516
  6
CONTINUOUS
  0
ARC
  8
WHITE
 10
2.605290
 20
8.091060
 30
0.000000
 40
0.253095
 50
-144.978761
 51
-84.218632
  6
CONTINUOUS
  0
ARC
  8
WHITE
 10
2.517798
 20
8.028853
 30
0.000000
 40
0.220713
 50
-92.505988
 51
-59.208267
  6
CONTINUOUS
  0
ARC
  8
WHITE
 10
2.578120
 20
8.064412
 30
0.000000
 40
0.265450
 50
-105.283652
 51
-60.551793
  6
CONTINUOUS
  0
ARC
  8
WHITE
 10
2.647552
 20
7.951966
 30
0.000000
 40
0.133496
 50
-62.775036
 51
-6.486164
  6
CONTINUOUS
  0
ARC
  8
WHITE
 10
2.462678
 20
7.922719
 30
0.000000
 40
0.317831
 50
2.554677
 51
35.986282
  6
CONTINUOUS
  0
ARC
  8
WHITE
 10
2.649507
 20
7.911289
 30
0.000000
 40
0.210300
 50
-51.444159
 51
70.457240
  6
CONTINUOUS
  0
ARC
  8
WHITE
 10
3.167070
 20
7.119202
 30
0.000000
 40
0.737086
 50
95.754584
 51
121.624249
  6
CONTINUOUS
  0
ARC
  8
WHITE
 10
3.349496
 20
7.054671
 30
0.000000
 40
0.838065
 50
107.810034
 51
157.316523
  6
CONTINUOUS
  0
LINE
  8
WHITE
 10
2.576256
 20
7.377863
 30
0.000000
 11
2.614666
 21
7.378188
 31
0.000000
  6
CONTINUOUS
  0
ARC
  8
WHITE
 10
4.216115
 20
7.029796
 30
0.000000
 40
1.638907
 50
167.726673
 51
175.136106
  6
CONTINUOUS
  0
ARC
  8
WHITE
 10
3.524038
 20
7.167948
 30
0.000000
 40
0.940929
 50
179.950720
 51
270.080375
  6
CONTINUOUS
  0
ARC
  8
WHITE
 10
3.663080
 20
7.485554
 30
0.000000
 40
1.266047
 50
-96.245051
 51
-85.272704
  6
CONTINUOUS
  0
ARC
  8
WHITE
 10
3.779027
 20
6.009644
 30
0.000000
 40
0.214484
 50
32.284235
 51
93.102375
  6
CONTINUOUS
  0
ARC
  8
WHITE
 10
3.723788
 20
5.614274
 30
0.000000
 40
0.562132
 50
65.112526
 51
101.272065
  6
CONTINUOUS
  0
ARC
  8
WHITE
 10
4.687160
 20
9.072718
 30
0.000000
 40
3.098939
 50
-110.262918
 51
-92.237791
  6
CONTINUOUS
  0
ARC
  8
WHITE
 10
4.638565
 20
5.330224
 30
0.000000
 40
0.649964
 50
69.283943
 51
96.396296
  6
CONTINUOUS
  0
ARC
  8
WHITE
 10
4.224459
 20
4.715165
 30
0.000000
 40
1.382207
 50
34.326101
 51
62.229067
  6
CONTINUOUS
  0
ARC
  8
WHITE
 10
4.470366
 20
4.949745
 30
0.000000
 40
1.048293
 50
13.819995
 51
31.315417
  6
CONTINUOUS
  0
ARC
  8
WHITE
 10
4.220306
 20
3.907203
 30
0.000000
 40
1.810956
 50
45.558057
 51
55.717677
  6
CONTINUOUS
  0
ARC
  8
WHITE
 10
4.233197
 20
4.626979
 30
0.000000
 40
1.271787
 50
37.633610
 51
53.705684
  6
CONTINUOUS
  0
ARC
  8
WHITE
 10
4.326565
 20
4.762285
 30
0.000000
 40
1.107475
 50
53.455350
 51
82.936814
  6
CONTINUOUS
  0
ARC
  8
WHITE
 10
4.214877
 20
4.231912
 30
0.000000
 40
1.648189
 50
81.350615
 51
90.686299
  6
CONTINUOUS
  0
ARC
  8
WHITE
 10
4.232644
 20
10.196902
 30
0.000000
 40
4.317083
 50
-98.808633
 51
-90.497816
  6
CONTINUOUS
  0
ARC
  8
WHITE
 10
3.814919
 20
7.055645
 30
0.000000
 40
1.150933
 50
-125.539223
 51
-102.207625
  6
CONTINUOUS
  0
ARC
  8
WHITE
 10
3.893306
 20
6.931280
 30
0.000000
 40
1.103717
 50
-132.621059
 51
-110.909234
  6
CONTINUOUS
  0
ARC
  8
WHITE
 10
3.895291
 20
7.062698
 30
0.000000
 40
1.228017
 50
-108.806994
 51
-89.307152
  6
CONTINUOUS
  0
ARC
  8
WHITE
 10
4.005653
 20
4.472969
 30
0.000000
 40
1.365147
 50
78.068401
 51
94.011943
  6
CONTINUOUS
  0
ARC
  8
WHITE
 10
4.239395
 20
5.580181
 30
0.000000
 40
0.233531
 50
33.924437
 51
78.015232
  6
CONTINUOUS
  0
ARC
  8
WHITE
 10
4.049212
 20
4.798193
 30
0.000000
 40
0.989828
 50
67.175640
 51
92.944492
  6
CONTINUOUS
  0
ARC
  8
WHITE
 10
3.862811
 20
7.185432
 30
0.000000
 40
1.405272
 50
-102.618720
 51
-84.464535
  6
CONTINUOUS
  0
ARC
  8
WHITE
 10
4.055740
 20
7.400128
 30
0.000000
 40
1.662949
 50
-107.495268
 51
-95.046797
  6
CONTINUOUS
  0
ARC
  8
WHITE
 10
3.361113
 20
-0.142369
 30
0.000000
 40
5.911481
 50
78.542247
 51
84.677699
  6
CONTINUOUS
  0
ARC
  8
WHITE
 10
2.594087
 20
4.138202
 30
0.000000
 40
2.461337
 50
30.912796
 51
37.933626
  6
CONTINUOUS
  0
ARC
  8
WHITE
 10
5.114346
 20
7.581890
 30
0.000000
 40
2.217185
 50
-106.386347
 51
-100.618414
  6
CONTINUOUS
  0
ARC
  8
WHITE
 10
3.370797
 20
1.114753
 30
0.000000
 40
4.481712
 50
75.553845
 51
83.768901
  6
CONTINUOUS
  0
ARC
  8
WHITE
 10
4.053582
 20
7.302162
 30
0.000000
 40
1.743266
 50
-118.368336
 51
-96.466975
  6
CONTINUOUS
  0
ARC
  8
WHITE
 10
2.938342
 20
5.733026
 30
0.000000
 40
0.289101
 50
-73.987964
 51
6.996777
  6
CONTINUOUS
  0
ARC
  8
WHITE
 10
2.960495
 20
5.856055
 30
0.000000
 40
0.405029
 50
-112.131707
 51
-81.825229
  6
CONTINUOUS
  0
ARC
  8
WHITE
 10
2.810624
 20
5.492115
 30
0.000000
 40
0.011571
 50
76.413339
 51
256.413345
  6
CONTINUOUS
  0
ARC
  8
WHITE
 10
2.860382
 20
5.729294
 30
0.000000
 40
0.230777
 50
-101.761210
 51
-29.815042
  6
CONTINUOUS
  0
ARC
  8
WHITE
 10
2.853886
 20
5.681668
 30
0.000000
 40
0.217349
 50
-17.986679
 51
58.686443
  6
CONTINUOUS
  0
ARC
  8
WHITE
 10
2.831354
 20
5.674238
 30
0.000000
 40
0.235909
 50
54.946298
 51
134.167259
  6
CONTINUOUS
  0
ARC
  8
WHITE
 10
2.828559
 20
5.699045
 30
0.000000
 40
0.216707
 50
138.210438
 51
178.375476
  6
CONTINUOUS
  0
ARC
  8
WHITE
 10
2.595683
 20
5.715856
 30
0.000000
 40
0.019444
 50
-174.112774
 51
-33.273768
  6
CONTINUOUS
  0
ARC
  8
WHITE
 10
2.871868
 20
5.722517
 30
0.000000
 40
0.295653
 50
83.318149
 51
181.677490
  6
CONTINUOUS
  0
ARC
  8
WHITE
 10
4.405707
 20
7.616414
 30
0.000000
 40
2.192971
 50
-141.276723
 51
-133.137150
  6
CONTINUOUS
  0
ARC
  8
WHITE
 10
2.599278
 20
6.174864
 30
0.000000
 40
0.118259
 50
36.122535
 51
84.188954
  6
CONTINUOUS
  0
ARC
  8
WHITE
 10
2.620527
 20
6.339189
 30
0.000000
 40
0.047586
 50
-169.492673
 51
-101.240302
  6
CONTINUOUS
  0
ARC
  8
WHITE
 10
2.939321
 20
6.016947
 30
0.000000
 40
0.481635
 50
139.379901
 51
148.906980
  6
CONTINUOUS
  0
ARC
  8
WHITE
 10
2.346752
 20
6.366485
 30
0.000000
 40
0.206420
 50
-79.947738
 51
-29.233009
  6
CONTINUOUS
  0
ARC
  8
WHITE
 10
2.361608
 20
6.227894
 30
0.000000
 40
0.068038
 50
-71.868160
 51
3.414029
  6
CONTINUOUS
  0
ARC
  8
WHITE
 10
2.352083
 20
6.442936
 30
0.000000
 40
0.224754
 50
-133.804346
 51
-69.844949
  6
CONTINUOUS
  0
ARC
  8
WHITE
 10
2.268940
 20
6.351933
 30
0.000000
 40
0.101568
 50
-168.487837
 51
-135.489679
  6
CONTINUOUS
  0
ARC
  8
WHITE
 10
2.339033
 20
6.551529
 30
0.000000
 40
0.277690
 50
-127.648644
 51
-102.794322
  6
CONTINUOUS
  0
ARC
  8
WHITE
 10
2.311997
 20
6.416937
 30
0.000000
 40
0.140494
 50
-104.197961
 51
-3.609655
  6
CONTINUOUS
  0
ARC
  8
WHITE
 10
2.338401
 20
6.391119
 30
0.000000
 40
0.115070
 50
8.481561
 51
68.370283
  6
CONTINUOUS
  0
ARC
  8
WHITE
 10
2.404366
 20
6.403210
 30
0.000000
 40
0.097756
 50
46.992656
 51
103.939459
  6
CONTINUOUS
  0
ARC
  8
WHITE
 10
2.376836
 20
6.446557
 30
0.000000
 40
0.098322
 50
16.630130
 51
114.445248
  6
CONTINUOUS
  0
ARC
  8
WHITE
 10
2.728813
 20
5.739071
 30
0.000000
 40
0.888473
 50
116.228677
 51
123.899599
  6
CONTINUOUS
  0
ARC
  8
WHITE
 10
2.414112
 20
6.417607
 30
0.000000
 40
0.190189
 50
75.547829
 51
161.955957
  6
CONTINUOUS
  0
ARC
  8
WHITE
 10
4.405707
 20
7.616414
 30
0.000000
 40
2.192971
 50
-155.954262
 51
-152.440057
  6
CONTINUOUS
  0
ARC
  8
WHITE
 10
2.214868
 20
6.958141
 30
0.000000
 40
0.301280
 50
-97.140658
 51
-51.348738
  6
CONTINUOUS
  0
ARC
  8
WHITE
 10
2.174340
 20
6.792871
 30
0.000000
 40
0.133708
 50
-88.681358
 51
-45.341208
  6
CONTINUOUS
  0
ARC
  8
WHITE
 10
2.212842
 20
6.882916
 30
0.000000
 40
0.193286
 50
-152.128828
 51
-73.319690
  6
CONTINUOUS
  0
ARC
  8
WHITE
 10
2.202374
 20
6.903794
 30
0.000000
 40
0.195193
 50
137.129917
 51
214.741476
  6
CONTINUOUS
  0
ARC
  8
WHITE
 10
2.224580
 20
6.976118
 30
0.000000
 40
0.175980
 50
159.901423
 51
231.985299
  6
CONTINUOUS
  0
ARC
  8
WHITE
 10
2.187433
 20
6.957918
 30
0.000000
 40
0.139934
 50
-120.600296
 51
-29.485555
  6
CONTINUOUS
  0
ARC
  8
WHITE
 10
2.172260
 20
6.876667
 30
0.000000
 40
0.137541
 50
-30.147882
 51
5.162243
  6
CONTINUOUS
  0
ARC
  8
WHITE
 10
2.230993
 20
6.923302
 30
0.000000
 40
0.130437
 50
-62.512921
 51
19.632003
  6
CONTINUOUS
  0
ARC
  8
WHITE
 10
2.118099
 20
6.842916
 30
0.000000
 40
0.266469
 50
27.783520
 51
67.609744
  6
CONTINUOUS
  0
ARC
  8
WHITE
 10
2.250993
 20
6.851261
 30
0.000000
 40
0.240096
 50
62.032346
 51
97.513101
  6
CONTINUOUS
  0
ARC
  8
WHITE
 10
3.257514
 20
6.994377
 30
0.000000
 40
0.896577
 50
168.181515
 51
175.590023
  6
CONTINUOUS
  0
ARC
  8
WHITE
 10
2.154963
 20
7.671959
 30
0.000000
 40
0.542776
 50
-94.296202
 51
-65.512135
  6
CONTINUOUS
  0
ARC
  8
WHITE
 10
2.105061
 20
7.275832
 30
0.000000
 40
0.145417
 50
-86.356458
 51
-44.497088
  6
CONTINUOUS
  0
ARC
  8
WHITE
 10
2.153292
 20
7.443827
 30
0.000000
 40
0.275560
 50
142.618518
 51
281.617847
  6
CONTINUOUS
  0
ARC
  8
WHITE
 10
2.220710
 20
7.556803
 30
0.000000
 40
0.291487
 50
169.259553
 51
244.389169
  6
CONTINUOUS
  0
ARC
  8
WHITE
 10
2.174463
 20
7.509781
 30
0.000000
 40
0.230089
 50
-110.279930
 51
-30.031930
  6
CONTINUOUS
  0
ARC
  8
WHITE
 10
2.127722
 20
7.472113
 30
0.000000
 40
0.257859
 50
-17.487893
 51
47.961230
  6
CONTINUOUS
  0
ARC
  8
WHITE
 10
2.235469
 20
7.424596
 30
0.000000
 40
0.247686
 50
4.692180
 51
74.804237
  6
CONTINUOUS
  0
ARC
  8
WHITE
 10
3.257514
 20
6.994377
 30
0.000000
 40
0.896577
 50
128.828741
 51
149.838101
  6
CONTINUOUS
  0
ARC
  8
WHITE
 10
2.553847
 20
7.961281
 30
0.000000
 40
0.303468
 50
-137.127854
 51
-62.203192
  6
CONTINUOUS
  0
ARC
  8
WHITE
 10
2.788713
 20
8.097758
 30
0.000000
 40
0.571584
 50
-165.872068
 51
-143.130665
  6
CONTINUOUS
  0
ARC
  8
WHITE
 10
2.443076
 20
8.073582
 30
0.000000
 40
0.238414
 50
-151.067250
 51
-131.971607
  6
CONTINUOUS
  0
ARC
  8
WHITE
 10
2.522159
 20
7.954642
 30
0.000000
 40
0.245550
 50
105.099220
 51
193.738335
  6
CONTINUOUS
  0
ARC
  8
WHITE
 10
9.748090
 20
6.882916
 30
0.000000
 40
0.193286
 50
-106.680310
 51
-27.871172
  6
CONTINUOUS
  0
ARC
  8
WHITE
 10
9.758558
 20
6.903794
 30
0.000000
 40
0.195193
 50
-34.741476
 51
42.870083
  6
CONTINUOUS
  0
ARC
  8
WHITE
 10
9.736352
 20
6.976118
 30
0.000000
 40
0.175980
 50
-51.985299
 51
20.098577
  6
CONTINUOUS
  0
ARC
  8
WHITE
 10
9.773498
 20
6.957918
 30
0.000000
 40
0.139934
 50
-150.514445
 51
-59.399704
  6
CONTINUOUS
  0
ARC
  8
WHITE
 10
9.788672
 20
6.876667
 30
0.000000
 40
0.137541
 50
174.837757
 51
210.147882
  6
CONTINUOUS
  0
ARC
  8
WHITE
 10
9.729939
 20
6.923302
 30
0.000000
 40
0.130437
 50
160.367997
 51
242.512921
  6
CONTINUOUS
  0
ARC
  8
WHITE
 10
9.842833
 20
6.842916
 30
0.000000
 40
0.266469
 50
112.390256
 51
152.216480
  6
CONTINUOUS
  0
ARC
  8
WHITE
 10
9.709938
 20
6.851261
 30
0.000000
 40
0.240096
 50
82.486899
 51
117.967654
  6
CONTINUOUS
  0
ARC
  8
WHITE
 10
8.703417
 20
6.994377
 30
0.000000
 40
0.896577
 50
4.409977
 51
11.818485
  6
CONTINUOUS
  0
ARC
  8
WHITE
 10
9.805969
 20
7.671959
 30
0.000000
 40
0.542776
 50
-114.487865
 51
-85.703798
  6
CONTINUOUS
  0
ARC
  8
WHITE
 10
9.855871
 20
7.275832
 30
0.000000
 40
0.145417
 50
-135.502912
 51
-93.643542
  6
CONTINUOUS
  0
ARC
  8
WHITE
 10
9.807640
 20
7.443827
 30
0.000000
 40
0.275560
 50
-101.617847
 51
37.381482
  6
CONTINUOUS
  0
ARC
  8
WHITE
 10
9.740222
 20
7.556803
 30
0.000000
 40
0.291487
 50
-64.389169
 51
10.740447
  6
CONTINUOUS
  0
ARC
  8
WHITE
 10
9.786469
 20
7.509781
 30
0.000000
 40
0.230089
 50
-149.968070
 51
-69.720070
  6
CONTINUOUS
  0
ARC
  8
WHITE
 10
9.833210
 20
7.472113
 30
0.000000
 40
0.257859
 50
132.038770
 51
197.487893
  6
CONTINUOUS
  0
ARC
  8
WHITE
 10
9.725462
 20
7.424596
 30
0.000000
 40
0.247686
 50
105.195763
 51
175.307820
  6
CONTINUOUS
  0
ARC
  8
WHITE
 10
8.703417
 20
6.994377
 30
0.000000
 40
0.896577
 50
30.161899
 51
51.171259
  6
CONTINUOUS
  0
ARC
  8
WHITE
 10
9.407085
 20
7.961281
 30
0.000000
 40
0.303468
 50
-117.796808
 51
-42.872146
  6
CONTINUOUS
  0
ARC
  8
WHITE
 10
9.172218
 20
8.097758
 30
0.000000
 40
0.571584
 50
-36.869335
 51
-14.127932
  6
CONTINUOUS
  0
ARC
  8
WHITE
 10
9.517856
 20
8.073582
 30
0.000000
 40
0.238414
 50
-48.028393
 51
-28.932750
  6
CONTINUOUS
  0
ARC
  8
WHITE
 10
9.438773
 20
7.954642
 30
0.000000
 40
0.245550
 50
-13.738335
 51
74.900780
  6
CONTINUOUS
  0
ARC
  8
WHITE
 10
9.356487
 20
8.025614
 30
0.000000
 40
0.221311
 50
-21.135516
 51
48.636639
  6
CONTINUOUS
  0
ARC
  8
WHITE
 10
9.355641
 20
8.091060
 30
0.000000
 40
0.253095
 50
-95.781368
 51
-35.021239
  6
CONTINUOUS
  0
ARC
  8
WHITE
 10
9.443134
 20
8.028853
 30
0.000000
 40
0.220713
 50
-120.791733
 51
-87.494012
  6
CONTINUOUS
  0
ARC
  8
WHITE
 10
9.382812
 20
8.064412
 30
0.000000
 40
0.265450
 50
-119.448207
 51
-74.716348
  6
CONTINUOUS
  0
ARC
  8
WHITE
 10
9.313380
 20
7.951966
 30
0.000000
 40
0.133496
 50
-173.513836
 51
-117.224964
  6
CONTINUOUS
  0
ARC
  8
WHITE
 10
9.498253
 20
7.922719
 30
0.000000
 40
0.317831
 50
144.013718
 51
177.445323
  6
CONTINUOUS
  0
ARC
  8
WHITE
 10
9.311425
 20
7.911289
 30
0.000000
 40
0.210300
 50
109.542760
 51
231.444159
  6
CONTINUOUS
  0
ARC
  8
WHITE
 10
8.793862
 20
7.119202
 30
0.000000
 40
0.737086
 50
58.375751
 51
84.245416
  6
CONTINUOUS
  0
ARC
  8
WHITE
 10
8.611435
 20
7.054671
 30
0.000000
 40
0.838065
 50
22.683477
 51
72.189966
  6
CONTINUOUS
  0
LINE
  8
WHITE
 10
9.384676
 20
7.377863
 30
0.000000
 11
9.346266
 21
7.378188
 31
0.000000
  6
CONTINUOUS
  0
ARC
  8
WHITE
 10
7.744817
 20
7.029796
 30
0.000000
 40
1.638907
 50
4.863894
 51
12.273327
  6
CONTINUOUS
  0
ARC
  8
WHITE
 10
8.436893
 20
7.167948
 30
0.000000
 40
0.940929
 50
-90.080375
 51
0.049280
  6
CONTINUOUS
  0
ARC
  8
WHITE
 10
8.297852
 20
7.485554
 30
0.000000
 40
1.266047
 50
-94.727296
 51
-83.754949
  6
CONTINUOUS
  0
ARC
  8
WHITE
 10
8.181904
 20
6.009644
 30
0.000000
 40
0.214484
 50
86.897625
 51
147.715765
  6
CONTINUOUS
  0
ARC
  8
WHITE
 10
8.237144
 20
5.614274
 30
0.000000
 40
0.562132
 50
78.727935
 51
114.887474
  6
CONTINUOUS
  0
ARC
  8
WHITE
 10
7.273772
 20
9.072718
 30
0.000000
 40
3.098939
 50
-87.762209
 51
-69.737082
  6
CONTINUOUS
  0
ARC
  8
WHITE
 10
7.322367
 20
5.330224
 30
0.000000
 40
0.649964
 50
83.603704
 51
110.716057
  6
CONTINUOUS
  0
ARC
  8
WHITE
 10
7.736473
 20
4.715165
 30
0.000000
 40
1.382207
 50
117.770933
 51
145.673899
  6
CONTINUOUS
  0
ARC
  8
WHITE
 10
7.490565
 20
4.949745
 30
0.000000
 40
1.048293
 50
148.684583
 51
166.180005
  6
CONTINUOUS
  0
ARC
  8
WHITE
 10
7.740626
 20
3.907203
 30
0.000000
 40
1.810956
 50
124.282323
 51
134.441943
  6
CONTINUOUS
  0
ARC
  8
WHITE
 10
7.727735
 20
4.626979
 30
0.000000
 40
1.271787
 50
126.294316
 51
142.366390
  6
CONTINUOUS
  0
ARC
  8
WHITE
 10
7.634367
 20
4.762285
 30
0.000000
 40
1.107475
 50
97.063186
 51
126.544650
  6
CONTINUOUS
  0
ARC
  8
WHITE
 10
7.746055
 20
4.231912
 30
0.000000
 40
1.648189
 50
89.313701
 51
98.649385
  6
CONTINUOUS
  0
ARC
  8
WHITE
 10
7.728288
 20
10.196902
 30
0.000000
 40
4.317083
 50
-89.502184
 51
-81.191367
  6
CONTINUOUS
  0
ARC
  8
WHITE
 10
8.146013
 20
7.055645
 30
0.000000
 40
1.150933
 50
-77.792375
 51
-54.460777
  6
CONTINUOUS
  0
ARC
  8
WHITE
 10
8.067626
 20
6.931280
 30
0.000000
 40
1.103717
 50
-69.090766
 51
-47.378941
  6
CONTINUOUS
  0
ARC
  8
WHITE
 10
8.065640
 20
7.062698
 30
0.000000
 40
1.228017
 50
-90.692848
 51
-71.193006
  6
CONTINUOUS
  0
ARC
  8
WHITE
 10
7.955279
 20
4.472969
 30
0.000000
 40
1.365147
 50
85.988057
 51
101.931599
  6
CONTINUOUS
  0
ARC
  8
WHITE
 10
7.721537
 20
5.580181
 30
0.000000
 40
0.233531
 50
101.984768
 51
146.075563
  6
CONTINUOUS
  0
ARC
  8
WHITE
 10
7.911720
 20
4.798193
 30
0.000000
 40
0.989828
 50
87.055508
 51
112.824360
  6
CONTINUOUS
  0
ARC
  8
WHITE
 10
8.098121
 20
7.185432
 30
0.000000
 40
1.405272
 50
-95.535465
 51
-77.381280
  6
CONTINUOUS
  0
ARC
  8
WHITE
 10
7.905192
 20
7.400128
 30
0.000000
 40
1.662949
 50
-84.953203
 51
-72.504732
  6
CONTINUOUS
  0
ARC
  8
WHITE
 10
8.599819
 20
-0.142369
 30
0.000000
 40
5.911481
 50
95.322301
 51
101.457753
  6
CONTINUOUS
  0
ARC
  8
WHITE
 10
9.366845
 20
4.138202
 30
0.000000
 40
2.461337
 50
142.066374
 51
149.087204
  6
CONTINUOUS
  0
ARC
  8
WHITE
 10
6.846586
 20
7.581890
 30
0.000000
 40
2.217185
 50
-79.381586
 51
-73.613653
  6
CONTINUOUS
  0
ARC
  8
WHITE
 10
8.590135
 20
1.114753
 30
0.000000
 40
4.481712
 50
96.231099
 51
104.446155
  6
CONTINUOUS
  0
ARC
  8
WHITE
 10
7.907350
 20
7.302162
 30
0.000000
 40
1.743266
 50
-83.533025
 51
-61.631664
  6
CONTINUOUS
  0
ARC
  8
WHITE
 10
9.022590
 20
5.733026
 30
0.000000
 40
0.289101
 50
173.003223
 51
253.987964
  6
CONTINUOUS
  0
ARC
  8
WHITE
 10
9.000437
 20
5.856055
 30
0.000000
 40
0.405029
 50
-98.174771
 51
-67.868293
  6
CONTINUOUS
  0
ARC
  8
WHITE
 10
9.150308
 20
5.492115
 30
0.000000
 40
0.011571
 50
-76.413345
 51
103.586661
  6
CONTINUOUS
  0
ARC
  8
WHITE
 10
9.100550
 20
5.729294
 30
0.000000
 40
0.230777
 50
-150.184958
 51
-78.238790
  6
CONTINUOUS
  0
ARC
  8
WHITE
 10
9.107046
 20
5.681668
 30
0.000000
 40
0.217349
 50
121.313557
 51
197.986679
  6
CONTINUOUS
  0
ARC
  8
WHITE
 10
9.129578
 20
5.674238
 30
0.000000
 40
0.235909
 50
45.832741
 51
125.053702
  6
CONTINUOUS
  0
ARC
  8
WHITE
 10
9.132373
 20
5.699045
 30
0.000000
 40
0.216707
 50
1.624524
 51
41.789562
  6
CONTINUOUS
  0
ARC
  8
WHITE
 10
9.365249
 20
5.715856
 30
0.000000
 40
0.019444
 50
-146.726232
 51
-5.887226
  6
CONTINUOUS
  0
ARC
  8
WHITE
 10
9.089064
 20
5.722517
 30
0.000000
 40
0.295653
 50
-1.677490
 51
96.681851
  6
CONTINUOUS
  0
ARC
  8
WHITE
 10
7.555225
 20
7.616414
 30
0.000000
 40
2.192971
 50
-46.862850
 51
-38.723277
  6
CONTINUOUS
  0
ARC
  8
WHITE
 10
9.361654
 20
6.174864
 30
0.000000
 40
0.118259
 50
95.811046
 51
143.877465
  6
CONTINUOUS
  0
ARC
  8
WHITE
 10
9.340405
 20
6.339189
 30
0.000000
 40
0.047586
 50
-78.759698
 51
-10.507327
  6
CONTINUOUS
  0
ARC
  8
WHITE
 10
9.021611
 20
6.016947
 30
0.000000
 40
0.481635
 50
31.093020
 51
40.620099
  6
CONTINUOUS
  0
ARC
  8
WHITE
 10
9.614180
 20
6.366485
 30
0.000000
 40
0.206420
 50
-150.766991
 51
-100.052262
  6
CONTINUOUS
  0
ARC
  8
WHITE
 10
9.599324
 20
6.227894
 30
0.000000
 40
0.068038
 50
176.585971
 51
251.868160
  6
CONTINUOUS
  0
ARC
  8
WHITE
 10
9.608848
 20
6.442936
 30
0.000000
 40
0.224754
 50
-110.155051
 51
-46.195654
  6
CONTINUOUS
  0
ARC
  8
WHITE
 10
9.691992
 20
6.351933
 30
0.000000
 40
0.101568
 50
-44.510321
 51
-11.512163
  6
CONTINUOUS
  0
ARC
  8
WHITE
 10
9.621899
 20
6.551529
 30
0.000000
 40
0.277690
 50
-77.205678
 51
-52.351356
  6
CONTINUOUS
  0
ARC
  8
WHITE
 10
9.648935
 20
6.416937
 30
0.000000
 40
0.140494
 50
-176.390345
 51
-75.802039
  6
CONTINUOUS
  0
ARC
  8
WHITE
 10
9.622531
 20
6.391119
 30
0.000000
 40
0.115070
 50
111.629717
 51
171.518439
  6
CONTINUOUS
  0
ARC
  8
WHITE
 10
9.556566
 20
6.403210
 30
0.000000
 40
0.097756
 50
76.060541
 51
133.007344
  6
CONTINUOUS
  0
ARC
  8
WHITE
 10
9.584096
 20
6.446557
 30
0.000000
 40
0.098322
 50
65.554752
 51
163.369870
  6
CONTINUOUS
  0
ARC
  8
WHITE
 10
9.232119
 20
5.739071
 30
0.000000
 40
0.888473
 50
56.100401
 51
63.771323
  6
CONTINUOUS
  0
ARC
  8
WHITE
 10
9.546820
 20
6.417607
 30
0.000000
 40
0.190189
 50
18.044043
 51
104.452171
  6
CONTINUOUS
  0
ARC
  8
WHITE
 10
7.555225
 20
7.616414
 30
0.000000
 40
2.192971
 50
-27.559943
 51
-24.045738
  6
CONTINUOUS
  0
ARC
  8
WHITE
 10
9.746064
 20
6.958141
 30
0.000000
 40
0.301280
 50
-128.651262
 51
-82.859342
  6
CONTINUOUS
  0
ARC
  8
WHITE
 10
9.786592
 20
6.792871
 30
0.000000
 40
0.133708
 50
-134.658792
 51
-91.318642
  6
CONTINUOUS
  0
ARC
  8
WHITE
 10
4.243735
 20
3.916826
 30
0.000000
 40
1.749200
 50
6.845280
 51
68.765101
  6
CONTINUOUS
  0
ARC
  8
WHITE
 10
7.717197
 20
3.916826
 30
0.000000
 40
1.749200
 50
111.234899
 51
173.154720
  6
CONTINUOUS
  0
ARC
  8
WHITE
 10
10.980529
 20
3.347410
 30
0.000000
 40
4.474931
 50
150.554574
 51
153.588797
  6
CONTINUOUS
  0
ARC
  8
WHITE
 10
7.799865
 20
3.811484
 30
0.000000
 40
1.736150
 50
118.454060
 51
147.195289
  6
CONTINUOUS
  0
ARC
  8
WHITE
 10
8.119597
 20
3.720063
 30
0.000000
 40
2.056681
 50
149.881323
 51
186.057563
  6
CONTINUOUS
  0
ARC
  8
WHITE
 10
11.586751
 20
4.054800
 30
0.000000
 40
5.539898
 50
-174.283858
 51
-162.346790
  6
CONTINUOUS
  0
ARC
  8
WHITE
 10
9.570471
 20
3.929539
 30
0.000000
 40
3.614235
 50
-173.361732
 51
-154.521569
  6
CONTINUOUS
  0
ARC
  8
WHITE
 10
2.390461
 20
3.929539
 30
0.000000
 40
3.614235
 50
-25.478431
 51
-6.638268
  6
CONTINUOUS
  0
ARC
  8
WHITE
 10
0.374181
 20
4.054800
 30
0.000000
 40
5.539898
 50
-17.653210
 51
-5.716142
  6
CONTINUOUS
  0
ARC
  8
WHITE
 10
3.841335
 20
3.720063
 30
0.000000
 40
2.056681
 50
-6.057563
 51
30.118677
  6
CONTINUOUS
  0
ARC
  8
WHITE
 10
4.161067
 20
3.811484
 30
0.000000
 40
1.736150
 50
32.804711
 51
61.545940
  6
CONTINUOUS
  0
ARC
  8
WHITE
 10
0.980403
 20
3.347410
 30
0.000000
 40
4.474931
 50
26.411203
 51
29.445426
  6
CONTINUOUS
  0
ARC
  8
WHITE
 10
3.472613
 20
7.486195
 30
0.000000
 40
0.930500
 50
-110.697017
 51
-78.770860
  6
CONTINUOUS
  0
ARC
  8
WHITE
 10
3.447621
 20
7.258933
 30
0.000000
 40
0.711354
 50
-175.076147
 51
-115.288307
  6
CONTINUOUS
  0
ARC
  8
WHITE
 10
3.323990
 20
7.219410
 30
0.000000
 40
0.585494
 50
112.690382
 51
182.107814
  6
CONTINUOUS
  0
ARC
  8
WHITE
 10
3.832636
 20
5.919692
 30
0.000000
 40
1.981089
 50
101.059624
 51
111.762267
  6
CONTINUOUS
  0
ARC
  8
WHITE
 10
3.385770
 20
7.085401
 30
0.000000
 40
0.781450
 50
85.093823
 51
113.535131
  6
CONTINUOUS
  0
ARC
  8
WHITE
 10
3.331923
 20
7.147426
 30
0.000000
 40
0.703513
 50
111.531270
 51
171.278564
  6
CONTINUOUS
  0
ARC
  8
WHITE
 10
3.442959
 20
7.167316
 30
0.000000
 40
0.811071
 50
173.857581
 51
234.116462
  6
CONTINUOUS
  0
ARC
  8
WHITE
 10
3.703391
 20
7.686016
 30
0.000000
 40
1.387099
 50
-122.038088
 51
-92.587663
  6
CONTINUOUS
  0
ARC
  8
WHITE
 10
3.689537
 20
6.805726
 30
0.000000
 40
0.507743
 50
-95.511971
 51
-79.806618
  6
CONTINUOUS
  0
ARC
  8
WHITE
 10
3.834704
 20
5.960325
 30
0.000000
 40
0.350070
 50
56.839116
 51
99.090866
  6
CONTINUOUS
  0
ARC
  8
WHITE
 10
3.342125
 20
5.063191
 30
0.000000
 40
1.372770
 50
45.231525
 51
60.111820
  6
CONTINUOUS
  0
ARC
  8
WHITE
 10
4.687160
 20
9.072718
 30
0.000000
 40
3.058400
 50
-97.104660
 51
-93.541208
  6
CONTINUOUS
  0
ARC
  8
WHITE
 10
3.375499
 20
5.241615
 30
0.000000
 40
1.366275
 50
34.738287
 51
62.070669
  6
CONTINUOUS
  0
ARC
  8
WHITE
 10
4.270376
 20
7.401683
 30
0.000000
 40
0.986441
 50
-119.991614
 51
-104.977649
  6
CONTINUOUS
  0
ARC
  8
WHITE
 10
3.683551
 20
6.409533
 30
0.000000
 40
0.166650
 50
55.775850
 51
100.279504
  6
CONTINUOUS
  0
ARC
  8
WHITE
 10
8.575162
 20
7.085401
 30
0.000000
 40
0.781450
 50
66.464869
 51
94.906177
  6
CONTINUOUS
  0
ARC
  8
WHITE
 10
8.629008
 20
7.147426
 30
0.000000
 40
0.703513
 50
8.721436
 51
68.468730
  6
CONTINUOUS
  0
ARC
  8
WHITE
 10
8.517972
 20
7.167316
 30
0.000000
 40
0.811071
 50
-54.116462
 51
6.142419
  6
CONTINUOUS
  0
ARC
  8
WHITE
 10
8.257541
 20
7.686016
 30
0.000000
 40
1.387099
 50
-87.412337
 51
-57.961912
  6
CONTINUOUS
  0
ARC
  8
WHITE
 10
8.271395
 20
6.805726
 30
0.000000
 40
0.507743
 50
-100.193382
 51
-84.488029
  6
CONTINUOUS
  0
ARC
  8
WHITE
 10
8.126228
 20
5.960325
 30
0.000000
 40
0.350070
 50
80.909134
 51
123.160884
  6
CONTINUOUS
  0
ARC
  8
WHITE
 10
8.618806
 20
5.063191
 30
0.000000
 40
1.372770
 50
119.888180
 51
134.768475
  6
CONTINUOUS
  0
ARC
  8
WHITE
 10
7.273772
 20
9.072718
 30
0.000000
 40
3.058400
 50
-86.458792
 51
-82.895340
  6
CONTINUOUS
  0
ARC
  8
WHITE
 10
8.585433
 20
5.241615
 30
0.000000
 40
1.366275
 50
117.929331
 51
145.261713
  6
CONTINUOUS
  0
ARC
  8
WHITE
 10
7.690556
 20
7.401683
 30
0.000000
 40
0.986441
 50
-75.022351
 51
-60.008386
  6
CONTINUOUS
  0
ARC
  8
WHITE
 10
8.277381
 20
6.409533
 30
0.000000
 40
0.166650
 50
79.720496
 51
124.224150
  6
CONTINUOUS
  0
ARC
  8
WHITE
 10
8.488319
 20
7.486195
 30
0.000000
 40
0.930500
 50
-101.229140
 51
-69.302983
  6
CONTINUOUS
  0
ARC
  8
WHITE
 10
8.513311
 20
7.258933
 30
0.000000
 40
0.711354
 50
-64.711693
 51
-4.923853
  6
CONTINUOUS
  0
ARC
  8
WHITE
 10
8.636942
 20
7.219410
 30
0.000000
 40
0.585494
 50
-2.107814
 51
67.309618
  6
CONTINUOUS
  0
ARC
  8
WHITE
 10
8.128296
 20
5.919692
 30
0.000000
 40
1.981089
 50
68.237733
 51
78.940376
  6
CONTINUOUS
  0
ARC
  8
WHITE
 10
4.425239
 20
6.875981
 30
0.000000
 40
0.173769
 50
-128.215425
 51
-52.355591
  6
CONTINUOUS
  0
ARC
  8
WHITE
 10
4.499766
 20
6.813297
 30
0.000000
 40
0.196432
 50
-157.918105
 51
-69.962310
  6
CONTINUOUS
  0
ARC
  8
WHITE
 10
4.617915
 20
6.526891
 30
0.000000
 40
0.113849
 50
-2.078319
 51
116.525335
  6
CONTINUOUS
  0
ARC
  8
WHITE
 10
4.629387
 20
6.550974
 30
0.000000
 40
0.106121
 50
-70.282201
 51
-15.417398
  6
CONTINUOUS
  0
ARC
  8
WHITE
 10
4.606768
 20
6.775706
 30
0.000000
 40
0.329846
 50
-116.336496
 51
-79.797898
  6
CONTINUOUS
  0
ARC
  8
WHITE
 10
4.649046
 20
6.734376
 30
0.000000
 40
0.316594
 50
-126.566153
 51
-52.053044
  6
CONTINUOUS
  0
ARC
  8
WHITE
 10
4.634529
 20
6.800772
 30
0.000000
 40
0.379020
 50
-56.499040
 51
-1.000865
  6
CONTINUOUS
  0
ARC
  8
WHITE
 10
4.756522
 20
6.855453
 30
0.000000
 40
0.264180
 50
-76.252741
 51
-13.417432
  6
CONTINUOUS
  0
ARC
  8
WHITE
 10
4.814647
 20
6.642088
 30
0.000000
 40
0.043497
 50
95.739189
 51
276.142967
  6
CONTINUOUS
  0
ARC
  8
WHITE
 10
4.810002
 20
6.586683
 30
0.000000
 40
0.098684
 50
57.523594
 51
89.828387
  6
CONTINUOUS
  0
ARC
  8
WHITE
 10
4.431215
 20
6.298970
 30
0.000000
 40
0.569250
 50
40.667846
 51
89.492341
  6
CONTINUOUS
  0
ARC
  8
WHITE
 10
4.410037
 20
7.196110
 30
0.000000
 40
0.328960
 50
-127.731844
 51
-85.428047
  6
CONTINUOUS
  0
ARC
  8
WHITE
 10
4.351392
 20
7.074362
 30
0.000000
 40
0.198782
 50
154.496745
 51
224.134307
  6
CONTINUOUS
  0
ARC
  8
WHITE
 10
4.314065
 20
7.059308
 30
0.000000
 40
0.174118
 50
144.689427
 51
182.211729
  6
CONTINUOUS
  0
ARC
  8
WHITE
 10
4.305899
 20
7.118387
 30
0.000000
 40
0.178401
 50
161.053491
 51
201.643331
  6
CONTINUOUS
  0
ARC
  8
WHITE
 10
4.193866
 20
7.132048
 30
0.000000
 40
0.071933
 50
37.380575
 51
142.023499
  6
CONTINUOUS
  0
ARC
  8
WHITE
 10
4.126877
 20
7.114434
 30
0.000000
 40
0.138452
 50
-45.286100
 51
26.273048
  6
CONTINUOUS
  0
ARC
  8
WHITE
 10
4.141377
 20
7.194645
 30
0.000000
 40
0.196905
 50
-65.098202
 51
1.313896
  6
CONTINUOUS
  0
ARC
  8
WHITE
 10
4.018971
 20
7.167792
 30
0.000000
 40
0.320797
 50
5.611498
 51
47.494472
  6
CONTINUOUS
  0
ARC
  8
WHITE
 10
3.842142
 20
7.072928
 30
0.000000
 40
0.514492
 50
40.094450
 51
139.493858
  6
CONTINUOUS
  0
ARC
  8
WHITE
 10
3.459979
 20
7.399715
 30
0.000000
 40
0.011665
 50
140.679710
 51
328.224676
  6
CONTINUOUS
  0
ARC
  8
WHITE
 10
3.789845
 20
7.069278
 30
0.000000
 40
0.455559
 50
34.149586
 51
134.613632
  6
CONTINUOUS
  0
ARC
  8
WHITE
 10
4.159097
 20
7.317856
 30
0.000000
 40
0.010552
 50
-124.077265
 51
42.675097
  6
CONTINUOUS
  0
ARC
  8
WHITE
 10
3.842917
 20
7.116139
 30
0.000000
 40
0.365385
 50
31.880458
 51
106.730820
  6
CONTINUOUS
  0
ARC
  8
WHITE
 10
3.824393
 20
7.228526
 30
0.000000
 40
0.252845
 50
110.044149
 51
148.388106
  6
CONTINUOUS
  0
ARC
  8
WHITE
 10
3.805680
 20
7.148864
 30
0.000000
 40
0.289281
 50
34.657258
 51
132.817522
  6
CONTINUOUS
  0
ARC
  8
WHITE
 10
4.147768
 20
7.108041
 30
0.000000
 40
0.230225
 50
116.892456
 51
129.335840
  6
CONTINUOUS
  0
ARC
  8
WHITE
 10
3.850742
 20
7.215245
 30
0.000000
 40
0.166886
 50
25.125912
 51
120.759627
  6
CONTINUOUS
  0
ARC
  8
WHITE
 10
3.756869
 20
7.148561
 30
0.000000
 40
0.210266
 50
22.280082
 51
87.677457
  6
CONTINUOUS
  0
ARC
  8
WHITE
 10
4.147768
 20
7.108041
 30
0.000000
 40
0.230225
 50
148.515508
 51
177.674929
  6
CONTINUOUS
  0
ARC
  8
WHITE
 10
3.955614
 20
7.885677
 30
0.000000
 40
0.769229
 50
-102.873039
 51
-92.822648
  6
CONTINUOUS
  0
ARC
  8
WHITE
 10
3.815711
 20
7.276798
 30
0.000000
 40
0.144486
 50
152.427916
 51
257.417613
  6
CONTINUOUS
  0
ARC
  8
WHITE
 10
3.807291
 20
7.209816
 30
0.000000
 40
0.179544
 50
131.793357
 51
251.107889
  6
CONTINUOUS
  0
ARC
  8
WHITE
 10
3.937840
 20
7.400638
 30
0.000000
 40
0.407065
 50
-117.614494
 51
-100.946203
  6
CONTINUOUS
  0
ARC
  8
WHITE
 10
3.845876
 20
6.936642
 30
0.000000
 40
0.065988
 50
-29.616463
 51
77.157789
  6
CONTINUOUS
  0
ARC
  8
WHITE
 10
3.769006
 20
6.977578
 30
0.000000
 40
0.153064
 50
-111.297361
 51
-28.717815
  6
CONTINUOUS
  0
ARC
  8
WHITE
 10
3.821882
 20
6.971958
 30
0.000000
 40
0.174734
 50
-128.372296
 51
-28.449348
  6
CONTINUOUS
  0
ARC
  8
WHITE
 10
4.081216
 20
6.955873
 30
0.000000
 40
0.125230
 50
-147.571146
 51
-117.253640
  6
CONTINUOUS
  0
ARC
  8
WHITE
 10
4.042303
 20
6.709496
 30
0.000000
 40
0.136301
 50
97.772678
 51
205.352548
  6
CONTINUOUS
  0
ARC
  8
WHITE
 10
4.087720
 20
6.632522
 30
0.000000
 40
0.169615
 50
118.963102
 51
173.700163
  6
CONTINUOUS
  0
ARC
  8
WHITE
 10
4.056216
 20
6.685670
 30
0.000000
 40
0.107873
 50
-55.432648
 51
117.992726
  6
CONTINUOUS
  0
ARC
  8
WHITE
 10
4.047492
 20
6.721768
 30
0.000000
 40
0.143168
 50
-104.835690
 51
-60.761793
  6
CONTINUOUS
  0
ARC
  8
WHITE
 10
4.109055
 20
6.684676
 30
0.000000
 40
0.141101
 50
-134.115217
 51
-37.370630
  6
CONTINUOUS
  0
ARC
  8
WHITE
 10
4.065832
 20
6.700660
 30
0.000000
 40
0.185648
 50
-33.190645
 51
26.489776
  6
CONTINUOUS
  0
ARC
  8
WHITE
 10
4.416358
 20
8.144000
 30
0.000000
 40
1.372969
 50
-97.717267
 51
-87.929857
  6
CONTINUOUS
  0
ARC
  8
WHITE
 10
4.475336
 20
6.709662
 30
0.000000
 40
0.062968
 50
27.142011
 51
98.569152
  6
CONTINUOUS
  0
ARC
  8
WHITE
 10
7.535693
 20
6.875981
 30
0.000000
 40
0.173769
 50
-127.644409
 51
-51.784575
  6
CONTINUOUS
  0
ARC
  8
WHITE
 10
7.461166
 20
6.813297
 30
0.000000
 40
0.196432
 50
-110.037690
 51
-22.081895
  6
CONTINUOUS
  0
ARC
  8
WHITE
 10
7.343017
 20
6.526891
 30
0.000000
 40
0.113849
 50
63.474665
 51
182.078319
  6
CONTINUOUS
  0
ARC
  8
WHITE
 10
7.331545
 20
6.550974
 30
0.000000
 40
0.106121
 50
-164.582602
 51
-109.717799
  6
CONTINUOUS
  0
ARC
  8
WHITE
 10
7.354163
 20
6.775706
 30
0.000000
 40
0.329846
 50
-100.202102
 51
-63.663504
  6
CONTINUOUS
  0
ARC
  8
WHITE
 10
7.311886
 20
6.734376
 30
0.000000
 40
0.316594
 50
-127.946956
 51
-53.433847
  6
CONTINUOUS
  0
ARC
  8
WHITE
 10
7.326403
 20
6.800772
 30
0.000000
 40
0.379020
 50
-178.999135
 51
-123.500960
  6
CONTINUOUS
  0
ARC
  8
WHITE
 10
7.204409
 20
6.855453
 30
0.000000
 40
0.264180
 50
-166.582568
 51
-103.747259
  6
CONTINUOUS
  0
ARC
  8
WHITE
 10
7.146284
 20
6.642088
 30
0.000000
 40
0.043497
 50
-96.142967
 51
84.260811
  6
CONTINUOUS
  0
ARC
  8
WHITE
 10
7.150930
 20
6.586683
 30
0.000000
 40
0.098684
 50
90.171613
 51
122.476407
  6
CONTINUOUS
  0
ARC
  8
WHITE
 10
7.529717
 20
6.298970
 30
0.000000
 40
0.569250
 50
90.507659
 51
139.332154
  6
CONTINUOUS
  0
ARC
  8
WHITE
 10
7.550895
 20
7.196110
 30
0.000000
 40
0.328960
 50
-94.571953
 51
-52.268156
  6
CONTINUOUS
  0
ARC
  8
WHITE
 10
7.609540
 20
7.074362
 30
0.000000
 40
0.198782
 50
-44.134307
 51
25.503255
  6
CONTINUOUS
  0
ARC
  8
WHITE
 10
7.646867
 20
7.059308
 30
0.000000
 40
0.174118
 50
-2.211729
 51
35.310573
  6
CONTINUOUS
  0
ARC
  8
WHITE
 10
7.655033
 20
7.118387
 30
0.000000
 40
0.178401
 50
-21.643331
 51
18.946509
  6
CONTINUOUS
  0
ARC
  8
WHITE
 10
7.767066
 20
7.132048
 30
0.000000
 40
0.071933
 50
37.976501
 51
142.619425
  6
CONTINUOUS
  0
ARC
  8
WHITE
 10
7.834055
 20
7.114434
 30
0.000000
 40
0.138452
 50
153.726952
 51
225.286100
  6
CONTINUOUS
  0
ARC
  8
WHITE
 10
7.819555
 20
7.194645
 30
0.000000
 40
0.196905
 50
178.686104
 51
245.098202
  6
CONTINUOUS
  0
ARC
  8
WHITE
 10
7.941961
 20
7.167792
 30
0.000000
 40
0.320797
 50
132.505528
 51
174.388502
  6
CONTINUOUS
  0
ARC
  8
WHITE
 10
8.118789
 20
7.072928
 30
0.000000
 40
0.514492
 50
40.506142
 51
139.905550
  6
CONTINUOUS
  0
ARC
  8
WHITE
 10
8.500953
 20
7.399715
 30
0.000000
 40
0.011665
 50
-148.224676
 51
39.320290
  6
CONTINUOUS
  0
ARC
  8
WHITE
 10
8.171086
 20
7.069278
 30
0.000000
 40
0.455559
 50
45.386368
 51
145.850414
  6
CONTINUOUS
  0
ARC
  8
WHITE
 10
7.801835
 20
7.317856
 30
0.000000
 40
0.010552
 50
137.324903
 51
304.077265
  6
CONTINUOUS
  0
ARC
  8
WHITE
 10
8.118015
 20
7.116139
 30
0.000000
 40
0.365385
 50
73.269180
 51
148.119542
  6
CONTINUOUS
  0
ARC
  8
WHITE
 10
8.136539
 20
7.228526
 30
0.000000
 40
0.252845
 50
31.611894
 51
69.955851
  6
CONTINUOUS
  0
ARC
  8
WHITE
 10
8.155252
 20
7.148864
 30
0.000000
 40
0.289281
 50
47.182478
 51
145.342742
  6
CONTINUOUS
  0
ARC
  8
WHITE
 10
7.813164
 20
7.108041
 30
0.000000
 40
0.230225
 50
50.664160
 51
63.107544
  6
CONTINUOUS
  0
ARC
  8
WHITE
 10
8.110190
 20
7.215245
 30
0.000000
 40
0.166886
 50
59.240373
 51
154.874088
  6
CONTINUOUS
  0
ARC
  8
WHITE
 10
8.204063
 20
7.148561
 30
0.000000
 40
0.210266
 50
92.322543
 51
157.719918
  6
CONTINUOUS
  0
ARC
  8
WHITE
 10
7.813164
 20
7.108041
 30
0.000000
 40
0.230225
 50
2.325071
 51
31.484492
  6
CONTINUOUS
  0
ARC
  8
WHITE
 10
8.005318
 20
7.885677
 30
0.000000
 40
0.769229
 50
-87.177352
 51
-77.126961
  6
CONTINUOUS
  0
ARC
  8
WHITE
 10
8.145221
 20
7.276798
 30
0.000000
 40
0.144486
 50
-77.417613
 51
27.572084
  6
CONTINUOUS
  0
ARC
  8
WHITE
 10
8.153641
 20
7.209816
 30
0.000000
 40
0.179544
 50
-71.107889
 51
48.206643
  6
CONTINUOUS
  0
ARC
  8
WHITE
 10
8.023092
 20
7.400638
 30
0.000000
 40
0.407065
 50
-79.053797
 51
-62.385506
  6
CONTINUOUS
  0
ARC
  8
WHITE
 10
8.115056
 20
6.936642
 30
0.000000
 40
0.065988
 50
102.842211
 51
209.616463
  6
CONTINUOUS
  0
ARC
  8
WHITE
 10
8.191926
 20
6.977578
 30
0.000000
 40
0.153064
 50
-151.282185
 51
-68.702639
  6
CONTINUOUS
  0
ARC
  8
WHITE
 10
8.139050
 20
6.971958
 30
0.000000
 40
0.174734
 50
-151.550652
 51
-51.627704
  6
CONTINUOUS
  0
ARC
  8
WHITE
 10
7.879715
 20
6.955873
 30
0.000000
 40
0.125230
 50
-62.746360
 51
-32.428854
  6
CONTINUOUS
  0
ARC
  8
WHITE
 10
7.918629
 20
6.709496
 30
0.000000
 40
0.136301
 50
-25.352548
 51
82.227322
  6
CONTINUOUS
  0
ARC
  8
WHITE
 10
7.873212
 20
6.632522
 30
0.000000
 40
0.169615
 50
6.299837
 51
61.036898
  6
CONTINUOUS
  0
ARC
  8
WHITE
 10
7.904716
 20
6.685670
 30
0.000000
 40
0.107873
 50
62.007274
 51
235.432648
  6
CONTINUOUS
  0
ARC
  8
WHITE
 10
7.913440
 20
6.721768
 30
0.000000
 40
0.143168
 50
-119.238207
 51
-75.164310
  6
CONTINUOUS
  0
ARC
  8
WHITE
 10
7.851877
 20
6.684676
 30
0.000000
 40
0.141101
 50
-142.629370
 51
-45.884783
  6
CONTINUOUS
  0
ARC
  8
WHITE
 10
7.895100
 20
6.700660
 30
0.000000
 40
0.185648
 50
153.510224
 51
213.190645
  6
CONTINUOUS
  0
ARC
  8
WHITE
 10
7.544573
 20
8.144000
 30
0.000000
 40
1.372969
 50
-92.070143
 51
-82.282733
  6
CONTINUOUS
  0
ARC
  8
WHITE
 10
7.485595
 20
6.709662
 30
0.000000
 40
0.062968
 50
81.430848
 51
152.857989
  6
CONTINUOUS
  0
ARC
  8
WHITE
 10
4.902303
 20
7.213310
 30
0.000000
 40
0.135371
 50
143.945185
 51
201.696766
  6
CONTINUOUS
  0
ARC
  8
WHITE
 10
5.002031
 20
7.236813
 30
0.000000
 40
0.237200
 50
-161.936367
 51
-112.275762
  6
CONTINUOUS
  0
ARC
  8
WHITE
 10
4.870671
 20
6.875098
 30
0.000000
 40
0.148134
 50
-5.584550
 51
73.752383
  6
CONTINUOUS
  0
ARC
  8
WHITE
 10
4.942455
 20
6.933067
 30
0.000000
 40
0.104699
 50
-43.737522
 51
2.823552
  6
CONTINUOUS
  0
ARC
  8
WHITE
 10
5.123337
 20
6.959844
 30
0.000000
 40
0.079313
 50
-164.181672
 51
-103.050953
  6
CONTINUOUS
  0
ARC
  8
WHITE
 10
5.132111
 20
6.928337
 30
0.000000
 40
0.052970
 50
63.042024
 51
239.750335
  6
CONTINUOUS
  0
ARC
  8
WHITE
 10
5.189225
 20
7.111945
 30
0.000000
 40
0.140353
 50
-103.641051
 51
-37.589853
  6
CONTINUOUS
  0
ARC
  8
WHITE
 10
4.115208
 20
6.300859
 30
0.000000
 40
1.389634
 50
26.698380
 51
31.470428
  6
CONTINUOUS
  0
ARC
  8
WHITE
 10
5.148799
 20
7.033608
 30
0.000000
 40
0.234448
 50
-61.705976
 51
-27.538369
  6
CONTINUOUS
  0
ARC
  8
WHITE
 10
5.341285
 20
6.726815
 30
0.000000
 40
0.129191
 50
129.031767
 51
191.168232
  6
CONTINUOUS
  0
ARC
  8
WHITE
 10
5.296311
 20
6.686945
 30
0.000000
 40
0.083108
 50
119.369900
 51
169.708897
  6
CONTINUOUS
  0
ARC
  8
WHITE
 10
5.284776
 20
6.729425
 30
0.000000
 40
0.041843
 50
-42.459685
 51
134.300910
  6
CONTINUOUS
  0
ARC
  8
WHITE
 10
1.572528
 20
10.332629
 30
0.000000
 40
5.215205
 50
-46.235344
 51
-44.132484
  6
CONTINUOUS
  0
ARC
  8
WHITE
 10
5.215859
 20
6.453265
 30
0.000000
 40
0.118601
 50
107.662644
 51
154.045005
  6
CONTINUOUS
  0
ARC
  8
WHITE
 10
5.028439
 20
6.667263
 30
0.000000
 40
0.181105
 50
-93.584071
 51
-63.509640
  6
CONTINUOUS
  0
ARC
  8
WHITE
 10
4.838538
 20
6.507084
 30
0.000000
 40
0.179760
 50
-54.279020
 51
-6.571289
  6
CONTINUOUS
  0
ARC
  8
WHITE
 10
4.921297
 20
6.390734
 30
0.000000
 40
0.036989
 50
-168.695944
 51
-53.132376
  6
CONTINUOUS
  0
ARC
  8
WHITE
 10
4.961895
 20
6.382426
 30
0.000000
 40
0.076877
 50
123.757191
 51
179.211395
  6
CONTINUOUS
  0
ARC
  8
WHITE
 10
4.917620
 20
6.350249
 30
0.000000
 40
0.096105
 50
89.072093
 51
143.933803
  6
CONTINUOUS
  0
ARC
  8
WHITE
 10
4.774603
 20
6.449372
 30
0.000000
 40
0.077964
 50
-96.661595
 51
-33.072496
  6
CONTINUOUS
  0
ARC
  8
WHITE
 10
4.749115
 20
6.289447
 30
0.000000
 40
0.084111
 50
78.726252
 51
167.205222
  6
CONTINUOUS
  0
ARC
  8
WHITE
 10
4.735137
 20
6.252849
 30
0.000000
 40
0.087635
 50
68.495202
 51
140.937108
  6
CONTINUOUS
  0
ARC
  8
WHITE
 10
4.746654
 20
6.298781
 30
0.000000
 40
0.041137
 50
-79.029434
 51
59.935254
  6
CONTINUOUS
  0
ARC
  8
WHITE
 10
4.630331
 20
6.728245
 30
0.000000
 40
0.485975
 50
-92.531166
 51
-75.198629
  6
CONTINUOUS
  0
ARC
  8
WHITE
 10
4.623209
 20
6.332821
 30
0.000000
 40
0.091211
 50
147.280600
 51
260.954110
  6
CONTINUOUS
  0
ARC
  8
WHITE
 10
4.616602
 20
6.302624
 30
0.000000
 40
0.106012
 50
131.417485
 51
235.217810
  6
CONTINUOUS
  0
ARC
  8
WHITE
 10
4.731881
 20
6.410852
 30
0.000000
 40
0.262738
 50
-131.984896
 51
-77.762713
  6
CONTINUOUS
  0
ARC
  8
WHITE
 10
4.614677
 20
6.209815
 30
0.000000
 40
0.181655
 50
-88.543315
 51
-17.866352
  6
CONTINUOUS
  0
ARC
  8
WHITE
 10
4.687285
 20
6.324254
 30
0.000000
 40
0.303743
 50
-102.934825
 51
-63.390343
  6
CONTINUOUS
  0
ARC
  8
WHITE
 10
4.719834
 20
6.246980
 30
0.000000
 40
0.220143
 50
-61.956006
 51
-0.519931
  6
CONTINUOUS
  0
ARC
  8
WHITE
 10
4.958770
 20
6.239440
 30
0.000000
 40
0.019601
 50
60.072691
 51
163.575113
  6
CONTINUOUS
  0
ARC
  8
WHITE
 10
4.984550
 20
6.287498
 30
0.000000
 40
0.034949
 50
-117.248172
 51
-58.170608
  6
CONTINUOUS
  0
ARC
  8
WHITE
 10
4.962172
 20
6.329451
 30
0.000000
 40
0.082454
 50
-60.333609
 51
-21.473862
  6
CONTINUOUS
  0
ARC
  8
WHITE
 10
5.393733
 20
6.150181
 30
0.000000
 40
0.384879
 50
128.660761
 51
157.209898
  6
CONTINUOUS
  0
ARC
  8
WHITE
 10
5.056352
 20
6.553288
 30
0.000000
 40
0.141135
 50
-46.615384
 51
-32.011124
  6
CONTINUOUS
  0
ARC
  8
WHITE
 10
5.237972
 20
6.453868
 30
0.000000
 40
0.066653
 50
100.137837
 51
158.335722
  6
CONTINUOUS
  0
ARC
  8
WHITE
 10
5.185117
 20
6.610114
 30
0.000000
 40
0.099526
 50
-65.594765
 51
-31.647823
  6
CONTINUOUS
  0
LINE
  8
WHITE
 10
5.269842
 20
6.557893
 30
0.000000
 11
5.299009
 21
6.600470
 31
0.000000
  6
CONTINUOUS
  0
ARC
  8
WHITE
 10
5.376577
 20
6.528228
 30
0.000000
 40
0.105998
 50
112.632781
 51
137.036156
  6
CONTINUOUS
  0
ARC
  8
WHITE
 10
5.110952
 20
7.002711
 30
0.000000
 40
0.438650
 50
-59.165483
 51
-38.512705
  6
CONTINUOUS
  0
ARC
  8
WHITE
 10
5.425500
 20
6.748023
 30
0.000000
 40
0.034106
 50
-32.757183
 51
33.256553
  6
CONTINUOUS
  0
ARC
  8
WHITE
 10
5.153833
 20
6.448622
 30
0.000000
 40
0.437382
 50
46.659834
 51
62.171269
  6
CONTINUOUS
  0
ARC
  8
WHITE
 10
4.949878
 20
7.310557
 30
0.000000
 40
0.626364
 50
-49.337751
 51
-37.138052
  6
CONTINUOUS
  0
ARC
  8
WHITE
 10
5.246852
 20
6.895037
 30
0.000000
 40
0.205773
 50
10.460677
 51
41.784252
  6
CONTINUOUS
  0
ARC
  8
WHITE
 10
5.606480
 20
7.215101
 30
0.000000
 40
0.275656
 50
-173.509544
 51
-138.417724
  6
CONTINUOUS
  0
ARC
  8
WHITE
 10
5.165708
 20
7.131373
 30
0.000000
 40
0.174967
 50
17.484360
 51
72.733916
  6
CONTINUOUS
  0
ARC
  8
WHITE
 10
5.130045
 20
7.166043
 30
0.000000
 40
0.158764
 50
-30.026879
 51
56.514153
  6
CONTINUOUS
  0
ARC
  8
WHITE
 10
5.196039
 20
7.127462
 30
0.000000
 40
0.082321
 50
-71.487938
 51
-29.763002
  6
CONTINUOUS
  0
ARC
  8
WHITE
 10
5.189361
 20
9.925377
 30
0.000000
 40
2.876164
 50
-91.131060
 51
-89.346276
  6
CONTINUOUS
  0
ARC
  8
WHITE
 10
5.123353
 20
6.940649
 30
0.000000
 40
0.109514
 50
85.163157
 51
132.247676
  6
CONTINUOUS
  0
ARC
  8
WHITE
 10
5.105989
 20
7.267637
 30
0.000000
 40
0.252275
 50
-144.733650
 51
-102.887352
  6
CONTINUOUS
  0
ARC
  8
WHITE
 10
4.961644
 20
6.970776
 30
0.000000
 40
0.163281
 50
85.536475
 51
112.176189
  6
CONTINUOUS
  0
ARC
  8
WHITE
 10
4.984357
 20
7.173665
 30
0.000000
 40
0.041333
 50
-104.009678
 51
-11.926084
  6
CONTINUOUS
  0
ARC
  8
WHITE
 10
4.737068
 20
7.195661
 30
0.000000
 40
0.289346
 50
-6.058110
 51
39.981102
  6
CONTINUOUS
  0
ARC
  8
WHITE
 10
5.429679
 20
7.834588
 30
0.000000
 40
0.653425
 50
-146.301835
 51
-136.109038
  6
CONTINUOUS
  0
ARC
  8
WHITE
 10
4.342430
 20
7.201119
 30
0.000000
 40
0.607393
 50
26.491479
 51
37.407259
  6
CONTINUOUS
  0
LINE
  8
WHITE
 10
4.824905
 20
7.570096
 30
0.000000
 11
4.805966
 21
7.570945
 31
0.000000
  6
CONTINUOUS
  0
ARC
  8
WHITE
 10
4.652560
 20
7.773679
 30
0.000000
 40
0.254233
 50
-74.989237
 51
-52.885578
  6
CONTINUOUS
  0
ARC
  8
WHITE
 10
4.680224
 20
7.603397
 30
0.000000
 40
0.084407
 50
-162.392801
 51
-63.104954
  6
CONTINUOUS
  0
ARC
  8
WHITE
 10
4.675181
 20
7.570511
 30
0.000000
 40
0.075767
 50
64.558619
 51
174.429988
  6
CONTINUOUS
  0
ARC
  8
WHITE
 10
4.632607
 20
7.558583
 30
0.000000
 40
0.109996
 50
46.924717
 51
115.844358
  6
CONTINUOUS
  0
ARC
  8
WHITE
 10
4.664838
 20
7.549839
 30
0.000000
 40
0.134301
 50
126.657562
 51
210.061956
  6
CONTINUOUS
  0
ARC
  8
WHITE
 10
4.579150
 20
7.701588
 30
0.000000
 40
0.221145
 50
-144.479038
 51
-97.939860
  6
CONTINUOUS
  0
ARC
  8
WHITE
 10
4.585178
 20
7.653276
 30
0.000000
 40
0.202560
 50
161.138220
 51
203.315797
  6
CONTINUOUS
  0
ARC
  8
WHITE
 10
3.713063
 20
7.859015
 30
0.000000
 40
0.694737
 50
-11.647000
 51
-0.547947
  6
CONTINUOUS
  0
ARC
  8
WHITE
 10
3.937758
 20
7.847782
 30
0.000000
 40
0.470033
 50
0.559359
 51
64.031844
  6
CONTINUOUS
  0
ARC
  8
WHITE
 10
3.891208
 20
7.569975
 30
0.000000
 40
0.744464
 50
70.184789
 51
100.246050
  6
CONTINUOUS
  0
ARC
  8
WHITE
 10
3.768545
 20
7.650326
 30
0.000000
 40
0.652314
 50
63.098188
 51
90.857259
  6
CONTINUOUS
  0
ARC
  8
WHITE
 10
3.883790
 20
7.931793
 30
0.000000
 40
0.350026
 50
-18.601941
 51
59.071275
  6
CONTINUOUS
  0
ARC
  8
WHITE
 10
4.661752
 20
7.674669
 30
0.000000
 40
0.469335
 50
161.943976
 51
219.811658
  6
CONTINUOUS
  0
ARC
  8
WHITE
 10
4.659915
 20
7.569499
 30
0.000000
 40
0.408421
 50
175.049679
 51
208.571348
  6
CONTINUOUS
  0
ARC
  8
WHITE
 10
5.117771
 20
7.520744
 30
0.000000
 40
0.868824
 50
160.072397
 51
174.452004
  6
CONTINUOUS
  0
ARC
  8
WHITE
 10
4.665264
 20
7.704930
 30
0.000000
 40
0.381104
 50
162.919276
 51
202.179783
  6
CONTINUOUS
  0
ARC
  8
WHITE
 10
4.546230
 20
7.686433
 30
0.000000
 40
0.265357
 50
-151.804907
 51
-82.506573
  6
CONTINUOUS
  0
ARC
  8
WHITE
 10
4.493843
 20
8.043232
 30
0.000000
 40
0.625964
 50
-82.011529
 51
-72.292297
  6
CONTINUOUS
  0
ARC
  8
WHITE
 10
4.739165
 20
7.325569
 30
0.000000
 40
0.133209
 50
27.771623
 51
114.352477
  6
CONTINUOUS
  0
ARC
  8
WHITE
 10
5.321933
 20
7.595824
 30
0.000000
 40
0.509388
 50
-155.876837
 51
-142.434875
  6
CONTINUOUS
  0
LINE
  8
WHITE
 10
4.918161
 20
7.285269
 30
0.000000
 11
4.918730
 21
7.279064
 31
0.000000
  6
CONTINUOUS
  0
ARC
  8
WHITE
 10
4.844414
 20
7.321724
 30
0.000000
 40
0.085689
 50
-85.202986
 51
-29.857904
  6
CONTINUOUS
  0
ARC
  8
WHITE
 10
4.842334
 20
7.285508
 30
0.000000
 40
0.050034
 50
171.406530
 51
280.648916
  6
CONTINUOUS
  0
ARC
  8
WHITE
 10
8.192386
 20
7.650326
 30
0.000000
 40
0.652314
 50
89.142741
 51
116.901812
  6
CONTINUOUS
  0
ARC
  8
WHITE
 10
8.077142
 20
7.931793
 30
0.000000
 40
0.350026
 50
120.928725
 51
198.601941
  6
CONTINUOUS
  0
ARC
  8
WHITE
 10
7.299180
 20
7.674669
 30
0.000000
 40
0.469335
 50
-39.811658
 51
18.056024
  6
CONTINUOUS
  0
ARC
  8
WHITE
 10
7.301017
 20
7.569499
 30
0.000000
 40
0.408421
 50
-28.571348
 51
4.950321
  6
CONTINUOUS
  0
ARC
  8
WHITE
 10
6.843161
 20
7.520744
 30
0.000000
 40
0.868824
 50
5.547996
 51
19.927603
  6
CONTINUOUS
  0
ARC
  8
WHITE
 10
7.295668
 20
7.704930
 30
0.000000
 40
0.381104
 50
-22.179783
 51
17.080724
  6
CONTINUOUS
  0
ARC
  8
WHITE
 10
7.414702
 20
7.686433
 30
0.000000
 40
0.265357
 50
-97.493427
 51
-28.195093
  6
CONTINUOUS
  0
ARC
  8
WHITE
 10
7.467089
 20
8.043232
 30
0.000000
 40
0.625964
 50
-107.707703
 51
-97.988471
  6
CONTINUOUS
  0
ARC
  8
WHITE
 10
7.221766
 20
7.325569
 30
0.000000
 40
0.133209
 50
65.647523
 51
152.228377
  6
CONTINUOUS
  0
ARC
  8
WHITE
 10
6.638999
 20
7.595824
 30
0.000000
 40
0.509388
 50
-37.565125
 51
-24.123163
  6
CONTINUOUS
  0
LINE
  8
WHITE
 10
7.042771
 20
7.285269
 30
0.000000
 11
7.042202
 21
7.279064
 31
0.000000
  6
CONTINUOUS
  0
ARC
  8
WHITE
 10
7.116517
 20
7.321724
 30
0.000000
 40
0.085689
 50
-150.142096
 51
-94.797014
  6
CONTINUOUS
  0
ARC
  8
WHITE
 10
7.118597
 20
7.285508
 30
0.000000
 40
0.050034
 50
-100.648915
 51
8.593470
  6
CONTINUOUS
  0
ARC
  8
WHITE
 10
7.058629
 20
7.213310
 30
0.000000
 40
0.135371
 50
-21.696767
 51
36.054815
  6
CONTINUOUS
  0
ARC
  8
WHITE
 10
6.958901
 20
7.236813
 30
0.000000
 40
0.237200
 50
-67.724238
 51
-18.063633
  6
CONTINUOUS
  0
ARC
  8
WHITE
 10
7.090261
 20
6.875098
 30
0.000000
 40
0.148134
 50
106.247616
 51
185.584550
  6
CONTINUOUS
  0
ARC
  8
WHITE
 10
7.018477
 20
6.933067
 30
0.000000
 40
0.104699
 50
177.176448
 51
223.737522
  6
CONTINUOUS
  0
ARC
  8
WHITE
 10
6.837595
 20
6.959844
 30
0.000000
 40
0.079313
 50
-76.949047
 51
-15.818328
  6
CONTINUOUS
  0
ARC
  8
WHITE
 10
6.828821
 20
6.928337
 30
0.000000
 40
0.052970
 50
-59.750336
 51
116.957976
  6
CONTINUOUS
  0
ARC
  8
WHITE
 10
6.771707
 20
7.111945
 30
0.000000
 40
0.140353
 50
-142.410147
 51
-76.358949
  6
CONTINUOUS
  0
ARC
  8
WHITE
 10
7.845724
 20
6.300859
 30
0.000000
 40
1.389634
 50
148.529572
 51
153.301620
  6
CONTINUOUS
  0
ARC
  8
WHITE
 10
6.812133
 20
7.033608
 30
0.000000
 40
0.234448
 50
-152.461631
 51
-118.294024
  6
CONTINUOUS
  0
ARC
  8
WHITE
 10
6.619647
 20
6.726815
 30
0.000000
 40
0.129191
 50
-11.168232
 51
50.968233
  6
CONTINUOUS
  0
ARC
  8
WHITE
 10
6.664620
 20
6.686945
 30
0.000000
 40
0.083108
 50
10.291103
 51
60.630100
  6
CONTINUOUS
  0
ARC
  8
WHITE
 10
6.676156
 20
6.729425
 30
0.000000
 40
0.041843
 50
45.699090
 51
222.459685
  6
CONTINUOUS
  0
ARC
  8
WHITE
 10
10.388404
 20
10.332629
 30
0.000000
 40
5.215205
 50
-135.867516
 51
-133.764656
  6
CONTINUOUS
  0
ARC
  8
WHITE
 10
6.745073
 20
6.453265
 30
0.000000
 40
0.118601
 50
25.954995
 51
72.337356
  6
CONTINUOUS
  0
ARC
  8
WHITE
 10
6.932493
 20
6.667263
 30
0.000000
 40
0.181105
 50
-116.490360
 51
-86.415929
  6
CONTINUOUS
  0
ARC
  8
WHITE
 10
7.122394
 20
6.507084
 30
0.000000
 40
0.179760
 50
-173.428711
 51
-125.720980
  6
CONTINUOUS
  0
ARC
  8
WHITE
 10
7.039635
 20
6.390734
 30
0.000000
 40
0.036989
 50
-126.867624
 51
-11.304056
  6
CONTINUOUS
  0
ARC
  8
WHITE
 10
6.999037
 20
6.382426
 30
0.000000
 40
0.076877
 50
0.788605
 51
56.242809
  6
CONTINUOUS
  0
ARC
  8
WHITE
 10
7.043312
 20
6.350249
 30
0.000000
 40
0.096105
 50
36.066197
 51
90.927907
  6
CONTINUOUS
  0
ARC
  8
WHITE
 10
7.186329
 20
6.449372
 30
0.000000
 40
0.077964
 50
-146.927504
 51
-83.338406
  6
CONTINUOUS
  0
ARC
  8
WHITE
 10
7.211817
 20
6.289447
 30
0.000000
 40
0.084111
 50
12.794778
 51
101.273749
  6
CONTINUOUS
  0
ARC
  8
WHITE
 10
7.225795
 20
6.252849
 30
0.000000
 40
0.087635
 50
39.062892
 51
111.504798
  6
CONTINUOUS
  0
ARC
  8
WHITE
 10
7.214278
 20
6.298781
 30
0.000000
 40
0.041137
 50
120.064746
 51
259.029434
  6
CONTINUOUS
  0
ARC
  8
WHITE
 10
7.330601
 20
6.728245
 30
0.000000
 40
0.485975
 50
-104.801371
 51
-87.468834
  6
CONTINUOUS
  0
ARC
  8
WHITE
 10
7.337722
 20
6.332821
 30
0.000000
 40
0.091211
 50
-80.954111
 51
32.719400
  6
CONTINUOUS
  0
ARC
  8
WHITE
 10
7.344330
 20
6.302624
 30
0.000000
 40
0.106012
 50
-55.217810
 51
48.582515
  6
CONTINUOUS
  0
ARC
  8
WHITE
 10
7.229051
 20
6.410852
 30
0.000000
 40
0.262738
 50
-102.237287
 51
-48.015104
  6
CONTINUOUS
  0
ARC
  8
WHITE
 10
7.346255
 20
6.209815
 30
0.000000
 40
0.181655
 50
-162.133648
 51
-91.456685
  6
CONTINUOUS
  0
ARC
  8
WHITE
 10
7.273647
 20
6.324254
 30
0.000000
 40
0.303743
 50
-116.609657
 51
-77.065175
  6
CONTINUOUS
  0
ARC
  8
WHITE
 10
7.241097
 20
6.246980
 30
0.000000
 40
0.220143
 50
-179.480069
 51
-118.043994
  6
CONTINUOUS
  0
ARC
  8
WHITE
 10
7.002162
 20
6.239440
 30
0.000000
 40
0.019601
 50
16.424886
 51
119.927307
  6
CONTINUOUS
  0
ARC
  8
WHITE
 10
6.976382
 20
6.287498
 30
0.000000
 40
0.034949
 50
-121.829392
 51
-62.751828
  6
CONTINUOUS
  0
ARC
  8
WHITE
 10
6.998760
 20
6.329451
 30
0.000000
 40
0.082454
 50
-158.526138
 51
-119.666390
  6
CONTINUOUS
  0
ARC
  8
WHITE
 10
6.567199
 20
6.150181
 30
0.000000
 40
0.384879
 50
22.790102
 51
51.339239
  6
CONTINUOUS
  0
ARC
  8
WHITE
 10
6.904580
 20
6.553288
 30
0.000000
 40
0.141135
 50
-147.988876
 51
-133.384616
  6
CONTINUOUS
  0
ARC
  8
WHITE
 10
6.722960
 20
6.453868
 30
0.000000
 40
0.066653
 50
21.664278
 51
79.862163
  6
CONTINUOUS
  0
ARC
  8
WHITE
 10
6.775815
 20
6.610114
 30
0.000000
 40
0.099526
 50
-148.352177
 51
-114.405235
  6
CONTINUOUS
  0
LINE
  8
WHITE
 10
6.691090
 20
6.557893
 30
0.000000
 11
6.661923
 21
6.600470
 31
0.000000
  6
CONTINUOUS
  0
ARC
  8
WHITE
 10
6.584355
 20
6.528228
 30
0.000000
 40
0.105998
 50
42.963844
 51
67.367219
  6
CONTINUOUS
  0
ARC
  8
WHITE
 10
6.849980
 20
7.002711
 30
0.000000
 40
0.438650
 50
-141.487295
 51
-120.834517
  6
CONTINUOUS
  0
ARC
  8
WHITE
 10
6.535432
 20
6.748023
 30
0.000000
 40
0.034106
 50
146.743447
 51
212.757183
  6
CONTINUOUS
  0
ARC
  8
WHITE
 10
6.807099
 20
6.448622
 30
0.000000
 40
0.437382
 50
117.828731
 51
133.340166
  6
CONTINUOUS
  0
ARC
  8
WHITE
 10
7.011054
 20
7.310557
 30
0.000000
 40
0.626364
 50
-142.861948
 51
-130.662249
  6
CONTINUOUS
  0
ARC
  8
WHITE
 10
6.714080
 20
6.895037
 30
0.000000
 40
0.205773
 50
138.215748
 51
169.539323
  6
CONTINUOUS
  0
ARC
  8
WHITE
 10
6.354452
 20
7.215101
 30
0.000000
 40
0.275656
 50
-41.582276
 51
-6.490456
  6
CONTINUOUS
  0
ARC
  8
WHITE
 10
6.795224
 20
7.131373
 30
0.000000
 40
0.174967
 50
107.266084
 51
162.515640
  6
CONTINUOUS
  0
ARC
  8
WHITE
 10
6.830887
 20
7.166043
 30
0.000000
 40
0.158764
 50
123.485847
 51
210.026879
  6
CONTINUOUS
  0
ARC
  8
WHITE
 10
6.764893
 20
7.127462
 30
0.000000
 40
0.082321
 50
-150.236998
 51
-108.512061
  6
CONTINUOUS
  0
ARC
  8
WHITE
 10
6.771571
 20
9.925375
 30
0.000000
 40
2.876162
 50
-90.653725
 51
-88.868940
  6
CONTINUOUS
  0
ARC
  8
WHITE
 10
6.837579
 20
6.940649
 30
0.000000
 40
0.109514
 50
47.752324
 51
94.836843
  6
CONTINUOUS
  0
ARC
  8
WHITE
 10
6.854943
 20
7.267637
 30
0.000000
 40
0.252275
 50
-77.112648
 51
-35.266350
  6
CONTINUOUS
  0
ARC
  8
WHITE
 10
6.999288
 20
6.970776
 30
0.000000
 40
0.163281
 50
67.823811
 51
94.463525
  6
CONTINUOUS
  0
ARC
  8
WHITE
 10
6.976575
 20
7.173665
 30
0.000000
 40
0.041333
 50
-168.073916
 51
-75.990322
  6
CONTINUOUS
  0
ARC
  8
WHITE
 10
7.223864
 20
7.195661
 30
0.000000
 40
0.289346
 50
140.018898
 51
186.058110
  6
CONTINUOUS
  0
ARC
  8
WHITE
 10
6.531253
 20
7.834588
 30
0.000000
 40
0.653425
 50
-43.890962
 51
-33.698165
  6
CONTINUOUS
  0
ARC
  8
WHITE
 10
7.618502
 20
7.201119
 30
0.000000
 40
0.607393
 50
142.592741
 51
153.508521
  6
CONTINUOUS
  0
LINE
  8
WHITE
 10
7.136027
 20
7.570096
 30
0.000000
 11
7.154966
 21
7.570945
 31
0.000000
  6
CONTINUOUS
  0
ARC
  8
WHITE
 10
7.308372
 20
7.773679
 30
0.000000
 40
0.254233
 50
-127.114422
 51
-105.010763
  6
CONTINUOUS
  0
ARC
  8
WHITE
 10
7.280708
 20
7.603397
 30
0.000000
 40
0.084407
 50
-116.895046
 51
-17.607199
  6
CONTINUOUS
  0
ARC
  8
WHITE
 10
7.285751
 20
7.570511
 30
0.000000
 40
0.075767
 50
5.570012
 51
115.441381
  6
CONTINUOUS
  0
ARC
  8
WHITE
 10
7.328325
 20
7.558583
 30
0.000000
 40
0.109996
 50
64.155642
 51
133.075283
  6
CONTINUOUS
  0
ARC
  8
WHITE
 10
7.296094
 20
7.549839
 30
0.000000
 40
0.134301
 50
-30.061956
 51
53.342438
  6
CONTINUOUS
  0
ARC
  8
WHITE
 10
7.381781
 20
7.701588
 30
0.000000
 40
0.221145
 50
-82.060140
 51
-35.520961
  6
CONTINUOUS
  0
ARC
  8
WHITE
 10
7.375754
 20
7.653276
 30
0.000000
 40
0.202560
 50
-23.315797
 51
18.861780
  6
CONTINUOUS
  0
ARC
  8
WHITE
 10
8.247869
 20
7.859015
 30
0.000000
 40
0.694737
 50
-179.452053
 51
-168.353000
  6
CONTINUOUS
  0
ARC
  8
WHITE
 10
8.023174
 20
7.847782
 30
0.000000
 40
0.470033
 50
115.968156
 51
179.440641
  6
CONTINUOUS
  0
ARC
  8
WHITE
 10
8.069724
 20
7.569975
 30
0.000000
 40
0.744464
 50
79.753950
 51
109.815211
  6
CONTINUOUS
  0
ARC
  8
WHITE
 10
6.711173
 20
5.402584
 30
0.000000
 40
0.798947
 50
120.260482
 51
156.147352
  6
CONTINUOUS
  0
ARC
  8
WHITE
 10
6.024398
 20
6.823127
 30
0.000000
 40
0.783784
 50
-68.743109
 51
-32.129441
  6
CONTINUOUS
  0
ARC
  8
WHITE
 10
6.709639
 20
6.403265
 30
0.000000
 40
0.021706
 50
-14.492845
 51
172.003905
  6
CONTINUOUS
  0
ARC
  8
WHITE
 10
7.805950
 20
6.089016
 30
0.000000
 40
1.118763
 50
163.976303
 51
177.357984
  6
CONTINUOUS
  0
ARC
  8
WHITE
 10
5.993188
 20
6.251092
 30
0.000000
 40
0.703916
 50
-40.981230
 51
-9.032066
  6
CONTINUOUS
  0
ARC
  8
WHITE
 10
5.854665
 20
6.439823
 30
0.000000
 40
0.933692
 50
-68.248014
 51
-44.151307
  6
CONTINUOUS
  0
ARC
  8
WHITE
 10
7.086726
 20
4.989739
 30
0.000000
 40
1.060574
 50
134.468643
 51
146.661510
  6
CONTINUOUS
  0
ARC
  8
WHITE
 10
6.102143
 20
5.944071
 30
0.000000
 40
0.312058
 50
-39.256998
 51
2.219554
  6
CONTINUOUS
  0
ARC
  8
WHITE
 10
-1.396076
 20
19.428908
 30
0.000000
 40
15.572790
 50
-60.631456
 51
-59.899487
  6
CONTINUOUS
  0
ARC
  8
WHITE
 10
6.480417
 20
5.401004
 30
0.000000
 40
0.515355
 50
117.655162
 51
150.822216
  6
CONTINUOUS
  0
ARC
  8
WHITE
 10
6.148356
 20
5.605291
 30
0.000000
 40
0.126909
 50
158.282849
 51
191.911092
  6
CONTINUOUS
  0
ARC
  8
WHITE
 10
4.986161
 20
5.366340
 30
0.000000
 40
1.059598
 50
-6.895331
 51
11.583190
  6
CONTINUOUS
  0
ARC
  8
WHITE
 10
3.921984
 20
4.931181
 30
0.000000
 40
2.138401
 50
8.279874
 51
15.713779
  6
CONTINUOUS
  0
ARC
  8
WHITE
 10
8.038948
 20
4.931181
 30
0.000000
 40
2.138401
 50
164.286221
 51
171.720126
  6
CONTINUOUS
  0
ARC
  8
WHITE
 10
6.974770
 20
5.366340
 30
0.000000
 40
1.059598
 50
168.416810
 51
186.895331
  6
CONTINUOUS
  0
ARC
  8
WHITE
 10
5.812575
 20
5.605291
 30
0.000000
 40
0.126909
 50
-11.911092
 51
21.717151
  6
CONTINUOUS
  0
ARC
  8
WHITE
 10
5.480514
 20
5.401004
 30
0.000000
 40
0.515355
 50
29.177784
 51
62.344838
  6
CONTINUOUS
  0
ARC
  8
WHITE
 10
13.357008
 20
19.428908
 30
0.000000
 40
15.572790
 50
-120.100513
 51
-119.368544
  6
CONTINUOUS
  0
ARC
  8
WHITE
 10
5.858789
 20
5.944071
 30
0.000000
 40
0.312058
 50
177.780446
 51
219.256998
  6
CONTINUOUS
  0
ARC
  8
WHITE
 10
4.874206
 20
4.989739
 30
0.000000
 40
1.060574
 50
33.338490
 51
45.531357
  6
CONTINUOUS
  0
ARC
  8
WHITE
 10
6.106267
 20
6.439823
 30
0.000000
 40
0.933692
 50
-137.195823
 51
-111.751986
  6
CONTINUOUS
  0
ARC
  8
WHITE
 10
5.987595
 20
6.257170
 30
0.000000
 40
0.724482
 50
-172.667835
 51
-141.420630
  6
CONTINUOUS
  0
LINE
  8
WHITE
 10
5.269038
 20
6.164711
 30
0.000000
 11
5.258282
 21
6.277065
 31
0.000000
  6
CONTINUOUS
  0
ARC
  8
WHITE
 10
4.881785
 20
6.253395
 30
0.000000
 40
0.377240
 50
3.597430
 51
23.215138
  6
CONTINUOUS
  0
ARC
  8
WHITE
 10
5.247822
 20
6.404703
 30
0.000000
 40
0.019516
 50
31.090016
 51
187.673580
  6
CONTINUOUS
  0
ARC
  8
WHITE
 10
5.141681
 20
6.287183
 30
0.000000
 40
0.177128
 50
34.902398
 51
46.085036
  6
CONTINUOUS
  0
LINE
  8
WHITE
 10
5.286948
 20
6.388532
 30
0.000000
 11
5.360247
 21
6.290615
 31
0.000000
  6
CONTINUOUS
  0
ARC
  8
WHITE
 10
5.638354
 20
6.504644
 30
0.000000
 40
0.350930
 50
-142.418382
 51
-124.949560
  6
CONTINUOUS
  0
ARC
  8
WHITE
 10
6.103284
 20
7.156081
 30
0.000000
 40
1.151249
 50
-125.342923
 51
-116.019937
  6
CONTINUOUS
  0
ARC
  8
WHITE
 10
5.249758
 20
5.402584
 30
0.000000
 40
0.798947
 50
23.852648
 51
64.139073
  6
CONTINUOUS
  0
ARC
  8
WHITE
 10
8.715360
 20
7.227647
 30
0.000000
 40
0.461025
 50
-3.570075
 51
48.301770
  6
CONTINUOUS
  0
ARC
  8
WHITE
 10
8.654306
 20
7.155866
 30
0.000000
 40
0.555238
 50
48.524959
 51
80.849773
  6
CONTINUOUS
  0
ARC
  8
WHITE
 10
8.941164
 20
9.134403
 30
0.000000
 40
1.444081
 50
-107.218151
 51
-97.903229
  6
CONTINUOUS
  0
ARC
  8
WHITE
 10
8.626615
 20
8.151514
 30
0.000000
 40
0.412241
 50
-130.384995
 51
-105.896758
  6
CONTINUOUS
  0
ARC
  8
WHITE
 10
8.599699
 20
8.112932
 30
0.000000
 40
0.365440
 50
-151.778451
 51
-131.089878
  6
CONTINUOUS
  0
ARC
  8
WHITE
 10
8.392394
 20
7.992191
 30
0.000000
 40
0.125960
 50
114.272392
 51
204.417213
  6
CONTINUOUS
  0
ARC
  8
WHITE
 10
8.385183
 20
8.006802
 30
0.000000
 40
0.109677
 50
10.617016
 51
113.975940
  6
CONTINUOUS
  0
ARC
  8
WHITE
 10
8.359336
 20
8.048870
 30
0.000000
 40
0.135422
 50
-9.289700
 51
47.686439
  6
CONTINUOUS
  0
ARC
  8
WHITE
 10
8.317112
 20
7.997614
 30
0.000000
 40
0.201777
 50
48.618250
 51
140.561145
  6
CONTINUOUS
  0
ARC
  8
WHITE
 10
8.387079
 20
7.970709
 30
0.000000
 40
0.273928
 50
145.517907
 51
175.482261
  6
CONTINUOUS
  0
ARC
  8
WHITE
 10
8.413446
 20
7.997968
 30
0.000000
 40
0.299499
 50
-178.912993
 51
-142.345767
  6
CONTINUOUS
  0
ARC
  8
WHITE
 10
8.601505
 20
8.114660
 30
0.000000
 40
0.520160
 50
-144.824629
 51
-116.722412
  6
CONTINUOUS
  0
ARC
  8
WHITE
 10
22.676339
 20
37.806730
 30
0.000000
 40
33.379109
 50
-115.383396
 51
-115.133145
  6
CONTINUOUS
  0
ARC
  8
WHITE
 10
8.121546
 20
6.717238
 30
0.000000
 40
0.949092
 50
43.064689
 51
66.535451
  6
CONTINUOUS
  0
ARC
  8
WHITE
 10
8.559096
 20
7.118101
 30
0.000000
 40
0.355755
 50
-66.113570
 51
44.015982
  6
CONTINUOUS
  0
ARC
  8
WHITE
 10
8.624015
 20
7.205220
 30
0.000000
 40
0.419927
 50
-134.090530
 51
-79.137618
  6
CONTINUOUS
  0
ARC
  8
WHITE
 10
8.674713
 20
7.094783
 30
0.000000
 40
0.392574
 50
-150.858298
 51
-120.228987
  6
CONTINUOUS
  0
ARC
  8
WHITE
 10
8.689378
 20
7.089983
 30
0.000000
 40
0.396097
 50
-122.411800
 51
-43.580497
  6
CONTINUOUS
  0
ARC
  8
WHITE
 10
8.555102
 20
7.136994
 30
0.000000
 40
0.529021
 50
-37.230440
 51
60.335582
  6
CONTINUOUS
  0
ARC
  8
WHITE
 10
8.659272
 20
7.094061
 30
0.000000
 40
0.526764
 50
11.484214
 51
72.585355
  6
CONTINUOUS
  0
ARC
  8
WHITE
 10
3.359427
 20
8.114660
 30
0.000000
 40
0.367929
 50
-63.531632
 51
-39.297389
  6
CONTINUOUS
  0
ARC
  8
WHITE
 10
3.558314
 20
7.987318
 30
0.000000
 40
0.136155
 50
-50.914595
 51
47.705003
  6
CONTINUOUS
  0
ARC
  8
WHITE
 10
3.575911
 20
8.006916
 30
0.000000
 40
0.109816
 50
47.615105
 51
169.457140
  6
CONTINUOUS
  0
ARC
  8
WHITE
 10
3.601596
 20
8.048870
 30
0.000000
 40
0.135422
 50
132.313561
 51
189.289700
  6
CONTINUOUS
  0
ARC
  8
WHITE
 10
3.643820
 20
7.997614
 30
0.000000
 40
0.201777
 50
39.438855
 51
131.381750
  6
CONTINUOUS
  0
ARC
  8
WHITE
 10
3.573853
 20
7.970709
 30
0.000000
 40
0.273928
 50
4.517739
 51
34.482093
  6
CONTINUOUS
  0
ARC
  8
WHITE
 10
3.547485
 20
7.997968
 30
0.000000
 40
0.299499
 50
-37.654233
 51
-1.087007
  6
CONTINUOUS
  0
ARC
  8
WHITE
 10
3.359427
 20
8.114660
 30
0.000000
 40
0.520160
 50
-63.277588
 51
-35.175371
  6
CONTINUOUS
  0
ARC
  8
WHITE
 10
-10.715407
 20
37.806730
 30
0.000000
 40
33.379109
 50
-64.866855
 51
-64.616604
  6
CONTINUOUS
  0
ARC
  8
WHITE
 10
3.839386
 20
6.717238
 30
0.000000
 40
0.949092
 50
113.464549
 51
136.935311
  6
CONTINUOUS
  0
ARC
  8
WHITE
 10
3.401835
 20
7.118101
 30
0.000000
 40
0.355755
 50
135.984018
 51
246.113570
  6
CONTINUOUS
  0
ARC
  8
WHITE
 10
3.336917
 20
7.205220
 30
0.000000
 40
0.419927
 50
-100.862382
 51
-45.909470
  6
CONTINUOUS
  0
ARC
  8
WHITE
 10
3.286218
 20
7.094783
 30
0.000000
 40
0.392574
 50
-59.771013
 51
-29.141702
  6
CONTINUOUS
  0
ARC
  8
WHITE
 10
3.271554
 20
7.089983
 30
0.000000
 40
0.396097
 50
-136.419503
 51
-57.588200
  6
CONTINUOUS
  0
ARC
  8
WHITE
 10
3.405830
 20
7.136994
 30
0.000000
 40
0.529021
 50
119.664418
 51
217.230440
  6
CONTINUOUS
  0
ARC
  8
WHITE
 10
3.301660
 20
7.094061
 30
0.000000
 40
0.526764
 50
107.414645
 51
168.515786
  6
CONTINUOUS
  0
ARC
  8
WHITE
 10
3.250157
 20
7.227002
 30
0.000000
 40
0.465562
 50
118.972674
 51
183.455770
  6
CONTINUOUS
  0
ARC
  8
WHITE
 10
3.373115
 20
6.983470
 30
0.000000
 40
0.738249
 50
97.853256
 51
118.165866
  6
CONTINUOUS
  0
ARC
  8
WHITE
 10
3.165884
 20
8.576383
 30
0.000000
 40
0.868128
 50
-82.962702
 51
-65.679472
  6
CONTINUOUS
  0
ARC
  8
WHITE
 10
10.567659
 20
3.834730
 30
0.000000
 40
3.768597
 50
164.041255
 51
180.538714
  6
CONTINUOUS
  0
ARC
  8
WHITE
 10
9.369320
 20
4.137153
 30
0.000000
 40
2.533588
 50
138.623383
 51
163.165835
  6
CONTINUOUS
  0
ARC
  8
WHITE
 10
7.634367
 20
4.762285
 30
0.000000
 40
1.062662
 50
98.998167
 51
109.357221
  6
CONTINUOUS
  0
ARC
  8
WHITE
 10
10.980529
 20
3.347410
 30
0.000000
 40
4.418395
 50
146.829213
 51
155.667087
  6
CONTINUOUS
  0
ARC
  8
WHITE
 10
9.338332
 20
4.204144
 30
0.000000
 40
2.571177
 50
157.984790
 51
189.059259
  6
CONTINUOUS
  0
ARC
  8
WHITE
 10
2.592604
 20
4.137747
 30
0.000000
 40
2.532451
 50
8.949692
 51
41.381369
  6
CONTINUOUS
  0
ARC
  8
WHITE
 10
4.326565
 20
4.762285
 30
0.000000
 40
1.062662
 50
70.642779
 51
81.001833
  6
CONTINUOUS
  0
ARC
  8
WHITE
 10
0.980403
 20
3.347410
 30
0.000000
 40
4.418395
 50
24.332913
 51
33.170787
  6
CONTINUOUS
  0
ARC
  8
WHITE
 10
2.622600
 20
4.204144
 30
0.000000
 40
2.571177
 50
-9.059259
 51
22.015210
  6
CONTINUOUS
  0
ARC
  8
WHITE
 10
1.844960
 20
3.863030
 30
0.000000
 40
3.317356
 50
-1.100835
 51
11.628864
  6
CONTINUOUS
  0
ARC
  8
WHITE
 10
8.620372
 20
7.116018
 30
0.000000
 40
0.226269
 50
-143.117224
 51
-49.932906
  6
CONTINUOUS
  0
ARC
  8
WHITE
 10
8.561365
 20
7.120263
 30
0.000000
 40
0.270843
 50
-40.920976
 51
8.596628
  6
CONTINUOUS
  0
ARC
  8
WHITE
 10
8.302187
 20
7.057762
 30
0.000000
 40
0.536947
 50
11.057810
 51
60.447401
  6
CONTINUOUS
  0
ARC
  8
WHITE
 10
8.232808
 20
6.994619
 30
0.000000
 40
0.626775
 50
57.776265
 51
91.430591
  6
CONTINUOUS
  0
ARC
  8
WHITE
 10
8.107531
 20
6.927171
 30
0.000000
 40
0.702633
 50
39.531275
 51
81.023709
  6
CONTINUOUS
  0
ARC
  8
WHITE
 10
8.443445
 20
7.200349
 30
0.000000
 40
0.269691
 50
-36.558995
 51
40.192638
  6
CONTINUOUS
  0
ARC
  8
WHITE
 10
8.584122
 20
7.097118
 30
0.000000
 40
0.095208
 50
176.064967
 51
322.914586
  6
CONTINUOUS
  0
ARC
  8
WHITE
 10
8.578772
 20
7.095360
 30
0.000000
 40
0.090017
 50
117.476502
 51
174.714960
  6
CONTINUOUS
  0
ARC
  8
WHITE
 10
8.529534
 20
7.057036
 30
0.000000
 40
0.118439
 50
86.269704
 51
146.767332
  6
CONTINUOUS
  0
ARC
  8
WHITE
 10
8.379107
 20
7.069411
 30
0.000000
 40
0.073468
 50
45.647731
 51
81.404084
  6
CONTINUOUS
  0
ARC
  8
WHITE
 10
8.352982
 20
7.075295
 30
0.000000
 40
0.076378
 50
24.810314
 51
60.934448
  6
CONTINUOUS
  0
ARC
  8
WHITE
 10
8.529534
 20
7.057036
 30
0.000000
 40
0.118439
 50
154.864411
 51
193.326642
  6
CONTINUOUS
  0
ARC
  8
WHITE
 10
8.352982
 20
7.075295
 30
0.000000
 40
0.076378
 50
-86.317228
 51
-36.619261
  6
CONTINUOUS
  0
ARC
  8
WHITE
 10
8.379107
 20
7.069411
 30
0.000000
 40
0.073468
 50
-106.786864
 51
-55.053890
  6
CONTINUOUS
  0
ARC
  8
WHITE
 10
8.529534
 20
7.057036
 30
0.000000
 40
0.118439
 50
-156.173492
 51
-139.563474
  6
CONTINUOUS
  0
ARC
  8
WHITE
 10
3.340501
 20
7.115590
 30
0.000000
 40
0.225872
 50
-121.126392
 51
-28.103185
  6
CONTINUOUS
  0
ARC
  8
WHITE
 10
3.376155
 20
7.117922
 30
0.000000
 40
0.248038
 50
168.770254
 51
232.085908
  6
CONTINUOUS
  0
ARC
  8
WHITE
 10
3.658744
 20
7.057762
 30
0.000000
 40
0.536947
 50
124.307054
 51
168.346044
  6
CONTINUOUS
  0
ARC
  8
WHITE
 10
3.730563
 20
6.977264
 30
0.000000
 40
0.644071
 50
88.824911
 51
125.548406
  6
CONTINUOUS
  0
ARC
  8
WHITE
 10
3.853401
 20
6.927171
 30
0.000000
 40
0.702633
 50
98.976291
 51
140.468725
  6
CONTINUOUS
  0
ARC
  8
WHITE
 10
3.517487
 20
7.200349
 30
0.000000
 40
0.269691
 50
139.807362
 51
216.558995
  6
CONTINUOUS
  0
ARC
  8
WHITE
 10
3.376810
 20
7.097118
 30
0.000000
 40
0.095208
 50
-142.914586
 51
3.935033
  6
CONTINUOUS
  0
ARC
  8
WHITE
 10
3.382159
 20
7.095360
 30
0.000000
 40
0.090017
 50
5.285040
 51
62.523498
  6
CONTINUOUS
  0
ARC
  8
WHITE
 10
3.431398
 20
7.057036
 30
0.000000
 40
0.118439
 50
33.232668
 51
93.730296
  6
CONTINUOUS
  0
ARC
  8
WHITE
 10
3.581825
 20
7.069411
 30
0.000000
 40
0.073468
 50
98.595916
 51
134.352269
  6
CONTINUOUS
  0
ARC
  8
WHITE
 10
3.607949
 20
7.075295
 30
0.000000
 40
0.076378
 50
119.065552
 51
155.189686
  6
CONTINUOUS
  0
ARC
  8
WHITE
 10
3.431398
 20
7.057036
 30
0.000000
 40
0.118439
 50
-13.326642
 51
25.135589
  6
CONTINUOUS
  0
ARC
  8
WHITE
 10
3.607949
 20
7.075295
 30
0.000000
 40
0.076378
 50
-143.380739
 51
-93.682772
  6
CONTINUOUS
  0
ARC
  8
WHITE
 10
3.581825
 20
7.069411
 30
0.000000
 40
0.073468
 50
-124.946110
 51
-73.213136
  6
CONTINUOUS
  0
ARC
  8
WHITE
 10
2.212963
 20
4.245570
 30
0.000000
 40
3.272707
 50
-17.986183
 51
12.504208
  6
CONTINUOUS
  0
ARC
  8
WHITE
 10
4.161067
 20
3.811484
 30
0.000000
 40
1.691339
 50
34.537544
 51
42.500579
  6
CONTINUOUS
  0
ARC
  8
WHITE
 10
0.184030
 20
4.409806
 30
0.000000
 40
5.382377
 50
-2.525426
 51
3.841230
  6
CONTINUOUS
  0
ARC
  8
WHITE
 10
3.260689
 20
4.251918
 30
0.000000
 40
2.301856
 50
-26.217632
 51
-1.973599
  6
CONTINUOUS
  0
ARC
  8
WHITE
 10
9.747969
 20
4.245570
 30
0.000000
 40
3.272707
 50
167.495792
 51
197.986183
  6
CONTINUOUS
  0
ARC
  8
WHITE
 10
7.799865
 20
3.811484
 30
0.000000
 40
1.691339
 50
137.499421
 51
145.462456
  6
CONTINUOUS
  0
ARC
  8
WHITE
 10
11.776902
 20
4.409806
 30
0.000000
 40
5.382377
 50
176.158770
 51
182.525426
  6
CONTINUOUS
  0
ARC
  8
WHITE
 10
8.700243
 20
4.251918
 30
0.000000
 40
2.301856
 50
-178.026401
 51
-153.782368
  6
CONTINUOUS
  0
ARC
  8
WHITE
 10
3.147431
 20
8.086641
 30
0.000000
 40
0.193702
 50
98.767058
 51
201.307735
  6
CONTINUOUS
  0
ARC
  8
WHITE
 10
3.226924
 20
8.162224
 30
0.000000
 40
0.159082
 50
133.258072
 51
220.201177
  6
CONTINUOUS
  0
ARC
  8
WHITE
 10
3.199362
 20
8.149113
 30
0.000000
 40
0.129800
 50
-136.364070
 51
-53.651146
  6
CONTINUOUS
  0
ARC
  8
WHITE
 10
3.210813
 20
8.092549
 30
0.000000
 40
0.081178
 50
-36.231351
 51
13.163575
  6
CONTINUOUS
  0
ARC
  8
WHITE
 10
3.244763
 20
8.070076
 30
0.000000
 40
0.060919
 50
-15.781240
 51
42.248538
  6
CONTINUOUS
  0
ARC
  8
WHITE
 10
3.279440
 20
8.103606
 30
0.000000
 40
0.055527
 50
-64.452111
 51
-31.830625
  6
CONTINUOUS
  0
ARC
  8
WHITE
 10
3.150328
 20
8.165936
 30
0.000000
 40
0.198672
 50
-27.460592
 51
6.717703
  6
CONTINUOUS
  0
ARC
  8
WHITE
 10
3.138379
 20
8.096281
 30
0.000000
 40
0.228951
 50
-61.250183
 51
23.937859
  6
CONTINUOUS
  0
ARC
  8
WHITE
 10
3.167857
 20
8.096134
 30
0.000000
 40
0.216185
 50
-158.315538
 51
-68.097238
  6
CONTINUOUS
  0
ARC
  8
WHITE
 10
8.822553
 20
8.096281
 30
0.000000
 40
0.228951
 50
156.062141
 51
241.250183
  6
CONTINUOUS
  0
ARC
  8
WHITE
 10
8.793075
 20
8.096134
 30
0.000000
 40
0.216185
 50
-111.902762
 51
-21.684462
  6
CONTINUOUS
  0
ARC
  8
WHITE
 10
8.813501
 20
8.086641
 30
0.000000
 40
0.193702
 50
-21.307735
 51
81.232942
  6
CONTINUOUS
  0
ARC
  8
WHITE
 10
8.734008
 20
8.162224
 30
0.000000
 40
0.159082
 50
-40.201177
 51
46.741928
  6
CONTINUOUS
  0
ARC
  8
WHITE
 10
8.761570
 20
8.149113
 30
0.000000
 40
0.129800
 50
-126.348854
 51
-43.635930
  6
CONTINUOUS
  0
ARC
  8
WHITE
 10
8.750119
 20
8.092549
 30
0.000000
 40
0.081178
 50
166.836425
 51
216.231351
  6
CONTINUOUS
  0
ARC
  8
WHITE
 10
8.716169
 20
8.070076
 30
0.000000
 40
0.060919
 50
137.751462
 51
195.781240
  6
CONTINUOUS
  0
ARC
  8
WHITE
 10
8.681492
 20
8.103606
 30
0.000000
 40
0.055527
 50
-148.169375
 51
-115.547889
  6
CONTINUOUS
  0
ARC
  8
WHITE
 10
8.810604
 20
8.165936
 30
0.000000
 40
0.198672
 50
173.282297
 51
207.460592
  6
CONTINUOUS
  0
ARC
  8
WHITE
 10
4.713518
 20
6.939930
 30
0.000000
 40
0.191403
 50
144.327494
 51
180.419046
  6
CONTINUOUS
  0
ARC
  8
WHITE
 10
5.089068
 20
7.454845
 30
0.000000
 40
0.666823
 50
-149.986367
 51
-142.785086
  6
CONTINUOUS
  0
ARC
  8
WHITE
 10
4.733947
 20
7.136864
 30
0.000000
 40
0.222829
 50
162.638343
 51
184.006166
  6
CONTINUOUS
  0
ARC
  8
WHITE
 10
4.248075
 20
7.054422
 30
0.000000
 40
0.311154
 50
28.597596
 51
55.715407
  6
CONTINUOUS
  0
ARC
  8
WHITE
 10
4.605722
 20
7.532640
 30
0.000000
 40
0.286631
 50
-168.182305
 51
-129.513796
  6
CONTINUOUS
  0
ARC
  8
WHITE
 10
4.867094
 20
7.855743
 30
0.000000
 40
0.662918
 50
-144.834146
 51
-114.989198
  6
CONTINUOUS
  0
ARC
  8
WHITE
 10
4.643595
 20
7.479798
 30
0.000000
 40
0.231915
 50
-104.112920
 51
-89.322578
  6
CONTINUOUS
  0
ARC
  8
WHITE
 10
4.649118
 20
7.222764
 30
0.000000
 40
0.025289
 50
18.283894
 51
96.313006
  6
CONTINUOUS
  0
ARC
  8
WHITE
 10
4.768173
 20
7.233841
 30
0.000000
 40
0.095095
 50
-178.105308
 51
-154.436737
  6
CONTINUOUS
  0
ARC
  8
WHITE
 10
4.791284
 20
7.255473
 30
0.000000
 40
0.125640
 50
-150.081441
 51
-102.164865
  6
CONTINUOUS
  0
ARC
  8
WHITE
 10
4.716627
 20
7.081755
 30
0.000000
 40
0.070087
 50
-30.814027
 51
46.571048
  6
CONTINUOUS
  0
ARC
  8
WHITE
 10
4.616768
 20
7.196392
 30
0.000000
 40
0.219724
 50
-79.943198
 51
-43.245821
  6
CONTINUOUS
  0
ARC
  8
WHITE
 10
4.646073
 20
6.773891
 30
0.000000
 40
0.206353
 50
87.482380
 51
107.059564
  6
CONTINUOUS
  0
ARC
  8
WHITE
 10
4.504148
 20
7.028487
 30
0.000000
 40
0.099548
 50
-75.437078
 51
-35.157949
  6
CONTINUOUS
  0
LINE
  8
WHITE
 10
4.529179
 20
6.932137
 30
0.000000
 11
4.522119
 21
6.938530
 31
0.000000
  6
CONTINUOUS
  0
ARC
  8
WHITE
 10
7.244305
 20
7.081755
 30
0.000000
 40
0.070087
 50
133.428952
 51
210.814027
  6
CONTINUOUS
  0
ARC
  8
WHITE
 10
7.344164
 20
7.196392
 30
0.000000
 40
0.219724
 50
-136.754179
 51
-100.056802
  6
CONTINUOUS
  0
ARC
  8
WHITE
 10
7.314859
 20
6.773891
 30
0.000000
 40
0.206353
 50
72.940436
 51
92.517620
  6
CONTINUOUS
  0
ARC
  8
WHITE
 10
7.456783
 20
7.028487
 30
0.000000
 40
0.099548
 50
-144.842051
 51
-104.562922
  6
CONTINUOUS
  0
LINE
  8
WHITE
 10
7.431753
 20
6.932137
 30
0.000000
 11
7.438812
 21
6.938530
 31
0.000000
  6
CONTINUOUS
  0
ARC
  8
WHITE
 10
7.247414
 20
6.939930
 30
0.000000
 40
0.191403
 50
-0.419046
 51
35.672506
  6
CONTINUOUS
  0
ARC
  8
WHITE
 10
6.871864
 20
7.454845
 30
0.000000
 40
0.666823
 50
-37.214914
 51
-30.013633
  6
CONTINUOUS
  0
ARC
  8
WHITE
 10
7.226985
 20
7.136864
 30
0.000000
 40
0.222829
 50
-4.006166
 51
17.361657
  6
CONTINUOUS
  0
ARC
  8
WHITE
 10
7.712857
 20
7.054422
 30
0.000000
 40
0.311154
 50
124.284593
 51
151.402404
  6
CONTINUOUS
  0
ARC
  8
WHITE
 10
7.355209
 20
7.532640
 30
0.000000
 40
0.286631
 50
-50.486204
 51
-11.817695
  6
CONTINUOUS
  0
ARC
  8
WHITE
 10
7.093837
 20
7.855743
 30
0.000000
 40
0.662918
 50
-65.010802
 51
-35.165854
  6
CONTINUOUS
  0
ARC
  8
WHITE
 10
7.317337
 20
7.479798
 30
0.000000
 40
0.231915
 50
-90.677422
 51
-75.887080
  6
CONTINUOUS
  0
ARC
  8
WHITE
 10
7.311814
 20
7.222764
 30
0.000000
 40
0.025289
 50
83.686992
 51
161.716105
  6
CONTINUOUS
  0
ARC
  8
WHITE
 10
7.192759
 20
7.233841
 30
0.000000
 40
0.095095
 50
-25.563263
 51
-1.894692
  6
CONTINUOUS
  0
ARC
  8
WHITE
 10
7.169648
 20
7.255473
 30
0.000000
 40
0.125640
 50
-77.835135
 51
-29.918559
  6
CONTINUOUS
  0
ARC
  8
WHITE
 10
3.985357
 20
7.849497
 30
0.000000
 40
0.115995
 50
170.470926
 51
261.327001
  6
CONTINUOUS
  0
ARC
  8
WHITE
 10
3.975057
 20
7.774874
 30
0.000000
 40
0.040687
 50
-100.180526
 51
-2.129245
  6
CONTINUOUS
  0
ARC
  8
WHITE
 10
3.782840
 20
7.681547
 30
0.000000
 40
0.250322
 50
21.517884
 51
49.159133
  6
CONTINUOUS
  0
ARC
  8
WHITE
 10
4.105360
 20
8.052366
 30
0.000000
 40
0.241134
 50
142.233154
 51
228.804154
  6
CONTINUOUS
  0
ARC
  8
WHITE
 10
4.235296
 20
8.098679
 30
0.000000
 40
0.336201
 50
162.451361
 51
190.282965
  6
CONTINUOUS
  0
ARC
  8
WHITE
 10
4.136143
 20
8.138901
 30
0.000000
 40
0.252405
 50
-156.601024
 51
-101.300652
  6
CONTINUOUS
  0
ARC
  8
WHITE
 10
4.066716
 20
7.832795
 30
0.000000
 40
0.061903
 50
-6.204110
 51
71.183439
  6
CONTINUOUS
  0
ARC
  8
WHITE
 10
4.578464
 20
7.743940
 30
0.000000
 40
0.457644
 50
169.657089
 51
202.905783
  6
CONTINUOUS
  0
ARC
  8
WHITE
 10
4.200614
 20
7.730093
 30
0.000000
 40
0.169991
 50
-134.638665
 51
-104.898885
  6
CONTINUOUS
  0
ARC
  8
WHITE
 10
3.974090
 20
7.526957
 30
0.000000
 40
0.134982
 50
37.503852
 51
104.213544
  6
CONTINUOUS
  0
ARC
  8
WHITE
 10
3.959384
 20
7.780984
 30
0.000000
 40
0.124549
 50
135.229834
 51
261.486950
  6
CONTINUOUS
  0
ARC
  8
WHITE
 10
7.844418
 20
8.110228
 30
0.000000
 40
0.220862
 50
-82.237251
 51
23.996570
  6
CONTINUOUS
  0
ARC
  8
WHITE
 10
7.853510
 20
8.051771
 30
0.000000
 40
0.243129
 50
-43.544238
 51
37.580139
  6
CONTINUOUS
  0
ARC
  8
WHITE
 10
8.246893
 20
7.619168
 30
0.000000
 40
0.342691
 50
129.321226
 51
151.196051
  6
CONTINUOUS
  0
ARC
  8
WHITE
 10
7.984080
 20
7.773979
 30
0.000000
 40
0.038869
 50
164.630091
 51
274.924020
  6
CONTINUOUS
  0
ARC
  8
WHITE
 10
7.995556
 20
7.805540
 30
0.000000
 40
0.070756
 50
-96.605733
 51
-43.935510
  6
CONTINUOUS
  0
ARC
  8
WHITE
 10
7.968535
 20
7.851175
 30
0.000000
 40
0.122693
 50
-50.541265
 51
8.211786
  6
CONTINUOUS
  0
ARC
  8
WHITE
 10
8.001547
 20
7.780984
 30
0.000000
 40
0.124549
 50
-81.486950
 51
44.770166
  6
CONTINUOUS
  0
ARC
  8
WHITE
 10
7.986842
 20
7.526957
 30
0.000000
 40
0.134982
 50
75.786456
 51
142.496148
  6
CONTINUOUS
  0
ARC
  8
WHITE
 10
7.760318
 20
7.730093
 30
0.000000
 40
0.169991
 50
-75.101115
 51
-45.361335
  6
CONTINUOUS
  0
ARC
  8
WHITE
 10
7.382468
 20
7.743940
 30
0.000000
 40
0.457644
 50
-22.905783
 51
10.342911
  6
CONTINUOUS
  0
ARC
  8
WHITE
 10
7.894216
 20
7.832795
 30
0.000000
 40
0.061903
 50
108.816561
 51
186.204110
  6
CONTINUOUS
  0
CIRCLE
  8
WHITE
 10
5.980466
 20
1.043261
 30
0.000000
 40
0.100000
  6
CONTINUOUS
  0
CIRCLE
  8
WHITE
 10
5.980466
 20
10.546976
 30
0.000000
 40
0.100000
  6
CONTINUOUS
  0
ARC
  8
WHITE
 10
5.245135
 20
6.935814
 30
0.000000
 40
0.125309
 50
-156.035815
 51
-106.988409
  6
CONTINUOUS
  0
ARC
  8
WHITE
 10
5.194710
 20
7.150410
 30
0.000000
 40
0.273116
 50
-103.570091
 51
-79.231813
  6
CONTINUOUS
  0
ARC
  8
WHITE
 10
5.360463
 20
6.774003
 30
0.000000
 40
0.157631
 50
136.702710
 51
164.557992
  6
CONTINUOUS
  0
ARC
  8
WHITE
 10
6.715797
 20
6.935814
 30
0.000000
 40
0.125309
 50
-73.011591
 51
-23.964185
  6
CONTINUOUS
  0
ARC
  8
WHITE
 10
6.766221
 20
7.150410
 30
0.000000
 40
0.273116
 50
-100.768187
 51
-76.429909
  6
CONTINUOUS
  0
ARC
  8
WHITE
 10
6.600469
 20
6.774003
 30
0.000000
 40
0.157631
 50
15.442008
 51
43.297290
  6
CONTINUOUS
  0
ENDSEC
  0
EOF
