  0
SECTION
  2
HEADER
  9
$ACADVER
  1
AC1009
  9
$LIMMIN
 10
0.000000
 20
0.000000
  9
$LIMMAX
 10
16.833644
 20
17.952964
  0
ENDSEC
  0
SECTION
  2
TABLES
  0
TABLE
  2
LTYPE
 70
     4
  0
LTYPE
  2
CONTINUOUS
 70
     0
  3
Solid line
 72
     65
 73
     0
 40
0.000000
  0
LTYPE
  2
HIDDEN
 70
     0
  3
 _ _ _ _ _ _ _ _ _ _ _
 72
     65
 73
     2
 40
0.375000
 49
0.250000
 49
-0.125000
  0
LTYPE
  2
DASHED
 70
     0
  3
 ___ ___ ___ ___ ___ ___ ___ 
 72
     65
 73
     2
 40
0.750000
 49
0.500000
 49
-0.250000
  0
LTYPE
  2
CENTER
 70
     0
  3
___ _ ___ _ ___ _ ___
 72
     65
 73
     4
 40
2.000000
 49
1.250000
 49
-0.250000
 49
0.250000
 49
-0.250000
  0
LTYPE
  2
BORDER
 70
     0
  3
___ ___ . ___ ___ . ___ ___
 72
     65
 73
     6
 40
1.750000
 49
0.500000
 49
-0.250000
 49
0.500000
 49
-0.250000
 49
0.000000
 49
-0.250000
  0
LTYPE
  2
DOT
 70
     0
  3
.................
 72
     65
 73
     2
 40
0.250000
 49
0.000000
 49
-0.250000
  0
LTYPE
  2
DASHDOT
 70
     0
  3
__ . __ . __ . __
 72
     65
 73
     4
 40
1.000000
 49
0.500000
 49
-0.250000
 49
0.000000
 49
-0.250000
  0
LTYPE
  2
DIVIDE
 70
     0
  3
___ .. ___ .. ___ .. ___
 72
     65
 73
     6
 40
1.250000
 49
0.500000
 49
-0.250000
 49
0.000000
 49
-0.250000
 49
0.000000
 49
-0.250000
  0
ENDTAB
  0
TABLE
  2
LAYER
 70
     8
  0
LAYER
  2
BLACK
 70
     0
 62
     1
  6
CONTINUOUS
  0
LAYER
  2
WHITE
 70
     0
 62
     7
  6
CONTINUOUS
  0
LAYER
  2
RED
 70
     0
 62
     1
  6
CONTINUOUS
  0
LAYER
  2
YELLOW
 70
     0
 62
     2
  6
CONTINUOUS
  0
LAYER
  2
GREEN
 70
     0
 62
     3
  6
CONTINUOUS
  0
LAYER
  2
CYAN
 70
     0
 62
     4
  6
CONTINUOUS
  0
LAYER
  2
BLUE
 70
     0
 62
     5
  6
CONTINUOUS
  0
LAYER
  2
MAGENTA
 70
     0
 62
     6
  6
CONTINUOUS
  0
ENDTAB
  0
TABLE
  2
APPID
 70
     1
  0
APPID
  2
TC_BEND_DATA
 70
     0
  0
ENDTAB
  0
ENDSEC
  0
SECTION
  2
BLOCKS
  0
ENDSEC
  0
SECTION
  2
ENTITIES
  0
ARC
  8
WHITE
 10
10.643986
 20
16.052718
 30
0.000000
 40
0.269159
 50
156.801409
 51
215.034315
  6
CONTINUOUS
  0
ARC
  8
WHITE
 10
10.648042
 20
16.025904
 30
0.000000
 40
0.284385
 50
72.607571
 51
152.152699
  6
CONTINUOUS
  0
ARC
  8
WHITE
 10
10.451410
 20
15.166524
 30
0.000000
 40
1.165308
 50
65.324103
 51
76.013958
  6
CONTINUOUS
  0
ARC
  8
WHITE
 10
10.944519
 20
16.239809
 30
0.000000
 40
0.015833
 50
-114.675901
 51
46.819188
  6
CONTINUOUS
  0
ARC
  8
WHITE
 10
10.469332
 20
15.733446
 30
0.000000
 40
0.710244
 50
46.819188
 51
81.467146
  6
CONTINUOUS
  0
ARC
  8
WHITE
 10
10.444277
 20
14.994963
 30
0.000000
 40
1.446757
 50
84.827261
 51
120.781271
  6
CONTINUOUS
  0
ARC
  8
WHITE
 10
9.670182
 20
16.297220
 30
0.000000
 40
0.068214
 50
163.074659
 51
299.605724
  6
CONTINUOUS
  0
ARC
  8
WHITE
 10
9.717247
 20
16.246310
 30
0.000000
 40
0.132759
 50
103.840168
 51
147.787215
  6
CONTINUOUS
  0
ARC
  8
WHITE
 10
9.681702
 20
16.390587
 30
0.000000
 40
0.015833
 50
-76.159834
 51
69.271513
  6
CONTINUOUS
  0
ARC
  8
WHITE
 10
9.589085
 20
16.145852
 30
0.000000
 40
0.277507
 50
69.271511
 51
103.191344
  6
CONTINUOUS
  0
ARC
  8
WHITE
 10
9.499524
 20
16.521322
 30
0.000000
 40
0.108504
 50
-104.918539
 51
-76.009090
  6
CONTINUOUS
  0
ARC
  8
WHITE
 10
9.499869
 20
16.493242
 30
0.000000
 40
0.081809
 50
114.162628
 51
249.777700
  6
CONTINUOUS
  0
ARC
  8
WHITE
 10
9.934585
 20
15.648115
 30
0.000000
 40
1.032079
 50
101.056204
 51
116.978134
  6
CONTINUOUS
  0
ARC
  8
WHITE
 10
9.733625
 20
16.676578
 30
0.000000
 40
0.015833
 50
-78.943797
 51
56.828222
  6
CONTINUOUS
  0
ARC
  8
WHITE
 10
9.505596
 20
16.327738
 30
0.000000
 40
0.432590
 50
56.828219
 51
97.546442
  6
CONTINUOUS
  0
ARC
  8
WHITE
 10
9.489891
 20
16.214203
 30
0.000000
 40
0.543935
 50
94.334219
 51
109.399337
  6
CONTINUOUS
  0
ARC
  8
WHITE
 10
9.301041
 20
16.738113
 30
0.000000
 40
0.013595
 50
137.393833
 51
307.004839
  6
CONTINUOUS
  0
ARC
  8
WHITE
 10
8.562926
 20
19.303296
 30
0.000000
 40
2.657663
 50
-74.099620
 51
-31.139828
  6
CONTINUOUS
  0
ARC
  8
WHITE
 10
10.824089
 20
17.937131
 30
0.000000
 40
0.015833
 50
-31.139829
 51
137.230442
  6
CONTINUOUS
  0
ARC
  8
WHITE
 10
7.945639
 20
20.599765
 30
0.000000
 40
3.905276
 50
-74.769130
 51
-42.769558
  6
CONTINUOUS
  0
ARC
  8
WHITE
 10
8.954156
 20
16.888493
 30
0.000000
 40
0.059445
 50
134.873234
 51
287.054277
  6
CONTINUOUS
  0
ARC
  8
WHITE
 10
7.397923
 20
18.768890
 30
0.000000
 40
2.381663
 50
-50.519683
 51
-30.101234
  6
CONTINUOUS
  0
ARC
  8
WHITE
 10
9.444698
 20
17.582357
 30
0.000000
 40
0.015833
 50
-30.101228
 51
142.207936
  6
CONTINUOUS
  0
ARC
  8
WHITE
 10
7.497673
 20
19.092193
 30
0.000000
 40
2.448008
 50
-67.430804
 51
-37.792063
  6
CONTINUOUS
  0
ARC
  8
WHITE
 10
8.531441
 20
16.699144
 30
0.000000
 40
0.162602
 50
125.414310
 51
233.378935
  6
CONTINUOUS
  0
ARC
  8
WHITE
 10
8.425000
 20
16.555932
 30
0.000000
 40
0.015833
 50
-62.359372
 51
53.378934
  6
CONTINUOUS
  0
ARC
  8
WHITE
 10
9.265805
 20
14.950394
 30
0.000000
 40
1.796542
 50
117.640630
 51
155.908091
  6
CONTINUOUS
  0
ARC
  8
WHITE
 10
7.024298
 20
16.008120
 30
0.000000
 40
0.683353
 50
-60.831645
 51
-28.338625
  6
CONTINUOUS
  0
ARC
  8
WHITE
 10
7.365066
 20
15.397597
 30
0.000000
 40
0.015833
 50
119.168355
 51
182.834381
  6
CONTINUOUS
  0
ARC
  8
WHITE
 10
6.814456
 20
15.370336
 30
0.000000
 40
0.535451
 50
-23.853669
 51
2.834381
  6
CONTINUOUS
  0
ARC
  8
WHITE
 10
6.860897
 20
15.379388
 30
0.000000
 40
0.497374
 50
-56.575517
 51
-26.972323
  6
CONTINUOUS
  0
ARC
  8
WHITE
 10
7.211941
 20
14.886554
 30
0.000000
 40
0.109454
 50
134.760309
 51
222.284623
  6
CONTINUOUS
  0
ARC
  8
WHITE
 10
7.834794
 20
15.355645
 30
0.000000
 40
0.888782
 50
-142.363633
 51
-115.824085
  6
CONTINUOUS
  0
ARC
  8
WHITE
 10
7.450843
 20
14.558677
 30
0.000000
 40
0.004434
 50
-136.414103
 51
46.414103
  6
CONTINUOUS
  0
ARC
  8
WHITE
 10
7.576486
 20
14.689725
 30
0.000000
 40
0.177114
 50
172.231492
 51
226.201050
  6
CONTINUOUS
  0
ARC
  8
WHITE
 10
7.441151
 20
14.708682
 30
0.000000
 40
0.040462
 50
80.888293
 51
172.925808
  6
CONTINUOUS
  0
ARC
  8
WHITE
 10
8.088776
 20
15.476748
 30
0.000000
 40
0.970212
 50
-131.368888
 51
-112.257209
  6
CONTINUOUS
  0
ARC
  8
WHITE
 10
7.727291
 20
14.593478
 30
0.000000
 40
0.015833
 50
-112.257215
 51
39.585790
  6
CONTINUOUS
  0
ARC
  8
WHITE
 10
8.172484
 20
14.961587
 30
0.000000
 40
0.561835
 50
-174.923215
 51
-140.414217
  6
CONTINUOUS
  0
ARC
  8
WHITE
 10
7.690874
 20
14.911225
 30
0.000000
 40
0.078025
 50
61.293428
 51
179.526345
  6
CONTINUOUS
  0
ARC
  8
WHITE
 10
7.566548
 20
14.625147
 30
0.000000
 40
0.389692
 50
35.690426
 51
65.467570
  6
CONTINUOUS
  0
ARC
  8
WHITE
 10
7.902824
 20
14.864966
 30
0.000000
 40
0.023379
 50
-147.764249
 51
15.553154
  6
CONTINUOUS
  0
ARC
  8
WHITE
 10
8.119337
 20
14.951451
 30
0.000000
 40
0.209921
 50
156.679207
 51
202.465499
  6
CONTINUOUS
  0
ARC
  8
WHITE
 10
7.995665
 20
14.994839
 30
0.000000
 40
0.079699
 50
71.016513
 51
150.111785
  6
CONTINUOUS
  0
ARC
  8
WHITE
 10
7.978373
 20
14.970554
 30
0.000000
 40
0.108617
 50
44.109921
 51
66.554156
  6
CONTINUOUS
  0
ARC
  8
WHITE
 10
8.062480
 20
15.051537
 30
0.000000
 40
0.008148
 50
-138.668937
 51
-1.218877
  6
CONTINUOUS
  0
ARC
  8
WHITE
 10
8.404834
 20
15.069681
 30
0.000000
 40
0.334709
 50
157.501750
 51
183.137099
  6
CONTINUOUS
  0
ARC
  8
WHITE
 10
8.131450
 20
15.187880
 30
0.000000
 40
0.037187
 50
72.884699
 51
164.594896
  6
CONTINUOUS
  0
ARC
  8
WHITE
 10
8.117173
 20
15.103966
 30
0.000000
 40
0.122089
 50
36.659706
 51
78.077743
  6
CONTINUOUS
  0
ARC
  8
WHITE
 10
8.226028
 20
15.184149
 30
0.000000
 40
0.013126
 50
-146.270011
 51
-60.722009
  6
CONTINUOUS
  0
ARC
  8
WHITE
 10
4.994129
 20
17.976435
 30
0.000000
 40
4.283414
 50
-40.886009
 51
-38.656311
  6
CONTINUOUS
  0
ARC
  8
WHITE
 10
8.356224
 20
15.281766
 30
0.000000
 40
0.025627
 50
6.418347
 51
131.996532
  6
CONTINUOUS
  0
ARC
  8
WHITE
 10
8.020931
 20
15.236290
 30
0.000000
 40
0.363983
 50
-45.921925
 51
7.631912
  6
CONTINUOUS
  0
ARC
  8
WHITE
 10
8.774751
 20
14.308040
 30
0.000000
 40
0.833786
 50
126.899774
 51
183.389369
  6
CONTINUOUS
  0
ARC
  8
WHITE
 10
7.815392
 20
14.290130
 30
0.000000
 40
0.130851
 50
-95.046623
 51
-13.878021
  6
CONTINUOUS
  0
ARC
  8
WHITE
 10
7.722288
 20
15.148739
 30
0.000000
 40
0.992313
 50
145.303246
 51
274.716533
  6
CONTINUOUS
  0
ARC
  8
WHITE
 10
6.919450
 20
15.704583
 30
0.000000
 40
0.015833
 50
70.123486
 51
145.303246
  6
CONTINUOUS
  0
ARC
  8
WHITE
 10
6.843287
 20
15.493915
 30
0.000000
 40
0.239846
 50
-18.141236
 51
70.123490
  6
CONTINUOUS
  0
ARC
  8
WHITE
 10
7.086257
 20
15.414307
 30
0.000000
 40
0.015833
 50
161.858760
 51
312.981536
  6
CONTINUOUS
  0
ARC
  8
WHITE
 10
5.724572
 20
16.875479
 30
0.000000
 40
2.013135
 50
-47.018465
 51
-39.876553
  6
CONTINUOUS
  0
ARC
  8
WHITE
 10
6.510668
 20
16.056163
 30
0.000000
 40
0.893327
 50
-31.847780
 51
6.459201
  6
CONTINUOUS
  0
ARC
  8
WHITE
 10
7.382591
 20
16.154878
 30
0.000000
 40
0.015833
 50
6.459202
 51
163.051554
  6
CONTINUOUS
  0
ARC
  8
WHITE
 10
6.979379
 20
16.277755
 30
0.000000
 40
0.405686
 50
-68.058895
 51
-16.948443
  6
CONTINUOUS
  0
ARC
  8
WHITE
 10
6.972632
 20
16.373360
 30
0.000000
 40
0.497761
 50
-108.547534
 51
-71.452466
  6
CONTINUOUS
  0
ARC
  8
WHITE
 10
6.894314
 20
16.089687
 30
0.000000
 40
0.204534
 50
141.102276
 51
246.970211
  6
CONTINUOUS
  0
ARC
  8
WHITE
 10
5.919284
 20
17.251677
 30
0.000000
 40
1.316757
 50
-51.713848
 51
-38.286152
  6
CONTINUOUS
  0
ARC
  8
WHITE
 10
6.363254
 20
16.875352
 30
0.000000
 40
0.735386
 50
-36.703707
 51
-1.709835
  6
CONTINUOUS
  0
ARC
  8
WHITE
 10
7.082486
 20
16.853882
 30
0.000000
 40
0.015833
 50
-1.709834
 51
164.954276
  6
CONTINUOUS
  0
ARC
  8
WHITE
 10
6.355693
 20
17.049247
 30
0.000000
 40
0.736760
 50
-65.948479
 51
-15.045723
  6
CONTINUOUS
  0
ARC
  8
WHITE
 10
6.749976
 20
15.965776
 30
0.000000
 40
0.421300
 50
102.893744
 51
167.106256
  6
CONTINUOUS
  0
ARC
  8
WHITE
 10
6.748949
 20
15.991119
 30
0.000000
 40
0.415366
 50
170.484265
 51
207.008059
  6
CONTINUOUS
  0
ARC
  8
WHITE
 10
6.198778
 20
15.753016
 30
0.000000
 40
0.186777
 50
-64.249526
 51
15.361616
  6
CONTINUOUS
  0
ARC
  8
WHITE
 10
6.176256
 20
15.777223
 30
0.000000
 40
0.218583
 50
-142.501312
 51
-61.688203
  6
CONTINUOUS
  0
ARC
  8
WHITE
 10
6.188247
 20
15.735309
 30
0.000000
 40
0.206600
 50
134.896218
 51
206.179137
  6
CONTINUOUS
  0
ARC
  8
WHITE
 10
5.878153
 20
16.034058
 30
0.000000
 40
0.224075
 50
-42.852415
 51
-9.207060
  6
CONTINUOUS
  0
ARC
  8
WHITE
 10
6.083711
 20
16.000738
 30
0.000000
 40
0.015833
 50
-9.207060
 51
99.039292
  6
CONTINUOUS
  0
ARC
  8
WHITE
 10
6.018458
 20
16.410908
 30
0.000000
 40
0.399494
 50
-133.089404
 51
-80.960707
  6
CONTINUOUS
  0
ARC
  8
WHITE
 10
5.892527
 20
16.279327
 30
0.000000
 40
0.217383
 50
125.808559
 51
227.458519
  6
CONTINUOUS
  0
ARC
  8
WHITE
 10
5.858610
 20
16.268662
 30
0.000000
 40
0.208932
 50
28.272029
 51
116.513778
  6
CONTINUOUS
  0
ARC
  8
WHITE
 10
6.056563
 20
16.375124
 30
0.000000
 40
0.015833
 50
-151.727969
 51
-12.770870
  6
CONTINUOUS
  0
ARC
  8
WHITE
 10
5.909980
 20
16.408349
 30
0.000000
 40
0.166134
 50
-12.770868
 51
23.603472
  6
CONTINUOUS
  0
ARC
  8
WHITE
 10
6.250331
 20
16.563890
 30
0.000000
 40
0.208116
 50
-177.435622
 51
-154.675431
  6
CONTINUOUS
  0
ARC
  8
WHITE
 10
6.364241
 20
16.560802
 30
0.000000
 40
0.321878
 50
138.925890
 51
181.107897
  6
CONTINUOUS
  0
ARC
  8
WHITE
 10
6.239725
 20
16.636207
 30
0.000000
 40
0.180204
 50
77.110375
 51
130.962112
  6
CONTINUOUS
  0
ARC
  8
WHITE
 10
6.250236
 20
16.703016
 30
0.000000
 40
0.112830
 50
26.600538
 51
74.744881
  6
CONTINUOUS
  0
ARC
  8
WHITE
 10
6.365280
 20
16.760627
 30
0.000000
 40
0.015833
 50
-153.399464
 51
-33.438038
  6
CONTINUOUS
  0
ARC
  8
WHITE
 10
6.272692
 20
16.821766
 30
0.000000
 40
0.126786
 50
-33.438032
 51
33.117653
  6
CONTINUOUS
  0
LINE
  8
WHITE
 10
6.378882
 20
16.891037
 30
0.000000
 11
6.319507
 21
16.989995
 31
0.000000
  6
CONTINUOUS
  0
ARC
  8
WHITE
 10
6.666695
 20
16.941861
 30
0.000000
 40
0.350509
 50
130.672337
 51
172.106744
  6
CONTINUOUS
  0
ARC
  8
WHITE
 10
6.529587
 20
17.121526
 30
0.000000
 40
0.125570
 50
31.916057
 51
136.662756
  6
CONTINUOUS
  0
ARC
  8
WHITE
 10
6.381353
 20
17.121398
 30
0.000000
 40
0.263358
 50
-18.394138
 51
14.629077
  6
CONTINUOUS
  0
ARC
  8
WHITE
 10
6.646280
 20
17.033299
 30
0.000000
 40
0.015833
 50
161.605862
 51
303.370997
  6
CONTINUOUS
  0
ARC
  8
WHITE
 10
6.335473
 20
17.505182
 30
0.000000
 40
0.580878
 50
-56.629002
 51
-51.692504
  6
CONTINUOUS
  0
ARC
  8
WHITE
 10
6.234057
 20
17.488515
 30
0.000000
 40
0.637042
 50
-43.578626
 51
2.109962
  6
CONTINUOUS
  0
ARC
  8
WHITE
 10
6.854844
 20
17.511386
 30
0.000000
 40
0.015833
 50
2.109965
 51
155.598041
  6
CONTINUOUS
  0
ARC
  8
WHITE
 10
6.449614
 20
17.695223
 30
0.000000
 40
0.429147
 50
-26.374774
 51
-24.401960
  6
CONTINUOUS
  0
ARC
  8
WHITE
 10
6.542559
 20
17.604284
 30
0.000000
 40
0.308109
 50
-64.386020
 51
-18.881059
  6
CONTINUOUS
  0
ARC
  8
WHITE
 10
6.586694
 20
17.540490
 30
0.000000
 40
0.231827
 50
-112.592636
 51
-67.407364
  6
CONTINUOUS
  0
ARC
  8
WHITE
 10
6.567406
 20
17.448670
 30
0.000000
 40
0.140732
 50
156.592351
 51
240.277546
  6
CONTINUOUS
  0
ARC
  8
WHITE
 10
6.579913
 20
17.442089
 30
0.000000
 40
0.154826
 50
113.803864
 51
156.196136
  6
CONTINUOUS
  0
ARC
  8
WHITE
 10
6.424978
 20
17.789472
 30
0.000000
 40
0.225543
 50
-65.802612
 51
-40.457591
  6
CONTINUOUS
  0
ARC
  8
WHITE
 10
6.327933
 20
17.864617
 30
0.000000
 40
0.348192
 50
-39.504166
 51
-14.188491
  6
CONTINUOUS
  0
ARC
  8
WHITE
 10
6.650153
 20
17.783152
 30
0.000000
 40
0.015833
 50
-14.188494
 51
148.123032
  6
CONTINUOUS
  0
ARC
  8
WHITE
 10
6.347525
 20
17.971352
 30
0.000000
 40
0.340542
 50
-74.547763
 51
-31.876964
  6
CONTINUOUS
  0
ARC
  8
WHITE
 10
6.463989
 20
17.408090
 30
0.000000
 40
0.236435
 50
96.248190
 51
161.071426
  6
CONTINUOUS
  0
ARC
  8
WHITE
 10
6.833042
 20
17.395966
 30
0.000000
 40
0.599320
 50
171.477191
 51
182.186701
  6
CONTINUOUS
  0
ARC
  8
WHITE
 10
5.931359
 20
17.365928
 30
0.000000
 40
0.302884
 50
-27.196819
 51
1.356508
  6
CONTINUOUS
  0
ARC
  8
WHITE
 10
6.067429
 20
17.293068
 30
0.000000
 40
0.148580
 50
-106.964725
 51
-26.188927
  6
CONTINUOUS
  0
ARC
  8
WHITE
 10
6.070430
 20
17.299754
 30
0.000000
 40
0.155853
 50
-130.575822
 51
-107.302503
  6
CONTINUOUS
  0
ARC
  8
WHITE
 10
5.958756
 20
17.169350
 30
0.000000
 40
0.015833
 50
49.424174
 51
205.190343
  6
CONTINUOUS
  0
ARC
  8
WHITE
 10
6.143677
 20
17.256330
 30
0.000000
 40
0.220189
 50
-154.809657
 51
-150.664002
  6
CONTINUOUS
  0
ARC
  8
WHITE
 10
5.711158
 20
17.005703
 30
0.000000
 40
0.279731
 50
11.064989
 51
30.684304
  6
CONTINUOUS
  0
ARC
  8
WHITE
 10
5.454688
 20
16.936008
 30
0.000000
 40
0.545147
 50
-10.789844
 51
13.081038
  6
CONTINUOUS
  0
ARC
  8
WHITE
 10
5.847302
 20
16.865371
 30
0.000000
 40
0.146309
 50
-175.738068
 51
-12.400695
  6
CONTINUOUS
  0
ARC
  8
WHITE
 10
5.042932
 20
16.831479
 30
0.000000
 40
0.658868
 50
2.002196
 51
24.594944
  6
CONTINUOUS
  0
ARC
  8
WHITE
 10
5.249166
 20
16.840795
 30
0.000000
 40
0.473826
 50
33.991992
 51
72.547026
  6
CONTINUOUS
  0
ARC
  8
WHITE
 10
5.635432
 20
18.063390
 30
0.000000
 40
0.808336
 50
-130.573944
 51
-107.580498
  6
CONTINUOUS
  0
ARC
  8
WHITE
 10
5.099368
 20
17.437377
 30
0.000000
 40
0.015833
 50
49.426060
 51
212.655922
  6
CONTINUOUS
  0
ARC
  8
WHITE
 10
5.810221
 20
17.892965
 30
0.000000
 40
0.860150
 50
-147.344080
 51
-127.186160
  6
CONTINUOUS
  0
ARC
  8
WHITE
 10
5.106580
 20
17.023926
 30
0.000000
 40
0.259888
 50
-30.752650
 51
45.002683
  6
CONTINUOUS
  0
ARC
  8
WHITE
 10
5.191382
 20
16.993294
 30
0.000000
 40
0.172193
 50
-110.170653
 51
-36.430858
  6
CONTINUOUS
  0
ARC
  8
WHITE
 10
5.316729
 20
17.362267
 30
0.000000
 40
0.561840
 50
-150.965367
 51
-109.194795
  6
CONTINUOUS
  0
ARC
  8
WHITE
 10
4.811654
 20
17.081900
 30
0.000000
 40
0.015833
 50
29.034634
 51
182.502455
  6
CONTINUOUS
  0
ARC
  8
WHITE
 10
5.382243
 20
17.106837
 30
0.000000
 40
0.586967
 50
-177.497546
 51
-106.408485
  6
CONTINUOUS
  0
ARC
  8
WHITE
 10
5.220907
 20
16.558965
 30
0.000000
 40
0.015833
 50
-106.408487
 51
17.037330
  6
CONTINUOUS
  0
ARC
  8
WHITE
 10
5.325052
 20
16.590879
 30
0.000000
 40
0.093092
 50
80.836358
 51
197.037328
  6
CONTINUOUS
  0
ARC
  8
WHITE
 10
5.218619
 20
16.373314
 30
0.000000
 40
0.332378
 50
21.513422
 51
68.603325
  6
CONTINUOUS
  0
ARC
  8
WHITE
 10
5.207866
 20
16.358077
 30
0.000000
 40
0.348119
 50
-42.652954
 51
23.197799
  6
CONTINUOUS
  0
ARC
  8
WHITE
 10
5.805688
 20
15.797547
 30
0.000000
 40
0.471407
 50
136.472387
 51
171.783866
  6
CONTINUOUS
  0
ARC
  8
WHITE
 10
5.354790
 20
15.862652
 30
0.000000
 40
0.015833
 50
171.783860
 51
307.922402
  6
CONTINUOUS
  0
ARC
  8
WHITE
 10
5.636990
 20
15.500443
 30
0.000000
 40
0.443331
 50
83.630376
 51
127.922401
  6
CONTINUOUS
  0
ARC
  8
WHITE
 10
5.681002
 20
15.774608
 30
0.000000
 40
0.166509
 50
-10.900583
 51
88.220200
  6
CONTINUOUS
  0
ARC
  8
WHITE
 10
5.741317
 20
15.747352
 30
0.000000
 40
0.103277
 50
-87.651607
 51
-2.348392
  6
CONTINUOUS
  0
ARC
  8
WHITE
 10
5.736350
 20
15.747886
 30
0.000000
 40
0.104131
 50
-158.773939
 51
-84.932009
  6
CONTINUOUS
  0
ARC
  8
WHITE
 10
5.624524
 20
15.704453
 30
0.000000
 40
0.015833
 50
21.226059
 51
155.418778
  6
CONTINUOUS
  0
ARC
  8
WHITE
 10
5.840041
 20
15.605867
 30
0.000000
 40
0.252829
 50
155.418783
 51
180.291972
  6
CONTINUOUS
  0
ARC
  8
WHITE
 10
5.864529
 20
15.589792
 30
0.000000
 40
0.277707
 50
176.947902
 51
239.777037
  6
CONTINUOUS
  0
ARC
  8
WHITE
 10
5.732710
 20
15.363514
 30
0.000000
 40
0.015833
 50
-120.222962
 51
-2.545414
  6
CONTINUOUS
  0
ARC
  8
WHITE
 10
6.049740
 20
15.349420
 30
0.000000
 40
0.301509
 50
144.288709
 51
177.454584
  6
CONTINUOUS
  0
ARC
  8
WHITE
 10
5.923674
 20
15.386870
 30
0.000000
 40
0.182470
 50
52.695896
 51
130.601295
  6
CONTINUOUS
  0
ARC
  8
WHITE
 10
6.024663
 20
15.519418
 30
0.000000
 40
0.015833
 50
-13.214253
 51
52.695898
  6
CONTINUOUS
  0
ARC
  8
WHITE
 10
6.589152
 20
15.386870
 30
0.000000
 40
0.564009
 50
166.785745
 51
209.029885
  6
CONTINUOUS
  0
ARC
  8
WHITE
 10
6.109846
 20
15.120859
 30
0.000000
 40
0.015833
 50
-150.970117
 51
-2.717758
  6
CONTINUOUS
  0
ARC
  8
WHITE
 10
6.340015
 20
15.109933
 30
0.000000
 40
0.214595
 50
146.448596
 51
177.282244
  6
CONTINUOUS
  0
ARC
  8
WHITE
 10
6.295160
 20
15.133074
 30
0.000000
 40
0.164516
 50
19.293567
 51
144.530674
  6
CONTINUOUS
  0
ARC
  8
WHITE
 10
5.962773
 20
15.050896
 30
0.000000
 40
0.506416
 50
-59.401494
 51
15.641124
  6
CONTINUOUS
  0
ARC
  8
WHITE
 10
6.186012
 20
14.669588
 30
0.000000
 40
0.064599
 50
175.754414
 51
302.318074
  6
CONTINUOUS
  0
ARC
  8
WHITE
 10
5.772319
 20
14.715491
 30
0.000000
 40
0.351684
 50
-6.714759
 51
57.117006
  6
CONTINUOUS
  0
ARC
  8
WHITE
 10
5.887269
 20
14.860630
 30
0.000000
 40
0.168326
 50
63.164456
 51
124.678612
  6
CONTINUOUS
  0
ARC
  8
WHITE
 10
5.800505
 20
14.986034
 30
0.000000
 40
0.015833
 50
124.678612
 51
271.910750
  6
CONTINUOUS
  0
ARC
  8
WHITE
 10
5.804418
 20
14.868748
 30
0.000000
 40
0.101518
 50
38.296806
 51
91.910749
  6
CONTINUOUS
  0
ARC
  8
WHITE
 10
5.695176
 20
14.805774
 30
0.000000
 40
0.227016
 50
-48.867891
 51
33.678604
  6
CONTINUOUS
  0
ARC
  8
WHITE
 10
5.721906
 20
14.776107
 30
0.000000
 40
0.187090
 50
-120.554086
 51
-49.057056
  6
CONTINUOUS
  0
ARC
  8
WHITE
 10
5.848550
 20
14.947773
 30
0.000000
 40
0.399893
 50
-173.627289
 51
-123.678102
  6
CONTINUOUS
  0
ARC
  8
WHITE
 10
5.435392
 20
14.901629
 30
0.000000
 40
0.015833
 50
6.372713
 51
151.737691
  6
CONTINUOUS
  0
ARC
  8
WHITE
 10
5.704623
 20
14.756891
 30
0.000000
 40
0.321504
 50
151.737692
 51
166.698047
  6
CONTINUOUS
  0
ARC
  8
WHITE
 10
5.376337
 20
14.834507
 30
0.000000
 40
0.015833
 50
-141.327671
 51
-13.301955
  6
CONTINUOUS
  0
ARC
  8
WHITE
 10
2.183190
 20
12.278845
 30
0.000000
 40
4.074104
 50
38.672329
 51
54.607191
  6
CONTINUOUS
  0
ARC
  8
WHITE
 10
4.533655
 20
15.587150
 30
0.000000
 40
0.015833
 50
54.607188
 51
221.297546
  6
CONTINUOUS
  0
ARC
  8
WHITE
 10
3.747818
 20
14.896835
 30
0.000000
 40
1.030147
 50
3.318202
 51
41.297542
  6
CONTINUOUS
  0
ARC
  8
WHITE
 10
4.760431
 20
14.955544
 30
0.000000
 40
0.015833
 50
-140.120825
 51
3.318202
  6
CONTINUOUS
  0
ARC
  8
WHITE
 10
1.774385
 20
12.460666
 30
0.000000
 40
3.875296
 50
39.879175
 51
48.926684
  6
CONTINUOUS
  0
ARC
  8
WHITE
 10
1.879105
 20
12.574440
 30
0.000000
 40
3.720724
 50
48.991257
 51
74.931532
  6
CONTINUOUS
  0
ARC
  8
WHITE
 10
1.894147
 20
12.836195
 30
0.000000
 40
3.464472
 50
74.046293
 51
87.369637
  6
CONTINUOUS
  0
ARC
  8
WHITE
 10
2.182488
 20
17.779059
 30
0.000000
 40
1.487676
 50
-119.866360
 51
-94.987975
  6
CONTINUOUS
  0
ARC
  8
WHITE
 10
1.433773
 20
16.475232
 30
0.000000
 40
0.015833
 50
60.133640
 51
232.204645
  6
CONTINUOUS
  0
ARC
  8
WHITE
 10
2.538283
 20
17.899396
 30
0.000000
 40
1.818106
 50
-127.795356
 51
-119.949131
  6
CONTINUOUS
  0
ARC
  8
WHITE
 10
2.135037
 20
17.097303
 30
0.000000
 40
0.923216
 50
-123.117694
 51
-114.783150
  6
CONTINUOUS
  0
ARC
  8
WHITE
 10
1.741402
 20
16.244740
 30
0.000000
 40
0.015833
 50
-28.504726
 51
65.216848
  6
CONTINUOUS
  0
ARC
  8
WHITE
 10
1.160438
 20
16.560239
 30
0.000000
 40
0.676937
 50
-58.896741
 51
-28.504724
  6
CONTINUOUS
  0
ARC
  8
WHITE
 10
-0.917834
 20
20.004093
 30
0.000000
 40
4.699293
 50
-78.579074
 51
-58.891109
  6
CONTINUOUS
  0
ARC
  8
WHITE
 10
0.015833
 20
15.382332
 30
0.000000
 40
0.015833
 50
101.420923
 51
264.825042
  6
CONTINUOUS
  0
ARC
  8
WHITE
 10
-0.167021
 20
13.363321
 30
0.000000
 40
2.011440
 50
49.466940
 51
84.825040
  6
CONTINUOUS
  0
ARC
  8
WHITE
 10
0.886120
 20
14.598558
 30
0.000000
 40
0.388207
 50
5.354780
 51
49.120936
  6
CONTINUOUS
  0
LINE
  8
WHITE
 10
1.272632
 20
14.634787
 30
0.000000
 11
1.272632
 21
14.595203
 31
0.000000
  6
CONTINUOUS
  0
ARC
  8
WHITE
 10
0.569765
 20
14.699241
 30
0.000000
 40
0.710525
 50
-44.710381
 51
-8.419721
  6
CONTINUOUS
  0
LINE
  8
WHITE
 10
1.074715
 20
14.199370
 30
0.000000
 11
0.955965
 21
14.080620
 31
0.000000
  6
CONTINUOUS
  0
ARC
  8
WHITE
 10
2.992758
 20
12.045168
 30
0.000000
 40
2.879512
 50
135.018864
 51
165.330501
  6
CONTINUOUS
  0
ARC
  8
WHITE
 10
0.222428
 20
12.770375
 30
0.000000
 40
0.015833
 50
165.330499
 51
276.736824
  6
CONTINUOUS
  0
ARC
  8
WHITE
 10
0.391050
 20
11.342877
 30
0.000000
 40
1.421589
 50
44.258261
 51
96.736820
  6
CONTINUOUS
  0
ARC
  8
WHITE
 10
0.575584
 20
11.543514
 30
0.000000
 40
1.149499
 50
7.178974
 51
43.515005
  6
CONTINUOUS
  0
ARC
  8
WHITE
 10
-6.442718
 20
9.900228
 30
0.000000
 40
8.352186
 50
1.659318
 51
12.353845
  6
CONTINUOUS
  0
ARC
  8
WHITE
 10
1.960958
 20
10.136072
 30
0.000000
 40
0.055320
 50
173.766538
 51
322.630643
  6
CONTINUOUS
  0
ARC
  8
WHITE
 10
3.783017
 20
9.066776
 30
0.000000
 40
2.057749
 50
121.834161
 51
149.779698
  6
CONTINUOUS
  0
ARC
  8
WHITE
 10
2.718766
 20
9.072079
 30
0.000000
 40
1.743045
 50
44.724279
 51
90.694733
  6
CONTINUOUS
  0
ARC
  8
WHITE
 10
4.924443
 20
9.683277
 30
0.000000
 40
1.146403
 50
147.534799
 51
272.652384
  6
CONTINUOUS
  0
ARC
  8
WHITE
 10
4.978227
 20
8.522286
 30
0.000000
 40
0.015833
 50
1.647704
 51
92.652384
  6
CONTINUOUS
  0
ARC
  8
WHITE
 10
3.915445
 20
8.491714
 30
0.000000
 40
1.079055
 50
-36.543097
 51
1.647702
  6
CONTINUOUS
  0
ARC
  8
WHITE
 10
4.795088
 20
7.839787
 30
0.000000
 40
0.015833
 50
143.456901
 51
308.985857
  6
CONTINUOUS
  0
ARC
  8
WHITE
 10
3.835063
 20
9.025918
 30
0.000000
 40
1.541793
 50
-51.014142
 51
-1.245093
  6
CONTINUOUS
  0
ARC
  8
WHITE
 10
5.656316
 20
8.973829
 30
0.000000
 40
0.280440
 50
121.917318
 51
176.199876
  6
CONTINUOUS
  0
ARC
  8
WHITE
 10
5.656486
 20
8.963075
 30
0.000000
 40
0.289711
 50
59.178594
 51
120.821406
  6
CONTINUOUS
  0
ARC
  8
WHITE
 10
2.416428
 20
9.794217
 30
0.000000
 40
3.438172
 50
-30.656697
 51
-9.751584
  6
CONTINUOUS
  0
ARC
  8
WHITE
 10
7.116194
 20
7.001977
 30
0.000000
 40
2.028496
 50
149.184761
 51
167.056897
  6
CONTINUOUS
  0
ARC
  8
WHITE
 10
6.462956
 20
7.222791
 30
0.000000
 40
1.344162
 50
169.994660
 51
216.997262
  6
CONTINUOUS
  0
ARC
  8
WHITE
 10
5.402067
 20
6.423434
 30
0.000000
 40
0.015833
 50
-143.002738
 51
14.590255
  6
CONTINUOUS
  0
ARC
  8
WHITE
 10
6.914932
 20
6.817231
 30
0.000000
 40
1.547443
 50
162.906968
 51
194.590248
  6
CONTINUOUS
  0
ARC
  8
WHITE
 10
5.450975
 20
7.267408
 30
0.000000
 40
0.015833
 50
31.007440
 51
162.906969
  6
CONTINUOUS
  0
ARC
  8
WHITE
 10
7.903887
 20
8.741700
 30
0.000000
 40
2.846040
 50
-148.992560
 51
-105.765154
  6
CONTINUOUS
  0
ARC
  8
WHITE
 10
7.126331
 20
5.987481
 30
0.000000
 40
0.015833
 50
-72.675822
 51
74.234845
  6
CONTINUOUS
  0
ARC
  8
WHITE
 10
7.651615
 20
4.303489
 30
0.000000
 40
1.748183
 50
107.324176
 51
191.823958
  6
CONTINUOUS
  0
ARC
  8
WHITE
 10
5.956023
 20
3.948521
 30
0.000000
 40
0.015833
 50
-168.176037
 51
-8.808210
  6
CONTINUOUS
  0
ARC
  8
WHITE
 10
6.735147
 20
3.827792
 30
0.000000
 40
0.772589
 50
146.353613
 51
171.191794
  6
CONTINUOUS
  0
ARC
  8
WHITE
 10
6.105169
 20
4.247085
 30
0.000000
 40
0.015833
 50
0.616139
 51
146.353612
  6
CONTINUOUS
  0
ARC
  8
WHITE
 10
6.884982
 20
4.255471
 30
0.000000
 40
0.764025
 50
-179.383859
 51
-142.366736
  6
CONTINUOUS
  0
ARC
  8
WHITE
 10
8.194633
 20
5.044988
 30
0.000000
 40
2.289921
 50
-146.735429
 51
-118.005818
  6
CONTINUOUS
  0
ARC
  8
WHITE
 10
7.111941
 20
3.009238
 30
0.000000
 40
0.015833
 50
-40.917263
 51
61.994182
  6
CONTINUOUS
  0
ARC
  8
WHITE
 10
8.622038
 20
1.700355
 30
0.000000
 40
1.982558
 50
139.082744
 51
180.589024
  6
CONTINUOUS
  0
ARC
  8
WHITE
 10
8.311579
 20
1.672014
 30
0.000000
 40
1.672014
 50
179.727231
 51
356.282090
  6
CONTINUOUS
  0
ARC
  8
WHITE
 10
9.995874
 20
1.562567
 30
0.000000
 40
0.015833
 50
26.672985
 51
176.282088
  6
CONTINUOUS
  0
ARC
  8
WHITE
 10
8.920139
 20
1.022164
 30
0.000000
 40
1.219678
 50
5.923788
 51
26.672981
  6
CONTINUOUS
  0
ARC
  8
WHITE
 10
10.149052
 20
1.149675
 30
0.000000
 40
0.015833
 50
-174.076212
 51
-13.973601
  6
CONTINUOUS
  0
ARC
  8
WHITE
 10
8.845036
 20
1.474165
 30
0.000000
 40
1.359616
 50
-13.973605
 51
74.082000
  6
CONTINUOUS
  0
ARC
  8
WHITE
 10
9.213584
 20
2.766420
 30
0.000000
 40
0.015833
 50
74.082000
 51
230.504818
  6
CONTINUOUS
  0
ARC
  8
WHITE
 10
8.311579
 20
1.672014
 30
0.000000
 40
1.402383
 50
154.464056
 51
410.504813
  6
CONTINUOUS
  0
ARC
  8
WHITE
 10
9.125447
 20
1.425744
 30
0.000000
 40
2.246595
 50
142.580359
 51
157.746262
  6
CONTINUOUS
  0
ARC
  8
WHITE
 10
7.353761
 20
2.781262
 30
0.000000
 40
0.015833
 50
44.845712
 51
142.580360
  6
CONTINUOUS
  0
ARC
  8
WHITE
 10
6.667090
 20
2.098279
 30
0.000000
 40
0.984329
 50
9.599013
 51
44.845715
  6
CONTINUOUS
  0
ARC
  8
WHITE
 10
7.653249
 20
2.265058
 30
0.000000
 40
0.015833
 50
-170.400984
 51
-20.502571
  6
CONTINUOUS
  0
ARC
  8
WHITE
 10
6.950851
 20
2.527709
 30
0.000000
 40
0.765732
 50
-20.502569
 51
38.668447
  6
CONTINUOUS
  0
ARC
  8
WHITE
 10
7.561078
 20
3.016042
 30
0.000000
 40
0.015833
 50
134.529079
 51
218.668452
  6
CONTINUOUS
  0
ARC
  8
WHITE
 10
9.125447
 20
1.425744
 30
0.000000
 40
2.246595
 50
92.509331
 51
134.529082
  6
CONTINUOUS
  0
ARC
  8
WHITE
 10
9.027779
 20
3.654366
 30
0.000000
 40
0.015833
 50
-62.457544
 51
92.509330
  6
CONTINUOUS
  0
ARC
  8
WHITE
 10
9.572584
 20
2.609697
 30
0.000000
 40
1.162363
 50
117.542458
 51
163.644865
  6
CONTINUOUS
  0
ARC
  8
WHITE
 10
8.472449
 20
2.932548
 30
0.000000
 40
0.015833
 50
163.644864
 51
321.689716
  6
CONTINUOUS
  0
ARC
  8
WHITE
 10
9.584133
 20
2.054269
 30
0.000000
 40
1.400929
 50
96.366889
 51
141.689717
  6
CONTINUOUS
  0
ARC
  8
WHITE
 10
9.271950
 20
5.194230
 30
0.000000
 40
1.754695
 50
-84.872272
 51
-56.585080
  6
CONTINUOUS
  0
ARC
  8
WHITE
 10
9.576522
 20
4.589230
 30
0.000000
 40
1.084848
 50
-52.411962
 51
-29.402066
  6
CONTINUOUS
  0
ARC
  8
WHITE
 10
10.283400
 20
3.818930
 30
0.000000
 40
0.336546
 50
-30.048227
 51
44.936560
  6
CONTINUOUS
  0
ARC
  8
WHITE
 10
9.991035
 20
4.108572
 30
0.000000
 40
0.742020
 50
-38.130121
 51
26.708935
  6
CONTINUOUS
  0
ARC
  8
WHITE
 10
9.295253
 20
4.606275
 30
0.000000
 40
1.368515
 50
-6.891039
 51
59.498805
  6
CONTINUOUS
  0
ARC
  8
WHITE
 10
9.997888
 20
5.799055
 30
0.000000
 40
0.015833
 50
102.077046
 51
239.498807
  6
CONTINUOUS
  0
ARC
  8
WHITE
 10
9.577127
 20
7.765573
 30
0.000000
 40
1.995195
 50
-77.922953
 51
-20.500816
  6
CONTINUOUS
  0
ARC
  8
WHITE
 10
11.460791
 20
7.061270
 30
0.000000
 40
0.015833
 50
26.713937
 51
159.499185
  6
CONTINUOUS
  0
ARC
  8
WHITE
 10
10.578307
 20
6.617157
 30
0.000000
 40
1.003767
 50
-12.528310
 51
26.713938
  6
CONTINUOUS
  0
ARC
  8
WHITE
 10
11.573629
 20
6.395984
 30
0.000000
 40
0.015833
 50
167.471691
 51
331.836285
  6
CONTINUOUS
  0
ARC
  8
WHITE
 10
10.371058
 20
7.039817
 30
0.000000
 40
1.379908
 50
-28.163716
 51
38.861182
  6
CONTINUOUS
  0
ARC
  8
WHITE
 10
15.131504
 20
10.127342
 30
0.000000
 40
4.303757
 50
-163.517252
 51
-148.920389
  6
CONTINUOUS
  0
ARC
  8
WHITE
 10
11.108959
 20
8.952925
 30
0.000000
 40
0.114312
 50
141.706996
 51
204.097570
  6
CONTINUOUS
  0
ARC
  8
WHITE
 10
11.169800
 20
8.714566
 30
0.000000
 40
0.343903
 50
80.283822
 51
115.963189
  6
CONTINUOUS
  0
ARC
  8
WHITE
 10
11.072805
 20
8.692889
 30
0.000000
 40
0.392559
 50
0.641943
 51
66.738193
  6
CONTINUOUS
  0
ARC
  8
WHITE
 10
12.822302
 20
8.762711
 30
0.000000
 40
1.358538
 50
-177.239679
 51
-123.592652
  6
CONTINUOUS
  0
ARC
  8
WHITE
 10
12.079404
 20
7.644249
 30
0.000000
 40
0.015833
 50
-123.592651
 51
33.846793
  6
CONTINUOUS
  0
ARC
  8
WHITE
 10
13.237910
 20
8.421172
 30
0.000000
 40
1.379067
 50
175.781602
 51
213.846793
  6
CONTINUOUS
  0
ARC
  8
WHITE
 10
11.878370
 20
8.521449
 30
0.000000
 40
0.015833
 50
88.479925
 51
175.781599
  6
CONTINUOUS
  0
ARC
  8
WHITE
 10
11.909201
 20
9.683277
 30
0.000000
 40
1.146403
 50
-91.520078
 51
31.839116
  6
CONTINUOUS
  0
ARC
  8
WHITE
 10
12.896559
 20
10.296399
 30
0.000000
 40
0.015833
 50
134.859218
 51
211.839119
  6
CONTINUOUS
  0
ARC
  8
WHITE
 10
14.114877
 20
9.072079
 30
0.000000
 40
1.743045
 50
89.305267
 51
134.859215
  6
CONTINUOUS
  0
ARC
  8
WHITE
 10
13.050627
 20
9.066776
 30
0.000000
 40
2.057749
 50
30.220302
 51
58.165839
  6
CONTINUOUS
  0
ARC
  8
WHITE
 10
14.872685
 20
10.136072
 30
0.000000
 40
0.055320
 50
-142.630644
 51
6.233462
  6
CONTINUOUS
  0
ARC
  8
WHITE
 10
23.276362
 20
9.900228
 30
0.000000
 40
8.352186
 50
167.646155
 51
178.340682
  6
CONTINUOUS
  0
ARC
  8
WHITE
 10
16.258059
 20
11.543514
 30
0.000000
 40
1.149499
 50
136.484995
 51
172.821026
  6
CONTINUOUS
  0
ARC
  8
WHITE
 10
16.442593
 20
11.342877
 30
0.000000
 40
1.421589
 50
83.263180
 51
135.741739
  6
CONTINUOUS
  0
ARC
  8
WHITE
 10
16.611216
 20
12.770375
 30
0.000000
 40
0.015833
 50
-96.736818
 51
14.669501
  6
CONTINUOUS
  0
ARC
  8
WHITE
 10
13.840886
 20
12.045168
 30
0.000000
 40
2.879512
 50
14.669499
 51
44.981136
  6
CONTINUOUS
  0
LINE
  8
WHITE
 10
15.877678
 20
14.080620
 30
0.000000
 11
15.758928
 21
14.199370
 31
0.000000
  6
CONTINUOUS
  0
ARC
  8
WHITE
 10
16.263878
 20
14.699241
 30
0.000000
 40
0.710525
 50
-171.580279
 51
-135.289619
  6
CONTINUOUS
  0
LINE
  8
WHITE
 10
15.561012
 20
14.595203
 30
0.000000
 11
15.561012
 21
14.634787
 31
0.000000
  6
CONTINUOUS
  0
ARC
  8
WHITE
 10
15.947524
 20
14.598558
 30
0.000000
 40
0.388207
 50
130.879064
 51
174.645220
  6
CONTINUOUS
  0
ARC
  8
WHITE
 10
17.000665
 20
13.363321
 30
0.000000
 40
2.011440
 50
95.174960
 51
130.533060
  6
CONTINUOUS
  0
ARC
  8
WHITE
 10
16.817810
 20
15.382332
 30
0.000000
 40
0.015833
 50
-84.825035
 51
78.579070
  6
CONTINUOUS
  0
ARC
  8
WHITE
 10
17.751478
 20
20.004093
 30
0.000000
 40
4.699293
 50
-121.108891
 51
-101.420926
  6
CONTINUOUS
  0
ARC
  8
WHITE
 10
15.673205
 20
16.560239
 30
0.000000
 40
0.676937
 50
-151.495276
 51
-121.103258
  6
CONTINUOUS
  0
ARC
  8
WHITE
 10
15.092242
 20
16.244740
 30
0.000000
 40
0.015833
 50
114.783152
 51
208.504726
  6
CONTINUOUS
  0
ARC
  8
WHITE
 10
14.698607
 20
17.097303
 30
0.000000
 40
0.923216
 50
-65.216850
 51
-56.882306
  6
CONTINUOUS
  0
ARC
  8
WHITE
 10
14.295361
 20
17.899396
 30
0.000000
 40
1.818106
 50
-60.050869
 51
-52.204643
  6
CONTINUOUS
  0
ARC
  8
WHITE
 10
15.399871
 20
16.475232
 30
0.000000
 40
0.015833
 50
-52.204645
 51
119.866359
  6
CONTINUOUS
  0
ARC
  8
WHITE
 10
14.651155
 20
17.779059
 30
0.000000
 40
1.487676
 50
-85.012025
 51
-60.133639
  6
CONTINUOUS
  0
ARC
  8
WHITE
 10
14.939497
 20
12.836195
 30
0.000000
 40
3.464472
 50
92.630363
 51
105.953707
  6
CONTINUOUS
  0
ARC
  8
WHITE
 10
14.954538
 20
12.574440
 30
0.000000
 40
3.720724
 50
105.068468
 51
131.008743
  6
CONTINUOUS
  0
ARC
  8
WHITE
 10
15.059259
 20
12.460666
 30
0.000000
 40
3.875296
 50
131.073316
 51
140.120825
  6
CONTINUOUS
  0
ARC
  8
WHITE
 10
12.073212
 20
14.955544
 30
0.000000
 40
0.015833
 50
176.681794
 51
320.120830
  6
CONTINUOUS
  0
ARC
  8
WHITE
 10
13.085826
 20
14.896835
 30
0.000000
 40
1.030147
 50
138.702457
 51
176.681798
  6
CONTINUOUS
  0
ARC
  8
WHITE
 10
12.299988
 20
15.587150
 30
0.000000
 40
0.015833
 50
-41.297538
 51
125.392806
  6
CONTINUOUS
  0
ARC
  8
WHITE
 10
14.650453
 20
12.278845
 30
0.000000
 40
4.074104
 50
125.392809
 51
137.978935
  6
CONTINUOUS
  0
ARC
  8
WHITE
 10
11.612044
 20
15.016665
 30
0.000000
 40
0.015833
 50
-154.475119
 51
-42.021061
  6
CONTINUOUS
  0
ARC
  8
WHITE
 10
10.457808
 20
14.465507
 30
0.000000
 40
1.263243
 50
25.524886
 51
81.727585
  6
CONTINUOUS
  0
ARC
  8
WHITE
 10
10.637285
 20
15.699937
 30
0.000000
 40
0.015833
 50
81.727584
 51
222.380477
  6
CONTINUOUS
  0
ARC
  8
WHITE
 10
10.530886
 20
15.602848
 30
0.000000
 40
0.128205
 50
-31.800558
 51
42.380478
  6
CONTINUOUS
  0
ARC
  8
WHITE
 10
10.496472
 20
15.686368
 30
0.000000
 40
0.208281
 50
-162.682521
 51
-46.499009
  6
CONTINUOUS
  0
ARC
  8
WHITE
 10
10.498630
 20
15.682086
 30
0.000000
 40
0.209120
 50
113.028030
 51
196.021209
  6
CONTINUOUS
  0
ARC
  8
WHITE
 10
10.410632
 20
15.889114
 30
0.000000
 40
0.015833
 50
-66.971969
 51
35.034313
  6
CONTINUOUS
  0
ARC
  8
WHITE
 10
7.822260
 20
5.633820
 30
0.000000
 40
1.982844
 50
14.702543
 51
26.723562
  6
CONTINUOUS
  0
ARC
  8
WHITE
 10
8.834833
 20
7.237218
 30
0.000000
 40
1.040126
 50
-43.179270
 51
-34.263445
  6
CONTINUOUS
  0
ARC
  8
WHITE
 10
9.707538
 20
6.642714
 30
0.000000
 40
0.015833
 50
86.710789
 51
145.736558
  6
CONTINUOUS
  0
ARC
  8
WHITE
 10
9.692944
 20
6.388780
 30
0.000000
 40
0.270187
 50
18.367326
 51
86.710786
  6
CONTINUOUS
  0
ARC
  8
WHITE
 10
9.964393
 20
6.478907
 30
0.000000
 40
0.015833
 50
-161.632671
 51
-14.161665
  6
CONTINUOUS
  0
ARC
  8
WHITE
 10
9.655925
 20
6.556742
 30
0.000000
 40
0.333970
 50
-14.161663
 51
61.605163
  6
CONTINUOUS
  0
ARC
  8
WHITE
 10
9.822272
 20
6.864461
 30
0.000000
 40
0.015833
 50
161.337674
 51
241.605164
  6
CONTINUOUS
  0
ARC
  8
WHITE
 10
8.730298
 20
7.233274
 30
0.000000
 40
1.136743
 50
-18.662324
 51
37.763592
  6
CONTINUOUS
  0
ARC
  8
WHITE
 10
9.616426
 20
7.919724
 30
0.000000
 40
0.015833
 50
37.763587
 51
190.253750
  6
CONTINUOUS
  0
ARC
  8
WHITE
 10
7.994748
 20
7.626367
 30
0.000000
 40
1.632165
 50
-30.125243
 51
10.253746
  6
CONTINUOUS
  0
ARC
  8
WHITE
 10
9.392762
 20
6.815144
 30
0.000000
 40
0.015833
 50
-127.961383
 51
-30.125242
  6
CONTINUOUS
  0
ARC
  8
WHITE
 10
10.460580
 20
8.183789
 30
0.000000
 40
1.751755
 50
167.518366
 51
232.038618
  6
CONTINUOUS
  0
ARC
  8
WHITE
 10
8.765687
 20
8.558968
 30
0.000000
 40
0.015833
 50
75.202742
 51
167.518370
  6
CONTINUOUS
  0
ARC
  8
WHITE
 10
9.248843
 20
10.387994
 30
0.000000
 40
1.875932
 50
-104.797262
 51
-61.661890
  6
CONTINUOUS
  0
ARC
  8
WHITE
 10
9.621484
 20
9.516402
 30
0.000000
 40
0.935843
 50
-56.405397
 51
38.639127
  6
CONTINUOUS
  0
ARC
  8
WHITE
 10
10.340099
 20
10.090868
 30
0.000000
 40
0.015833
 50
38.639126
 51
184.944955
  6
CONTINUOUS
  0
ARC
  8
WHITE
 10
9.726548
 20
10.037784
 30
0.000000
 40
0.600009
 50
-29.575001
 51
4.944949
  6
CONTINUOUS
  0
ARC
  8
WHITE
 10
10.234612
 20
9.749456
 30
0.000000
 40
0.015833
 50
-154.498198
 51
-29.575005
  6
CONTINUOUS
  0
ARC
  8
WHITE
 10
9.449176
 20
9.374792
 30
0.000000
 40
0.854387
 50
25.501802
 51
76.864568
  6
CONTINUOUS
  0
ARC
  8
WHITE
 10
9.639740
 20
10.191405
 30
0.000000
 40
0.015833
 50
76.864570
 51
231.337851
  6
CONTINUOUS
  0
ARC
  8
WHITE
 10
9.377173
 20
9.863224
 30
0.000000
 40
0.404458
 50
17.336445
 51
51.337851
  6
CONTINUOUS
  0
ARC
  8
WHITE
 10
9.645857
 20
9.874068
 30
0.000000
 40
0.160660
 50
43.052169
 51
62.900392
  6
CONTINUOUS
  0
ARC
  8
WHITE
 10
9.711831
 20
10.002995
 30
0.000000
 40
0.015833
 50
62.900385
 51
224.127656
  6
CONTINUOUS
  0
ARC
  8
WHITE
 10
9.516313
 20
9.813342
 30
0.000000
 40
0.256556
 50
20.628278
 51
44.127652
  6
CONTINUOUS
  0
ARC
  8
WHITE
 10
9.741602
 20
9.898149
 30
0.000000
 40
0.015833
 50
-122.208876
 51
20.628278
  6
CONTINUOUS
  0
ARC
  8
WHITE
 10
9.017924
 20
8.749363
 30
0.000000
 40
1.341893
 50
57.791128
 51
97.751359
  6
CONTINUOUS
  0
ARC
  8
WHITE
 10
8.839073
 20
10.063306
 30
0.000000
 40
0.015833
 50
97.751356
 51
255.135122
  6
CONTINUOUS
  0
ARC
  8
WHITE
 10
8.746849
 20
9.715849
 30
0.000000
 40
0.343654
 50
6.815745
 51
75.135116
  6
CONTINUOUS
  0
ARC
  8
WHITE
 10
9.072354
 20
9.754753
 30
0.000000
 40
0.015833
 50
-118.270440
 51
6.815742
  6
CONTINUOUS
  0
ARC
  8
WHITE
 10
8.710642
 20
9.082150
 30
0.000000
 40
0.747862
 50
61.729564
 51
107.248719
  6
CONTINUOUS
  0
ARC
  8
WHITE
 10
8.493581
 20
9.781257
 30
0.000000
 40
0.015833
 50
107.248716
 51
257.149067
  6
CONTINUOUS
  0
ARC
  8
WHITE
 10
8.445685
 20
9.571308
 30
0.000000
 40
0.199510
 50
-18.275201
 51
77.149066
  6
CONTINUOUS
  0
ARC
  8
WHITE
 10
8.520938
 20
9.572462
 30
0.000000
 40
0.130767
 50
-109.727476
 51
-29.160432
  6
CONTINUOUS
  0
ARC
  8
WHITE
 10
9.306102
 20
10.690320
 30
0.000000
 40
1.492549
 50
165.172146
 51
236.245929
  6
CONTINUOUS
  0
ARC
  8
WHITE
 10
8.533502
 20
10.827234
 30
0.000000
 40
0.713638
 50
107.537173
 51
159.916767
  6
CONTINUOUS
  0
ARC
  8
WHITE
 10
8.387138
 20
11.321346
 30
0.000000
 40
0.198607
 50
46.736626
 51
110.228789
  6
CONTINUOUS
  0
ARC
  8
WHITE
 10
8.397999
 20
11.384987
 30
0.000000
 40
0.149157
 50
0.088357
 51
32.885992
  6
CONTINUOUS
  0
ARC
  8
WHITE
 10
8.896478
 20
11.361248
 30
0.000000
 40
0.350143
 50
176.074815
 51
288.732413
  6
CONTINUOUS
  0
ARC
  8
WHITE
 10
9.003841
 20
11.044647
 30
0.000000
 40
0.015833
 50
-71.267585
 51
30.096298
  6
CONTINUOUS
  0
ARC
  8
WHITE
 10
9.257939
 20
11.191920
 30
0.000000
 40
0.277859
 50
85.506821
 51
210.096295
  6
CONTINUOUS
  0
ARC
  8
WHITE
 10
9.278466
 20
11.453141
 30
0.000000
 40
0.015833
 50
29.215078
 51
85.506821
  6
CONTINUOUS
  0
ARC
  8
WHITE
 10
10.572546
 20
12.176824
 30
0.000000
 40
1.466854
 50
-150.784923
 51
-102.391651
  6
CONTINUOUS
  0
ARC
  8
WHITE
 10
10.254372
 20
10.728678
 30
0.000000
 40
0.015833
 50
4.456901
 51
77.608351
  6
CONTINUOUS
  0
ARC
  8
WHITE
 10
11.644305
 20
10.837016
 30
0.000000
 40
1.378315
 50
-175.543100
 51
-160.587766
  6
CONTINUOUS
  0
ARC
  8
WHITE
 10
10.359278
 20
10.384178
 30
0.000000
 40
0.015833
 50
-160.587768
 51
-43.673070
  6
CONTINUOUS
  0
ARC
  8
WHITE
 10
12.113936
 20
8.708967
 30
0.000000
 40
2.410101
 50
114.323312
 51
136.326930
  6
CONTINUOUS
  0
ARC
  8
WHITE
 10
11.127773
 20
10.890710
 30
0.000000
 40
0.015833
 50
-32.114889
 51
114.323312
  6
CONTINUOUS
  0
ARC
  8
WHITE
 10
13.572878
 20
9.356013
 30
0.000000
 40
2.871004
 50
147.885115
 51
172.245049
  6
CONTINUOUS
  0
ARC
  8
WHITE
 10
13.024979
 20
9.334669
 30
0.000000
 40
2.332935
 50
169.909270
 51
196.868597
  6
CONTINUOUS
  0
ARC
  8
WHITE
 10
7.472038
 20
7.382460
 30
0.000000
 40
3.556853
 50
5.887194
 51
21.010036
  6
CONTINUOUS
  0
ARC
  8
WHITE
 10
10.769570
 20
7.768391
 30
0.000000
 40
0.241486
 50
-41.383573
 51
-5.013607
  6
CONTINUOUS
  0
ARC
  8
WHITE
 10
10.828241
 20
7.749126
 30
0.000000
 40
0.186324
 50
-120.723657
 51
-48.887484
  6
CONTINUOUS
  0
ARC
  8
WHITE
 10
11.291862
 20
8.387345
 30
0.000000
 40
0.974526
 50
-177.064227
 51
-124.989123
  6
CONTINUOUS
  0
ARC
  8
WHITE
 10
10.302802
 20
8.336622
 30
0.000000
 40
0.015833
 50
2.935774
 51
155.217060
  6
CONTINUOUS
  0
ARC
  8
WHITE
 10
11.075630
 20
7.979805
 30
0.000000
 40
0.867057
 50
155.217058
 51
265.689868
  6
CONTINUOUS
  0
ARC
  8
WHITE
 10
11.009277
 20
7.099412
 30
0.000000
 40
0.015833
 50
-16.449786
 51
85.689872
  6
CONTINUOUS
  0
ARC
  8
WHITE
 10
9.766330
 20
7.466404
 30
0.000000
 40
1.311827
 50
-47.423285
 51
-16.449786
  6
CONTINUOUS
  0
ARC
  8
WHITE
 10
9.642505
 20
7.658904
 30
0.000000
 40
1.537852
 50
-85.742681
 51
-48.878677
  6
CONTINUOUS
  0
ARC
  8
WHITE
 10
9.755493
 20
6.141086
 30
0.000000
 40
0.015833
 50
-165.297457
 51
-85.742683
  6
CONTINUOUS
  0
ARC
  8
WHITE
 10
3.607043
 20
8.692621
 30
0.000000
 40
2.399233
 50
48.778515
 51
98.814287
  6
CONTINUOUS
  0
ARC
  8
WHITE
 10
5.177636
 20
10.485337
 30
0.000000
 40
0.015833
 50
-99.082456
 51
48.778518
  6
CONTINUOUS
  0
ARC
  8
WHITE
 10
5.047841
 20
9.673407
 30
0.000000
 40
0.806406
 50
80.917548
 51
149.999709
  6
CONTINUOUS
  0
ARC
  8
WHITE
 10
5.278094
 20
9.710770
 30
0.000000
 40
0.998086
 50
158.497316
 51
216.798679
  6
CONTINUOUS
  0
ARC
  8
WHITE
 10
4.826863
 20
9.446533
 30
0.000000
 40
0.482073
 50
-136.206951
 51
-14.155380
  6
CONTINUOUS
  0
ARC
  8
WHITE
 10
6.831384
 20
9.327671
 30
0.000000
 40
1.537086
 50
152.701880
 51
179.963825
  6
CONTINUOUS
  0
ARC
  8
WHITE
 10
5.479550
 20
10.025348
 30
0.000000
 40
0.015833
 50
-9.959463
 51
152.701879
  6
CONTINUOUS
  0
ARC
  8
WHITE
 10
6.293314
 20
9.882453
 30
0.000000
 40
0.810381
 50
170.040538
 51
207.154074
  6
CONTINUOUS
  0
ARC
  8
WHITE
 10
5.726878
 20
9.607202
 30
0.000000
 40
0.181267
 50
-148.543332
 51
-12.450888
  6
CONTINUOUS
  0
ARC
  8
WHITE
 10
3.654435
 20
9.766037
 30
0.000000
 40
2.258137
 50
-5.028198
 51
24.038469
  6
CONTINUOUS
  0
ARC
  8
WHITE
 10
5.731189
 20
10.692338
 30
0.000000
 40
0.015833
 50
30.876461
 51
204.038470
  6
CONTINUOUS
  0
ARC
  8
WHITE
 10
3.552873
 20
9.389858
 30
0.000000
 40
2.553847
 50
-25.739333
 51
30.876458
  6
CONTINUOUS
  0
ARC
  8
WHITE
 10
6.578019
 20
8.043601
 30
0.000000
 40
0.762519
 50
161.877680
 51
188.916714
  6
CONTINUOUS
  0
ARC
  8
WHITE
 10
6.022694
 20
7.947208
 30
0.000000
 40
0.199175
 50
-173.717523
 51
-142.679658
  6
CONTINUOUS
  0
ARC
  8
WHITE
 10
6.042424
 20
8.011176
 30
0.000000
 40
0.256614
 50
-133.958374
 51
-72.030860
  6
CONTINUOUS
  0
ARC
  8
WHITE
 10
5.733693
 20
8.412463
 30
0.000000
 40
0.752984
 50
-58.992772
 51
9.522463
  6
CONTINUOUS
  0
ARC
  8
WHITE
 10
6.491917
 20
8.539652
 30
0.000000
 40
0.015833
 50
31.127732
 51
189.522464
  6
CONTINUOUS
  0
ARC
  8
WHITE
 10
5.783485
 20
8.111831
 30
0.000000
 40
0.843424
 50
-84.501728
 51
31.127732
  6
CONTINUOUS
  0
ARC
  8
WHITE
 10
7.903887
 20
8.741700
 30
0.000000
 40
2.513781
 50
-144.229295
 51
-81.306738
  6
CONTINUOUS
  0
ARC
  8
WHITE
 10
8.281439
 20
6.272449
 30
0.000000
 40
0.015833
 50
-81.306736
 51
40.661507
  6
CONTINUOUS
  0
ARC
  8
WHITE
 10
6.880467
 20
5.069060
 30
0.000000
 40
1.862686
 50
40.661508
 51
55.241344
  6
CONTINUOUS
  0
ARC
  8
WHITE
 10
12.099298
 20
12.430093
 30
0.000000
 40
7.160792
 50
-131.350054
 51
-125.486056
  6
CONTINUOUS
  0
ARC
  8
WHITE
 10
7.793062
 20
7.415314
 30
0.000000
 40
0.557147
 50
-161.190648
 51
-139.648883
  6
CONTINUOUS
  0
ARC
  8
WHITE
 10
7.250681
 20
7.230574
 30
0.000000
 40
0.015833
 50
18.809351
 51
167.896054
  6
CONTINUOUS
  0
ARC
  8
WHITE
 10
8.117495
 20
7.044683
 30
0.000000
 40
0.902356
 50
167.896055
 51
192.001080
  6
CONTINUOUS
  0
ARC
  8
WHITE
 10
7.219374
 20
6.853763
 30
0.000000
 40
0.015833
 50
-138.425240
 51
12.001076
  6
CONTINUOUS
  0
ARC
  8
WHITE
 10
8.589432
 20
8.069079
 30
0.000000
 40
1.847241
 50
-163.062176
 51
-138.425241
  6
CONTINUOUS
  0
ARC
  8
WHITE
 10
8.728447
 20
7.995662
 30
0.000000
 40
1.961963
 50
134.914019
 51
193.702348
  6
CONTINUOUS
  0
ARC
  8
WHITE
 10
7.332034
 20
9.396272
 30
0.000000
 40
0.015833
 50
-45.085986
 51
39.505629
  6
CONTINUOUS
  0
ARC
  8
WHITE
 10
9.348377
 20
11.058749
 30
0.000000
 40
2.597492
 50
-176.450840
 51
-140.494376
  6
CONTINUOUS
  0
ARC
  8
WHITE
 10
6.740064
 20
10.896972
 30
0.000000
 40
0.015833
 50
3.549166
 51
95.671265
  6
CONTINUOUS
  0
ARC
  8
WHITE
 10
6.771741
 20
10.577982
 30
0.000000
 40
0.336393
 50
95.671265
 51
164.004520
  6
CONTINUOUS
  0
ARC
  8
WHITE
 10
6.433152
 20
10.675041
 30
0.000000
 40
0.015833
 50
-130.545339
 51
-15.995482
  6
CONTINUOUS
  0
ARC
  8
WHITE
 10
4.493404
 20
8.407523
 30
0.000000
 40
2.968168
 50
49.454658
 51
115.186780
  6
CONTINUOUS
  0
ARC
  8
WHITE
 10
3.236977
 20
11.079166
 30
0.000000
 40
0.015833
 50
115.186780
 51
278.814289
  6
CONTINUOUS
  0
ARC
  8
WHITE
 10
15.283012
 20
13.362804
 30
0.000000
 40
1.004065
 50
-109.858539
 51
-89.798782
  6
CONTINUOUS
  0
ARC
  8
WHITE
 10
14.936553
 20
12.403555
 30
0.000000
 40
0.015833
 50
70.141458
 51
227.859508
  6
CONTINUOUS
  0
ARC
  8
WHITE
 10
14.412469
 20
11.824363
 30
0.000000
 40
0.765273
 50
22.372241
 51
47.859505
  6
CONTINUOUS
  0
ARC
  8
WHITE
 10
15.105499
 20
12.109617
 30
0.000000
 40
0.015833
 50
-26.158871
 51
22.372241
  6
CONTINUOUS
  0
ARC
  8
WHITE
 10
16.258059
 20
11.543514
 30
0.000000
 40
1.268249
 50
153.841130
 51
172.573504
  6
CONTINUOUS
  0
ARC
  8
WHITE
 10
23.276362
 20
9.900228
 30
0.000000
 40
8.470936
 50
167.681686
 51
176.010113
  6
CONTINUOUS
  0
ARC
  8
WHITE
 10
14.810162
 20
10.490741
 30
0.000000
 40
0.015833
 50
-154.987021
 51
-3.989889
  6
CONTINUOUS
  0
ARC
  8
WHITE
 10
5.106252
 20
5.963057
 30
0.000000
 40
10.692377
 50
25.012978
 51
42.667855
  6
CONTINUOUS
  0
ARC
  8
WHITE
 10
13.200542
 20
13.345821
 30
0.000000
 40
0.269147
 50
145.844354
 51
210.359593
  6
CONTINUOUS
  0
ARC
  8
WHITE
 10
13.037573
 20
13.445543
 30
0.000000
 40
0.078812
 50
79.724133
 51
139.304303
  6
CONTINUOUS
  0
ARC
  8
WHITE
 10
12.938781
 20
12.989111
 30
0.000000
 40
0.545774
 50
38.701126
 51
78.066762
  6
CONTINUOUS
  0
ARC
  8
WHITE
 10
13.377070
 20
13.340261
 30
0.000000
 40
0.015833
 50
-141.298874
 51
19.878915
  6
CONTINUOUS
  0
ARC
  8
WHITE
 10
11.760708
 20
12.755819
 30
0.000000
 40
1.734611
 50
19.878911
 51
31.360108
  6
CONTINUOUS
  0
ARC
  8
WHITE
 10
13.255534
 20
13.670941
 30
0.000000
 40
0.018421
 50
103.899581
 51
222.328022
  6
CONTINUOUS
  0
ARC
  8
WHITE
 10
13.387910
 20
12.741390
 30
0.000000
 40
0.957258
 50
70.588032
 51
98.216219
  6
CONTINUOUS
  0
ARC
  8
WHITE
 10
13.711325
 20
13.659165
 30
0.000000
 40
0.015833
 50
-109.411970
 51
51.577627
  6
CONTINUOUS
  0
ARC
  8
WHITE
 10
12.617001
 20
12.279578
 30
0.000000
 40
1.776743
 50
51.577627
 51
82.479164
  6
CONTINUOUS
  0
ARC
  8
WHITE
 10
12.790178
 20
13.462511
 30
0.000000
 40
0.581565
 50
84.140165
 51
95.859835
  6
CONTINUOUS
  0
ARC
  8
WHITE
 10
12.731477
 20
14.001453
 30
0.000000
 40
0.039589
 50
90.974628
 51
269.025372
  6
CONTINUOUS
  0
ARC
  8
WHITE
 10
12.641660
 20
13.655019
 30
0.000000
 40
0.319538
 50
16.199080
 51
73.800921
  6
CONTINUOUS
  0
ARC
  8
WHITE
 10
12.749742
 20
13.711460
 30
0.000000
 40
0.201442
 50
-113.305007
 51
9.342649
  6
CONTINUOUS
  0
ARC
  8
WHITE
 10
8.030814
 20
8.877778
 30
0.000000
 40
6.567546
 50
45.058249
 51
51.600427
  6
CONTINUOUS
  0
ARC
  8
WHITE
 10
12.120027
 20
14.037160
 30
0.000000
 40
0.015833
 50
173.690661
 51
231.600431
  6
CONTINUOUS
  0
ARC
  8
WHITE
 10
10.380800
 20
14.229459
 30
0.000000
 40
1.733992
 50
-6.309336
 51
9.406715
  6
CONTINUOUS
  0
ARC
  8
WHITE
 10
12.107095
 20
14.515454
 30
0.000000
 40
0.015833
 50
80.386509
 51
189.406719
  6
CONTINUOUS
  0
ARC
  8
WHITE
 10
10.206882
 20
3.296787
 30
0.000000
 40
11.394291
 50
57.508119
 51
80.386508
  6
CONTINUOUS
  0
ARC
  8
WHITE
 10
16.319163
 20
12.894147
 30
0.000000
 40
0.015833
 50
-85.450716
 51
57.508120
  6
CONTINUOUS
  0
ARC
  8
WHITE
 10
16.442593
 20
11.342877
 30
0.000000
 40
1.540339
 50
94.549284
 51
135.770260
  6
CONTINUOUS
  0
ARC
  8
WHITE
 10
16.258059
 20
11.543514
 30
0.000000
 40
1.268249
 50
136.450041
 51
139.999028
  6
CONTINUOUS
  0
ARC
  8
WHITE
 10
1.550632
 20
13.362804
 30
0.000000
 40
1.004065
 50
-89.778061
 51
-70.141461
  6
CONTINUOUS
  0
ARC
  8
WHITE
 10
1.897091
 20
12.403555
 30
0.000000
 40
0.015833
 50
-47.859506
 51
109.858542
  6
CONTINUOUS
  0
ARC
  8
WHITE
 10
2.421174
 20
11.824363
 30
0.000000
 40
0.765273
 50
132.140495
 51
157.627759
  6
CONTINUOUS
  0
ARC
  8
WHITE
 10
1.728145
 20
12.109617
 30
0.000000
 40
0.015833
 50
157.627760
 51
206.158870
  6
CONTINUOUS
  0
ARC
  8
WHITE
 10
0.575584
 20
11.543514
 30
0.000000
 40
1.268249
 50
7.426496
 51
26.158870
  6
CONTINUOUS
  0
ARC
  8
WHITE
 10
-6.442718
 20
9.900228
 30
0.000000
 40
8.470936
 50
3.989887
 51
12.318314
  6
CONTINUOUS
  0
ARC
  8
WHITE
 10
2.023482
 20
10.490741
 30
0.000000
 40
0.015833
 50
-176.010112
 51
-25.012983
  6
CONTINUOUS
  0
ARC
  8
WHITE
 10
11.727391
 20
5.963057
 30
0.000000
 40
10.692377
 50
137.332145
 51
154.987022
  6
CONTINUOUS
  0
ARC
  8
WHITE
 10
3.633101
 20
13.345821
 30
0.000000
 40
0.269147
 50
-30.359593
 51
34.155646
  6
CONTINUOUS
  0
ARC
  8
WHITE
 10
3.796071
 20
13.445543
 30
0.000000
 40
0.078812
 50
40.695698
 51
100.275868
  6
CONTINUOUS
  0
ARC
  8
WHITE
 10
3.894862
 20
12.989111
 30
0.000000
 40
0.545774
 50
101.933238
 51
141.298874
  6
CONTINUOUS
  0
ARC
  8
WHITE
 10
3.456574
 20
13.340261
 30
0.000000
 40
0.015833
 50
160.121083
 51
321.298874
  6
CONTINUOUS
  0
ARC
  8
WHITE
 10
5.072935
 20
12.755819
 30
0.000000
 40
1.734611
 50
148.639892
 51
160.121089
  6
CONTINUOUS
  0
ARC
  8
WHITE
 10
3.578109
 20
13.670941
 30
0.000000
 40
0.018421
 50
-42.328022
 51
76.100422
  6
CONTINUOUS
  0
ARC
  8
WHITE
 10
3.445733
 20
12.741390
 30
0.000000
 40
0.957258
 50
81.783781
 51
109.411968
  6
CONTINUOUS
  0
ARC
  8
WHITE
 10
3.122318
 20
13.659165
 30
0.000000
 40
0.015833
 50
128.422376
 51
289.411962
  6
CONTINUOUS
  0
ARC
  8
WHITE
 10
4.216642
 20
12.279578
 30
0.000000
 40
1.776743
 50
97.520836
 51
128.422373
  6
CONTINUOUS
  0
ARC
  8
WHITE
 10
4.043465
 20
13.462511
 30
0.000000
 40
0.581565
 50
84.140165
 51
95.859835
  6
CONTINUOUS
  0
ARC
  8
WHITE
 10
4.102167
 20
14.001453
 30
0.000000
 40
0.039589
 50
-89.025372
 51
89.025372
  6
CONTINUOUS
  0
ARC
  8
WHITE
 10
4.191984
 20
13.655019
 30
0.000000
 40
0.319538
 50
106.199079
 51
163.800920
  6
CONTINUOUS
  0
ARC
  8
WHITE
 10
4.083902
 20
13.711460
 30
0.000000
 40
0.201442
 50
170.657351
 51
293.305007
  6
CONTINUOUS
  0
ARC
  8
WHITE
 10
8.802830
 20
8.877778
 30
0.000000
 40
6.567546
 50
128.810311
 51
134.941751
  6
CONTINUOUS
  0
ARC
  8
WHITE
 10
4.676736
 20
14.007713
 30
0.000000
 40
0.015833
 50
-51.189690
 51
22.558176
  6
CONTINUOUS
  0
ARC
  8
WHITE
 10
5.517238
 20
14.356861
 30
0.000000
 40
0.894302
 50
171.174108
 51
202.558177
  6
CONTINUOUS
  0
ARC
  8
WHITE
 10
4.617879
 20
14.496505
 30
0.000000
 40
0.015833
 50
-8.825894
 51
100.168949
  6
CONTINUOUS
  0
ARC
  8
WHITE
 10
6.626761
 20
3.296787
 30
0.000000
 40
11.394291
 50
100.168951
 51
122.491881
  6
CONTINUOUS
  0
ARC
  8
WHITE
 10
0.514480
 20
12.894147
 30
0.000000
 40
0.015833
 50
122.491883
 51
265.450715
  6
CONTINUOUS
  0
ARC
  8
WHITE
 10
0.391050
 20
11.342877
 30
0.000000
 40
1.540339
 50
44.229740
 51
85.450716
  6
CONTINUOUS
  0
ARC
  8
WHITE
 10
0.575584
 20
11.543514
 30
0.000000
 40
1.268249
 50
40.331276
 51
43.549959
  6
CONTINUOUS
  0
ARC
  8
WHITE
 10
1.554460
 20
12.374580
 30
0.000000
 40
0.015833
 50
-139.668723
 51
-89.778059
  6
CONTINUOUS
  0
ARC
  8
WHITE
 10
13.840886
 20
12.045168
 30
0.000000
 40
2.760762
 50
20.702157
 51
44.980735
  6
CONTINUOUS
  0
LINE
  8
WHITE
 10
15.793695
 20
13.996665
 30
0.000000
 11
15.674755
 21
14.115605
 31
0.000000
  6
CONTINUOUS
  0
ARC
  8
WHITE
 10
16.112473
 20
14.623405
 30
0.000000
 40
0.670416
 50
-169.695375
 51
-130.760944
  6
CONTINUOUS
  0
ARC
  8
WHITE
 10
15.437292
 20
14.500648
 30
0.000000
 40
0.015833
 50
10.304630
 51
62.868497
  6
CONTINUOUS
  0
ARC
  8
WHITE
 10
14.803888
 20
13.264544
 30
0.000000
 40
1.404773
 50
62.868496
 51
74.057008
  6
CONTINUOUS
  0
ARC
  8
WHITE
 10
15.194102
 20
14.630507
 30
0.000000
 40
0.015833
 50
98.034000
 51
254.057004
  6
CONTINUOUS
  0
ARC
  8
WHITE
 10
15.113218
 20
15.203554
 30
0.000000
 40
0.562893
 50
-81.966002
 51
-50.706390
  6
CONTINUOUS
  0
ARC
  8
WHITE
 10
15.947524
 20
14.598558
 30
0.000000
 40
0.506957
 50
130.836419
 51
160.483112
  6
CONTINUOUS
  0
ARC
  8
WHITE
 10
17.000665
 20
13.363321
 30
0.000000
 40
2.130190
 50
108.115300
 51
130.542199
  6
CONTINUOUS
  0
ARC
  8
WHITE
 10
16.333401
 20
15.402972
 30
0.000000
 40
0.015833
 50
-71.884700
 51
82.694788
  6
CONTINUOUS
  0
ARC
  8
WHITE
 10
15.187460
 20
6.463951
 30
0.000000
 40
9.028008
 50
82.694791
 51
99.854103
  6
CONTINUOUS
  0
ARC
  8
WHITE
 10
15.293405
 20
6.476323
 30
0.000000
 40
9.034577
 50
100.529518
 51
105.031689
  6
CONTINUOUS
  0
ARC
  8
WHITE
 10
13.644046
 20
13.155108
 30
0.000000
 40
2.161047
 50
108.725971
 51
135.238455
  6
CONTINUOUS
  0
ARC
  8
WHITE
 10
12.120850
 20
14.665677
 30
0.000000
 40
0.015833
 50
135.238455
 51
260.443785
  6
CONTINUOUS
  0
ARC
  8
WHITE
 10
10.206882
 20
3.296787
 30
0.000000
 40
11.513041
 50
76.546545
 51
80.443787
  6
CONTINUOUS
  0
ARC
  8
WHITE
 10
12.845854
 20
14.737444
 30
0.000000
 40
0.246741
 50
-80.764821
 51
-35.203125
  6
CONTINUOUS
  0
ARC
  8
WHITE
 10
12.932438
 20
14.686741
 30
0.000000
 40
0.147009
 50
-38.511297
 51
59.120990
  6
CONTINUOUS
  0
ARC
  8
WHITE
 10
12.272405
 20
12.029545
 30
0.000000
 40
2.878900
 50
75.198369
 51
82.681909
  6
CONTINUOUS
  0
ARC
  8
WHITE
 10
12.639993
 20
14.899653
 30
0.000000
 40
0.014685
 50
123.700176
 51
266.562754
  6
CONTINUOUS
  0
ARC
  8
WHITE
 10
13.452724
 20
13.623689
 30
0.000000
 40
1.527499
 50
112.532895
 51
122.506890
  6
CONTINUOUS
  0
LINE
  8
WHITE
 10
12.867366
 20
15.034578
 30
0.000000
 11
12.890883
 21
15.043427
 31
0.000000
  6
CONTINUOUS
  0
ARC
  8
WHITE
 10
14.014760
 20
11.749494
 30
0.000000
 40
3.480386
 50
93.469593
 51
108.839438
  6
CONTINUOUS
  0
ARC
  8
WHITE
 10
13.794799
 20
15.186871
 30
0.000000
 40
0.037801
 50
-82.775243
 51
75.708300
  6
CONTINUOUS
  0
ARC
  8
WHITE
 10
13.803295
 20
14.306212
 30
0.000000
 40
0.843167
 50
90.254252
 51
127.932732
  6
CONTINUOUS
  0
ARC
  8
WHITE
 10
13.381064
 20
14.931662
 30
0.000000
 40
0.103928
 50
157.612171
 51
202.387829
  6
CONTINUOUS
  0
ARC
  8
WHITE
 10
13.397035
 20
14.944768
 30
0.000000
 40
0.123833
 50
-154.818390
 51
-115.181612
  6
CONTINUOUS
  0
ARC
  8
WHITE
 10
11.799412
 20
10.845220
 30
0.000000
 40
4.276312
 50
64.781464
 51
68.821355
  6
CONTINUOUS
  0
ARC
  8
WHITE
 10
13.607488
 20
14.696184
 30
0.000000
 40
0.022585
 50
-105.016581
 51
51.886479
  6
CONTINUOUS
  0
ARC
  8
WHITE
 10
13.425849
 20
14.139449
 30
0.000000
 40
0.563065
 50
71.808269
 51
80.119244
  6
CONTINUOUS
  0
ARC
  8
WHITE
 10
13.403720
 20
13.338634
 30
0.000000
 40
1.360720
 50
84.993429
 51
95.006571
  6
CONTINUOUS
  0
ARC
  8
WHITE
 10
13.305795
 20
14.566699
 30
0.000000
 40
0.129153
 50
99.278919
 51
158.040697
  6
CONTINUOUS
  0
ARC
  8
WHITE
 10
13.411125
 20
14.588700
 30
0.000000
 40
0.226644
 50
173.337638
 51
246.715096
  6
CONTINUOUS
  0
ARC
  8
WHITE
 10
10.206882
 20
3.296787
 30
0.000000
 40
11.513041
 50
57.457362
 51
74.304056
  6
CONTINUOUS
  0
ARC
  8
WHITE
 10
16.408576
 20
13.015528
 30
0.000000
 40
0.015833
 50
-122.542637
 51
20.702152
  6
CONTINUOUS
  0
ARC
  8
WHITE
 10
3.987789
 20
14.737444
 30
0.000000
 40
0.246741
 50
-144.796875
 51
-99.235179
  6
CONTINUOUS
  0
ARC
  8
WHITE
 10
3.901206
 20
14.686741
 30
0.000000
 40
0.147009
 50
120.879010
 51
218.511297
  6
CONTINUOUS
  0
ARC
  8
WHITE
 10
4.561239
 20
12.029545
 30
0.000000
 40
2.878900
 50
97.318091
 51
104.801631
  6
CONTINUOUS
  0
ARC
  8
WHITE
 10
4.193651
 20
14.899653
 30
0.000000
 40
0.014685
 50
-86.562758
 51
56.299828
  6
CONTINUOUS
  0
ARC
  8
WHITE
 10
3.380919
 20
13.623689
 30
0.000000
 40
1.527499
 50
57.493110
 51
67.467105
  6
CONTINUOUS
  0
LINE
  8
WHITE
 10
3.966278
 20
15.034578
 30
0.000000
 11
3.942761
 21
15.043427
 31
0.000000
  6
CONTINUOUS
  0
ARC
  8
WHITE
 10
2.818884
 20
11.749494
 30
0.000000
 40
3.480386
 50
71.160562
 51
86.530407
  6
CONTINUOUS
  0
ARC
  8
WHITE
 10
3.038844
 20
15.186871
 30
0.000000
 40
0.037801
 50
104.291700
 51
262.775243
  6
CONTINUOUS
  0
ARC
  8
WHITE
 10
3.030349
 20
14.306212
 30
0.000000
 40
0.843167
 50
52.067268
 51
89.745748
  6
CONTINUOUS
  0
ARC
  8
WHITE
 10
3.452579
 20
14.931662
 30
0.000000
 40
0.103928
 50
-22.387829
 51
22.387829
  6
CONTINUOUS
  0
ARC
  8
WHITE
 10
3.436609
 20
14.944768
 30
0.000000
 40
0.123833
 50
-64.818389
 51
-25.181611
  6
CONTINUOUS
  0
ARC
  8
WHITE
 10
5.034232
 20
10.845220
 30
0.000000
 40
4.276312
 50
111.178645
 51
115.218536
  6
CONTINUOUS
  0
ARC
  8
WHITE
 10
3.226155
 20
14.696184
 30
0.000000
 40
0.022585
 50
128.113519
 51
285.016584
  6
CONTINUOUS
  0
ARC
  8
WHITE
 10
3.407794
 20
14.139449
 30
0.000000
 40
0.563065
 50
99.880756
 51
108.191731
  6
CONTINUOUS
  0
ARC
  8
WHITE
 10
3.429924
 20
13.338634
 30
0.000000
 40
1.360720
 50
84.993429
 51
95.006571
  6
CONTINUOUS
  0
ARC
  8
WHITE
 10
3.527849
 20
14.566699
 30
0.000000
 40
0.129153
 50
21.959303
 51
80.721081
  6
CONTINUOUS
  0
ARC
  8
WHITE
 10
3.422519
 20
14.588700
 30
0.000000
 40
0.226644
 50
-66.715096
 51
6.662362
  6
CONTINUOUS
  0
ARC
  8
WHITE
 10
6.626761
 20
3.296787
 30
0.000000
 40
11.513041
 50
105.695944
 51
122.542638
  6
CONTINUOUS
  0
ARC
  8
WHITE
 10
0.425067
 20
13.015528
 30
0.000000
 40
0.015833
 50
159.297842
 51
302.542636
  6
CONTINUOUS
  0
ARC
  8
WHITE
 10
2.992758
 20
12.045168
 30
0.000000
 40
2.760762
 50
135.019265
 51
159.297843
  6
CONTINUOUS
  0
LINE
  8
WHITE
 10
1.039948
 20
13.996665
 30
0.000000
 11
1.158888
 21
14.115605
 31
0.000000
  6
CONTINUOUS
  0
ARC
  8
WHITE
 10
0.721171
 20
14.623405
 30
0.000000
 40
0.670416
 50
-49.239056
 51
-10.304625
  6
CONTINUOUS
  0
ARC
  8
WHITE
 10
1.396351
 20
14.500648
 30
0.000000
 40
0.015833
 50
117.131503
 51
169.695377
  6
CONTINUOUS
  0
ARC
  8
WHITE
 10
2.029755
 20
13.264544
 30
0.000000
 40
1.404773
 50
105.942992
 51
117.131504
  6
CONTINUOUS
  0
ARC
  8
WHITE
 10
1.639542
 20
14.630507
 30
0.000000
 40
0.015833
 50
-74.057006
 51
81.966000
  6
CONTINUOUS
  0
ARC
  8
WHITE
 10
1.720425
 20
15.203554
 30
0.000000
 40
0.562893
 50
-129.293610
 51
-98.033998
  6
CONTINUOUS
  0
ARC
  8
WHITE
 10
0.886120
 20
14.598558
 30
0.000000
 40
0.506957
 50
19.516888
 51
49.163581
  6
CONTINUOUS
  0
ARC
  8
WHITE
 10
-0.167021
 20
13.363321
 30
0.000000
 40
2.130190
 50
49.457801
 51
71.884700
  6
CONTINUOUS
  0
ARC
  8
WHITE
 10
0.500242
 20
15.402972
 30
0.000000
 40
0.015833
 50
97.305205
 51
251.884704
  6
CONTINUOUS
  0
ARC
  8
WHITE
 10
1.646183
 20
6.463951
 30
0.000000
 40
9.028008
 50
80.145897
 51
97.305209
  6
CONTINUOUS
  0
ARC
  8
WHITE
 10
1.540239
 20
6.476323
 30
0.000000
 40
9.034577
 50
74.968311
 51
79.470482
  6
CONTINUOUS
  0
ARC
  8
WHITE
 10
3.189598
 20
13.155108
 30
0.000000
 40
2.161047
 50
46.257643
 51
71.274029
  6
CONTINUOUS
  0
ARC
  8
WHITE
 10
4.672835
 20
14.704931
 30
0.000000
 40
0.015833
 50
-25.832902
 51
46.257648
  6
CONTINUOUS
  0
ARC
  8
WHITE
 10
5.152709
 20
14.472610
 30
0.000000
 40
0.517320
 50
154.167095
 51
159.967653
  6
CONTINUOUS
  0
ARC
  8
WHITE
 10
4.651812
 20
14.655243
 30
0.000000
 40
0.015833
 50
-80.136321
 51
-20.032354
  6
CONTINUOUS
  0
ARC
  8
WHITE
 10
6.626761
 20
3.296787
 30
0.000000
 40
11.513041
 50
99.863680
 51
103.453455
  6
CONTINUOUS
  0
ARC
  8
WHITE
 10
11.741053
 20
9.539943
 30
0.000000
 40
0.766312
 50
23.048733
 51
101.018171
  6
CONTINUOUS
  0
ARC
  8
WHITE
 10
11.707453
 20
9.502725
 30
0.000000
 40
0.812075
 50
-37.004641
 51
24.537021
  6
CONTINUOUS
  0
ARC
  8
WHITE
 10
11.896118
 20
9.515033
 30
0.000000
 40
0.680102
 50
-92.945255
 51
-47.456992
  6
CONTINUOUS
  0
ARC
  8
WHITE
 10
11.846778
 20
9.163781
 30
0.000000
 40
0.328268
 50
-177.684147
 51
-87.486540
  6
CONTINUOUS
  0
ARC
  8
WHITE
 10
10.160433
 20
9.165627
 30
0.000000
 40
1.358429
 50
-0.637379
 51
35.971406
  6
CONTINUOUS
  0
ARC
  8
WHITE
 10
11.247009
 20
9.954243
 30
0.000000
 40
0.015833
 50
35.971413
 51
200.925643
  6
CONTINUOUS
  0
ARC
  8
WHITE
 10
10.464692
 20
9.655104
 30
0.000000
 40
0.821725
 50
-21.764683
 51
20.925646
  6
CONTINUOUS
  0
ARC
  8
WHITE
 10
11.066843
 20
9.431671
 30
0.000000
 40
0.180342
 50
-166.638460
 51
-26.781213
  6
CONTINUOUS
  0
ARC
  8
WHITE
 10
13.622166
 20
9.578016
 30
0.000000
 40
2.737249
 50
149.598974
 51
183.938732
  6
CONTINUOUS
  0
ARC
  8
WHITE
 10
12.420094
 20
8.404704
 30
0.000000
 40
2.808693
 50
70.778239
 51
114.367190
  6
CONTINUOUS
  0
ARC
  8
WHITE
 10
13.339575
 20
11.041866
 30
0.000000
 40
0.015833
 50
-92.376649
 51
70.778238
  6
CONTINUOUS
  0
ARC
  8
WHITE
 10
13.243356
 20
8.723591
 30
0.000000
 40
2.304437
 50
87.623349
 51
136.198696
  6
CONTINUOUS
  0
ARC
  8
WHITE
 10
11.591570
 20
10.307670
 30
0.000000
 40
0.015833
 50
136.198698
 51
281.018170
  6
CONTINUOUS
  0
ARC
  8
WHITE
 10
12.475688
 20
11.940219
 30
0.000000
 40
0.617775
 50
111.639576
 51
127.536510
  6
CONTINUOUS
  0
ARC
  8
WHITE
 10
12.242034
 20
12.529172
 30
0.000000
 40
0.015833
 50
-68.360423
 51
-4.454229
  6
CONTINUOUS
  0
ARC
  8
WHITE
 10
10.930826
 20
12.631313
 30
0.000000
 40
1.331013
 50
-4.454228
 51
31.966096
  6
CONTINUOUS
  0
ARC
  8
WHITE
 10
12.073439
 20
13.344357
 30
0.000000
 40
0.015833
 50
76.110194
 51
211.966092
  6
CONTINUOUS
  0
ARC
  8
WHITE
 10
11.888517
 20
12.596549
 30
0.000000
 40
0.786166
 50
16.869962
 51
76.110196
  6
CONTINUOUS
  0
ARC
  8
WHITE
 10
12.625698
 20
12.820100
 30
0.000000
 40
0.015833
 50
-137.563244
 51
16.869967
  6
CONTINUOUS
  0
LINE
  8
WHITE
 10
12.614013
 20
12.809416
 30
0.000000
 11
12.573674
 21
12.853537
 31
0.000000
  6
CONTINUOUS
  0
ARC
  8
WHITE
 10
12.491171
 20
12.804171
 30
0.000000
 40
0.096144
 50
30.894281
 51
185.975617
  6
CONTINUOUS
  0
ARC
  8
WHITE
 10
28.476893
 20
15.697699
 30
0.000000
 40
16.341363
 50
-169.765330
 51
-168.973219
  6
CONTINUOUS
  0
ARC
  8
WHITE
 10
12.452766
 20
12.575151
 30
0.000000
 40
0.015833
 50
-168.973218
 51
-82.690479
  6
CONTINUOUS
  0
ARC
  8
WHITE
 10
12.550382
 20
11.814148
 30
0.000000
 40
0.751404
 50
24.460263
 51
97.309519
  6
CONTINUOUS
  0
ARC
  8
WHITE
 10
13.219934
 20
12.118720
 30
0.000000
 40
0.015833
 50
-135.180319
 51
24.460261
  6
CONTINUOUS
  0
ARC
  8
WHITE
 10
12.693627
 20
11.595715
 30
0.000000
 40
0.726146
 50
44.819679
 51
104.767963
  6
CONTINUOUS
  0
ARC
  8
WHITE
 10
12.512564
 20
12.282564
 30
0.000000
 40
0.015833
 50
104.767963
 51
192.074881
  6
CONTINUOUS
  0
ARC
  8
WHITE
 10
28.476893
 20
15.697699
 30
0.000000
 40
16.341363
 50
-167.925120
 51
-165.483466
  6
CONTINUOUS
  0
ARC
  8
WHITE
 10
12.672549
 20
11.605552
 30
0.000000
 40
0.015833
 50
-165.483471
 51
-90.920708
  6
CONTINUOUS
  0
ARC
  8
WHITE
 10
12.631955
 20
9.079571
 30
0.000000
 40
2.510474
 50
64.529185
 51
89.079294
  6
CONTINUOUS
  0
ARC
  8
WHITE
 10
13.718397
 20
11.360333
 30
0.000000
 40
0.015833
 50
-115.470818
 51
-14.813745
  6
CONTINUOUS
  0
ARC
  8
WHITE
 10
13.456546
 20
11.429584
 30
0.000000
 40
0.286686
 50
-14.813751
 51
23.331486
  6
CONTINUOUS
  0
ARC
  8
WHITE
 10
13.734329
 20
11.549397
 30
0.000000
 40
0.015833
 50
52.472988
 51
203.331490
  6
CONTINUOUS
  0
ARC
  8
WHITE
 10
12.967237
 20
10.550679
 30
0.000000
 40
1.275145
 50
16.986902
 51
52.472993
  6
CONTINUOUS
  0
ARC
  8
WHITE
 10
13.050627
 20
9.066776
 30
0.000000
 40
2.176499
 50
46.263454
 51
58.533770
  6
CONTINUOUS
  0
ARC
  8
WHITE
 10
14.566281
 20
10.650794
 30
0.000000
 40
0.015833
 50
-133.736547
 51
26.359834
  6
CONTINUOUS
  0
ARC
  8
WHITE
 10
5.106252
 20
5.963057
 30
0.000000
 40
10.573627
 50
26.359837
 51
42.892534
  6
CONTINUOUS
  0
ARC
  8
WHITE
 10
8.030814
 20
8.877778
 30
0.000000
 40
6.448796
 50
41.605154
 51
50.858452
  6
CONTINUOUS
  0
ARC
  8
WHITE
 10
12.091547
 20
13.867113
 30
0.000000
 40
0.015833
 50
50.858449
 51
165.021440
  6
CONTINUOUS
  0
ARC
  8
WHITE
 10
11.302593
 20
14.078196
 30
0.000000
 40
0.800870
 50
-77.135555
 51
-14.978562
  6
CONTINUOUS
  0
ARC
  8
WHITE
 10
11.484428
 20
13.281992
 30
0.000000
 40
0.015833
 50
102.864447
 51
198.942759
  6
CONTINUOUS
  0
ARC
  8
WHITE
 10
9.193927
 20
12.495868
 30
0.000000
 40
2.405816
 50
-6.495357
 51
18.942765
  6
CONTINUOUS
  0
ARC
  8
WHITE
 10
11.600032
 20
12.221924
 30
0.000000
 40
0.015833
 50
173.504644
 51
279.766555
  6
CONTINUOUS
  0
ARC
  8
WHITE
 10
11.418098
 20
13.278886
 30
0.000000
 40
1.088339
 50
-80.233445
 51
-51.251189
  6
CONTINUOUS
  0
ARC
  8
WHITE
 10
4.288037
 20
11.855976
 30
0.000000
 40
0.884307
 50
41.152837
 51
72.428177
  6
CONTINUOUS
  0
ARC
  8
WHITE
 10
4.559790
 20
12.714115
 30
0.000000
 40
0.015833
 50
-176.738314
 51
-107.571820
  6
CONTINUOUS
  0
ARC
  8
WHITE
 10
6.334226
 20
12.815238
 30
0.000000
 40
1.793148
 50
173.640794
 51
183.261684
  6
CONTINUOUS
  0
ARC
  8
WHITE
 10
5.612695
 20
12.863703
 30
0.000000
 40
1.071160
 50
143.112487
 51
171.942194
  6
CONTINUOUS
  0
ARC
  8
WHITE
 10
4.714343
 20
13.524415
 30
0.000000
 40
0.045250
 50
-23.100102
 51
113.100102
  6
CONTINUOUS
  0
ARC
  8
WHITE
 10
5.125330
 20
12.577300
 30
0.000000
 40
1.077691
 50
113.442697
 51
158.705658
  6
CONTINUOUS
  0
ARC
  8
WHITE
 10
4.135968
 20
12.962924
 30
0.000000
 40
0.015833
 50
158.705659
 51
315.727661
  6
CONTINUOUS
  0
ARC
  8
WHITE
 10
4.430628
 20
12.675655
 30
0.000000
 40
0.395685
 50
91.531945
 51
135.727660
  6
CONTINUOUS
  0
ARC
  8
WHITE
 10
4.420473
 20
13.055371
 30
0.000000
 40
0.015833
 50
-9.876763
 51
91.531945
  6
CONTINUOUS
  0
ARC
  8
WHITE
 10
-14.394330
 20
16.331219
 30
0.000000
 40
19.113686
 50
-10.801759
 51
-9.876768
  6
CONTINUOUS
  0
ARC
  8
WHITE
 10
4.365137
 20
12.752062
 30
0.000000
 40
0.015833
 50
-91.952081
 51
-10.801758
  6
CONTINUOUS
  0
ARC
  8
WHITE
 10
4.331771
 20
11.773100
 30
0.000000
 40
0.963698
 50
88.047918
 51
146.349786
  6
CONTINUOUS
  0
ARC
  8
WHITE
 10
3.542734
 20
12.298332
 30
0.000000
 40
0.015833
 50
146.349786
 51
311.738935
  6
CONTINUOUS
  0
ARC
  8
WHITE
 10
4.120622
 20
11.650612
 30
0.000000
 40
0.852208
 50
77.038015
 51
131.738933
  6
CONTINUOUS
  0
ARC
  8
WHITE
 10
4.308224
 20
12.465674
 30
0.000000
 40
0.015833
 50
-11.677769
 51
77.038015
  6
CONTINUOUS
  0
ARC
  8
WHITE
 10
-14.394330
 20
16.331219
 30
0.000000
 40
19.113686
 50
-13.846350
 51
-11.677766
  6
CONTINUOUS
  0
ARC
  8
WHITE
 10
4.148558
 20
11.760740
 30
0.000000
 40
0.015833
 50
-93.058007
 51
-13.846352
  6
CONTINUOUS
  0
ARC
  8
WHITE
 10
4.059844
 20
10.100136
 30
0.000000
 40
1.647139
 50
86.941993
 51
125.622235
  6
CONTINUOUS
  0
ARC
  8
WHITE
 10
3.091265
 20
11.451924
 30
0.000000
 40
0.015833
 50
-166.872633
 51
-54.377762
  6
CONTINUOUS
  0
ARC
  8
WHITE
 10
3.437316
 20
11.532627
 30
0.000000
 40
0.371170
 50
160.659890
 51
193.127367
  6
CONTINUOUS
  0
ARC
  8
WHITE
 10
3.072151
 20
11.660793
 30
0.000000
 40
0.015833
 50
-19.340113
 51
136.669335
  6
CONTINUOUS
  0
ARC
  8
WHITE
 10
4.815969
 20
10.015738
 30
0.000000
 40
2.413146
 50
136.669332
 51
159.385805
  6
CONTINUOUS
  0
ARC
  8
WHITE
 10
3.783017
 20
9.066776
 30
0.000000
 40
2.176499
 50
124.273603
 51
133.736546
  6
CONTINUOUS
  0
ARC
  8
WHITE
 10
2.267363
 20
10.650794
 30
0.000000
 40
0.015833
 50
153.640166
 51
313.736547
  6
CONTINUOUS
  0
ARC
  8
WHITE
 10
11.727391
 20
5.963057
 30
0.000000
 40
10.573627
 50
137.107466
 51
153.640163
  6
CONTINUOUS
  0
ARC
  8
WHITE
 10
8.802830
 20
8.877778
 30
0.000000
 40
6.448796
 50
129.080912
 51
138.394846
  6
CONTINUOUS
  0
ARC
  8
WHITE
 10
4.747379
 20
13.871407
 30
0.000000
 40
0.015833
 50
32.234515
 51
129.080918
  6
CONTINUOUS
  0
ARC
  8
WHITE
 10
5.517238
 20
14.356861
 30
0.000000
 40
0.894302
 50
-147.765485
 51
-102.817465
  6
CONTINUOUS
  0
ARC
  8
WHITE
 10
5.315328
 20
13.469404
 30
0.000000
 40
0.015833
 50
-16.206447
 51
77.182536
  6
CONTINUOUS
  0
ARC
  8
WHITE
 10
7.704235
 20
12.775071
 30
0.000000
 40
2.471932
 50
163.793553
 51
189.539905
  6
CONTINUOUS
  0
ARC
  8
WHITE
 10
5.250875
 20
12.362762
 30
0.000000
 40
0.015833
 50
-88.522658
 51
9.539904
  6
CONTINUOUS
  0
ARC
  8
WHITE
 10
5.238639
 20
12.837186
 30
0.000000
 40
0.490415
 50
-125.495982
 51
-88.522660
  6
CONTINUOUS
  0
ARC
  8
WHITE
 10
6.142430
 20
4.895296
 30
0.000000
 40
2.913660
 50
29.710438
 51
42.659203
  6
CONTINUOUS
  0
ARC
  8
WHITE
 10
8.296771
 20
6.880427
 30
0.000000
 40
0.015833
 50
162.601610
 51
222.659202
  6
CONTINUOUS
  0
ARC
  8
WHITE
 10
7.469403
 20
7.139683
 30
0.000000
 40
0.851203
 50
-17.398392
 51
35.060813
  6
CONTINUOUS
  0
ARC
  8
WHITE
 10
8.153188
 20
7.619557
 30
0.000000
 40
0.015833
 50
35.060810
 51
190.242684
  6
CONTINUOUS
  0
ARC
  8
WHITE
 10
7.499728
 20
7.501478
 30
0.000000
 40
0.648210
 50
-38.134803
 51
10.242684
  6
CONTINUOUS
  0
ARC
  8
WHITE
 10
7.997130
 20
7.110977
 30
0.000000
 40
0.015833
 50
-121.467665
 51
-38.134801
  6
CONTINUOUS
  0
ARC
  8
WHITE
 10
8.933545
 20
8.641006
 30
0.000000
 40
1.809673
 50
-148.880589
 51
-121.467662
  6
CONTINUOUS
  0
ARC
  8
WHITE
 10
8.731740
 20
8.503777
 30
0.000000
 40
1.566041
 50
148.684868
 51
210.637095
  6
CONTINUOUS
  0
ARC
  8
WHITE
 10
7.407364
 20
9.309489
 30
0.000000
 40
0.015833
 50
43.094399
 51
148.684870
  6
CONTINUOUS
  0
ARC
  8
WHITE
 10
9.224125
 20
11.009252
 30
0.000000
 40
2.472101
 50
-136.905602
 51
-112.012227
  6
CONTINUOUS
  0
ARC
  8
WHITE
 10
8.291637
 20
8.702678
 30
0.000000
 40
0.015833
 50
-12.011446
 51
67.987776
  6
CONTINUOUS
  0
ARC
  8
WHITE
 10
10.469068
 20
8.239396
 30
0.000000
 40
2.210337
 50
167.988553
 51
231.305034
  6
CONTINUOUS
  0
ARC
  8
WHITE
 10
9.077323
 20
6.501903
 30
0.000000
 40
0.015833
 50
-56.765042
 51
51.305036
  6
CONTINUOUS
  0
ARC
  8
WHITE
 10
8.506045
 20
7.373746
 30
0.000000
 40
1.058172
 50
-80.012847
 51
-56.765044
  6
CONTINUOUS
  0
ARC
  8
WHITE
 10
8.686815
 20
6.347202
 30
0.000000
 40
0.015833
 50
-150.289559
 51
-80.012844
  6
CONTINUOUS
  0
LINE
  8
WHITE
 10
9.525757
 20
12.992078
 30
0.000000
 11
9.525757
 21
12.932703
 31
0.000000
  6
CONTINUOUS
  0
ARC
  8
WHITE
 10
9.277705
 20
12.545118
 30
0.000000
 40
0.460166
 50
6.230372
 51
57.381038
  6
CONTINUOUS
  0
ARC
  8
WHITE
 10
10.698640
 20
12.622930
 30
0.000000
 40
0.963890
 50
-178.342956
 51
-143.863403
  6
CONTINUOUS
  0
ARC
  8
WHITE
 10
8.870768
 20
11.203360
 30
0.000000
 40
1.351201
 50
-10.654720
 51
39.044419
  6
CONTINUOUS
  0
ARC
  8
WHITE
 10
10.228361
 20
10.961143
 30
0.000000
 40
0.030646
 50
-165.628757
 51
-14.371243
  6
CONTINUOUS
  0
ARC
  8
WHITE
 10
13.491005
 20
10.353819
 30
0.000000
 40
3.288111
 50
147.268869
 51
169.491014
  6
CONTINUOUS
  0
ARC
  8
WHITE
 10
10.711671
 20
12.140253
 30
0.000000
 40
0.015833
 50
-32.731128
 51
42.802230
  6
CONTINUOUS
  0
ARC
  8
WHITE
 10
11.446905
 20
12.821141
 30
0.000000
 40
0.986253
 50
-156.877099
 51
-137.197769
  6
CONTINUOUS
  0
ARC
  8
WHITE
 10
10.554445
 20
12.440052
 30
0.000000
 40
0.015833
 50
49.212213
 51
203.122901
  6
CONTINUOUS
  0
ARC
  8
WHITE
 10
11.315164
 20
13.321734
 30
0.000000
 40
1.148665
 50
-130.787791
 51
-117.442824
  6
CONTINUOUS
  0
ARC
  8
WHITE
 10
10.793084
 20
12.316378
 30
0.000000
 40
0.015833
 50
-117.442830
 51
-22.505532
  6
CONTINUOUS
  0
ARC
  8
WHITE
 10
8.108683
 20
13.428597
 30
0.000000
 40
2.921524
 50
-22.505533
 51
-0.797932
  6
CONTINUOUS
  0
ARC
  8
WHITE
 10
10.481277
 20
12.993060
 30
0.000000
 40
0.675959
 50
35.741946
 51
83.745179
  6
CONTINUOUS
  0
ARC
  8
WHITE
 10
10.515229
 20
13.435223
 30
0.000000
 40
0.233176
 50
80.198539
 51
139.767673
  6
CONTINUOUS
  0
ARC
  8
WHITE
 10
9.074464
 20
13.395648
 30
0.000000
 40
1.276992
 50
-23.950085
 51
8.564832
  6
CONTINUOUS
  0
ARC
  8
WHITE
 10
10.227036
 20
12.883693
 30
0.000000
 40
0.015833
 50
172.503463
 51
336.049915
  6
CONTINUOUS
  0
ARC
  8
WHITE
 10
9.610411
 20
12.964835
 30
0.000000
 40
0.606108
 50
-7.496540
 51
13.937930
  6
CONTINUOUS
  0
ARC
  8
WHITE
 10
9.971659
 20
12.956777
 30
0.000000
 40
0.274349
 50
34.160801
 51
83.911685
  6
CONTINUOUS
  0
ARC
  8
WHITE
 10
9.985045
 20
12.743345
 30
0.000000
 40
0.486487
 50
88.149190
 51
115.692415
  6
CONTINUOUS
  0
ARC
  8
WHITE
 10
8.823146
 20
14.169690
 30
0.000000
 40
1.371288
 50
-59.177964
 51
-46.092240
  6
CONTINUOUS
  0
ARC
  8
WHITE
 10
7.253514
 20
10.362052
 30
0.000000
 40
0.200218
 50
-118.997567
 51
-42.363618
  6
CONTINUOUS
  0
ARC
  8
WHITE
 10
7.148778
 20
10.173085
 30
0.000000
 40
0.015833
 50
61.002432
 51
210.173491
  6
CONTINUOUS
  0
ARC
  8
WHITE
 10
7.348689
 20
10.289312
 30
0.000000
 40
0.247077
 50
-149.826514
 51
-65.621727
  6
CONTINUOUS
  0
ARC
  8
WHITE
 10
9.514363
 20
10.776793
 30
0.000000
 40
2.183235
 50
-160.951805
 51
-143.611488
  6
CONTINUOUS
  0
ARC
  8
WHITE
 10
7.601855
 20
9.499261
 30
0.000000
 40
0.155982
 50
-89.885337
 51
-6.511443
  6
CONTINUOUS
  0
ARC
  8
WHITE
 10
7.602199
 20
9.327446
 30
0.000000
 40
0.015833
 50
90.114669
 51
245.520705
  6
CONTINUOUS
  0
ARC
  8
WHITE
 10
7.674690
 20
9.486666
 30
0.000000
 40
0.190779
 50
-114.479295
 51
-33.136162
  6
CONTINUOUS
  0
ARC
  8
WHITE
 10
9.514363
 20
10.776793
 30
0.000000
 40
2.183235
 50
-140.305725
 51
-127.024457
  6
CONTINUOUS
  0
ARC
  8
WHITE
 10
9.404799
 20
10.705761
 30
0.000000
 40
2.061035
 50
-125.781707
 51
-125.183336
  6
CONTINUOUS
  0
ARC
  8
WHITE
 10
8.122787
 20
9.041705
 30
0.000000
 40
0.096644
 50
-78.513502
 51
-12.218494
  6
CONTINUOUS
  0
ARC
  8
WHITE
 10
8.145186
 20
8.931480
 30
0.000000
 40
0.015833
 50
101.486504
 51
252.203478
  6
CONTINUOUS
  0
ARC
  8
WHITE
 10
8.182194
 20
9.046773
 30
0.000000
 40
0.136920
 50
-107.796518
 51
-34.572300
  6
CONTINUOUS
  0
ARC
  8
WHITE
 10
9.404799
 20
10.705761
 30
0.000000
 40
2.061035
 50
-122.581467
 51
-116.145806
  6
CONTINUOUS
  0
ARC
  8
WHITE
 10
8.512001
 20
8.912875
 30
0.000000
 40
0.059293
 50
-105.064785
 51
85.312514
  6
CONTINUOUS
  0
ARC
  8
WHITE
 10
9.492375
 20
10.779599
 30
0.000000
 40
2.054065
 50
-164.261289
 51
-118.354511
  6
CONTINUOUS
  0
ARC
  8
WHITE
 10
9.612807
 20
10.768671
 30
0.000000
 40
2.167448
 50
147.301763
 51
194.597022
  6
CONTINUOUS
  0
ARC
  8
WHITE
 10
9.717272
 20
10.708938
 30
0.000000
 40
2.287635
 50
118.907107
 51
147.456198
  6
CONTINUOUS
  0
ARC
  8
WHITE
 10
7.341476
 20
15.471959
 30
0.000000
 40
3.038540
 50
-65.294454
 51
-41.285929
  6
CONTINUOUS
  0
ARC
  8
WHITE
 10
8.511730
 20
14.552802
 30
0.000000
 40
1.554841
 50
-44.289625
 51
5.216315
  6
CONTINUOUS
  0
ARC
  8
WHITE
 10
8.758627
 20
14.511044
 30
0.000000
 40
1.314324
 50
8.008789
 51
64.420954
  6
CONTINUOUS
  0
ARC
  8
WHITE
 10
8.907897
 20
14.972597
 30
0.000000
 40
0.836061
 50
59.986876
 51
78.744467
  6
CONTINUOUS
  0
ARC
  8
WHITE
 10
9.074174
 20
15.808107
 30
0.000000
 40
0.015833
 50
160.653537
 51
258.744470
  6
CONTINUOUS
  0
ARC
  8
WHITE
 10
8.882941
 20
15.875250
 30
0.000000
 40
0.186845
 50
-19.346462
 51
80.986003
  6
CONTINUOUS
  0
ARC
  8
WHITE
 10
8.920454
 20
16.429199
 30
0.000000
 40
0.369504
 50
-116.794916
 51
-91.277571
  6
CONTINUOUS
  0
ARC
  8
WHITE
 10
8.785532
 20
16.156717
 30
0.000000
 40
0.065501
 50
155.382322
 51
241.105647
  6
CONTINUOUS
  0
ARC
  8
WHITE
 10
8.213915
 20
16.511559
 30
0.000000
 40
0.607871
 50
-32.605897
 51
-3.605889
  6
CONTINUOUS
  0
ARC
  8
WHITE
 10
8.793974
 20
16.473143
 30
0.000000
 40
0.026609
 50
0.397976
 51
158.691371
  6
CONTINUOUS
  0
ARC
  8
WHITE
 10
6.688941
 20
17.605185
 30
0.000000
 40
2.363711
 50
-36.038139
 51
-28.348590
  6
CONTINUOUS
  0
ARC
  8
WHITE
 10
8.693728
 20
16.142444
 30
0.000000
 40
0.118023
 50
142.337378
 51
240.232512
  6
CONTINUOUS
  0
ARC
  8
WHITE
 10
9.184286
 20
17.624739
 30
0.000000
 40
1.677195
 50
-109.112488
 51
-101.397750
  6
CONTINUOUS
  0
ARC
  8
WHITE
 10
8.826373
 20
15.897448
 30
0.000000
 40
0.087282
 50
-98.669634
 51
72.347789
  6
CONTINUOUS
  0
ARC
  8
WHITE
 10
8.828754
 20
15.444238
 30
0.000000
 40
0.367255
 50
92.424767
 51
125.528339
  6
CONTINUOUS
  0
ARC
  8
WHITE
 10
8.804297
 20
15.554157
 30
0.000000
 40
0.267230
 50
134.998910
 51
219.133486
  6
CONTINUOUS
  0
ARC
  8
WHITE
 10
8.609294
 20
15.395493
 30
0.000000
 40
0.015833
 50
-140.866518
 51
6.479444
  6
CONTINUOUS
  0
ARC
  8
WHITE
 10
8.918776
 20
15.430641
 30
0.000000
 40
0.295638
 50
133.760690
 51
186.479438
  6
CONTINUOUS
  0
ARC
  8
WHITE
 10
8.834214
 20
15.471863
 30
0.000000
 40
0.209920
 50
32.543230
 51
124.836904
  6
CONTINUOUS
  0
ARC
  8
WHITE
 10
8.796714
 20
15.502086
 30
0.000000
 40
0.229853
 50
-37.270772
 51
21.087962
  6
CONTINUOUS
  0
ARC
  8
WHITE
 10
8.992227
 20
15.353303
 30
0.000000
 40
0.015833
 50
142.729227
 51
282.796883
  6
CONTINUOUS
  0
ARC
  8
WHITE
 10
8.904053
 20
15.741500
 30
0.000000
 40
0.413919
 50
-77.203117
 51
-30.490907
  6
CONTINUOUS
  0
ARC
  8
WHITE
 10
9.274374
 20
15.523443
 30
0.000000
 40
0.015833
 50
63.004298
 51
149.509090
  6
CONTINUOUS
  0
ARC
  8
WHITE
 10
8.758627
 20
14.511044
 30
0.000000
 40
1.152033
 50
33.880705
 51
63.004297
  6
CONTINUOUS
  0
ARC
  8
WHITE
 10
9.701899
 20
15.144436
 30
0.000000
 40
0.015833
 50
-18.254931
 51
33.880701
  6
CONTINUOUS
  0
ARC
  8
WHITE
 10
9.556659
 20
15.192343
 30
0.000000
 40
0.168771
 50
-73.382677
 51
-18.254929
  6
CONTINUOUS
  0
ARC
  8
WHITE
 10
9.535653
 20
15.504422
 30
0.000000
 40
0.478839
 50
-98.317833
 51
-81.682166
  6
CONTINUOUS
  0
ARC
  8
WHITE
 10
9.522213
 20
15.128155
 30
0.000000
 40
0.112384
 50
-149.096943
 51
-119.788028
  6
CONTINUOUS
  0
ARC
  8
WHITE
 10
9.412198
 20
15.062304
 30
0.000000
 40
0.015833
 50
30.903055
 51
168.137074
  6
CONTINUOUS
  0
ARC
  8
WHITE
 10
9.536340
 20
15.036227
 30
0.000000
 40
0.142684
 50
168.137074
 51
240.639787
  6
CONTINUOUS
  0
ARC
  8
WHITE
 10
9.541546
 20
15.154180
 30
0.000000
 40
0.253700
 50
-107.233863
 51
-69.529418
  6
CONTINUOUS
  0
ARC
  8
WHITE
 10
9.346311
 20
15.398765
 30
0.000000
 40
0.559654
 50
-59.510173
 51
-41.652679
  6
CONTINUOUS
  0
ARC
  8
WHITE
 10
9.776308
 20
15.016289
 30
0.000000
 40
0.015833
 50
26.402861
 51
138.347324
  6
CONTINUOUS
  0
ARC
  8
WHITE
 10
8.758627
 20
14.511044
 30
0.000000
 40
1.152033
 50
8.204469
 51
26.402865
  6
CONTINUOUS
  0
ARC
  8
WHITE
 10
8.511730
 20
14.552802
 30
0.000000
 40
1.392549
 50
-3.427007
 51
5.052677
  6
CONTINUOUS
  0
ARC
  8
WHITE
 10
9.885984
 20
14.470506
 30
0.000000
 40
0.015833
 50
-63.136288
 51
-3.427001
  6
CONTINUOUS
  0
ARC
  8
WHITE
 10
9.788891
 20
14.662189
 30
0.000000
 40
0.230704
 50
-117.017534
 51
-63.136289
  6
CONTINUOUS
  0
ARC
  8
WHITE
 10
9.778292
 20
14.614344
 30
0.000000
 40
0.183678
 50
-155.238999
 51
-120.854831
  6
CONTINUOUS
  0
ARC
  8
WHITE
 10
9.597123
 20
14.530782
 30
0.000000
 40
0.015833
 50
24.761004
 51
160.300869
  6
CONTINUOUS
  0
ARC
  8
WHITE
 10
9.705013
 20
14.492153
 30
0.000000
 40
0.130430
 50
160.300868
 51
226.949825
  6
CONTINUOUS
  0
ARC
  8
WHITE
 10
9.771853
 20
14.560436
 30
0.000000
 40
0.225966
 50
-133.616053
 51
-65.545190
  6
CONTINUOUS
  0
ARC
  8
WHITE
 10
9.871952
 20
14.340329
 30
0.000000
 40
0.015833
 50
-8.878122
 51
114.454808
  6
CONTINUOUS
  0
ARC
  8
WHITE
 10
8.511730
 20
14.552802
 30
0.000000
 40
1.392549
 50
-41.297979
 51
-8.878120
  6
CONTINUOUS
  0
ARC
  8
WHITE
 10
9.546040
 20
13.644203
 30
0.000000
 40
0.015833
 50
-87.284013
 51
-41.297985
  6
CONTINUOUS
  0
ARC
  8
WHITE
 10
9.537586
 20
13.822397
 30
0.000000
 40
0.194227
 50
-175.199335
 51
-87.284011
  6
CONTINUOUS
  0
ARC
  8
WHITE
 10
9.328263
 20
13.804817
 30
0.000000
 40
0.015833
 50
4.800671
 51
156.164916
  6
CONTINUOUS
  0
ARC
  8
WHITE
 10
9.487139
 20
13.734628
 30
0.000000
 40
0.189523
 50
156.164918
 51
258.163879
  6
CONTINUOUS
  0
ARC
  8
WHITE
 10
9.445018
 20
13.533638
 30
0.000000
 40
0.015833
 50
-42.659217
 51
78.163881
  6
CONTINUOUS
  0
ARC
  8
WHITE
 10
7.341476
 20
15.471959
 30
0.000000
 40
2.876249
 50
-53.227312
 51
-42.659218
  6
CONTINUOUS
  0
ARC
  8
WHITE
 10
9.053841
 20
13.180719
 30
0.000000
 40
0.015833
 50
-112.512300
 51
-53.227313
  6
CONTINUOUS
  0
ARC
  8
WHITE
 10
9.137273
 20
13.382021
 30
0.000000
 40
0.233741
 50
168.514680
 51
247.487700
  6
CONTINUOUS
  0
ARC
  8
WHITE
 10
8.892697
 20
13.431715
 30
0.000000
 40
0.015833
 50
-11.485318
 51
137.908466
  6
CONTINUOUS
  0
ARC
  8
WHITE
 10
9.058493
 20
13.281952
 30
0.000000
 40
0.239256
 50
137.908469
 51
233.313238
  6
CONTINUOUS
  0
ARC
  8
WHITE
 10
8.906093
 20
13.077392
 30
0.000000
 40
0.015833
 50
-56.839299
 51
53.313238
  6
CONTINUOUS
  0
ARC
  8
WHITE
 10
7.341476
 20
15.471959
 30
0.000000
 40
2.876249
 50
-65.409385
 51
-56.839297
  6
CONTINUOUS
  0
ARC
  8
WHITE
 10
9.717272
 20
10.708938
 30
0.000000
 40
2.449926
 50
118.763588
 51
122.535439
  6
CONTINUOUS
  0
ARC
  8
WHITE
 10
8.393069
 20
12.990251
 30
0.000000
 40
0.215982
 50
-173.138470
 51
-88.254174
  6
CONTINUOUS
  0
ARC
  8
WHITE
 10
8.162915
 20
12.962556
 30
0.000000
 40
0.015833
 50
6.861536
 51
157.652745
  6
CONTINUOUS
  0
ARC
  8
WHITE
 10
8.373827
 20
12.875852
 30
0.000000
 40
0.243873
 50
157.652748
 51
233.413609
  6
CONTINUOUS
  0
ARC
  8
WHITE
 10
8.219034
 20
12.667318
 30
0.000000
 40
0.015833
 50
-52.582598
 51
53.413611
  6
CONTINUOUS
  0
ARC
  8
WHITE
 10
9.717272
 20
10.708938
 30
0.000000
 40
2.449926
 50
127.417402
 51
142.240898
  6
CONTINUOUS
  0
ARC
  8
WHITE
 10
7.767861
 20
12.218828
 30
0.000000
 40
0.015833
 50
-85.858088
 51
-37.759103
  6
CONTINUOUS
  0
ARC
  8
WHITE
 10
7.752397
 20
12.432375
 30
0.000000
 40
0.229939
 50
-155.066872
 51
-85.858085
  6
CONTINUOUS
  0
ARC
  8
WHITE
 10
7.529530
 20
12.328767
 30
0.000000
 40
0.015833
 50
24.933129
 51
170.288129
  6
CONTINUOUS
  0
ARC
  8
WHITE
 10
7.717125
 20
12.296661
 30
0.000000
 40
0.206156
 50
170.288128
 51
257.702660
  6
CONTINUOUS
  0
ARC
  8
WHITE
 10
7.669845
 20
12.079765
 30
0.000000
 40
0.015833
 50
-29.440705
 51
77.702656
  6
CONTINUOUS
  0
ARC
  8
WHITE
 10
10.045201
 20
10.739096
 30
0.000000
 40
2.711750
 50
150.559296
 51
160.636280
  6
CONTINUOUS
  0
ARC
  8
WHITE
 10
7.408613
 20
11.847212
 30
0.000000
 40
0.223160
 50
-139.205780
 51
-69.477499
  6
CONTINUOUS
  0
ARC
  8
WHITE
 10
7.227680
 20
11.691067
 30
0.000000
 40
0.015833
 50
40.794216
 51
187.522193
  6
CONTINUOUS
  0
ARC
  8
WHITE
 10
7.495869
 20
11.726480
 30
0.000000
 40
0.286350
 50
-172.477811
 51
-103.743261
  6
CONTINUOUS
  0
ARC
  8
WHITE
 10
9.531648
 20
10.792488
 30
0.000000
 40
2.203664
 50
162.685668
 51
177.315956
  6
CONTINUOUS
  0
ARC
  8
WHITE
 10
7.166178
 20
10.992955
 30
0.000000
 40
0.190871
 50
-137.059961
 51
-30.639025
  6
CONTINUOUS
  0
ARC
  8
WHITE
 10
7.014856
 20
10.852141
 30
0.000000
 40
0.015833
 50
42.940037
 51
194.573207
  6
CONTINUOUS
  0
ARC
  8
WHITE
 10
7.218583
 20
10.905106
 30
0.000000
 40
0.226333
 50
-165.426793
 51
-60.623661
  6
CONTINUOUS
  0
ARC
  8
WHITE
 10
9.531648
 20
10.792488
 30
0.000000
 40
2.203664
 50
-177.799540
 51
-166.568641
  6
CONTINUOUS
  0
ARC
  8
WHITE
 10
9.514363
 20
10.776793
 30
0.000000
 40
2.183235
 50
-166.863898
 51
-165.418232
  6
CONTINUOUS
  0
LINE
  8
WHITE
 10
8.413369
 20
14.473439
 30
0.000000
 11
8.482413
 21
14.419886
 31
0.000000
  6
CONTINUOUS
  0
ARC
  8
WHITE
 10
8.497200
 20
14.455976
 30
0.000000
 40
0.039002
 50
-112.280468
 51
-14.589428
  6
CONTINUOUS
  0
LINE
  8
WHITE
 10
8.534945
 20
14.446152
 30
0.000000
 11
8.537906
 21
14.520989
 31
0.000000
  6
CONTINUOUS
  0
LINE
  8
WHITE
 10
8.537906
 20
14.520989
 30
0.000000
 11
8.595549
 21
14.476453
 31
0.000000
  6
CONTINUOUS
  0
LINE
  8
WHITE
 10
8.595549
 20
14.476453
 30
0.000000
 11
8.615340
 21
14.496245
 31
0.000000
  6
CONTINUOUS
  0
ARC
  8
WHITE
 10
8.427319
 20
14.565516
 30
0.000000
 40
0.200375
 50
-20.224859
 51
57.094757
  6
CONTINUOUS
  0
ARC
  8
WHITE
 10
8.447111
 20
14.431293
 30
0.000000
 40
0.315292
 50
73.591974
 51
153.525714
  6
CONTINUOUS
  0
ARC
  8
WHITE
 10
8.723899
 20
14.233188
 30
0.000000
 40
0.653599
 50
148.791908
 51
210.394919
  6
CONTINUOUS
  0
ARC
  8
WHITE
 10
8.811856
 20
14.399423
 30
0.000000
 40
0.819562
 50
-142.675142
 51
-100.355968
  6
CONTINUOUS
  0
ARC
  8
WHITE
 10
8.608718
 20
13.900139
 30
0.000000
 40
0.311961
 50
-110.347611
 51
-79.694022
  6
CONTINUOUS
  0
ARC
  8
WHITE
 10
8.906484
 20
14.686931
 30
0.000000
 40
1.153208
 50
-137.139104
 51
-110.626152
  6
CONTINUOUS
  0
ARC
  8
WHITE
 10
7.700489
 20
13.534503
 30
0.000000
 40
0.515278
 50
45.574608
 51
100.570366
  6
CONTINUOUS
  0
ARC
  8
WHITE
 10
7.743277
 20
13.370579
 30
0.000000
 40
0.684374
 50
101.574321
 51
131.555781
  6
CONTINUOUS
  0
ARC
  8
WHITE
 10
7.467558
 20
13.677778
 30
0.000000
 40
0.271608
 50
131.019198
 51
208.964842
  6
CONTINUOUS
  0
ARC
  8
WHITE
 10
7.408049
 20
13.684787
 30
0.000000
 40
0.225660
 50
-142.125016
 51
-74.744881
  6
CONTINUOUS
  0
ARC
  8
WHITE
 10
7.408537
 20
13.676357
 30
0.000000
 40
0.217405
 50
-74.284579
 51
3.247917
  6
CONTINUOUS
  0
ARC
  8
WHITE
 10
7.641401
 20
13.689571
 30
0.000000
 40
0.015833
 50
44.148377
 51
183.247917
  6
CONTINUOUS
  0
ARC
  8
WHITE
 10
7.313715
 20
13.371484
 30
0.000000
 40
0.472515
 50
-7.698830
 51
44.148376
  6
CONTINUOUS
  0
ARC
  8
WHITE
 10
7.797661
 20
13.306062
 30
0.000000
 40
0.015833
 50
172.301175
 51
318.904304
  6
CONTINUOUS
  0
ARC
  8
WHITE
 10
8.099993
 20
13.042361
 30
0.000000
 40
0.385343
 50
43.201245
 51
138.904309
  6
CONTINUOUS
  0
ARC
  8
WHITE
 10
8.392432
 20
13.316992
 30
0.000000
 40
0.015833
 50
-136.798762
 51
-66.914827
  6
CONTINUOUS
  0
ARC
  8
WHITE
 10
7.691844
 20
14.960674
 30
0.000000
 40
1.802594
 50
-66.914824
 51
-30.019365
  6
CONTINUOUS
  0
ARC
  8
WHITE
 10
8.450501
 20
14.519603
 30
0.000000
 40
0.925045
 50
-29.873610
 51
25.090664
  6
CONTINUOUS
  0
ARC
  8
WHITE
 10
8.726285
 20
14.556895
 30
0.000000
 40
0.664695
 50
32.278988
 51
71.971044
  6
CONTINUOUS
  0
ARC
  8
WHITE
 10
9.519160
 20
14.773328
 30
0.000000
 40
0.719370
 50
144.706652
 51
191.103833
  6
CONTINUOUS
  0
ARC
  8
WHITE
 10
8.500470
 20
14.411758
 30
0.000000
 40
0.384159
 50
-23.472285
 51
35.490297
  6
CONTINUOUS
  0
LINE
  8
WHITE
 10
8.852840
 20
14.258745
 30
0.000000
 11
8.615340
 21
14.060828
 31
0.000000
  6
CONTINUOUS
  0
ARC
  8
WHITE
 10
8.517656
 20
14.260357
 30
0.000000
 40
0.222158
 50
-141.966500
 51
-63.914775
  6
CONTINUOUS
  0
ARC
  8
WHITE
 10
8.588515
 20
14.272958
 30
0.000000
 40
0.287717
 50
153.576975
 51
211.300413
  6
CONTINUOUS
  0
LINE
  8
WHITE
 10
8.330854
 20
14.400990
 30
0.000000
 11
8.358049
 21
14.377495
 31
0.000000
  6
CONTINUOUS
  0
ARC
  8
WHITE
 10
8.383279
 20
14.396376
 30
0.000000
 40
0.031513
 50
-143.191812
 51
-21.130282
  6
CONTINUOUS
  0
LINE
  8
WHITE
 10
8.412673
 20
14.385016
 30
0.000000
 11
8.413369
 21
14.473439
 31
0.000000
  6
CONTINUOUS
  0
ARC
  8
WHITE
 10
5.913778
 20
14.773328
 30
0.000000
 40
0.530420
 50
-170.341707
 51
-106.740987
  6
CONTINUOUS
  0
ARC
  8
WHITE
 10
5.765553
 20
14.280551
 30
0.000000
 40
0.015833
 50
-106.740985
 51
6.361659
  6
CONTINUOUS
  0
ARC
  8
WHITE
 10
6.015593
 20
14.308428
 30
0.000000
 40
0.235755
 50
47.628987
 51
186.361657
  6
CONTINUOUS
  0
ARC
  8
WHITE
 10
6.163804
 20
14.470906
 30
0.000000
 40
0.015833
 50
-10.431134
 51
47.628985
  6
CONTINUOUS
  0
ARC
  8
WHITE
 10
7.090757
 20
14.300258
 30
0.000000
 40
0.926696
 50
169.568869
 51
200.108412
  6
CONTINUOUS
  0
ARC
  8
WHITE
 10
6.518202
 20
14.110129
 30
0.000000
 40
0.324193
 50
-156.654878
 51
-93.251216
  6
CONTINUOUS
  0
ARC
  8
WHITE
 10
6.500713
 20
13.802266
 30
0.000000
 40
0.015833
 50
-93.251219
 51
37.310861
  6
CONTINUOUS
  0
ARC
  8
WHITE
 10
6.596769
 20
13.875469
 30
0.000000
 40
0.104937
 50
124.577364
 51
217.310863
  6
CONTINUOUS
  0
ARC
  8
WHITE
 10
6.639476
 20
13.754109
 30
0.000000
 40
0.231564
 50
54.266030
 51
116.206687
  6
CONTINUOUS
  0
ARC
  8
WHITE
 10
6.508095
 20
13.610271
 30
0.000000
 40
0.425656
 50
-3.291852
 51
51.216830
  6
CONTINUOUS
  0
ARC
  8
WHITE
 10
6.610721
 20
13.602996
 30
0.000000
 40
0.322784
 50
-85.206258
 51
-3.048830
  6
CONTINUOUS
  0
ARC
  8
WHITE
 10
6.626091
 20
14.006308
 30
0.000000
 40
0.725060
 50
-169.301508
 51
-89.082909
  6
CONTINUOUS
  0
ARC
  8
WHITE
 10
5.898076
 20
13.868768
 30
0.000000
 40
0.015833
 50
10.698495
 51
164.963425
  6
CONTINUOUS
  0
ARC
  8
WHITE
 10
6.926901
 20
13.592391
 30
0.000000
 40
1.081133
 50
164.963429
 51
232.756051
  6
CONTINUOUS
  0
ARC
  8
WHITE
 10
6.263006
 20
12.719134
 30
0.000000
 40
0.015833
 50
-45.084481
 51
52.756050
  6
CONTINUOUS
  0
ARC
  8
WHITE
 10
5.406269
 20
13.578401
 30
0.000000
 40
1.229233
 50
-60.240615
 51
-45.084481
  6
CONTINUOUS
  0
ARC
  8
WHITE
 10
6.008550
 20
12.525028
 30
0.000000
 40
0.015833
 50
-161.537336
 51
-60.240618
  6
CONTINUOUS
  0
ARC
  8
WHITE
 10
11.149254
 20
14.241359
 30
0.000000
 40
5.435485
 50
-175.610085
 51
-161.537338
  6
CONTINUOUS
  0
ARC
  8
WHITE
 10
5.575288
 20
13.827420
 30
0.000000
 40
0.154442
 50
-0.783693
 51
92.918692
  6
CONTINUOUS
  0
ARC
  8
WHITE
 10
5.556444
 20
13.779268
 30
0.000000
 40
0.202692
 50
86.894852
 51
121.320367
  6
CONTINUOUS
  0
ARC
  8
WHITE
 10
5.459311
 20
13.938896
 30
0.000000
 40
0.015833
 50
121.320367
 51
267.303486
  6
CONTINUOUS
  0
ARC
  8
WHITE
 10
5.451466
 20
13.772331
 30
0.000000
 40
0.150917
 50
59.597637
 51
87.303487
  6
CONTINUOUS
  0
ARC
  8
WHITE
 10
5.441332
 20
13.817481
 30
0.000000
 40
0.121289
 50
-18.364484
 51
44.500870
  6
CONTINUOUS
  0
ARC
  8
WHITE
 10
5.416284
 20
13.827972
 30
0.000000
 40
0.148381
 50
-105.114369
 51
-19.161879
  6
CONTINUOUS
  0
ARC
  8
WHITE
 10
5.517238
 20
14.356861
 30
0.000000
 40
0.686490
 50
-148.908787
 51
-101.736811
  6
CONTINUOUS
  0
ARC
  8
WHITE
 10
5.494105
 20
14.344970
 30
0.000000
 40
0.660542
 50
-156.834546
 51
-148.755872
  6
CONTINUOUS
  0
ARC
  8
WHITE
 10
5.517238
 20
14.356861
 30
0.000000
 40
0.686490
 50
169.747343
 51
203.318370
  6
CONTINUOUS
  0
ARC
  8
WHITE
 10
5.120633
 20
14.443898
 30
0.000000
 40
0.281130
 50
91.536145
 51
172.817360
  6
CONTINUOUS
  0
ARC
  8
WHITE
 10
5.162412
 20
13.912449
 30
0.000000
 40
0.813974
 50
74.532678
 51
93.473399
  6
CONTINUOUS
  0
ARC
  8
WHITE
 10
5.375267
 20
14.681683
 30
0.000000
 40
0.015833
 50
9.658290
 51
74.532679
  6
CONTINUOUS
  0
ARC
  8
WHITE
 10
9.940075
 20
3.462735
 30
0.000000
 40
2.329218
 50
120.444869
 51
165.181486
  6
CONTINUOUS
  0
ARC
  8
WHITE
 10
8.767863
 20
5.457143
 30
0.000000
 40
0.015833
 50
16.559301
 51
120.444863
  6
CONTINUOUS
  0
ARC
  8
WHITE
 10
6.692421
 20
4.840032
 30
0.000000
 40
2.181078
 50
-4.136759
 51
16.559297
  6
CONTINUOUS
  0
ARC
  8
WHITE
 10
8.883609
 20
4.681553
 30
0.000000
 40
0.015833
 50
175.863244
 51
342.980632
  6
CONTINUOUS
  0
ARC
  8
WHITE
 10
6.869934
 20
5.297939
 30
0.000000
 40
2.121734
 50
-17.019367
 51
7.348728
  6
CONTINUOUS
  0
ARC
  8
WHITE
 10
8.989944
 20
5.571352
 30
0.000000
 40
0.015833
 50
118.135866
 51
187.348728
  6
CONTINUOUS
  0
ARC
  8
WHITE
 10
9.317388
 20
4.959025
 30
0.000000
 40
0.710214
 50
90.385607
 51
118.135864
  6
CONTINUOUS
  0
ARC
  8
WHITE
 10
9.312715
 20
5.653390
 30
0.000000
 40
0.015833
 50
2.397446
 51
90.385610
  6
CONTINUOUS
  0
ARC
  8
WHITE
 10
7.477710
 20
5.576562
 30
0.000000
 40
1.852446
 50
-65.724414
 51
2.397445
  6
CONTINUOUS
  0
ARC
  8
WHITE
 10
8.332489
 20
5.263036
 30
0.000000
 40
1.378278
 50
-117.488109
 51
-93.876928
  6
CONTINUOUS
  0
ARC
  8
WHITE
 10
7.703633
 20
4.054402
 30
0.000000
 40
0.015833
 50
165.181484
 51
242.511890
  6
CONTINUOUS
  0
ARC
  8
WHITE
 10
10.471228
 20
13.923439
 30
0.000000
 40
1.051762
 50
9.337056
 51
73.654546
  6
CONTINUOUS
  0
ARC
  8
WHITE
 10
10.762767
 20
14.917498
 30
0.000000
 40
0.015833
 50
73.654550
 51
215.547998
  6
CONTINUOUS
  0
ARC
  8
WHITE
 10
10.651247
 20
14.837810
 30
0.000000
 40
0.121232
 50
1.406348
 51
35.547999
  6
CONTINUOUS
  0
ARC
  8
WHITE
 10
10.731044
 20
14.841224
 30
0.000000
 40
0.041401
 50
-119.897470
 51
-0.606367
  6
CONTINUOUS
  0
ARC
  8
WHITE
 10
10.809910
 20
15.062892
 30
0.000000
 40
0.276112
 50
174.366779
 51
248.877001
  6
CONTINUOUS
  0
ARC
  8
WHITE
 10
12.137677
 20
14.911076
 30
0.000000
 40
1.612502
 50
166.178640
 51
173.629487
  6
CONTINUOUS
  0
ARC
  8
WHITE
 10
10.587239
 20
15.292513
 30
0.000000
 40
0.015833
 50
91.881799
 51
166.178640
  6
CONTINUOUS
  0
ARC
  8
WHITE
 10
10.596618
 20
15.007047
 30
0.000000
 40
0.301454
 50
17.872329
 51
91.881799
  6
CONTINUOUS
  0
ARC
  8
WHITE
 10
10.898594
 20
15.104421
 30
0.000000
 40
0.015833
 50
-162.127671
 51
-35.007388
  6
CONTINUOUS
  0
ARC
  8
WHITE
 10
10.709953
 20
15.236545
 30
0.000000
 40
0.246142
 50
-35.007389
 51
10.374864
  6
CONTINUOUS
  0
ARC
  8
WHITE
 10
10.828645
 20
14.242484
 30
0.000000
 40
1.045698
 50
44.395149
 51
83.221457
  6
CONTINUOUS
  0
ARC
  8
WHITE
 10
11.564516
 20
14.962980
 30
0.000000
 40
0.015833
 50
-41.016611
 51
44.395146
  6
CONTINUOUS
  0
ARC
  8
WHITE
 10
14.650453
 20
12.278845
 30
0.000000
 40
4.074104
 50
138.983390
 51
141.818478
  6
CONTINUOUS
  0
ARC
  8
WHITE
 10
12.094400
 20
14.360660
 30
0.000000
 40
0.780059
 50
145.963702
 51
152.416899
  6
CONTINUOUS
  0
ARC
  8
WHITE
 10
11.417036
 20
14.714523
 30
0.000000
 40
0.015833
 50
152.416899
 51
299.851717
  6
CONTINUOUS
  0
ARC
  8
WHITE
 10
11.574379
 20
14.440361
 30
0.000000
 40
0.300271
 50
10.628966
 51
119.851717
  6
CONTINUOUS
  0
ARC
  8
WHITE
 10
10.380800
 20
14.229459
 30
0.000000
 40
1.512325
 50
-10.958588
 51
10.141332
  6
CONTINUOUS
  0
ARC
  8
WHITE
 10
11.302593
 20
14.078196
 30
0.000000
 40
0.579203
 50
-73.897813
 51
-13.603407
  6
CONTINUOUS
  0
ARC
  8
WHITE
 10
11.392542
 20
13.724393
 30
0.000000
 40
0.214652
 50
-132.461419
 51
-70.771321
  6
CONTINUOUS
  0
ARC
  8
WHITE
 10
11.353213
 20
13.636944
 30
0.000000
 40
0.127182
 50
117.623477
 51
213.884860
  6
CONTINUOUS
  0
ARC
  8
WHITE
 10
11.286903
 20
13.763658
 30
0.000000
 40
0.015833
 50
-62.376526
 51
82.305214
  6
CONTINUOUS
  0
ARC
  8
WHITE
 10
11.257528
 20
13.546245
 30
0.000000
 40
0.235221
 50
82.305215
 51
162.671550
  6
CONTINUOUS
  0
ARC
  8
WHITE
 10
11.017868
 20
13.621022
 30
0.000000
 40
0.015833
 50
-154.220946
 51
-17.328448
  6
CONTINUOUS
  0
ARC
  8
WHITE
 10
9.452132
 20
12.864821
 30
0.000000
 40
1.722950
 50
25.779055
 51
49.304499
  6
CONTINUOUS
  0
ARC
  8
WHITE
 10
10.585886
 20
14.183142
 30
0.000000
 40
0.015833
 50
163.569709
 51
229.304495
  6
CONTINUOUS
  0
ARC
  8
WHITE
 10
9.942169
 20
14.372968
 30
0.000000
 40
0.655290
 50
-16.430290
 51
-5.181094
  6
CONTINUOUS
  0
ARC
  8
WHITE
 10
10.610550
 20
14.312363
 30
0.000000
 40
0.015833
 50
60.681241
 51
174.818909
  6
CONTINUOUS
  0
ARC
  8
WHITE
 10
10.266911
 20
13.700475
 30
0.000000
 40
0.717613
 50
38.022503
 51
60.681240
  6
CONTINUOUS
  0
ARC
  8
WHITE
 10
10.844697
 20
14.152256
 30
0.000000
 40
0.015833
 50
-141.977496
 51
-11.331935
  6
CONTINUOUS
  0
ARC
  8
WHITE
 10
11.091864
 20
14.102724
 30
0.000000
 40
0.236248
 50
95.430261
 51
168.668059
  6
CONTINUOUS
  0
ARC
  8
WHITE
 10
11.077659
 20
13.938982
 30
0.000000
 40
0.399013
 50
58.319152
 51
91.170611
  6
CONTINUOUS
  0
ARC
  8
WHITE
 10
10.978542
 20
13.781216
 30
0.000000
 40
0.585327
 50
31.075023
 51
58.173309
  6
CONTINUOUS
  0
ARC
  8
WHITE
 10
11.493431
 20
14.091510
 30
0.000000
 40
0.015833
 50
-148.924976
 51
9.337058
  6
CONTINUOUS
  0
ARC
  8
WHITE
 10
3.189598
 20
13.155108
 30
0.000000
 40
2.279797
 50
56.630997
 51
71.371247
  6
CONTINUOUS
  0
ARC
  8
WHITE
 10
1.540239
 20
6.476323
 30
0.000000
 40
9.153327
 50
74.944582
 51
79.474863
  6
CONTINUOUS
  0
ARC
  8
WHITE
 10
1.646183
 20
6.463951
 30
0.000000
 40
9.146758
 50
80.141512
 51
93.437388
  6
CONTINUOUS
  0
ARC
  8
WHITE
 10
1.096815
 20
15.610058
 30
0.000000
 40
0.015833
 50
114.631276
 51
273.437391
  6
CONTINUOUS
  0
ARC
  8
WHITE
 10
-0.917834
 20
20.004093
 30
0.000000
 40
4.818043
 50
-65.368720
 51
-58.891109
  6
CONTINUOUS
  0
ARC
  8
WHITE
 10
1.160438
 20
16.560239
 30
0.000000
 40
0.795687
 50
-58.895901
 51
-26.947873
  6
CONTINUOUS
  0
ARC
  8
WHITE
 10
1.883843
 20
16.192475
 30
0.000000
 40
0.015833
 50
74.484562
 51
153.052128
  6
CONTINUOUS
  0
ARC
  8
WHITE
 10
2.135037
 20
17.097303
 30
0.000000
 40
0.923216
 50
-105.515438
 51
-95.627432
  6
CONTINUOUS
  0
ARC
  8
WHITE
 10
1.894147
 20
12.836195
 30
0.000000
 40
3.345722
 50
74.030592
 51
87.424205
  6
CONTINUOUS
  0
ARC
  8
WHITE
 10
1.879105
 20
12.574440
 30
0.000000
 40
3.601974
 50
44.149248
 51
74.946133
  6
CONTINUOUS
  0
ARC
  8
WHITE
 10
4.452261
 20
15.072294
 30
0.000000
 40
0.015833
 50
-123.369002
 51
44.149249
  6
CONTINUOUS
  0
ARC
  8
WHITE
 10
17.751478
 20
20.004093
 30
0.000000
 40
4.818043
 50
-121.108891
 51
-114.631280
  6
CONTINUOUS
  0
ARC
  8
WHITE
 10
15.673205
 20
16.560239
 30
0.000000
 40
0.795687
 50
-153.052127
 51
-121.104099
  6
CONTINUOUS
  0
ARC
  8
WHITE
 10
14.949800
 20
16.192475
 30
0.000000
 40
0.015833
 50
26.947873
 51
105.515438
  6
CONTINUOUS
  0
ARC
  8
WHITE
 10
14.698607
 20
17.097303
 30
0.000000
 40
0.923216
 50
-84.372568
 51
-74.484562
  6
CONTINUOUS
  0
ARC
  8
WHITE
 10
14.939497
 20
12.836195
 30
0.000000
 40
3.345722
 50
92.575795
 51
105.969408
  6
CONTINUOUS
  0
ARC
  8
WHITE
 10
14.954538
 20
12.574440
 30
0.000000
 40
3.601974
 50
105.053867
 51
135.850752
  6
CONTINUOUS
  0
ARC
  8
WHITE
 10
12.381382
 20
15.072294
 30
0.000000
 40
0.015833
 50
135.850751
 51
303.369002
  6
CONTINUOUS
  0
ARC
  8
WHITE
 10
13.644046
 20
13.155108
 30
0.000000
 40
2.279797
 50
108.628753
 51
123.369003
  6
CONTINUOUS
  0
ARC
  8
WHITE
 10
15.293405
 20
6.476323
 30
0.000000
 40
9.153327
 50
100.525137
 51
105.055418
  6
CONTINUOUS
  0
ARC
  8
WHITE
 10
15.187460
 20
6.463951
 30
0.000000
 40
9.146758
 50
86.562612
 51
99.858488
  6
CONTINUOUS
  0
ARC
  8
WHITE
 10
15.736828
 20
15.610058
 30
0.000000
 40
0.015833
 50
-93.437391
 51
65.368720
  6
CONTINUOUS
  0
ARC
  8
WHITE
 10
7.692263
 20
5.587336
 30
0.000000
 40
2.115295
 50
-55.343785
 51
3.217837
  6
CONTINUOUS
  0
ARC
  8
WHITE
 10
9.820031
 20
5.706962
 30
0.000000
 40
0.015833
 50
72.824619
 51
183.217837
  6
CONTINUOUS
  0
ARC
  8
WHITE
 10
9.566079
 20
4.885323
 30
0.000000
 40
0.875823
 50
13.865170
 51
72.824618
  6
CONTINUOUS
  0
ARC
  8
WHITE
 10
9.382411
 20
4.910736
 30
0.000000
 40
1.050297
 50
-63.456766
 51
10.115533
  6
CONTINUOUS
  0
ARC
  8
WHITE
 10
9.844685
 20
3.985307
 30
0.000000
 40
0.015833
 50
-139.043658
 51
-63.456761
  6
CONTINUOUS
  0
ARC
  8
WHITE
 10
10.287245
 20
4.369427
 30
0.000000
 40
0.601843
 50
165.252756
 51
220.956343
  6
CONTINUOUS
  0
ARC
  8
WHITE
 10
9.689916
 20
4.526660
 30
0.000000
 40
0.015833
 50
-14.747241
 51
136.715590
  6
CONTINUOUS
  0
ARC
  8
WHITE
 10
10.095413
 20
4.144747
 30
0.000000
 40
0.572866
 50
136.715591
 51
203.643957
  6
CONTINUOUS
  0
ARC
  8
WHITE
 10
9.556132
 20
3.908648
 30
0.000000
 40
0.015833
 50
-81.179621
 51
23.643954
  6
CONTINUOUS
  0
LINE
  8
WHITE
 10
9.558560
 20
3.893002
 30
0.000000
 11
9.349154
 21
3.860508
 31
0.000000
  6
CONTINUOUS
  0
LINE
  8
WHITE
 10
9.349154
 20
3.860508
 30
0.000000
 11
8.905623
 21
3.818552
 31
0.000000
  6
CONTINUOUS
  0
ARC
  8
WHITE
 10
8.904132
 20
3.834315
 30
0.000000
 40
0.015833
 50
124.656215
 51
275.403790
  6
CONTINUOUS
  0
ARC
  8
WHITE
 10
10.139896
 20
4.006647
 30
0.000000
 40
2.586927
 50
-175.707942
 51
-172.438319
  6
CONTINUOUS
  0
ARC
  8
WHITE
 10
7.607688
 20
3.668850
 30
0.000000
 40
0.032330
 50
-175.341982
 51
4.489825
  6
CONTINUOUS
  0
ARC
  8
WHITE
 10
10.064760
 20
3.569072
 30
0.000000
 40
2.426999
 50
175.507148
 51
177.584019
  6
CONTINUOUS
  0
ARC
  8
WHITE
 10
7.661004
 20
3.757950
 30
0.000000
 40
0.015833
 50
67.358555
 51
175.507151
  6
CONTINUOUS
  0
ARC
  8
WHITE
 10
8.312163
 20
5.319076
 30
0.000000
 40
1.675651
 50
-112.641443
 51
-106.464885
  6
CONTINUOUS
  0
ARC
  8
WHITE
 10
7.832749
 20
3.696953
 30
0.000000
 40
0.015833
 50
-52.990376
 51
73.535116
  6
CONTINUOUS
  0
ARC
  8
WHITE
 10
10.413081
 20
0.273933
 30
0.000000
 40
4.270795
 50
127.009629
 51
135.904909
  6
CONTINUOUS
  0
ARC
  8
WHITE
 10
7.334486
 20
3.256789
 30
0.000000
 40
0.015833
 50
-124.573321
 51
-44.095096
  6
CONTINUOUS
  0
ARC
  8
WHITE
 10
10.252168
 20
7.490425
 30
0.000000
 40
5.157482
 50
-131.451682
 51
-124.573320
  6
CONTINUOUS
  0
ARC
  8
WHITE
 10
6.848457
 20
3.636687
 30
0.000000
 40
0.015833
 50
141.318151
 51
228.548316
  6
CONTINUOUS
  0
ARC
  8
WHITE
 10
6.448153
 20
3.957183
 30
0.000000
 40
0.496964
 50
-38.681847
 51
25.648993
  6
CONTINUOUS
  0
ARC
  8
WHITE
 10
6.881874
 20
4.165443
 30
0.000000
 40
0.015833
 50
25.648994
 51
181.823660
  6
CONTINUOUS
  0
ARC
  8
WHITE
 10
6.532996
 20
4.154335
 30
0.000000
 40
0.333221
 50
-70.787880
 51
1.823661
  6
CONTINUOUS
  0
ARC
  8
WHITE
 10
6.637438
 20
3.854623
 30
0.000000
 40
0.015833
 50
-128.776793
 51
-70.787880
  6
CONTINUOUS
  0
ARC
  8
WHITE
 10
7.196319
 20
4.550309
 30
0.000000
 40
0.908205
 50
120.975402
 51
231.223211
  6
CONTINUOUS
  0
ARC
  8
WHITE
 10
6.737043
 20
5.315417
 30
0.000000
 40
0.015833
 50
-8.557439
 51
120.975402
  6
CONTINUOUS
  0
ARC
  8
WHITE
 10
8.147340
 20
5.103201
 30
0.000000
 40
1.410341
 50
171.442562
 51
219.149932
  6
CONTINUOUS
  0
ARC
  8
WHITE
 10
8.312163
 20
5.319076
 30
0.000000
 40
1.675651
 50
-138.683463
 51
-116.992798
  6
CONTINUOUS
  0
ARC
  8
WHITE
 10
7.544434
 20
3.811855
 30
0.000000
 40
0.015833
 50
4.292059
 51
63.007201
  6
CONTINUOUS
  0
ARC
  8
WHITE
 10
7.919240
 20
5.133970
 30
0.000000
 40
0.765420
 50
94.153416
 51
167.999238
  6
CONTINUOUS
  0
ARC
  8
WHITE
 10
8.199692
 20
5.213953
 30
0.000000
 40
1.032183
 50
175.601194
 51
216.685207
  6
CONTINUOUS
  0
ARC
  8
WHITE
 10
7.359256
 20
4.587849
 30
0.000000
 40
0.015833
 50
-117.138263
 51
36.685203
  6
CONTINUOUS
  0
ARC
  8
WHITE
 10
7.614021
 20
5.084885
 30
0.000000
 40
0.574358
 50
-138.658510
 51
-117.138263
  6
CONTINUOUS
  0
ARC
  8
WHITE
 10
7.170913
 20
4.695037
 30
0.000000
 40
0.015833
 50
41.341489
 51
190.546803
  6
CONTINUOUS
  0
ARC
  8
WHITE
 10
8.007362
 20
4.850770
 30
0.000000
 40
0.866656
 50
-169.453198
 51
-123.368188
  6
CONTINUOUS
  0
ARC
  8
WHITE
 10
7.539395
 20
4.140203
 30
0.000000
 40
0.015833
 50
-123.368188
 51
-0.635699
  6
CONTINUOUS
  0
ARC
  8
WHITE
 10
9.784512
 20
4.115292
 30
0.000000
 40
2.229422
 50
129.832836
 51
179.364297
  6
CONTINUOUS
  0
ARC
  8
WHITE
 10
8.366598
 20
5.815143
 30
0.000000
 40
0.015833
 50
-14.622425
 51
129.832833
  6
CONTINUOUS
  0
ARC
  8
WHITE
 10
8.642600
 20
5.743135
 30
0.000000
 40
0.269407
 50
165.377574
 51
197.703560
  6
CONTINUOUS
  0
ARC
  8
WHITE
 10
8.401034
 20
5.666025
 30
0.000000
 40
0.015833
 50
-162.296444
 51
-53.972626
  6
CONTINUOUS
  0
LINE
  8
WHITE
 10
8.410347
 20
5.653220
 30
0.000000
 11
8.606749
 21
5.796058
 31
0.000000
  6
CONTINUOUS
  0
ARC
  8
WHITE
 10
8.597436
 20
5.808863
 30
0.000000
 40
0.015833
 50
-53.972628
 51
30.541326
  6
CONTINUOUS
  0
ARC
  8
WHITE
 10
6.422632
 20
4.525691
 30
0.000000
 40
2.540967
 50
30.541325
 51
34.886913
  6
CONTINUOUS
  0
ARC
  8
WHITE
 10
8.493955
 20
5.969963
 30
0.000000
 40
0.015833
 50
34.886913
 51
102.130133
  6
CONTINUOUS
  0
ARC
  8
WHITE
 10
7.567866
 20
10.278725
 30
0.000000
 40
4.391328
 50
-86.135843
 51
-77.869866
  6
CONTINUOUS
  0
ARC
  8
WHITE
 10
4.521378
 20
10.934314
 30
0.000000
 40
2.095164
 50
22.527401
 51
41.651926
  6
CONTINUOUS
  0
ARC
  8
WHITE
 10
6.098707
 20
12.337290
 30
0.000000
 40
0.015833
 50
130.121294
 51
221.651922
  6
CONTINUOUS
  0
ARC
  8
WHITE
 10
5.436992
 20
13.122510
 30
0.000000
 40
1.011024
 50
-49.878705
 51
-26.830332
  6
CONTINUOUS
  0
ARC
  8
WHITE
 10
6.353306
 20
12.659038
 30
0.000000
 40
0.015833
 50
59.754137
 51
153.169667
  6
CONTINUOUS
  0
ARC
  8
WHITE
 10
6.824194
 20
13.466618
 30
0.000000
 40
0.919005
 50
-120.245863
 51
-81.953088
  6
CONTINUOUS
  0
ARC
  8
WHITE
 10
6.875571
 20
13.067455
 30
0.000000
 40
0.516604
 50
-81.397919
 51
-32.002707
  6
CONTINUOUS
  0
ARC
  8
WHITE
 10
7.300236
 20
12.802066
 30
0.000000
 40
0.015833
 50
-32.002704
 51
100.734183
  6
CONTINUOUS
  0
ARC
  8
WHITE
 10
7.239963
 20
13.120014
 30
0.000000
 40
0.307777
 50
-132.506334
 51
-79.265817
  6
CONTINUOUS
  0
ARC
  8
WHITE
 10
7.217169
 20
13.076523
 30
0.000000
 40
0.260618
 50
104.763249
 51
224.726514
  6
CONTINUOUS
  0
ARC
  8
WHITE
 10
7.269507
 20
12.795382
 30
0.000000
 40
0.546220
 50
39.183531
 51
102.556565
  6
CONTINUOUS
  0
ARC
  8
WHITE
 10
7.680623
 20
13.130483
 30
0.000000
 40
0.015833
 50
-33.531124
 51
39.183528
  6
CONTINUOUS
  0
ARC
  8
WHITE
 10
-52.127868
 20
52.763603
 30
0.000000
 40
71.764281
 50
-34.543191
 51
-33.531126
  6
CONTINUOUS
  0
ARC
  8
WHITE
 10
6.971256
 20
12.080273
 30
0.000000
 40
0.015833
 50
-83.386828
 51
-34.543191
  6
CONTINUOUS
  0
ARC
  8
WHITE
 10
7.046752
 20
11.429084
 30
0.000000
 40
0.639717
 50
96.613166
 51
151.380144
  6
CONTINUOUS
  0
ARC
  8
WHITE
 10
6.471299
 20
11.743090
 30
0.000000
 40
0.015833
 50
-157.472600
 51
-28.619854
  6
CONTINUOUS
  0
ARC
  8
WHITE
 10
5.375268
 20
12.999539
 30
0.000000
 40
0.977586
 50
-130.824725
 51
-92.146190
  6
CONTINUOUS
  0
ARC
  8
WHITE
 10
4.156191
 20
11.662968
 30
0.000000
 40
0.832209
 50
45.819704
 51
55.339014
  6
CONTINUOUS
  0
ARC
  8
WHITE
 10
4.620480
 20
12.334463
 30
0.000000
 40
0.015833
 50
55.339020
 51
191.857638
  6
CONTINUOUS
  0
ARC
  8
WHITE
 10
6.152221
 20
12.656068
 30
0.000000
 40
1.580972
 50
-168.142359
 51
-128.805963
  6
CONTINUOUS
  0
ARC
  8
WHITE
 10
4.479991
 20
8.516269
 30
0.000000
 40
2.986576
 50
65.008444
 51
76.810416
  6
CONTINUOUS
  0
ARC
  8
WHITE
 10
5.748463
 20
11.237563
 30
0.000000
 40
0.015833
 50
-114.991558
 51
38.172261
  6
CONTINUOUS
  0
ARC
  8
WHITE
 10
7.704235
 20
12.775071
 30
0.000000
 40
2.471932
 50
-162.012282
 51
-141.827743
  6
CONTINUOUS
  0
ARC
  8
WHITE
 10
5.338065
 20
12.006816
 30
0.000000
 40
0.015833
 50
17.987721
 51
87.853812
  6
CONTINUOUS
  0
ARC
  8
WHITE
 10
11.392387
 20
13.063027
 30
0.000000
 40
1.231673
 50
-84.164005
 51
-49.448346
  6
CONTINUOUS
  0
ARC
  8
WHITE
 10
12.203433
 20
12.115146
 30
0.000000
 40
0.015833
 50
-8.092075
 51
130.551652
  6
CONTINUOUS
  0
ARC
  8
WHITE
 10
11.003582
 20
12.285741
 30
0.000000
 40
1.227751
 50
-60.473705
 51
-8.092074
  6
CONTINUOUS
  0
ARC
  8
WHITE
 10
12.420094
 20
8.404704
 30
0.000000
 40
2.927443
 50
106.092375
 51
115.400697
  6
CONTINUOUS
  0
ARC
  8
WHITE
 10
11.157587
 20
11.063454
 30
0.000000
 40
0.015833
 50
148.724955
 51
295.400694
  6
CONTINUOUS
  0
ARC
  8
WHITE
 10
7.594517
 20
13.227710
 30
0.000000
 40
4.153036
 50
-31.275045
 51
-19.706094
  6
CONTINUOUS
  0
ARC
  8
WHITE
 10
11.519235
 20
11.821986
 30
0.000000
 40
0.015833
 50
95.835996
 51
160.293906
  6
CONTINUOUS
  0
ARC
  8
WHITE
 10
8.918999
 20
14.814889
 30
0.000000
 40
1.561057
 50
33.123069
 51
88.513763
  6
CONTINUOUS
  0
ARC
  8
WHITE
 10
8.948162
 20
16.337090
 30
0.000000
 40
0.039969
 50
73.539367
 51
275.219725
  6
CONTINUOUS
  0
ARC
  8
WHITE
 10
8.841682
 20
14.733426
 30
0.000000
 40
1.567733
 50
16.967371
 51
85.972268
  6
CONTINUOUS
  0
ARC
  8
WHITE
 10
8.487427
 20
14.661461
 30
0.000000
 40
1.927879
 50
-38.281963
 51
15.940539
  6
CONTINUOUS
  0
ARC
  8
WHITE
 10
10.063660
 20
13.444029
 30
0.000000
 40
0.066993
 50
159.875372
 51
301.622006
  6
CONTINUOUS
  0
ARC
  8
WHITE
 10
8.478033
 20
14.621682
 30
0.000000
 40
2.037479
 50
-37.300388
 51
30.896749
  6
CONTINUOUS
  0
ARC
  8
WHITE
 10
10.846392
 20
12.030339
 30
0.000000
 40
1.273671
 50
-178.656514
 51
-138.172307
  6
CONTINUOUS
  0
ARC
  8
WHITE
 10
9.885513
 20
11.170379
 30
0.000000
 40
0.015833
 50
-126.690349
 51
41.827694
  6
CONTINUOUS
  0
ARC
  8
WHITE
 10
10.487653
 20
11.978494
 30
0.000000
 40
1.023615
 50
-158.791235
 51
-126.690350
  6
CONTINUOUS
  0
ARC
  8
WHITE
 10
10.451653
 20
12.007543
 30
0.000000
 40
1.001366
 50
-178.691875
 51
-156.495942
  6
CONTINUOUS
  0
ARC
  8
WHITE
 10
9.081995
 20
11.948977
 30
0.000000
 40
0.370279
 50
5.533625
 51
88.708568
  6
CONTINUOUS
  0
ARC
  8
WHITE
 10
9.038662
 20
11.577974
 30
0.000000
 40
0.742987
 50
86.011569
 51
119.370706
  6
CONTINUOUS
  0
ARC
  8
WHITE
 10
9.498196
 20
10.566828
 30
0.000000
 40
1.852010
 50
116.416241
 51
132.440335
  6
CONTINUOUS
  0
ARC
  8
WHITE
 10
8.237734
 20
11.945259
 30
0.000000
 40
0.015833
 50
142.189505
 51
312.440339
  6
CONTINUOUS
  0
ARC
  8
WHITE
 10
9.621830
 20
10.871239
 30
0.000000
 40
1.767758
 50
124.783637
 51
142.189510
  6
CONTINUOUS
  0
ARC
  8
WHITE
 10
9.030965
 20
11.704511
 30
0.000000
 40
0.746371
 50
79.302703
 51
124.022091
  6
CONTINUOUS
  0
ARC
  8
WHITE
 10
9.083376
 20
11.953575
 30
0.000000
 40
0.491936
 50
5.471018
 51
79.916420
  6
CONTINUOUS
  0
ARC
  8
WHITE
 10
9.376376
 20
11.136741
 30
0.000000
 40
1.654802
 50
142.634457
 51
172.302211
  6
CONTINUOUS
  0
ARC
  8
WHITE
 10
9.850810
 20
10.608692
 30
0.000000
 40
2.356031
 50
122.001987
 51
139.428788
  6
CONTINUOUS
  0
ARC
  8
WHITE
 10
9.406207
 20
11.278181
 30
0.000000
 40
1.552826
 50
110.756703
 51
121.181302
  6
CONTINUOUS
  0
ARC
  8
WHITE
 10
8.467405
 20
13.695688
 30
0.000000
 40
1.040695
 50
-68.081375
 51
-54.164328
  6
CONTINUOUS
  0
ARC
  8
WHITE
 10
9.085963
 20
12.839161
 30
0.000000
 40
0.015833
 50
-29.098860
 51
125.835669
  6
CONTINUOUS
  0
ARC
  8
WHITE
 10
8.537992
 20
13.144143
 30
0.000000
 40
0.642959
 50
-62.556695
 51
-29.098862
  6
CONTINUOUS
  0
ARC
  8
WHITE
 10
9.868226
 20
10.576940
 30
0.000000
 40
2.248418
 50
117.376808
 51
138.667063
  6
CONTINUOUS
  0
ARC
  8
WHITE
 10
10.552920
 20
10.208599
 30
0.000000
 40
3.010934
 50
142.010755
 51
157.717339
  6
CONTINUOUS
  0
ARC
  8
WHITE
 10
7.752178
 20
11.356277
 30
0.000000
 40
0.015833
 50
172.302209
 51
337.717340
  6
CONTINUOUS
  0
ARC
  8
WHITE
 10
11.315164
 20
13.321734
 30
0.000000
 40
1.148665
 50
-100.041916
 51
-89.276982
  6
CONTINUOUS
  0
ARC
  8
WHITE
 10
11.329459
 20
12.188992
 30
0.000000
 40
0.015833
 50
-89.276976
 51
-6.691151
  6
CONTINUOUS
  0
ARC
  8
WHITE
 10
8.253229
 20
12.549885
 30
0.000000
 40
3.113161
 50
-6.691152
 51
10.521429
  6
CONTINUOUS
  0
ARC
  8
WHITE
 10
11.237709
 20
13.057205
 30
0.000000
 40
0.097812
 50
38.697511
 51
102.959464
  6
CONTINUOUS
  0
ARC
  8
WHITE
 10
11.219324
 20
13.137096
 30
0.000000
 40
0.015833
 50
102.959471
 51
155.265349
  6
CONTINUOUS
  0
ARC
  8
WHITE
 10
12.392719
 20
12.596534
 30
0.000000
 40
1.307756
 50
155.265347
 51
184.666497
  6
CONTINUOUS
  0
ARC
  8
WHITE
 10
8.166753
 20
12.219219
 30
0.000000
 40
2.935076
 50
-0.251688
 51
5.296211
  6
CONTINUOUS
  0
ARC
  8
WHITE
 10
11.117634
 20
12.206257
 30
0.000000
 40
0.015833
 50
179.748313
 51
259.958083
  6
CONTINUOUS
  0
ARC
  8
WHITE
 10
7.915288
 20
12.802713
 30
0.000000
 40
2.463999
 50
167.907889
 51
190.207249
  6
CONTINUOUS
  0
ARC
  8
WHITE
 10
5.505869
 20
12.368875
 30
0.000000
 40
0.015833
 50
-169.792755
 51
-84.016312
  6
CONTINUOUS
  0
ARC
  8
WHITE
 10
5.340554
 20
13.946063
 30
0.000000
 40
1.601661
 50
-84.016313
 51
-77.647441
  6
CONTINUOUS
  0
ARC
  8
WHITE
 10
5.679804
 20
12.396948
 30
0.000000
 40
0.015833
 50
-77.647439
 51
2.022959
  6
CONTINUOUS
  0
ARC
  8
WHITE
 10
7.340790
 20
12.455617
 30
0.000000
 40
1.646189
 50
168.835230
 51
182.022958
  6
CONTINUOUS
  0
ARC
  8
WHITE
 10
4.748256
 20
12.871392
 30
0.000000
 40
0.982304
 50
-5.668338
 51
28.496148
  6
CONTINUOUS
  0
ARC
  8
WHITE
 10
5.597638
 20
13.332495
 30
0.000000
 40
0.015833
 50
28.496148
 51
90.000000
  6
CONTINUOUS
  0
LINE
  8
WHITE
 10
5.597638
 20
13.348328
 30
0.000000
 11
5.587215
 21
13.348328
 31
0.000000
  6
CONTINUOUS
  0
LINE
  8
WHITE
 10
5.587215
 20
13.348328
 30
0.000000
 11
5.517602
 21
13.330925
 31
0.000000
  6
CONTINUOUS
  0
ARC
  8
WHITE
 10
5.521442
 20
13.315565
 30
0.000000
 40
0.015833
 50
104.036242
 51
167.907889
  6
CONTINUOUS
  0
ARC
  8
WHITE
 10
8.202636
 20
15.859357
 30
0.000000
 40
0.084779
 50
-25.928579
 51
93.920770
  6
CONTINUOUS
  0
ARC
  8
WHITE
 10
7.642944
 20
16.261610
 30
0.000000
 40
0.772930
 50
-76.575433
 51
-34.637771
  6
CONTINUOUS
  0
ARC
  8
WHITE
 10
7.818716
 20
15.525199
 30
0.000000
 40
0.015833
 50
-177.723348
 51
-76.575432
  6
CONTINUOUS
  0
ARC
  8
WHITE
 10
8.573767
 20
15.555217
 30
0.000000
 40
0.771481
 50
109.769029
 51
182.276653
  6
CONTINUOUS
  0
ARC
  8
WHITE
 10
8.318185
 20
16.266330
 30
0.000000
 40
0.015833
 50
-51.612292
 51
109.769034
  6
CONTINUOUS
  0
ARC
  8
WHITE
 10
8.571041
 20
15.947164
 30
0.000000
 40
0.391356
 50
128.387713
 51
177.999026
  6
CONTINUOUS
  0
LINE
  8
WHITE
 10
8.179924
 20
15.960828
 30
0.000000
 11
8.179924
 21
15.959734
 31
0.000000
  6
CONTINUOUS
  0
ARC
  8
WHITE
 10
8.195757
 20
15.959734
 30
0.000000
 40
0.015833
 50
180.000000
 51
273.920766
  6
CONTINUOUS
  0
ARC
  8
WHITE
 10
9.260097
 20
10.123729
 30
0.000000
 40
0.927068
 50
-121.426756
 51
-113.601557
  6
CONTINUOUS
  0
ARC
  8
WHITE
 10
8.882584
 20
9.259700
 30
0.000000
 40
0.015833
 50
-59.899714
 51
66.398444
  6
CONTINUOUS
  0
ARC
  8
WHITE
 10
8.965204
 20
9.117174
 30
0.000000
 40
0.148908
 50
120.100285
 51
137.173284
  6
CONTINUOUS
  0
ARC
  8
WHITE
 10
8.844381
 20
9.229162
 30
0.000000
 40
0.015833
 50
-114.924875
 51
-42.826718
  6
CONTINUOUS
  0
ARC
  8
WHITE
 10
9.260097
 20
10.123729
 30
0.000000
 40
1.002276
 50
-127.278523
 51
-114.924880
  6
CONTINUOUS
  0
ARC
  8
WHITE
 10
8.662618
 20
9.338816
 30
0.000000
 40
0.015833
 50
134.101993
 51
232.721472
  6
CONTINUOUS
  0
ARC
  8
WHITE
 10
9.361529
 20
8.617647
 30
0.000000
 40
1.020104
 50
116.257004
 51
134.101994
  6
CONTINUOUS
  0
ARC
  8
WHITE
 10
9.457401
 20
8.154839
 30
0.000000
 40
1.482338
 50
96.552075
 51
111.661535
  6
CONTINUOUS
  0
ARC
  8
WHITE
 10
9.601874
 20
6.797105
 30
0.000000
 40
2.847712
 50
80.739617
 51
96.322782
  6
CONTINUOUS
  0
ARC
  8
WHITE
 10
9.944784
 20
9.279932
 30
0.000000
 40
0.347476
 50
25.030679
 51
70.612183
  6
CONTINUOUS
  0
ARC
  8
WHITE
 10
10.013684
 20
9.351188
 30
0.000000
 40
0.257346
 50
-44.041507
 51
17.121412
  6
CONTINUOUS
  0
ARC
  8
WHITE
 10
9.795241
 20
9.598627
 30
0.000000
 40
0.586961
 50
-96.713456
 51
-46.581362
  6
CONTINUOUS
  0
ARC
  8
WHITE
 10
9.728474
 20
9.031415
 30
0.000000
 40
0.015833
 50
136.055731
 51
263.286550
  6
CONTINUOUS
  0
ARC
  8
WHITE
 10
9.578887
 20
9.175589
 30
0.000000
 40
0.191922
 50
-43.944264
 51
-29.819719
  6
CONTINUOUS
  0
ARC
  8
WHITE
 10
9.759134
 20
9.072277
 30
0.000000
 40
0.015833
 50
86.075748
 51
150.180282
  6
CONTINUOUS
  0
ARC
  8
WHITE
 10
9.795241
 20
9.598627
 30
0.000000
 40
0.511753
 50
-93.924254
 51
-46.777761
  6
CONTINUOUS
  0
ARC
  8
WHITE
 10
10.013684
 20
9.351188
 30
0.000000
 40
0.182137
 50
-43.544324
 51
15.525989
  6
CONTINUOUS
  0
ARC
  8
WHITE
 10
9.944784
 20
9.279932
 30
0.000000
 40
0.272268
 50
26.153645
 51
69.285043
  6
CONTINUOUS
  0
ARC
  8
WHITE
 10
9.601874
 20
6.797105
 30
0.000000
 40
2.772503
 50
80.884889
 51
96.319652
  6
CONTINUOUS
  0
ARC
  8
WHITE
 10
9.457401
 20
8.154839
 30
0.000000
 40
1.407129
 50
96.558164
 51
111.537899
  6
CONTINUOUS
  0
ARC
  8
WHITE
 10
9.361529
 20
8.617647
 30
0.000000
 40
0.944896
 50
116.438877
 51
128.358407
  6
CONTINUOUS
  0
ARC
  8
WHITE
 10
8.784972
 20
9.346166
 30
0.000000
 40
0.015833
 50
128.358405
 51
238.573249
  6
CONTINUOUS
  0
ARC
  8
WHITE
 10
5.326470
 20
13.086974
 30
0.000000
 40
1.064941
 50
-75.919839
 51
-68.486627
  6
CONTINUOUS
  0
ARC
  8
WHITE
 10
5.722810
 20
12.081495
 30
0.000000
 40
0.015833
 50
17.176330
 51
111.513373
  6
CONTINUOUS
  0
ARC
  8
WHITE
 10
9.195336
 20
13.154850
 30
0.000000
 40
3.618795
 50
-162.823665
 51
-143.124765
  6
CONTINUOUS
  0
ARC
  8
WHITE
 10
6.287836
 20
10.973802
 30
0.000000
 40
0.015833
 50
-131.664207
 51
36.875237
  6
CONTINUOUS
  0
ARC
  8
WHITE
 10
7.915288
 20
12.802713
 30
0.000000
 40
2.463999
 50
-161.814901
 51
-131.664207
  6
CONTINUOUS
  0
ARC
  8
WHITE
 10
5.589400
 20
12.038670
 30
0.000000
 40
0.015833
 50
104.080161
 51
198.185104
  6
CONTINUOUS
  0
ARC
  8
WHITE
 10
9.233384
 20
12.056793
 30
0.000000
 40
1.857757
 50
-39.997522
 51
-5.369138
  6
CONTINUOUS
  0
ARC
  8
WHITE
 10
10.668689
 20
10.852535
 30
0.000000
 40
0.015833
 50
140.002480
 51
310.913802
  6
CONTINUOUS
  0
ARC
  8
WHITE
 10
9.433193
 20
12.278137
 30
0.000000
 40
1.902310
 50
-49.086194
 51
-13.575147
  6
CONTINUOUS
  0
ARC
  8
WHITE
 10
11.266967
 20
11.835342
 30
0.000000
 40
0.015833
 50
-13.575148
 51
79.655622
  6
CONTINUOUS
  0
ARC
  8
WHITE
 10
11.446905
 20
12.821141
 30
0.000000
 40
0.986253
 50
-110.330004
 51
-100.344375
  6
CONTINUOUS
  0
ARC
  8
WHITE
 10
11.098754
 20
11.881477
 30
0.000000
 40
0.015833
 50
69.669994
 51
174.630856
  6
CONTINUOUS
  0
ARC
  8
WHITE
 10
9.409803
 20
8.678195
 30
0.000000
 40
0.617705
 50
65.045375
 51
127.254408
  6
CONTINUOUS
  0
ARC
  8
WHITE
 10
9.045457
 20
9.157258
 30
0.000000
 40
0.015833
 50
127.254411
 51
249.894298
  6
CONTINUOUS
  0
ARC
  8
WHITE
 10
9.787042
 20
11.183110
 30
0.000000
 40
2.173153
 50
-110.105701
 51
-98.485285
  6
CONTINUOUS
  0
ARC
  8
WHITE
 10
9.377319
 20
9.350412
 30
0.000000
 40
0.328953
 50
-74.291362
 51
-23.835425
  6
CONTINUOUS
  0
ARC
  8
WHITE
 10
9.663733
 20
9.223877
 30
0.000000
 40
0.015833
 50
-23.835429
 51
65.045370
  6
CONTINUOUS
  0
ARC
  8
WHITE
 10
7.412392
 20
5.548171
 30
0.000000
 40
1.919266
 50
15.023290
 51
19.612701
  6
CONTINUOUS
  0
ARC
  8
WHITE
 10
9.205393
 20
6.187078
 30
0.000000
 40
0.015833
 50
19.612703
 51
111.811881
  6
CONTINUOUS
  0
ARC
  8
WHITE
 10
7.567866
 20
10.278725
 30
0.000000
 40
4.391328
 50
-73.332643
 51
-68.188116
  6
CONTINUOUS
  0
ARC
  8
WHITE
 10
8.831905
 20
6.056726
 30
0.000000
 40
0.015833
 50
106.667357
 51
203.491769
  6
CONTINUOUS
  0
ARC
  8
WHITE
 10
6.312932
 20
4.961876
 30
0.000000
 40
2.730787
 50
20.551000
 51
23.491771
  6
CONTINUOUS
  0
ARC
  8
WHITE
 10
8.884758
 20
5.926052
 30
0.000000
 40
0.015833
 50
-159.449001
 51
-70.265126
  6
CONTINUOUS
  0
ARC
  8
WHITE
 10
10.558063
 20
1.261639
 30
0.000000
 40
4.939638
 50
105.296190
 51
109.734879
  6
CONTINUOUS
  0
ARC
  8
WHITE
 10
9.250766
 20
6.041563
 30
0.000000
 40
0.015833
 50
-74.703812
 51
15.023288
  6
CONTINUOUS
  0
ARC
  8
WHITE
 10
10.066835
 20
10.528510
 30
0.000000
 40
3.307670
 50
126.643336
 51
153.667835
  6
CONTINUOUS
  0
ARC
  8
WHITE
 10
7.116567
 20
11.988685
 30
0.000000
 40
0.015833
 50
153.667836
 51
331.972667
  6
CONTINUOUS
  0
ARC
  8
WHITE
 10
10.231906
 20
10.330323
 30
0.000000
 40
3.513401
 50
126.974764
 51
151.972664
  6
CONTINUOUS
  0
ARC
  8
WHITE
 10
8.099705
 20
13.156373
 30
0.000000
 40
0.027020
 50
-45.259384
 51
104.998182
  6
CONTINUOUS
  0
ARC
  8
WHITE
 10
7.232605
 20
15.196681
 30
0.000000
 40
0.315189
 50
-23.573839
 51
-8.550290
  6
CONTINUOUS
  0
ARC
  8
WHITE
 10
7.536002
 20
15.064295
 30
0.000000
 40
0.015833
 50
156.426161
 51
314.576007
  6
CONTINUOUS
  0
ARC
  8
WHITE
 10
6.951033
 20
15.657986
 30
0.000000
 40
0.849294
 50
-45.423996
 51
-38.169507
  6
CONTINUOUS
  0
ARC
  8
WHITE
 10
7.606289
 20
15.142916
 30
0.000000
 40
0.015833
 50
-38.169506
 51
94.355480
  6
CONTINUOUS
  0
ARC
  8
WHITE
 10
7.596069
 20
15.277088
 30
0.000000
 40
0.118728
 50
-105.571273
 51
-85.644517
  6
CONTINUOUS
  0
ARC
  8
WHITE
 10
7.559948
 20
15.147466
 30
0.000000
 40
0.015833
 50
74.428725
 51
171.449708
  6
CONTINUOUS
  0
ENDSEC
  0
EOF
