  0
SECTION
  2
HEADER
  9
$ACADVER
  1
AC1009
  9
$LIMMIN
 10
-0.000001
 20
0.000000
  9
$LIMMAX
 10
20.351093
 20
8.249087
  0
ENDSEC
  0
SECTION
  2
TABLES
  0
TABLE
  2
LTYPE
 70
     4
  0
LTYPE
  2
CONTINUOUS
 70
     0
  3
Solid line
 72
     65
 73
     0
 40
0.000000
  0
LTYPE
  2
HIDDEN
 70
     0
  3
 _ _ _ _ _ _ _ _ _ _ _
 72
     65
 73
     2
 40
0.375000
 49
0.250000
 49
-0.125000
  0
LTYPE
  2
DASHED
 70
     0
  3
 ___ ___ ___ ___ ___ ___ ___ 
 72
     65
 73
     2
 40
0.750000
 49
0.500000
 49
-0.250000
  0
LTYPE
  2
CENTER
 70
     0
  3
___ _ ___ _ ___ _ ___
 72
     65
 73
     4
 40
2.000000
 49
1.250000
 49
-0.250000
 49
0.250000
 49
-0.250000
  0
LTYPE
  2
BORDER
 70
     0
  3
___ ___ . ___ ___ . ___ ___
 72
     65
 73
     6
 40
1.750000
 49
0.500000
 49
-0.250000
 49
0.500000
 49
-0.250000
 49
0.000000
 49
-0.250000
  0
LTYPE
  2
DOT
 70
     0
  3
.................
 72
     65
 73
     2
 40
0.250000
 49
0.000000
 49
-0.250000
  0
LTYPE
  2
DASHDOT
 70
     0
  3
__ . __ . __ . __
 72
     65
 73
     4
 40
1.000000
 49
0.500000
 49
-0.250000
 49
0.000000
 49
-0.250000
  0
LTYPE
  2
DIVIDE
 70
     0
  3
___ .. ___ .. ___ .. ___
 72
     65
 73
     6
 40
1.250000
 49
0.500000
 49
-0.250000
 49
0.000000
 49
-0.250000
 49
0.000000
 49
-0.250000
  0
ENDTAB
  0
TABLE
  2
LAYER
 70
     8
  0
LAYER
  2
BLACK
 70
     0
 62
     1
  6
CONTINUOUS
  0
LAYER
  2
WHITE
 70
     0
 62
     7
  6
CONTINUOUS
  0
LAYER
  2
RED
 70
     0
 62
     1
  6
CONTINUOUS
  0
LAYER
  2
YELLOW
 70
     0
 62
     2
  6
CONTINUOUS
  0
LAYER
  2
GREEN
 70
     0
 62
     3
  6
CONTINUOUS
  0
LAYER
  2
CYAN
 70
     0
 62
     4
  6
CONTINUOUS
  0
LAYER
  2
BLUE
 70
     0
 62
     5
  6
CONTINUOUS
  0
LAYER
  2
MAGENTA
 70
     0
 62
     6
  6
CONTINUOUS
  0
ENDTAB
  0
TABLE
  2
APPID
 70
     1
  0
APPID
  2
TC_BEND_DATA
 70
     0
  0
ENDTAB
  0
ENDSEC
  0
SECTION
  2
BLOCKS
  0
ENDSEC
  0
SECTION
  2
ENTITIES
  0
ARC
  8
WHITE
 10
0.663654
 20
1.839977
 30
0.000000
 40
1.164625
 50
-70.715343
 51
-34.695566
  6
CONTINUOUS
  0
ARC
  8
WHITE
 10
1.552971
 20
1.112023
 30
0.000000
 40
0.094252
 50
43.627417
 51
88.843760
  6
CONTINUOUS
  0
ARC
  8
WHITE
 10
1.579445
 20
1.099638
 30
0.000000
 40
0.109413
 50
102.978251
 51
141.544792
  6
CONTINUOUS
  0
ARC
  8
WHITE
 10
1.171180
 20
1.542360
 30
0.000000
 40
0.494413
 50
-66.086125
 51
-49.272712
  6
CONTINUOUS
  0
ARC
  8
WHITE
 10
1.223369
 20
1.395339
 30
0.000000
 40
0.339065
 50
-87.782734
 51
-64.076860
  6
CONTINUOUS
  0
ARC
  8
WHITE
 10
1.245116
 20
1.193743
 30
0.000000
 40
0.137486
 50
153.129780
 51
266.401617
  6
CONTINUOUS
  0
ARC
  8
WHITE
 10
1.532442
 20
1.035515
 30
0.000000
 40
0.465441
 50
120.302189
 51
151.740895
  6
CONTINUOUS
  0
ARC
  8
WHITE
 10
2.068610
 20
0.326060
 30
0.000000
 40
1.352575
 50
104.473015
 51
124.752470
  6
CONTINUOUS
  0
ARC
  8
WHITE
 10
2.214200
 20
-0.092359
 30
0.000000
 40
1.794471
 50
92.261790
 51
105.635211
  6
CONTINUOUS
  0
ARC
  8
WHITE
 10
2.214217
 20
-0.083021
 30
0.000000
 40
1.785142
 50
86.393319
 51
92.274163
  6
CONTINUOUS
  0
ARC
  8
WHITE
 10
2.312083
 20
1.228718
 30
0.000000
 40
0.470088
 50
67.330287
 51
88.240744
  6
CONTINUOUS
  0
ARC
  8
WHITE
 10
2.380401
 20
1.449573
 30
0.000000
 40
0.240979
 50
23.758208
 51
62.072716
  6
CONTINUOUS
  0
ARC
  8
WHITE
 10
3.716394
 20
2.070756
 30
0.000000
 40
1.232427
 50
-154.833083
 51
-126.757483
  6
CONTINUOUS
  0
ARC
  8
WHITE
 10
3.651826
 20
1.969961
 30
0.000000
 40
1.113066
 50
-127.199579
 51
-103.881772
  6
CONTINUOUS
  0
ARC
  8
WHITE
 10
3.607640
 20
1.715332
 30
0.000000
 40
0.855466
 50
-105.100490
 51
-82.355068
  6
CONTINUOUS
  0
ARC
  8
WHITE
 10
3.595633
 20
1.679589
 30
0.000000
 40
0.821807
 50
-81.193793
 51
-72.311677
  6
CONTINUOUS
  0
LINE
  8
WHITE
 10
3.845330
 20
0.896634
 30
0.000000
 11
3.949639
 21
0.935091
 31
0.000000
  6
CONTINUOUS
  0
ARC
  8
WHITE
 10
3.947152
 20
0.911859
 30
0.000000
 40
0.023365
 50
-36.014054
 51
83.890981
  6
CONTINUOUS
  0
ARC
  8
WHITE
 10
3.696656
 20
0.964610
 30
0.000000
 40
0.277480
 50
-32.745776
 51
-13.864124
  6
CONTINUOUS
  0
ARC
  8
WHITE
 10
4.506903
 20
0.473260
 30
0.000000
 40
0.670246
 50
149.392572
 51
163.065333
  6
CONTINUOUS
  0
ARC
  8
WHITE
 10
4.020248
 20
0.613605
 30
0.000000
 40
0.163985
 50
160.446012
 51
202.295522
  6
CONTINUOUS
  0
ARC
  8
WHITE
 10
3.898413
 20
0.555666
 30
0.000000
 40
0.030195
 50
-171.861728
 51
-86.278208
  6
CONTINUOUS
  0
ARC
  8
WHITE
 10
3.882779
 20
0.573631
 30
0.000000
 40
0.051213
 50
-69.906973
 51
-26.232333
  6
CONTINUOUS
  0
LINE
  8
WHITE
 10
3.928718
 20
0.550994
 30
0.000000
 11
4.001886
 21
0.667654
 31
0.000000
  6
CONTINUOUS
  0
ARC
  8
WHITE
 10
4.182196
 20
0.548715
 30
0.000000
 40
0.216005
 50
128.317603
 51
146.589598
  6
CONTINUOUS
  0
ARC
  8
WHITE
 10
4.107516
 20
0.656173
 30
0.000000
 40
0.085768
 50
87.676250
 51
133.691945
  6
CONTINUOUS
  0
ARC
  8
WHITE
 10
4.002572
 20
0.650867
 30
0.000000
 40
0.141552
 50
2.075002
 51
40.008534
  6
CONTINUOUS
  0
ARC
  8
WHITE
 10
3.758990
 20
0.640950
 30
0.000000
 40
0.385335
 50
-11.321286
 51
2.237217
  6
CONTINUOUS
  0
ARC
  8
WHITE
 10
4.696756
 20
0.406839
 30
0.000000
 40
0.581921
 50
164.197936
 51
199.026855
  6
CONTINUOUS
  0
ARC
  8
WHITE
 10
4.614789
 20
0.391894
 30
0.000000
 40
0.499719
 50
-159.529052
 51
-133.471436
  6
CONTINUOUS
  0
ARC
  8
WHITE
 10
4.333512
 20
0.081434
 30
0.000000
 40
0.081448
 50
-140.145965
 51
-91.058512
  6
CONTINUOUS
  0
ARC
  8
WHITE
 10
4.322555
 20
0.020533
 30
0.000000
 40
0.022604
 50
-65.281001
 51
21.228098
  6
CONTINUOUS
  0
ARC
  8
WHITE
 10
4.154068
 20
0.011570
 30
0.000000
 40
0.190331
 50
5.168931
 51
25.340309
  6
CONTINUOUS
  0
ARC
  8
WHITE
 10
4.751906
 20
0.244564
 30
0.000000
 40
0.451979
 50
166.676504
 51
199.588735
  6
CONTINUOUS
  0
ARC
  8
WHITE
 10
4.608133
 20
0.287624
 30
0.000000
 40
0.302280
 50
125.267321
 51
168.338804
  6
CONTINUOUS
  0
ARC
  8
WHITE
 10
4.562631
 20
0.354662
 30
0.000000
 40
0.221279
 50
74.218485
 51
125.670303
  6
CONTINUOUS
  0
ARC
  8
WHITE
 10
4.565841
 20
0.329795
 30
0.000000
 40
0.244534
 50
-5.062286
 51
76.527510
  6
CONTINUOUS
  0
ARC
  8
WHITE
 10
4.547764
 20
0.332607
 30
0.000000
 40
0.262792
 50
-19.546849
 51
-5.325215
  6
CONTINUOUS
  0
LINE
  8
WHITE
 10
4.795410
 20
0.244683
 30
0.000000
 11
4.770981
 21
0.189023
 31
0.000000
  6
CONTINUOUS
  0
ARC
  8
WHITE
 10
4.798458
 20
0.183495
 30
0.000000
 40
0.028028
 50
168.624971
 51
285.505181
  6
CONTINUOUS
  0
ARC
  8
WHITE
 10
4.786295
 20
0.586803
 30
0.000000
 40
0.430764
 50
-87.384730
 51
-58.819059
  6
CONTINUOUS
  0
ARC
  8
WHITE
 10
4.026551
 20
1.925333
 30
0.000000
 40
1.969748
 50
-60.070666
 51
-41.309942
  6
CONTINUOUS
  0
ARC
  8
WHITE
 10
5.451024
 20
0.501557
 30
0.000000
 40
0.135219
 50
65.951931
 51
103.025773
  6
CONTINUOUS
  0
LINE
  8
WHITE
 10
5.420547
 20
0.633297
 30
0.000000
 11
5.271694
 21
0.544361
 31
0.000000
  6
CONTINUOUS
  0
ARC
  8
WHITE
 10
5.114897
 20
0.802147
 30
0.000000
 40
0.301727
 50
-91.171854
 51
-58.690128
  6
CONTINUOUS
  0
ARC
  8
WHITE
 10
5.111882
 20
0.634114
 30
0.000000
 40
0.133668
 50
124.440579
 51
268.647207
  6
CONTINUOUS
  0
ARC
  8
WHITE
 10
5.238200
 20
0.386817
 30
0.000000
 40
0.410610
 50
108.086612
 51
119.455148
  6
CONTINUOUS
  0
ARC
  8
WHITE
 10
5.066277
 20
1.018943
 30
0.000000
 40
0.245856
 50
-79.584451
 51
-41.909049
  6
CONTINUOUS
  0
ARC
  8
WHITE
 10
8.094477
 20
-0.977041
 30
0.000000
 40
3.383889
 50
104.098607
 51
147.226513
  6
CONTINUOUS
  0
ARC
  8
WHITE
 10
8.283623
 20
-1.833974
 30
0.000000
 40
4.261160
 50
97.336849
 51
103.758514
  6
CONTINUOUS
  0
ARC
  8
WHITE
 10
7.997543
 20
0.699282
 30
0.000000
 40
1.712573
 50
94.922482
 51
98.667360
  6
CONTINUOUS
  0
ARC
  8
WHITE
 10
7.871253
 20
2.018734
 30
0.000000
 40
0.387356
 50
76.759558
 51
93.057708
  6
CONTINUOUS
  0
ARC
  8
WHITE
 10
7.943669
 20
2.305123
 30
0.000000
 40
0.092124
 50
12.351299
 51
79.806665
  6
CONTINUOUS
  0
ARC
  8
WHITE
 10
6.856149
 20
2.229443
 30
0.000000
 40
1.181369
 50
-0.547044
 51
4.631204
  6
CONTINUOUS
  0
ARC
  8
WHITE
 10
8.664750
 20
2.246957
 30
0.000000
 40
0.627947
 50
-177.371900
 51
-139.012933
  6
CONTINUOUS
  0
ARC
  8
WHITE
 10
8.593355
 20
2.168340
 30
0.000000
 40
0.522639
 50
-140.385328
 51
-118.781744
  6
CONTINUOUS
  0
ARC
  8
WHITE
 10
8.465418
 20
1.971154
 30
0.000000
 40
0.288727
 50
-115.368164
 51
-105.897143
  6
CONTINUOUS
  0
ARC
  8
WHITE
 10
8.400013
 20
1.727537
 30
0.000000
 40
0.036713
 50
-111.878791
 51
-38.034224
  6
CONTINUOUS
  0
ARC
  8
WHITE
 10
8.346721
 20
1.738764
 30
0.000000
 40
0.088903
 50
-22.377833
 51
7.898744
  6
CONTINUOUS
  0
ARC
  8
WHITE
 10
8.589049
 20
1.781298
 30
0.000000
 40
0.157219
 50
157.142598
 51
191.118037
  6
CONTINUOUS
  0
ARC
  8
WHITE
 10
8.545577
 20
1.792027
 30
0.000000
 40
0.113210
 50
107.157699
 51
153.597767
  6
CONTINUOUS
  0
ARC
  8
WHITE
 10
8.553700
 20
1.637113
 30
0.000000
 40
0.266342
 50
60.099035
 51
98.968463
  6
CONTINUOUS
  0
ARC
  8
WHITE
 10
7.898726
 20
0.416707
 30
0.000000
 40
1.651302
 50
49.360880
 51
61.507400
  6
CONTINUOUS
  0
ARC
  8
WHITE
 10
8.132950
 20
0.879830
 30
0.000000
 40
1.153994
 50
26.902723
 51
43.197713
  6
CONTINUOUS
  0
ARC
  8
WHITE
 10
8.695669
 20
1.169847
 30
0.000000
 40
0.520964
 50
9.543306
 51
26.461396
  6
CONTINUOUS
  0
ARC
  8
WHITE
 10
8.844257
 20
1.253721
 30
0.000000
 40
0.365175
 50
-22.991543
 51
0.391977
  6
CONTINUOUS
  0
ARC
  8
WHITE
 10
9.356350
 20
1.040481
 30
0.000000
 40
0.189566
 50
158.132993
 51
201.761218
  6
CONTINUOUS
  0
ARC
  8
WHITE
 10
10.280027
 20
1.627834
 30
0.000000
 40
1.281365
 50
-149.120899
 51
-142.866844
  6
CONTINUOUS
  0
ARC
  8
WHITE
 10
9.117328
 20
0.756700
 30
0.000000
 40
0.171616
 50
-10.550288
 51
34.665976
  6
CONTINUOUS
  0
ARC
  8
WHITE
 10
9.472287
 20
0.647531
 30
0.000000
 40
0.201821
 50
157.342284
 51
194.603691
  6
CONTINUOUS
  0
ARC
  8
WHITE
 10
9.795353
 20
0.767790
 30
0.000000
 40
0.545889
 50
-161.728772
 51
-108.337621
  6
CONTINUOUS
  0
ARC
  8
WHITE
 10
9.795428
 20
0.767562
 30
0.000000
 40
0.545696
 50
-108.352659
 51
-96.670334
  6
CONTINUOUS
  0
ARC
  8
WHITE
 10
9.803087
 20
0.850814
 30
0.000000
 40
0.629277
 50
-96.482488
 51
-91.577099
  6
CONTINUOUS
  0
ARC
  8
WHITE
 10
9.793026
 20
0.249100
 30
0.000000
 40
0.028273
 50
-104.875103
 51
-51.340246
  6
CONTINUOUS
  0
ARC
  8
WHITE
 10
9.797325
 20
0.235366
 30
0.000000
 40
0.015754
 50
-31.979850
 51
63.865847
  6
CONTINUOUS
  0
ARC
  8
WHITE
 10
9.013543
 20
-0.674590
 30
0.000000
 40
1.216223
 50
49.447485
 51
54.368111
  6
CONTINUOUS
  0
ARC
  8
WHITE
 10
10.188047
 20
0.895204
 30
0.000000
 40
0.744986
 50
-136.498395
 51
-128.716335
  6
CONTINUOUS
  0
ARC
  8
WHITE
 10
9.743088
 20
0.464283
 30
0.000000
 40
0.125754
 50
-161.687898
 51
-139.357280
  6
CONTINUOUS
  0
ARC
  8
WHITE
 10
9.672293
 20
0.448328
 30
0.000000
 40
0.053999
 50
103.471512
 51
205.863458
  6
CONTINUOUS
  0
ARC
  8
WHITE
 10
9.711545
 20
0.321977
 30
0.000000
 40
0.186224
 50
77.399577
 51
106.160639
  6
CONTINUOUS
  0
ARC
  8
WHITE
 10
9.640244
 20
-0.320597
 30
0.000000
 40
0.831876
 50
76.030497
 51
82.267626
  6
CONTINUOUS
  0
ARC
  8
WHITE
 10
9.945089
 20
0.855407
 30
0.000000
 40
0.383124
 50
-105.754702
 51
-79.515612
  6
CONTINUOUS
  0
ARC
  8
WHITE
 10
9.916430
 20
1.067566
 30
0.000000
 40
0.597046
 50
-80.516154
 51
-48.945745
  6
CONTINUOUS
  0
ARC
  8
WHITE
 10
10.545606
 20
0.308840
 30
0.000000
 40
0.389058
 50
122.239760
 51
127.538681
  6
CONTINUOUS
  0
ARC
  8
WHITE
 10
10.316822
 20
0.670331
 30
0.000000
 40
0.038753
 50
-56.771669
 51
-4.404026
  6
CONTINUOUS
  0
ARC
  8
WHITE
 10
10.336480
 20
0.668532
 30
0.000000
 40
0.019015
 50
-3.547741
 51
101.521727
  6
CONTINUOUS
  0
ARC
  8
WHITE
 10
10.441447
 20
-0.014373
 30
0.000000
 40
0.709918
 50
98.812873
 51
109.870640
  6
CONTINUOUS
  0
ARC
  8
WHITE
 10
10.107495
 20
0.964699
 30
0.000000
 40
0.324911
 50
-118.826460
 51
-73.431444
  6
CONTINUOUS
  0
ARC
  8
WHITE
 10
10.085826
 20
0.971756
 30
0.000000
 40
0.321426
 50
-154.974648
 51
-114.832730
  6
CONTINUOUS
  0
ARC
  8
WHITE
 10
10.063774
 20
0.924594
 30
0.000000
 40
0.283469
 50
158.422408
 51
198.257474
  6
CONTINUOUS
  0
ARC
  8
WHITE
 10
10.002209
 20
0.953112
 30
0.000000
 40
0.215766
 50
67.865680
 51
159.452322
  6
CONTINUOUS
  0
ARC
  8
WHITE
 10
11.153486
 20
4.082884
 30
0.000000
 40
3.119170
 50
-110.061827
 51
-108.874076
  6
CONTINUOUS
  0
ARC
  8
WHITE
 10
10.172052
 20
1.189683
 30
0.000000
 40
0.064457
 50
-115.337241
 51
-61.589266
  6
CONTINUOUS
  0
ARC
  8
WHITE
 10
10.157653
 20
1.167299
 30
0.000000
 40
0.056640
 50
-37.281869
 51
20.226218
  6
CONTINUOUS
  0
ARC
  8
WHITE
 10
9.134111
 20
0.903634
 30
0.000000
 40
1.113324
 50
14.738974
 51
58.613857
  6
CONTINUOUS
  0
ARC
  8
WHITE
 10
9.794212
 20
1.786629
 30
0.000000
 40
0.104836
 50
139.973852
 51
166.533863
  6
CONTINUOUS
  0
ARC
  8
WHITE
 10
9.761133
 20
1.815909
 30
0.000000
 40
0.069046
 50
-175.957988
 51
-136.871158
  6
CONTINUOUS
  0
ARC
  8
WHITE
 10
8.656974
 20
1.014524
 30
0.000000
 40
1.295845
 50
27.503656
 51
35.591311
  6
CONTINUOUS
  0
ARC
  8
WHITE
 10
9.515251
 20
1.459989
 30
0.000000
 40
0.328854
 50
-0.151732
 51
27.719288
  6
CONTINUOUS
  0
ARC
  8
WHITE
 10
9.688699
 20
1.467502
 30
0.000000
 40
0.155631
 50
-54.650782
 51
-3.088033
  6
CONTINUOUS
  0
ARC
  8
WHITE
 10
9.713814
 20
1.411269
 30
0.000000
 40
0.095994
 50
-120.822184
 51
-47.439941
  6
CONTINUOUS
  0
ARC
  8
WHITE
 10
9.796270
 20
1.538796
 30
0.000000
 40
0.247818
 50
-146.886118
 51
-122.086574
  6
CONTINUOUS
  0
ARC
  8
WHITE
 10
10.941464
 20
2.253689
 30
0.000000
 40
1.597792
 50
-161.309281
 51
-147.848645
  6
CONTINUOUS
  0
ARC
  8
WHITE
 10
20.487311
 20
6.046332
 30
0.000000
 40
11.867602
 50
-160.544866
 51
-158.732384
  6
CONTINUOUS
  0
ARC
  8
WHITE
 10
9.384287
 20
1.973178
 30
0.000000
 40
0.148548
 50
107.969408
 51
125.835316
  6
CONTINUOUS
  0
ARC
  8
WHITE
 10
9.358623
 20
2.035399
 30
0.000000
 40
0.081611
 50
78.676707
 51
104.304688
  6
CONTINUOUS
  0
ARC
  8
WHITE
 10
8.244140
 20
-2.364642
 30
0.000000
 40
4.620499
 50
74.694464
 51
75.837548
  6
CONTINUOUS
  0
ARC
  8
WHITE
 10
9.196729
 20
1.031263
 30
0.000000
 40
1.093819
 50
42.434231
 51
75.867795
  6
CONTINUOUS
  0
ARC
  8
WHITE
 10
37.658210
 20
26.302855
 30
0.000000
 40
36.968213
 50
-138.422009
 51
-137.667472
  6
CONTINUOUS
  0
ARC
  8
WHITE
 10
13.197289
 20
4.015493
 30
0.000000
 40
3.876477
 50
-137.713780
 51
-104.082498
  6
CONTINUOUS
  0
ARC
  8
WHITE
 10
12.906363
 20
2.820675
 30
0.000000
 40
2.646793
 50
-104.267344
 51
-92.822049
  6
CONTINUOUS
  0
ARC
  8
WHITE
 10
12.987042
 20
5.410428
 30
0.000000
 40
5.237587
 50
-92.308734
 51
-87.749996
  6
CONTINUOUS
  0
ARC
  8
WHITE
 10
13.212991
 20
3.100041
 30
0.000000
 40
2.923233
 50
-90.398316
 51
-83.874587
  6
CONTINUOUS
  0
ARC
  8
WHITE
 10
13.142147
 20
3.095723
 30
0.000000
 40
2.927358
 50
-82.486754
 51
-61.738378
  6
CONTINUOUS
  0
ARC
  8
WHITE
 10
12.825274
 20
3.963630
 30
0.000000
 40
3.844107
 50
-63.704003
 51
-56.748141
  6
CONTINUOUS
  0
ARC
  8
WHITE
 10
15.301106
 20
0.224956
 30
0.000000
 40
0.640304
 50
115.606097
 51
125.083772
  6
CONTINUOUS
  0
ARC
  8
WHITE
 10
15.078649
 20
0.677259
 30
0.000000
 40
0.136378
 50
67.429875
 51
113.449657
  6
CONTINUOUS
  0
ARC
  8
WHITE
 10
15.422568
 20
1.452507
 30
0.000000
 40
0.711777
 50
-114.182484
 51
-60.255583
  6
CONTINUOUS
  0
ARC
  8
WHITE
 10
15.070384
 20
2.271660
 30
0.000000
 40
1.600899
 50
-63.859309
 51
-44.753290
  6
CONTINUOUS
  0
ARC
  8
WHITE
 10
-64.395485
 20
80.618770
 30
0.000000
 40
113.194324
 50
-44.596084
 51
-44.366122
  6
CONTINUOUS
  0
ARC
  8
WHITE
 10
20.853301
 20
10.201433
 30
0.000000
 40
9.746284
 50
-116.361798
 51
-115.137075
  6
CONTINUOUS
  0
ARC
  8
WHITE
 10
16.150472
 20
0.111020
 30
0.000000
 40
1.386500
 50
61.886054
 51
66.053797
  6
CONTINUOUS
  0
ARC
  8
WHITE
 10
16.718176
 20
1.199468
 30
0.000000
 40
0.159424
 50
21.774987
 51
57.503023
  6
CONTINUOUS
  0
ARC
  8
WHITE
 10
18.001530
 20
1.764922
 30
0.000000
 40
1.243089
 50
-155.964494
 51
-146.951805
  6
CONTINUOUS
  0
ARC
  8
WHITE
 10
17.595359
 20
1.520159
 30
0.000000
 40
0.769325
 50
-145.734807
 51
-89.266954
  6
CONTINUOUS
  0
ARC
  8
WHITE
 10
17.590409
 20
1.573318
 30
0.000000
 40
0.822554
 50
-88.969557
 51
-42.782394
  6
CONTINUOUS
  0
ARC
  8
WHITE
 10
17.596604
 20
1.566795
 30
0.000000
 40
0.813577
 50
-42.741566
 51
-22.318210
  6
CONTINUOUS
  0
ARC
  8
WHITE
 10
23.014555
 20
-0.859525
 30
0.000000
 40
5.123323
 50
154.068242
 51
155.588990
  6
CONTINUOUS
  0
ARC
  8
WHITE
 10
18.896004
 20
1.149591
 30
0.000000
 40
0.540890
 50
140.726747
 51
154.681108
  6
CONTINUOUS
  0
ARC
  8
WHITE
 10
18.647509
 20
1.365467
 30
0.000000
 40
0.212095
 50
126.172390
 51
143.379177
  6
CONTINUOUS
  0
ARC
  8
WHITE
 10
18.550035
 20
1.492334
 30
0.000000
 40
0.052291
 50
53.076069
 51
121.998034
  6
CONTINUOUS
  0
ARC
  8
WHITE
 10
19.494131
 20
2.907324
 30
0.000000
 40
1.648828
 50
-123.609809
 51
-106.420033
  6
CONTINUOUS
  0
ARC
  8
WHITE
 10
18.829443
 20
0.669037
 30
0.000000
 40
0.686081
 50
64.137347
 51
73.173520
  6
CONTINUOUS
  0
ARC
  8
WHITE
 10
19.105517
 20
1.242420
 30
0.000000
 40
0.049727
 50
2.029549
 51
62.183527
  6
CONTINUOUS
  0
ARC
  8
WHITE
 10
19.104148
 20
1.254321
 30
0.000000
 40
0.052062
 50
-68.022018
 51
-11.231064
  6
CONTINUOUS
  0
LINE
  8
WHITE
 10
19.123632
 20
1.206043
 30
0.000000
 11
19.102893
 21
1.191390
 31
0.000000
  6
CONTINUOUS
  0
ARC
  8
WHITE
 10
19.110388
 20
1.169263
 30
0.000000
 40
0.023362
 50
108.712375
 51
233.161183
  6
CONTINUOUS
  0
ARC
  8
WHITE
 10
19.223188
 20
1.327925
 30
0.000000
 40
0.218028
 50
-125.563747
 51
-99.560852
  6
CONTINUOUS
  0
ARC
  8
WHITE
 10
19.461036
 20
2.176016
 30
0.000000
 40
1.097848
 50
-104.455915
 51
-84.391221
  6
CONTINUOUS
  0
ARC
  8
WHITE
 10
19.483118
 20
2.642790
 30
0.000000
 40
1.561692
 50
-86.871999
 51
-62.190336
  6
CONTINUOUS
  0
ARC
  8
WHITE
 10
19.965728
 20
1.687389
 30
0.000000
 40
0.491844
 50
-59.992860
 51
-45.299135
  6
CONTINUOUS
  0
ARC
  8
WHITE
 10
19.984033
 20
1.669971
 30
0.000000
 40
0.466589
 50
-45.392347
 51
-38.135561
  6
CONTINUOUS
  0
ARC
  8
WHITE
 10
20.333614
 20
1.383326
 30
0.000000
 40
0.017479
 50
-4.874456
 51
88.995690
  6
CONTINUOUS
  0
ARC
  8
WHITE
 10
20.314728
 20
1.370660
 30
0.000000
 40
0.035734
 50
57.514249
 51
102.717439
  6
CONTINUOUS
  0
ARC
  8
WHITE
 10
17.995878
 20
8.428003
 30
0.000000
 40
7.392966
 50
-73.504033
 51
-71.784483
  6
CONTINUOUS
  0
ARC
  8
WHITE
 10
19.764179
 20
2.769398
 30
0.000000
 40
1.467852
 50
-107.298398
 51
-76.971115
  6
CONTINUOUS
  0
ARC
  8
WHITE
 10
19.890776
 20
3.215966
 30
0.000000
 40
1.931901
 50
-118.467663
 51
-106.945016
  6
CONTINUOUS
  0
ARC
  8
WHITE
 10
19.269795
 20
2.150150
 30
0.000000
 40
0.699983
 50
-147.177290
 51
-115.367097
  6
CONTINUOUS
  0
ARC
  8
WHITE
 10
20.042132
 20
0.615742
 30
0.000000
 40
1.784698
 50
121.538443
 51
139.672073
  6
CONTINUOUS
  0
ARC
  8
WHITE
 10
20.030550
 20
0.637399
 30
0.000000
 40
1.760183
 50
107.797129
 51
121.585867
  6
CONTINUOUS
  0
ARC
  8
WHITE
 10
19.689655
 20
1.646952
 30
0.000000
 40
0.694932
 50
99.929806
 51
106.476696
  6
CONTINUOUS
  0
ARC
  8
WHITE
 10
19.578402
 20
2.242192
 30
0.000000
 40
0.089693
 50
71.740949
 51
95.490638
  6
CONTINUOUS
  0
ARC
  8
WHITE
 10
19.560619
 20
2.276100
 30
0.000000
 40
0.068804
 50
-11.881926
 51
48.171979
  6
CONTINUOUS
  0
ARC
  8
WHITE
 10
19.710975
 20
2.249256
 30
0.000000
 40
0.083990
 50
171.318238
 51
217.097543
  6
CONTINUOUS
  0
ARC
  8
WHITE
 10
19.657160
 20
2.219308
 30
0.000000
 40
0.024548
 50
-122.460990
 51
-48.411964
  6
CONTINUOUS
  0
ARC
  8
WHITE
 10
19.604843
 20
2.293314
 30
0.000000
 40
0.115062
 50
-53.394393
 51
-22.844027
  6
CONTINUOUS
  0
ARC
  8
WHITE
 10
19.235752
 20
2.467141
 30
0.000000
 40
0.522960
 50
-24.696248
 51
25.763742
  6
CONTINUOUS
  0
ARC
  8
WHITE
 10
27.604282
 20
6.838504
 30
0.000000
 40
8.918775
 50
-153.792544
 51
-152.312836
  6
CONTINUOUS
  0
ARC
  8
WHITE
 10
19.926737
 20
3.076168
 30
0.000000
 40
0.369246
 50
-169.334784
 51
-151.463392
  6
CONTINUOUS
  0
ARC
  8
WHITE
 10
19.372208
 20
2.990926
 30
0.000000
 40
0.192405
 50
5.040741
 51
39.340842
  6
CONTINUOUS
  0
ARC
  8
WHITE
 10
19.541524
 20
3.059800
 30
0.000000
 40
0.056922
 50
111.122209
 51
151.883354
  6
CONTINUOUS
  0
ARC
  8
WHITE
 10
19.641024
 20
3.010298
 30
0.000000
 40
0.168040
 50
152.985050
 51
167.077420
  6
CONTINUOUS
  0
ARC
  8
WHITE
 10
19.258131
 20
3.093289
 30
0.000000
 40
0.223766
 50
-25.897553
 51
-11.709086
  6
CONTINUOUS
  0
ARC
  8
WHITE
 10
19.435030
 20
3.004375
 30
0.000000
 40
0.025940
 50
-105.853720
 51
-19.874307
  6
CONTINUOUS
  0
ARC
  8
WHITE
 10
19.541595
 20
3.220280
 30
0.000000
 40
0.266326
 50
-122.735821
 51
-115.260728
  6
CONTINUOUS
  0
LINE
  8
WHITE
 10
19.397575
 20
2.996254
 30
0.000000
 11
19.301683
 21
3.042955
 31
0.000000
  6
CONTINUOUS
  0
ARC
  8
WHITE
 10
18.915632
 20
2.257155
 30
0.000000
 40
0.875510
 50
63.835842
 51
73.017598
  6
CONTINUOUS
  0
ARC
  8
WHITE
 10
18.953114
 20
2.228033
 30
0.000000
 40
0.893516
 50
75.862887
 51
124.661531
  6
CONTINUOUS
  0
ARC
  8
WHITE
 10
19.061578
 20
2.080038
 30
0.000000
 40
1.076944
 50
124.929972
 51
157.532628
  6
CONTINUOUS
  0
ARC
  8
WHITE
 10
17.991689
 20
2.520881
 30
0.000000
 40
0.080224
 50
-55.464478
 51
-21.407433
  6
CONTINUOUS
  0
LINE
  8
WHITE
 10
18.037169
 20
2.454795
 30
0.000000
 11
18.019126
 21
2.454789
 31
0.000000
  6
CONTINUOUS
  0
LINE
  8
WHITE
 10
18.019126
 20
2.454789
 30
0.000000
 11
17.992466
 21
2.460841
 31
0.000000
  6
CONTINUOUS
  0
ARC
  8
WHITE
 10
16.822990
 20
-1.547241
 30
0.000000
 40
4.175212
 50
73.733835
 51
75.001322
  6
CONTINUOUS
  0
ARC
  8
WHITE
 10
17.327803
 20
0.170886
 30
0.000000
 40
2.385362
 50
76.033487
 51
85.505542
  6
CONTINUOUS
  0
ARC
  8
WHITE
 10
17.450233
 20
1.269504
 30
0.000000
 40
1.281033
 50
87.114238
 51
95.898388
  6
CONTINUOUS
  0
ARC
  8
WHITE
 10
17.082510
 20
4.771868
 30
0.000000
 40
2.240585
 50
-88.279962
 51
-83.951830
  6
CONTINUOUS
  0
ARC
  8
WHITE
 10
17.142176
 20
2.592596
 30
0.000000
 40
0.060779
 50
-129.073354
 51
-82.829112
  6
CONTINUOUS
  0
ARC
  8
WHITE
 10
17.157296
 20
2.567957
 30
0.000000
 40
0.057992
 50
164.598643
 51
202.878533
  6
CONTINUOUS
  0
ARC
  8
WHITE
 10
17.235145
 20
2.545172
 30
0.000000
 40
0.139103
 50
144.403888
 51
164.066585
  6
CONTINUOUS
  0
ARC
  8
WHITE
 10
17.514381
 20
2.330485
 30
0.000000
 40
0.491271
 50
128.064266
 51
142.999975
  6
CONTINUOUS
  0
ARC
  8
WHITE
 10
17.984614
 20
1.750008
 30
0.000000
 40
1.238273
 50
116.377280
 51
128.634957
  6
CONTINUOUS
  0
ARC
  8
WHITE
 10
17.934241
 20
1.708558
 30
0.000000
 40
1.254637
 50
108.543857
 51
113.474162
  6
CONTINUOUS
  0
ARC
  8
WHITE
 10
17.426939
 20
3.238832
 30
0.000000
 40
0.357569
 50
-72.371233
 51
-64.707624
  6
CONTINUOUS
  0
ARC
  8
WHITE
 10
17.578433
 20
2.930153
 30
0.000000
 40
0.014668
 50
-85.022536
 51
54.072209
  6
CONTINUOUS
  0
ARC
  8
WHITE
 10
17.533283
 20
2.862763
 30
0.000000
 40
0.095776
 50
55.856154
 51
79.082805
  6
CONTINUOUS
  0
ARC
  8
WHITE
 10
17.502000
 20
2.707795
 30
0.000000
 40
0.253867
 50
78.774186
 51
89.985646
  6
CONTINUOUS
  0
ARC
  8
WHITE
 10
17.513208
 20
2.175487
 30
0.000000
 40
0.786255
 50
90.812139
 51
99.907489
  6
CONTINUOUS
  0
ARC
  8
WHITE
 10
17.480667
 20
2.078382
 30
0.000000
 40
0.877668
 50
96.722485
 51
144.270392
  6
CONTINUOUS
  0
ARC
  8
WHITE
 10
17.244222
 20
2.196942
 30
0.000000
 40
0.617909
 50
140.388749
 51
162.863086
  6
CONTINUOUS
  0
ARC
  8
WHITE
 10
27.292672
 20
-0.804067
 30
0.000000
 40
11.104898
 50
163.343247
 51
164.425188
  6
CONTINUOUS
  0
ARC
  8
WHITE
 10
15.351870
 20
2.617199
 30
0.000000
 40
1.319089
 50
-43.585730
 51
-19.468679
  6
CONTINUOUS
  0
ARC
  8
WHITE
 10
15.555321
 20
2.370171
 30
0.000000
 40
1.002157
 50
-45.499812
 51
-41.374547
  6
CONTINUOUS
  0
ARC
  8
WHITE
 10
16.051417
 20
1.859795
 30
0.000000
 40
0.290438
 50
-63.874357
 51
-44.732609
  6
CONTINUOUS
  0
ARC
  8
WHITE
 10
16.147564
 20
1.662620
 30
0.000000
 40
0.071072
 50
-118.306967
 51
-63.470845
  6
CONTINUOUS
  0
ARC
  8
WHITE
 10
16.247089
 20
1.813068
 30
0.000000
 40
0.251252
 50
-175.075531
 51
-122.022545
  6
CONTINUOUS
  0
ARC
  8
WHITE
 10
16.334868
 20
1.785933
 30
0.000000
 40
0.338149
 50
160.782555
 51
179.056696
  6
CONTINUOUS
  0
ARC
  8
WHITE
 10
17.412144
 20
1.407838
 30
0.000000
 40
1.479850
 50
154.207748
 51
160.688231
  6
CONTINUOUS
  0
ARC
  8
WHITE
 10
16.351329
 20
1.944639
 30
0.000000
 40
0.291960
 50
147.608616
 51
158.480650
  6
CONTINUOUS
  0
ARC
  8
WHITE
 10
16.152152
 20
2.073236
 30
0.000000
 40
0.054917
 50
93.440432
 51
149.580159
  6
CONTINUOUS
  0
ARC
  8
WHITE
 10
16.142423
 20
2.089619
 30
0.000000
 40
0.038969
 50
16.059264
 51
80.497478
  6
CONTINUOUS
  0
ARC
  8
WHITE
 10
16.255265
 20
2.128049
 30
0.000000
 40
0.080303
 50
-159.859906
 51
-126.745474
  6
CONTINUOUS
  0
ARC
  8
WHITE
 10
16.071592
 20
2.231742
 30
0.000000
 40
0.215947
 50
-51.091761
 51
-17.997653
  6
CONTINUOUS
  0
ARC
  8
WHITE
 10
14.701405
 20
2.802448
 30
0.000000
 40
1.699627
 50
-22.026824
 51
-7.331764
  6
CONTINUOUS
  0
ARC
  8
WHITE
 10
15.006478
 20
2.772814
 30
0.000000
 40
1.393299
 50
-7.724076
 51
1.239606
  6
CONTINUOUS
  0
ARC
  8
WHITE
 10
20.068177
 20
2.717150
 30
0.000000
 40
3.669730
 50
175.257206
 51
178.660183
  6
CONTINUOUS
  0
ARC
  8
WHITE
 10
17.009511
 20
1.624201
 30
0.000000
 40
1.519229
 50
98.626802
 51
113.200410
  6
CONTINUOUS
  0
ARC
  8
WHITE
 10
16.653821
 20
4.023026
 30
0.000000
 40
0.905846
 50
-81.888876
 51
-69.236447
  6
CONTINUOUS
  0
ARC
  8
WHITE
 10
16.959995
 20
3.182984
 30
0.000000
 40
0.016504
 50
-24.984473
 51
90.062221
  6
CONTINUOUS
  0
ARC
  8
WHITE
 10
16.884968
 20
3.050611
 30
0.000000
 40
0.166705
 50
63.259461
 51
81.858286
  6
CONTINUOUS
  0
ARC
  8
WHITE
 10
16.728515
 20
0.313321
 30
0.000000
 40
2.907895
 50
86.449871
 51
97.301755
  6
CONTINUOUS
  0
ARC
  8
WHITE
 10
19.191085
 20
4.424636
 30
0.000000
 40
3.086519
 50
-160.317591
 51
-156.575790
  6
CONTINUOUS
  0
ARC
  8
WHITE
 10
15.855189
 20
3.224071
 30
0.000000
 40
0.458883
 50
20.540269
 51
33.133307
  6
CONTINUOUS
  0
ARC
  8
WHITE
 10
16.129530
 20
3.403943
 30
0.000000
 40
0.130835
 50
32.838459
 51
76.062178
  6
CONTINUOUS
  0
ARC
  8
WHITE
 10
16.582546
 20
3.458654
 30
0.000000
 40
0.427653
 50
170.270471
 51
186.677063
  6
CONTINUOUS
  0
ARC
  8
WHITE
 10
14.411039
 20
3.301620
 30
0.000000
 40
1.750048
 50
-0.368498
 51
3.515469
  6
CONTINUOUS
  0
ARC
  8
WHITE
 10
15.771568
 20
3.263383
 30
0.000000
 40
0.390416
 50
-12.902968
 51
3.962867
  6
CONTINUOUS
  0
ARC
  8
WHITE
 10
16.039162
 20
3.217560
 30
0.000000
 40
0.120296
 50
-73.134533
 51
-20.108185
  6
CONTINUOUS
  0
ARC
  8
WHITE
 10
18.791347
 20
-2.555524
 30
0.000000
 40
6.276637
 50
115.653039
 51
117.622088
  6
CONTINUOUS
  0
ARC
  8
WHITE
 10
16.705172
 20
1.512819
 30
0.000000
 40
1.705173
 50
118.893455
 51
122.290967
  6
CONTINUOUS
  0
ARC
  8
WHITE
 10
15.823507
 20
2.887752
 30
0.000000
 40
0.072684
 50
113.748551
 51
152.357278
  6
CONTINUOUS
  0
ARC
  8
WHITE
 10
15.771765
 20
2.912675
 30
0.000000
 40
0.015406
 50
145.168794
 51
234.847118
  6
CONTINUOUS
  0
ARC
  8
WHITE
 10
15.938077
 20
3.109986
 30
0.000000
 40
0.273404
 50
-129.847346
 51
-119.822921
  6
CONTINUOUS
  0
ARC
  8
WHITE
 10
15.783011
 20
2.842373
 30
0.000000
 40
0.035914
 50
-17.209292
 51
57.878352
  6
CONTINUOUS
  0
ARC
  8
WHITE
 10
15.501775
 20
3.053561
 30
0.000000
 40
0.385705
 50
-48.876586
 51
-35.105685
  6
CONTINUOUS
  0
ARC
  8
WHITE
 10
16.374340
 20
2.101164
 30
0.000000
 40
0.906130
 50
133.079104
 51
155.806959
  6
CONTINUOUS
  0
ARC
  8
WHITE
 10
15.351447
 20
2.562453
 30
0.000000
 40
0.215970
 50
-66.194500
 51
-24.612175
  6
CONTINUOUS
  0
ARC
  8
WHITE
 10
15.337375
 20
2.774427
 30
0.000000
 40
0.421897
 50
-96.121173
 51
-76.114985
  6
CONTINUOUS
  0
ARC
  8
WHITE
 10
15.297574
 20
2.395260
 30
0.000000
 40
0.040657
 50
165.382506
 51
262.670916
  6
CONTINUOUS
  0
ARC
  8
WHITE
 10
15.567166
 20
2.349468
 30
0.000000
 40
0.313977
 50
145.296232
 51
169.716202
  6
CONTINUOUS
  0
ARC
  8
WHITE
 10
14.059274
 20
3.147011
 30
0.000000
 40
1.394567
 50
-26.340910
 51
-5.728998
  6
CONTINUOUS
  0
ARC
  8
WHITE
 10
14.028825
 20
3.163062
 30
0.000000
 40
1.426525
 50
-6.248386
 51
8.863970
  6
CONTINUOUS
  0
ARC
  8
WHITE
 10
14.330966
 20
3.183122
 30
0.000000
 40
1.125219
 50
10.225497
 51
17.411792
  6
CONTINUOUS
  0
ARC
  8
WHITE
 10
15.007807
 20
3.410904
 30
0.000000
 40
0.411497
 50
15.349415
 51
32.543385
  6
CONTINUOUS
  0
ARC
  8
WHITE
 10
15.302712
 20
3.604488
 30
0.000000
 40
0.058937
 50
28.117972
 51
80.593103
  6
CONTINUOUS
  0
ARC
  8
WHITE
 10
15.311163
 20
3.636114
 30
0.000000
 40
0.026544
 50
87.448184
 51
197.045962
  6
CONTINUOUS
  0
ARC
  8
WHITE
 10
12.941897
 20
3.362504
 30
0.000000
 40
2.358914
 50
-2.756919
 51
6.470475
  6
CONTINUOUS
  0
ARC
  8
WHITE
 10
13.295088
 20
3.366690
 30
0.000000
 40
2.006445
 50
-8.785371
 51
-3.361435
  6
CONTINUOUS
  0
ARC
  8
WHITE
 10
14.616220
 20
3.139326
 30
0.000000
 40
0.666481
 50
-14.975748
 51
-6.815009
  6
CONTINUOUS
  0
ARC
  8
WHITE
 10
15.161343
 20
2.987453
 30
0.000000
 40
0.100798
 50
-65.694910
 51
-11.648981
  6
CONTINUOUS
  0
ARC
  8
WHITE
 10
13.385699
 20
2.541603
 30
0.000000
 40
1.851290
 50
11.023439
 51
32.471801
  6
CONTINUOUS
  0
ARC
  8
WHITE
 10
13.379666
 20
2.537355
 30
0.000000
 40
1.858660
 50
32.482431
 51
43.164139
  6
CONTINUOUS
  0
ARC
  8
WHITE
 10
14.848785
 20
3.932104
 30
0.000000
 40
0.167499
 50
-162.262227
 51
-132.619519
  6
CONTINUOUS
  0
ARC
  8
WHITE
 10
14.711597
 20
3.885978
 30
0.000000
 40
0.022880
 50
111.029209
 51
192.377588
  6
CONTINUOUS
  0
ARC
  8
WHITE
 10
14.741350
 20
3.800459
 30
0.000000
 40
0.113417
 50
80.826013
 51
109.555651
  6
CONTINUOUS
  0
ARC
  8
WHITE
 10
14.610327
 20
2.133511
 30
0.000000
 40
1.785152
 50
82.471851
 51
85.208770
  6
CONTINUOUS
  0
ARC
  8
WHITE
 10
14.863352
 20
3.979602
 30
0.000000
 40
0.078690
 50
-104.082169
 51
-42.232745
  6
CONTINUOUS
  0
ARC
  8
WHITE
 10
13.433492
 20
2.318762
 30
0.000000
 40
2.190893
 50
47.216364
 51
78.525390
  6
CONTINUOUS
  0
ARC
  8
WHITE
 10
13.580216
 20
2.338122
 30
0.000000
 40
2.147296
 50
82.262025
 51
111.099330
  6
CONTINUOUS
  0
ARC
  8
WHITE
 10
12.806693
 20
4.444203
 30
0.000000
 40
0.102747
 50
-122.932774
 51
-89.706056
  6
CONTINUOUS
  0
ARC
  8
WHITE
 10
12.958681
 20
4.672813
 30
0.000000
 40
0.377264
 50
-135.526553
 51
-123.430922
  6
CONTINUOUS
  0
ARC
  8
WHITE
 10
8.716791
 20
0.634144
 30
0.000000
 40
5.479785
 50
43.533597
 51
46.262671
  6
CONTINUOUS
  0
ARC
  8
WHITE
 10
10.641740
 20
2.560652
 30
0.000000
 40
2.757661
 50
47.486744
 51
56.587779
  6
CONTINUOUS
  0
ARC
  8
WHITE
 10
10.545747
 20
2.507255
 30
0.000000
 40
2.855543
 50
55.569946
 51
68.593043
  6
CONTINUOUS
  0
ARC
  8
WHITE
 10
8.925561
 20
-1.268037
 30
0.000000
 40
6.962957
 50
67.519399
 51
68.609180
  6
CONTINUOUS
  0
ARC
  8
WHITE
 10
11.810903
 20
6.102654
 30
0.000000
 40
0.952364
 50
-120.981837
 51
-111.287859
  6
CONTINUOUS
  0
ARC
  8
WHITE
 10
11.476380
 20
5.586535
 30
0.000000
 40
0.338338
 50
-165.614044
 51
-117.403610
  6
CONTINUOUS
  0
ARC
  8
WHITE
 10
11.494098
 20
5.564679
 30
0.000000
 40
0.351003
 50
131.640563
 51
190.207898
  6
CONTINUOUS
  0
ARC
  8
WHITE
 10
11.889339
 20
5.067744
 30
0.000000
 40
0.985610
 50
113.813707
 51
129.616175
  6
CONTINUOUS
  0
ARC
  8
WHITE
 10
12.855648
 20
2.991297
 30
0.000000
 40
3.275754
 50
108.922533
 51
114.612113
  6
CONTINUOUS
  0
ARC
  8
WHITE
 10
14.605963
 20
-2.201522
 30
0.000000
 40
8.755597
 50
106.016094
 51
108.737653
  6
CONTINUOUS
  0
ARC
  8
WHITE
 10
12.197235
 20
6.231904
 30
0.000000
 40
0.019021
 50
-111.611877
 51
73.421157
  6
CONTINUOUS
  0
ARC
  8
WHITE
 10
12.046690
 20
5.734284
 30
0.000000
 40
0.538914
 50
73.176797
 51
85.065732
  6
CONTINUOUS
  0
ARC
  8
WHITE
 10
15.421487
 20
42.419857
 30
0.000000
 40
36.301568
 50
-95.731048
 51
-95.260764
  6
CONTINUOUS
  0
ARC
  8
WHITE
 10
12.953769
 20
14.130180
 30
0.000000
 40
7.915504
 50
-106.824459
 51
-98.407300
  6
CONTINUOUS
  0
ARC
  8
WHITE
 10
10.727371
 20
6.671337
 30
0.000000
 40
0.134424
 50
169.327967
 51
241.243851
  6
CONTINUOUS
  0
ARC
  8
WHITE
 10
10.758462
 20
6.670620
 30
0.000000
 40
0.165187
 50
113.202055
 51
171.080911
  6
CONTINUOUS
  0
ARC
  8
WHITE
 10
10.054200
 20
8.101565
 30
0.000000
 40
1.429929
 50
-63.448445
 51
-41.911299
  6
CONTINUOUS
  0
ARC
  8
WHITE
 10
2.765909
 20
14.282311
 30
0.000000
 40
10.985628
 50
-40.509012
 51
-39.736733
  6
CONTINUOUS
  0
ARC
  8
WHITE
 10
11.177790
 20
7.183960
 30
0.000000
 40
0.083776
 50
64.583576
 51
124.554529
  6
CONTINUOUS
  0
ARC
  8
WHITE
 10
11.331133
 20
6.984513
 30
0.000000
 40
0.335271
 50
126.805244
 51
137.212177
  6
CONTINUOUS
  0
ARC
  8
WHITE
 10
9.685136
 20
8.724519
 30
0.000000
 40
2.060776
 50
-55.671444
 51
-47.208548
  6
CONTINUOUS
  0
ARC
  8
WHITE
 10
9.804332
 20
8.690027
 30
0.000000
 40
1.966659
 50
-77.852505
 51
-57.973113
  6
CONTINUOUS
  0
ARC
  8
WHITE
 10
19.552361
 20
-36.588828
 30
0.000000
 40
44.349632
 50
102.149791
 51
103.065555
  6
CONTINUOUS
  0
ARC
  8
WHITE
 10
13.047314
 20
-5.312862
 30
0.000000
 40
12.434438
 50
106.448652
 51
110.551854
  6
CONTINUOUS
  0
ARC
  8
WHITE
 10
8.680290
 20
7.276566
 30
0.000000
 40
0.946384
 50
-95.342626
 51
-89.887800
  6
CONTINUOUS
  0
ARC
  8
WHITE
 10
9.327957
 20
15.591056
 30
0.000000
 40
9.285958
 50
-95.612543
 51
-94.544676
  6
CONTINUOUS
  0
ARC
  8
WHITE
 10
10.438801
 20
27.067045
 30
0.000000
 40
20.815580
 50
-96.684154
 51
-95.566185
  6
CONTINUOUS
  0
ARC
  8
WHITE
 10
8.211192
 20
8.784252
 30
0.000000
 40
2.399258
 50
-105.193054
 51
-94.667669
  6
CONTINUOUS
  0
ARC
  8
WHITE
 10
7.653749
 20
6.727665
 30
0.000000
 40
0.268464
 50
-128.921601
 51
-105.409641
  6
CONTINUOUS
  0
ARC
  8
WHITE
 10
7.579554
 20
6.602932
 30
0.000000
 40
0.126502
 50
168.467219
 51
221.688010
  6
CONTINUOUS
  0
ARC
  8
WHITE
 10
7.655119
 20
6.591598
 30
0.000000
 40
0.202847
 50
131.512190
 51
169.597811
  6
CONTINUOUS
  0
ARC
  8
WHITE
 10
7.741068
 20
6.481194
 30
0.000000
 40
0.342598
 50
121.123261
 51
130.038046
  6
CONTINUOUS
  0
ARC
  8
WHITE
 10
6.219068
 20
8.905502
 30
0.000000
 40
2.519935
 50
-57.743437
 51
-55.345787
  6
CONTINUOUS
  0
ARC
  8
WHITE
 10
6.998027
 20
7.767495
 30
0.000000
 40
1.140896
 50
-55.028117
 51
-37.570364
  6
CONTINUOUS
  0
ARC
  8
WHITE
 10
7.416802
 20
7.464718
 30
0.000000
 40
0.624547
 50
-38.979563
 51
-27.316949
  6
CONTINUOUS
  0
ARC
  8
WHITE
 10
7.882183
 20
7.226910
 30
0.000000
 40
0.101957
 50
-28.598945
 51
25.026557
  6
CONTINUOUS
  0
ARC
  8
WHITE
 10
6.085194
 20
8.843260
 30
0.000000
 40
2.458607
 50
-50.779044
 51
-39.783015
  6
CONTINUOUS
  0
ARC
  8
WHITE
 10
6.562455
 20
8.457995
 30
0.000000
 40
1.862633
 50
-74.400609
 51
-54.661931
  6
CONTINUOUS
  0
ARC
  8
WHITE
 10
10.297622
 20
-4.989461
 30
0.000000
 40
12.093927
 50
105.511433
 51
108.686948
  6
CONTINUOUS
  0
ARC
  8
WHITE
 10
9.577909
 20
-1.870475
 30
0.000000
 40
8.914427
 50
110.728323
 51
114.150483
  6
CONTINUOUS
  0
ARC
  8
WHITE
 10
7.094356
 20
3.808807
 30
0.000000
 40
2.716729
 50
115.361414
 51
120.915926
  6
CONTINUOUS
  0
ARC
  8
WHITE
 10
5.434762
 20
6.573439
 30
0.000000
 40
0.507787
 50
-78.403962
 51
-58.701504
  6
CONTINUOUS
  0
ARC
  8
WHITE
 10
5.505641
 20
6.201129
 30
0.000000
 40
0.128942
 50
-97.104452
 51
-76.001171
  6
CONTINUOUS
  0
ARC
  8
WHITE
 10
5.402629
 20
5.328416
 30
0.000000
 40
0.749833
 50
83.332228
 51
89.358659
  6
CONTINUOUS
  0
ARC
  8
WHITE
 10
5.420313
 20
6.064243
 30
0.000000
 40
0.016768
 50
123.647791
 51
212.770745
  6
CONTINUOUS
  0
ARC
  8
WHITE
 10
5.618095
 20
6.133705
 30
0.000000
 40
0.225969
 50
-159.661751
 51
-144.102035
  6
CONTINUOUS
  0
ARC
  8
WHITE
 10
5.002949
 20
5.626787
 30
0.000000
 40
0.571752
 50
35.108663
 51
40.909721
  6
CONTINUOUS
  0
ARC
  8
WHITE
 10
5.443897
 20
5.930392
 30
0.000000
 40
0.036792
 50
-27.075992
 51
43.287274
  6
CONTINUOUS
  0
ARC
  8
WHITE
 10
5.373237
 20
6.006726
 30
0.000000
 40
0.139138
 50
-86.706521
 51
-41.988215
  6
CONTINUOUS
  0
ARC
  8
WHITE
 10
5.379028
 20
6.034145
 30
0.000000
 40
0.166341
 50
-126.317357
 51
-89.241335
  6
CONTINUOUS
  0
ARC
  8
WHITE
 10
5.406214
 20
6.055167
 30
0.000000
 40
0.199606
 50
140.840095
 51
230.967721
  6
CONTINUOUS
  0
ARC
  8
WHITE
 10
5.406080
 20
6.037270
 30
0.000000
 40
0.211264
 50
121.632256
 51
137.050852
  6
CONTINUOUS
  0
ARC
  8
WHITE
 10
4.972806
 20
6.734515
 30
0.000000
 40
0.609638
 50
-58.064887
 51
-53.205677
  6
CONTINUOUS
  0
ARC
  8
WHITE
 10
5.299203
 20
6.301616
 30
0.000000
 40
0.067516
 50
-54.982401
 51
19.311076
  6
CONTINUOUS
  0
ARC
  8
WHITE
 10
5.712340
 20
6.433250
 30
0.000000
 40
0.366118
 50
-172.695417
 51
-162.629089
  6
CONTINUOUS
  0
ARC
  8
WHITE
 10
5.488031
 20
6.403963
 30
0.000000
 40
0.139907
 50
155.148777
 51
187.087622
  6
CONTINUOUS
  0
ARC
  8
WHITE
 10
5.565242
 20
6.367367
 30
0.000000
 40
0.225350
 50
103.690090
 51
154.955971
  6
CONTINUOUS
  0
ARC
  8
WHITE
 10
5.613685
 20
6.161955
 30
0.000000
 40
0.436393
 50
75.190643
 51
103.486828
  6
CONTINUOUS
  0
ARC
  8
WHITE
 10
8.440474
 20
17.429346
 30
0.000000
 40
11.180219
 50
-104.055493
 51
-103.493013
  6
CONTINUOUS
  0
ARC
  8
WHITE
 10
5.866501
 20
6.640788
 30
0.000000
 40
0.090014
 50
-112.654812
 51
-81.429437
  6
CONTINUOUS
  0
ARC
  8
WHITE
 10
5.889877
 20
6.566792
 30
0.000000
 40
0.018017
 50
-123.565703
 51
-20.583876
  6
CONTINUOUS
  0
ARC
  8
WHITE
 10
5.858123
 20
6.561220
 30
0.000000
 40
0.048627
 50
-0.898445
 51
37.104003
  6
CONTINUOUS
  0
ARC
  8
WHITE
 10
5.822937
 20
6.532054
 30
0.000000
 40
0.094307
 50
38.340251
 51
58.735111
  6
CONTINUOUS
  0
ARC
  8
WHITE
 10
5.534869
 20
6.023891
 30
0.000000
 40
0.678405
 50
60.213295
 51
66.275662
  6
CONTINUOUS
  0
ARC
  8
WHITE
 10
5.335129
 20
5.727146
 30
0.000000
 40
1.032388
 50
62.751022
 51
97.814864
  6
CONTINUOUS
  0
ARC
  8
WHITE
 10
5.714609
 20
3.032553
 30
0.000000
 40
3.753566
 50
97.960865
 51
105.126281
  6
CONTINUOUS
  0
ARC
  8
WHITE
 10
4.699324
 20
6.807677
 30
0.000000
 40
0.155777
 50
-92.986362
 51
-76.713086
  6
CONTINUOUS
  0
ARC
  8
WHITE
 10
4.695147
 20
6.690800
 30
0.000000
 40
0.038889
 50
-162.323278
 51
-95.812975
  6
CONTINUOUS
  0
ARC
  8
WHITE
 10
4.702072
 20
6.688831
 30
0.000000
 40
0.045065
 50
132.381010
 51
192.611491
  6
CONTINUOUS
  0
ARC
  8
WHITE
 10
4.774848
 20
6.625653
 30
0.000000
 40
0.141232
 50
114.561751
 51
136.918263
  6
CONTINUOUS
  0
ARC
  8
WHITE
 10
4.862068
 20
6.317896
 30
0.000000
 40
0.459970
 50
102.395467
 51
108.496774
  6
CONTINUOUS
  0
ARC
  8
WHITE
 10
4.759953
 20
6.799896
 30
0.000000
 40
0.032926
 50
-84.110190
 51
-15.920057
  6
CONTINUOUS
  0
ARC
  8
WHITE
 10
4.749337
 20
6.786623
 30
0.000000
 40
0.042491
 50
5.729062
 51
67.585005
  6
CONTINUOUS
  0
ARC
  8
WHITE
 10
4.680399
 20
6.660336
 30
0.000000
 40
0.186177
 50
62.786303
 51
79.452539
  6
CONTINUOUS
  0
ARC
  8
WHITE
 10
3.964121
 20
2.196725
 30
0.000000
 40
4.706838
 50
80.826846
 51
82.098163
  6
CONTINUOUS
  0
ARC
  8
WHITE
 10
4.625693
 20
6.948571
 30
0.000000
 40
0.090863
 50
-124.915402
 51
-99.178331
  6
CONTINUOUS
  0
ARC
  8
WHITE
 10
4.609118
 20
6.913301
 30
0.000000
 40
0.052867
 50
177.762503
 51
227.917478
  6
CONTINUOUS
  0
ARC
  8
WHITE
 10
4.637913
 20
6.917314
 30
0.000000
 40
0.081645
 50
139.528521
 51
181.367858
  6
CONTINUOUS
  0
ARC
  8
WHITE
 10
4.703999
 20
6.858342
 30
0.000000
 40
0.170207
 50
116.394670
 51
138.866260
  6
CONTINUOUS
  0
ARC
  8
WHITE
 10
4.835066
 20
6.573657
 30
0.000000
 40
0.483567
 50
96.911262
 51
115.310038
  6
CONTINUOUS
  0
ARC
  8
WHITE
 10
4.720111
 20
7.731900
 30
0.000000
 40
0.680560
 50
-85.215336
 51
-80.542129
  6
CONTINUOUS
  0
ARC
  8
WHITE
 10
4.834638
 20
7.085124
 30
0.000000
 40
0.024681
 50
-96.270488
 51
-8.888429
  6
CONTINUOUS
  0
ARC
  8
WHITE
 10
4.794320
 20
7.054995
 30
0.000000
 40
0.069850
 50
22.131997
 51
63.742473
  6
CONTINUOUS
  0
ARC
  8
WHITE
 10
4.745046
 20
6.961482
 30
0.000000
 40
0.175535
 50
62.822331
 51
79.559878
  6
CONTINUOUS
  0
ARC
  8
WHITE
 10
4.885102
 20
7.979188
 30
0.000000
 40
0.851981
 50
-104.282992
 51
-97.299385
  6
CONTINUOUS
  0
ARC
  8
WHITE
 10
4.680252
 20
7.196643
 30
0.000000
 40
0.043431
 50
-151.382988
 51
-97.067307
  6
CONTINUOUS
  0
ARC
  8
WHITE
 10
4.801635
 20
7.198710
 30
0.000000
 40
0.161138
 50
173.137033
 51
188.158581
  6
CONTINUOUS
  0
ARC
  8
WHITE
 10
4.134945
 20
9.541110
 30
0.000000
 40
2.377762
 50
-77.695800
 51
-32.913880
  6
CONTINUOUS
  0
LINE
  8
WHITE
 10
6.131048
 20
8.249087
 30
0.000000
 11
6.078971
 21
8.249087
 31
0.000000
  6
CONTINUOUS
  0
ARC
  8
WHITE
 10
3.660352
 20
10.726227
 30
0.000000
 40
3.462072
 50
-82.877198
 51
-45.684853
  6
CONTINUOUS
  0
ARC
  8
WHITE
 10
4.261833
 20
7.310076
 30
0.000000
 40
0.173264
 50
144.208597
 51
186.363062
  6
CONTINUOUS
  0
ARC
  8
WHITE
 10
4.443460
 20
7.164417
 30
0.000000
 40
0.405952
 50
123.757144
 51
142.524630
  6
CONTINUOUS
  0
ARC
  8
WHITE
 10
2.687869
 20
9.901543
 30
0.000000
 40
2.845892
 50
-57.478110
 51
-52.740371
  6
CONTINUOUS
  0
ARC
  8
WHITE
 10
2.875487
 20
9.362276
 30
0.000000
 40
2.309905
 50
-48.341657
 51
-37.377534
  6
CONTINUOUS
  0
ARC
  8
WHITE
 10
3.192002
 20
9.063959
 30
0.000000
 40
1.877824
 50
-36.007013
 51
-32.291127
  6
CONTINUOUS
  0
ARC
  8
WHITE
 10
4.575956
 20
8.191478
 30
0.000000
 40
0.241815
 50
-32.715447
 51
-19.376894
  6
CONTINUOUS
  0
ARC
  8
WHITE
 10
4.704805
 20
8.146359
 30
0.000000
 40
0.105294
 50
-19.478276
 51
10.619832
  6
CONTINUOUS
  0
ARC
  8
WHITE
 10
6.487939
 20
6.516603
 30
0.000000
 40
2.353918
 50
135.524630
 51
138.845244
  6
CONTINUOUS
  0
ARC
  8
WHITE
 10
3.644730
 20
8.914045
 30
0.000000
 40
1.366172
 50
-49.471170
 51
-38.386366
  6
CONTINUOUS
  0
ARC
  8
WHITE
 10
2.753715
 20
9.863620
 30
0.000000
 40
2.667612
 50
-58.823239
 51
-48.178518
  6
CONTINUOUS
  0
ARC
  8
WHITE
 10
3.043665
 20
9.357832
 30
0.000000
 40
2.084817
 50
-70.362035
 51
-58.445007
  6
CONTINUOUS
  0
ARC
  8
WHITE
 10
3.887037
 20
6.862936
 30
0.000000
 40
0.550175
 50
105.034490
 51
124.794941
  6
CONTINUOUS
  0
ARC
  8
WHITE
 10
3.642054
 20
7.201266
 30
0.000000
 40
0.132789
 50
121.291319
 51
159.563426
  6
CONTINUOUS
  0
ARC
  8
WHITE
 10
3.678854
 20
7.240358
 30
0.000000
 40
0.161396
 50
177.416747
 51
207.930283
  6
CONTINUOUS
  0
ARC
  8
WHITE
 10
3.384735
 20
7.112967
 30
0.000000
 40
0.160131
 50
-10.850712
 51
18.871540
  6
CONTINUOUS
  0
ARC
  8
WHITE
 10
3.494855
 20
7.110681
 30
0.000000
 40
0.054763
 50
-72.861482
 51
-30.578146
  6
CONTINUOUS
  0
ARC
  8
WHITE
 10
4.042673
 20
5.654141
 30
0.000000
 40
1.501495
 50
110.738337
 51
135.038659
  6
CONTINUOUS
  0
ARC
  8
WHITE
 10
4.399027
 20
5.325348
 30
0.000000
 40
1.986073
 50
135.591459
 51
142.478962
  6
CONTINUOUS
  0
ARC
  8
WHITE
 10
-0.110038
 20
9.162595
 30
0.000000
 40
3.938514
 50
-47.926129
 51
-41.848346
  6
CONTINUOUS
  0
ARC
  8
WHITE
 10
-1.756393
 20
10.891824
 30
0.000000
 40
6.325609
 50
-48.771823
 51
-47.352556
  6
CONTINUOUS
  0
ARC
  8
WHITE
 10
2.488083
 20
6.055944
 30
0.000000
 40
0.108893
 50
133.912346
 51
169.879033
  6
CONTINUOUS
  0
ARC
  8
WHITE
 10
1.819492
 20
6.242953
 30
0.000000
 40
0.585954
 50
-41.784231
 51
-16.648286
  6
CONTINUOUS
  0
ARC
  8
WHITE
 10
1.859455
 20
6.205399
 30
0.000000
 40
0.531134
 50
-52.035204
 51
-41.636005
  6
CONTINUOUS
  0
ARC
  8
WHITE
 10
1.508877
 20
6.693462
 30
0.000000
 40
1.131837
 50
-57.510140
 51
-53.242800
  6
CONTINUOUS
  0
ARC
  8
WHITE
 10
2.198601
 20
5.649704
 30
0.000000
 40
0.120903
 50
132.549225
 51
202.632273
  6
CONTINUOUS
  0
ARC
  8
WHITE
 10
2.339595
 20
5.690017
 30
0.000000
 40
0.267097
 50
-161.027233
 51
-137.281013
  6
CONTINUOUS
  0
ARC
  8
WHITE
 10
2.749096
 20
6.030008
 30
0.000000
 40
0.799095
 50
-139.290400
 51
-115.480727
  6
CONTINUOUS
  0
ARC
  8
WHITE
 10
2.428138
 20
5.311059
 30
0.000000
 40
0.022947
 50
-173.948524
 51
53.780325
  6
CONTINUOUS
  0
ARC
  8
WHITE
 10
2.701409
 20
5.564350
 30
0.000000
 40
0.350102
 50
-153.432668
 51
-137.886569
  6
CONTINUOUS
  0
ARC
  8
WHITE
 10
2.448331
 20
5.437238
 30
0.000000
 40
0.066898
 50
159.314891
 51
206.138041
  6
CONTINUOUS
  0
ARC
  8
WHITE
 10
2.466541
 20
5.426812
 30
0.000000
 40
0.087680
 50
132.597602
 51
157.143858
  6
CONTINUOUS
  0
ARC
  8
WHITE
 10
2.437868
 20
5.458097
 30
0.000000
 40
0.045243
 50
82.675049
 51
132.683942
  6
CONTINUOUS
  0
ARC
  8
WHITE
 10
2.415966
 20
5.387860
 30
0.000000
 40
0.118390
 50
41.109081
 51
76.483695
  6
CONTINUOUS
  0
ARC
  8
WHITE
 10
-0.823723
 20
2.554741
 30
0.000000
 40
4.422126
 50
39.549259
 51
41.168180
  6
CONTINUOUS
  0
ARC
  8
WHITE
 10
2.778346
 20
5.528001
 30
0.000000
 40
0.248548
 50
-140.674962
 51
-110.894424
  6
CONTINUOUS
  0
ARC
  8
WHITE
 10
2.705789
 20
5.314724
 30
0.000000
 40
0.024839
 50
-130.364076
 51
24.722207
  6
CONTINUOUS
  0
ARC
  8
WHITE
 10
1.891487
 20
4.511496
 30
0.000000
 40
1.167182
 50
44.192995
 51
46.834638
  6
CONTINUOUS
  0
ARC
  8
WHITE
 10
2.835580
 20
5.518290
 30
0.000000
 40
0.213016
 50
-148.478124
 51
-133.125191
  6
CONTINUOUS
  0
ARC
  8
WHITE
 10
2.871765
 20
5.529357
 30
0.000000
 40
0.249828
 50
177.633049
 51
209.346186
  6
CONTINUOUS
  0
ARC
  8
WHITE
 10
2.773200
 20
5.536621
 30
0.000000
 40
0.151080
 50
127.903064
 51
178.841832
  6
CONTINUOUS
  0
ARC
  8
WHITE
 10
2.714005
 20
5.614102
 30
0.000000
 40
0.053586
 50
79.258047
 51
128.855592
  6
CONTINUOUS
  0
ARC
  8
WHITE
 10
2.699429
 20
5.572569
 30
0.000000
 40
0.097331
 50
43.007849
 51
75.381996
  6
CONTINUOUS
  0
ARC
  8
WHITE
 10
2.557289
 20
5.444270
 30
0.000000
 40
0.288802
 50
24.195345
 51
42.386173
  6
CONTINUOUS
  0
ARC
  8
WHITE
 10
2.844692
 20
5.573406
 30
0.000000
 40
0.026280
 50
-155.804585
 51
43.185216
  6
CONTINUOUS
  0
ARC
  8
WHITE
 10
2.989870
 20
5.637378
 30
0.000000
 40
0.134145
 50
130.761541
 51
200.048561
  6
CONTINUOUS
  0
LINE
  8
WHITE
 10
2.902285
 20
5.738984
 30
0.000000
 11
2.932275
 21
5.742626
 31
0.000000
  6
CONTINUOUS
  0
LINE
  8
WHITE
 10
2.932275
 20
5.742626
 30
0.000000
 11
2.951458
 21
5.741194
 31
0.000000
  6
CONTINUOUS
  0
ARC
  8
WHITE
 10
2.901259
 20
5.614732
 30
0.000000
 40
0.136061
 50
50.683561
 51
68.349418
  6
CONTINUOUS
  0
ARC
  8
WHITE
 10
3.060455
 20
5.803938
 30
0.000000
 40
0.111236
 50
-131.007118
 51
-107.043511
  6
CONTINUOUS
  0
ARC
  8
WHITE
 10
3.013205
 20
5.746864
 30
0.000000
 40
0.051407
 50
-73.445612
 51
-26.246249
  6
CONTINUOUS
  0
ARC
  8
WHITE
 10
2.908892
 20
5.811721
 30
0.000000
 40
0.174065
 50
-30.212546
 51
-12.893129
  6
CONTINUOUS
  0
ARC
  8
WHITE
 10
3.460394
 20
5.680175
 30
0.000000
 40
0.392919
 50
158.025653
 51
166.352804
  6
CONTINUOUS
  0
ARC
  8
WHITE
 10
3.138509
 20
5.811980
 30
0.000000
 40
0.045134
 50
103.372240
 51
160.289633
  6
CONTINUOUS
  0
ARC
  8
WHITE
 10
3.128766
 20
5.782039
 30
0.000000
 40
0.073854
 50
53.911012
 51
90.539415
  6
CONTINUOUS
  0
ARC
  8
WHITE
 10
3.087076
 20
5.716132
 30
0.000000
 40
0.151757
 50
42.872535
 51
55.849007
  6
CONTINUOUS
  0
ARC
  8
WHITE
 10
3.207530
 20
5.840528
 30
0.000000
 40
0.023074
 50
-113.594953
 51
-43.237541
  6
CONTINUOUS
  0
ARC
  8
WHITE
 10
3.167602
 20
5.907607
 30
0.000000
 40
0.100445
 50
-55.606961
 51
-25.688255
  6
CONTINUOUS
  0
ARC
  8
WHITE
 10
3.508666
 20
5.735635
 30
0.000000
 40
0.281547
 50
142.232011
 51
152.860040
  6
CONTINUOUS
  0
ARC
  8
WHITE
 10
3.431534
 20
5.780089
 30
0.000000
 40
0.193726
 50
129.896274
 51
138.651047
  6
CONTINUOUS
  0
ARC
  8
WHITE
 10
3.349687
 20
5.877948
 30
0.000000
 40
0.066150
 50
109.232190
 51
129.873024
  6
CONTINUOUS
  0
ARC
  8
WHITE
 10
3.340322
 20
5.887711
 30
0.000000
 40
0.054141
 50
50.305231
 51
103.267121
  6
CONTINUOUS
  0
ARC
  8
WHITE
 10
3.277533
 20
5.792141
 30
0.000000
 40
0.168263
 50
10.486046
 51
54.643030
  6
CONTINUOUS
  0
ARC
  8
WHITE
 10
3.323072
 20
5.801325
 30
0.000000
 40
0.121815
 50
-56.627832
 51
10.136714
  6
CONTINUOUS
  0
ARC
  8
WHITE
 10
3.213150
 20
5.946200
 30
0.000000
 40
0.303510
 50
-69.595370
 51
-54.342003
  6
CONTINUOUS
  0
ARC
  8
WHITE
 10
3.758123
 20
4.622885
 30
0.000000
 40
1.127859
 50
112.915342
 51
119.941686
  6
CONTINUOUS
  0
ARC
  8
WHITE
 10
3.635226
 20
4.787382
 30
0.000000
 40
0.924299
 50
118.429556
 51
146.412330
  6
CONTINUOUS
  0
ARC
  8
WHITE
 10
3.979750
 20
4.686224
 30
0.000000
 40
1.271716
 50
151.208341
 51
166.795836
  6
CONTINUOUS
  0
ARC
  8
WHITE
 10
-5.064702
 20
6.781826
 30
0.000000
 40
8.012344
 50
-14.604674
 51
-13.020032
  6
CONTINUOUS
  0
ARC
  8
WHITE
 10
2.426657
 20
4.875500
 30
0.000000
 40
0.285803
 50
-46.843992
 51
-23.501986
  6
CONTINUOUS
  0
ARC
  8
WHITE
 10
2.571181
 20
4.720695
 30
0.000000
 40
0.074023
 50
-83.400265
 51
-46.491616
  6
CONTINUOUS
  0
ARC
  8
WHITE
 10
2.583394
 20
4.792386
 30
0.000000
 40
0.145271
 50
-112.490359
 51
-91.461558
  6
CONTINUOUS
  0
ARC
  8
WHITE
 10
2.938969
 20
5.611695
 30
0.000000
 40
1.038394
 50
-116.219240
 51
-113.324821
  6
CONTINUOUS
  0
ARC
  8
WHITE
 10
2.471250
 20
4.671098
 30
0.000000
 40
0.012723
 50
45.300233
 51
198.365933
  6
CONTINUOUS
  0
ARC
  8
WHITE
 10
2.539683
 20
4.668598
 30
0.000000
 40
0.080522
 50
-178.926344
 51
-129.511727
  6
CONTINUOUS
  0
ARC
  8
WHITE
 10
2.480851
 20
4.585867
 30
0.000000
 40
0.021966
 50
-23.952199
 51
69.754602
  6
CONTINUOUS
  0
ARC
  8
WHITE
 10
2.454636
 20
4.597513
 30
0.000000
 40
0.050652
 50
-74.600009
 51
-23.952743
  6
CONTINUOUS
  0
ARC
  8
WHITE
 10
2.412887
 20
4.729605
 30
0.000000
 40
0.189159
 50
-86.878515
 51
-73.033167
  6
CONTINUOUS
  0
ARC
  8
WHITE
 10
2.394255
 20
6.336254
 30
0.000000
 40
1.795760
 50
-91.999135
 51
-89.076842
  6
CONTINUOUS
  0
ARC
  8
WHITE
 10
2.331110
 20
4.527235
 30
0.000000
 40
0.014360
 50
88.000850
 51
234.125993
  6
CONTINUOUS
  0
ARC
  8
WHITE
 10
2.424645
 20
4.676139
 30
0.000000
 40
0.190176
 50
-122.417358
 51
-83.081222
  6
CONTINUOUS
  0
ARC
  8
WHITE
 10
2.347317
 20
5.284732
 30
0.000000
 40
0.803659
 50
-82.835084
 51
-71.683794
  6
CONTINUOUS
  0
ARC
  8
WHITE
 10
0.371586
 20
14.793753
 30
0.000000
 40
10.510877
 50
-77.760506
 51
-76.531040
  6
CONTINUOUS
  0
ARC
  8
WHITE
 10
2.741159
 20
4.901731
 30
0.000000
 40
0.339005
 50
-76.592785
 51
-36.506120
  6
CONTINUOUS
  0
ARC
  8
WHITE
 10
2.737708
 20
4.900889
 30
0.000000
 40
0.341289
 50
-36.047872
 51
0.437654
  6
CONTINUOUS
  0
ARC
  8
WHITE
 10
6.413041
 20
4.922684
 30
0.000000
 40
3.334109
 50
176.897703
 51
180.329744
  6
CONTINUOUS
  0
ARC
  8
WHITE
 10
3.531335
 20
5.037009
 30
0.000000
 40
0.452374
 50
125.635039
 51
171.596295
  6
CONTINUOUS
  0
ARC
  8
WHITE
 10
3.528529
 20
5.049359
 30
0.000000
 40
0.440728
 50
95.586644
 51
126.273989
  6
CONTINUOUS
  0
ARC
  8
WHITE
 10
3.492052
 20
5.386216
 30
0.000000
 40
0.101981
 50
51.687506
 51
93.614010
  6
CONTINUOUS
  0
ARC
  8
WHITE
 10
3.511838
 20
5.420845
 30
0.000000
 40
0.062826
 50
12.715309
 51
46.259206
  6
CONTINUOUS
  0
ARC
  8
WHITE
 10
3.455505
 20
5.409647
 30
0.000000
 40
0.120251
 50
-7.805741
 51
12.012071
  6
CONTINUOUS
  0
ARC
  8
WHITE
 10
3.230432
 20
5.449606
 30
0.000000
 40
0.348782
 50
-26.009554
 51
-9.287738
  6
CONTINUOUS
  0
ARC
  8
WHITE
 10
2.994783
 20
5.548979
 30
0.000000
 40
0.604304
 50
-40.602499
 51
-24.679358
  6
CONTINUOUS
  0
ARC
  8
WHITE
 10
3.403605
 20
5.213665
 30
0.000000
 40
0.076550
 50
-81.038735
 51
-49.227210
  6
CONTINUOUS
  0
LINE
  8
WHITE
 10
3.415529
 20
5.138049
 30
0.000000
 11
3.372266
 21
5.130646
 31
0.000000
  6
CONTINUOUS
  0
ARC
  8
WHITE
 10
3.383351
 20
5.052617
 30
0.000000
 40
0.078812
 50
98.085456
 51
148.436278
  6
CONTINUOUS
  0
ARC
  8
WHITE
 10
3.260734
 20
5.128239
 30
0.000000
 40
0.065249
 50
-65.250765
 51
-31.784066
  6
CONTINUOUS
  0
ARC
  8
WHITE
 10
3.269808
 20
5.106055
 30
0.000000
 40
0.041317
 50
-114.841970
 51
-63.799062
  6
CONTINUOUS
  0
LINE
  8
WHITE
 10
3.252450
 20
5.068561
 30
0.000000
 11
3.217779
 21
5.085915
 31
0.000000
  6
CONTINUOUS
  0
LINE
  8
WHITE
 10
3.217779
 20
5.085915
 30
0.000000
 11
3.199834
 21
5.093148
 31
0.000000
  6
CONTINUOUS
  0
ARC
  8
WHITE
 10
3.207184
 20
5.057506
 30
0.000000
 40
0.036392
 50
101.652821
 51
151.983648
  6
CONTINUOUS
  0
ARC
  8
WHITE
 10
3.281572
 20
4.982096
 30
0.000000
 40
0.141077
 50
139.027094
 51
171.714217
  6
CONTINUOUS
  0
ARC
  8
WHITE
 10
3.373918
 20
4.969007
 30
0.000000
 40
0.234346
 50
171.801176
 51
192.173389
  6
CONTINUOUS
  0
ARC
  8
WHITE
 10
3.476836
 20
4.988875
 30
0.000000
 40
0.339147
 50
-168.211994
 51
-141.176198
  6
CONTINUOUS
  0
ARC
  8
WHITE
 10
3.338011
 20
4.868808
 30
0.000000
 40
0.155853
 50
-143.569520
 51
-97.194205
  6
CONTINUOUS
  0
ARC
  8
WHITE
 10
3.312132
 20
4.876111
 30
0.000000
 40
0.162055
 50
-87.750463
 51
-69.851633
  6
CONTINUOUS
  0
ARC
  8
WHITE
 10
3.193598
 20
5.220223
 30
0.000000
 40
0.525988
 50
-70.641400
 51
-63.797549
  6
CONTINUOUS
  0
ARC
  8
WHITE
 10
2.915885
 20
5.783903
 30
0.000000
 40
1.154366
 50
-63.783383
 51
-58.531226
  6
CONTINUOUS
  0
ARC
  8
WHITE
 10
2.525506
 20
6.514643
 30
0.000000
 40
1.982017
 50
-59.933599
 51
-57.102722
  6
CONTINUOUS
  0
ARC
  8
WHITE
 10
3.389086
 20
5.183638
 30
0.000000
 40
0.395411
 50
-57.419537
 51
-43.290556
  6
CONTINUOUS
  0
ARC
  8
WHITE
 10
3.583211
 20
5.004134
 30
0.000000
 40
0.131047
 50
-44.363016
 51
6.929670
  6
CONTINUOUS
  0
ARC
  8
WHITE
 10
5.022919
 20
5.204510
 30
0.000000
 40
1.322560
 50
159.962843
 51
188.021888
  6
CONTINUOUS
  0
ARC
  8
WHITE
 10
3.961580
 20
5.580169
 30
0.000000
 40
0.197044
 50
125.416093
 51
156.842600
  6
CONTINUOUS
  0
ARC
  8
WHITE
 10
3.854909
 20
5.690561
 30
0.000000
 40
0.050752
 50
49.394280
 51
98.518761
  6
CONTINUOUS
  0
ARC
  8
WHITE
 10
3.634574
 20
5.360573
 30
0.000000
 40
0.447215
 50
45.173319
 51
55.490425
  6
CONTINUOUS
  0
ARC
  8
WHITE
 10
3.290015
 20
5.000782
 30
0.000000
 40
0.945340
 50
33.876328
 51
45.734807
  6
CONTINUOUS
  0
ARC
  8
WHITE
 10
3.523932
 20
5.171858
 30
0.000000
 40
0.655878
 50
-29.744536
 51
32.858670
  6
CONTINUOUS
  0
ARC
  8
WHITE
 10
3.116814
 20
5.410941
 30
0.000000
 40
1.127988
 50
-45.037962
 51
-30.028882
  6
CONTINUOUS
  0
ARC
  8
WHITE
 10
-5.894527
 20
14.534607
 30
0.000000
 40
13.951605
 50
-47.114208
 51
-45.329253
  6
CONTINUOUS
  0
ARC
  8
WHITE
 10
-36.380147
 20
46.061682
 30
0.000000
 40
57.805246
 50
-47.343098
 51
-46.240186
  6
CONTINUOUS
  0
ARC
  8
WHITE
 10
3.918262
 20
2.382763
 30
0.000000
 40
1.624248
 50
134.043727
 51
158.886953
  6
CONTINUOUS
  0
ARC
  8
WHITE
 10
3.882993
 20
2.311157
 30
0.000000
 40
1.619093
 50
156.072388
 51
165.758585
  6
CONTINUOUS
  0
ARC
  8
WHITE
 10
0.761419
 20
2.979498
 30
0.000000
 40
1.575553
 50
-14.695245
 51
-9.868547
  6
CONTINUOUS
  0
ARC
  8
WHITE
 10
2.202786
 20
2.603593
 30
0.000000
 40
0.085999
 50
-52.433465
 51
-16.050439
  6
CONTINUOUS
  0
ARC
  8
WHITE
 10
2.195901
 20
2.640262
 30
0.000000
 40
0.120453
 50
-90.876874
 51
-60.498439
  6
CONTINUOUS
  0
ARC
  8
WHITE
 10
2.224026
 20
1.326805
 30
0.000000
 40
1.193394
 50
91.438957
 51
104.662006
  6
CONTINUOUS
  0
ARC
  8
WHITE
 10
2.056980
 20
1.960236
 30
0.000000
 40
0.538310
 50
104.526356
 51
133.476430
  6
CONTINUOUS
  0
ARC
  8
WHITE
 10
2.189581
 20
1.757432
 30
0.000000
 40
0.777920
 50
130.284326
 51
134.980641
  6
CONTINUOUS
  0
ARC
  8
WHITE
 10
1.690294
 20
2.253640
 30
0.000000
 40
0.074039
 50
133.111426
 51
181.512505
  6
CONTINUOUS
  0
ARC
  8
WHITE
 10
1.646542
 20
2.259738
 30
0.000000
 40
0.031313
 50
-165.098794
 51
-98.757931
  6
CONTINUOUS
  0
ARC
  8
WHITE
 10
1.596918
 20
2.052374
 30
0.000000
 40
0.182029
 50
62.116252
 51
75.734032
  6
CONTINUOUS
  0
ARC
  8
WHITE
 10
1.658466
 20
2.176023
 30
0.000000
 40
0.044085
 50
-29.233174
 51
57.659259
  6
CONTINUOUS
  0
ARC
  8
WHITE
 10
1.281749
 20
2.376341
 30
0.000000
 40
0.470740
 50
-43.699671
 51
-28.116983
  6
CONTINUOUS
  0
ARC
  8
WHITE
 10
0.418436
 20
3.072843
 30
0.000000
 40
1.578824
 50
-51.018881
 51
-40.326608
  6
CONTINUOUS
  0
ARC
  8
WHITE
 10
0.927354
 20
2.434623
 30
0.000000
 40
0.762582
 50
-72.786689
 51
-50.577667
  6
CONTINUOUS
  0
ARC
  8
WHITE
 10
1.034034
 20
2.085026
 30
0.000000
 40
0.397077
 50
-107.905574
 51
-72.562389
  6
CONTINUOUS
  0
ARC
  8
WHITE
 10
0.781227
 20
1.305671
 30
0.000000
 40
0.422257
 50
71.965507
 51
87.664129
  6
CONTINUOUS
  0
ARC
  8
WHITE
 10
0.803823
 20
1.532569
 30
0.000000
 40
0.195081
 50
91.582078
 51
121.166935
  6
CONTINUOUS
  0
ARC
  8
WHITE
 10
0.990512
 20
1.245401
 30
0.000000
 40
0.537533
 50
122.352717
 51
131.420743
  6
CONTINUOUS
  0
ARC
  8
WHITE
 10
0.527856
 20
1.767769
 30
0.000000
 40
0.160266
 50
-78.927631
 51
-48.099265
  6
CONTINUOUS
  0
ARC
  8
WHITE
 10
0.560327
 20
1.718166
 30
0.000000
 40
0.107693
 50
-108.509524
 51
-90.900295
  6
CONTINUOUS
  0
ARC
  8
WHITE
 10
0.455381
 20
1.367621
 30
0.000000
 40
0.258303
 50
74.101619
 51
86.110300
  6
CONTINUOUS
  0
ARC
  8
WHITE
 10
0.475406
 20
1.135663
 30
0.000000
 40
0.489672
 50
90.292850
 51
116.618818
  6
CONTINUOUS
  0
ARC
  8
WHITE
 10
0.408758
 20
1.262597
 30
0.000000
 40
0.346341
 50
116.170384
 51
134.570702
  6
CONTINUOUS
  0
ARC
  8
WHITE
 10
0.535679
 20
1.121147
 30
0.000000
 40
0.536253
 50
133.624932
 51
144.004039
  6
CONTINUOUS
  0
ARC
  8
WHITE
 10
0.553571
 20
1.112371
 30
0.000000
 40
0.555896
 50
144.356057
 51
174.756645
  6
CONTINUOUS
  0
ARC
  8
WHITE
 10
0.084383
 20
1.162789
 30
0.000000
 40
0.084384
 50
179.739753
 51
219.608580
  6
CONTINUOUS
  0
ARC
  8
WHITE
 10
0.037457
 20
1.125038
 30
0.000000
 40
0.024176
 50
-138.416557
 51
-40.023950
  6
CONTINUOUS
  0
ARC
  8
WHITE
 10
-0.112676
 20
1.279065
 30
0.000000
 40
0.239160
 50
-45.157257
 51
-31.668821
  6
CONTINUOUS
  0
ARC
  8
WHITE
 10
0.520277
 20
0.915675
 30
0.000000
 40
0.490868
 50
134.366814
 51
151.019797
  6
CONTINUOUS
  0
ARC
  8
WHITE
 10
0.260745
 20
1.172159
 30
0.000000
 40
0.126187
 50
101.225397
 51
131.556276
  6
CONTINUOUS
  0
ARC
  8
WHITE
 10
0.241977
 20
1.253323
 30
0.000000
 40
0.043002
 50
8.497469
 51
97.747272
  6
CONTINUOUS
  0
ARC
  8
WHITE
 10
0.132238
 20
1.221455
 30
0.000000
 40
0.156992
 50
-10.675596
 51
14.091150
  6
CONTINUOUS
  0
ARC
  8
WHITE
 10
-0.713112
 20
1.386528
 30
0.000000
 40
1.018306
 50
-15.424146
 51
-10.991610
  6
CONTINUOUS
  0
ARC
  8
WHITE
 10
0.745064
 20
0.973274
 30
0.000000
 40
0.497374
 50
163.360436
 51
187.594257
  6
CONTINUOUS
  0
ARC
  8
WHITE
 10
0.792114
 20
0.976081
 30
0.000000
 40
0.544392
 50
-172.767334
 51
-128.860015
  6
CONTINUOUS
  0
ARC
  8
WHITE
 10
0.461649
 20
0.562431
 30
0.000000
 40
0.015113
 50
-137.250659
 51
-24.493578
  6
CONTINUOUS
  0
ARC
  8
WHITE
 10
0.422170
 20
0.583348
 30
0.000000
 40
0.059771
 50
-27.050967
 51
9.382226
  6
CONTINUOUS
  0
ARC
  8
WHITE
 10
0.261045
 20
0.553116
 30
0.000000
 40
0.223697
 50
10.294347
 51
24.641888
  6
CONTINUOUS
  0
ARC
  8
WHITE
 10
0.688857
 20
0.742680
 30
0.000000
 40
0.244268
 50
-171.978822
 51
-156.782878
  6
CONTINUOUS
  0
ARC
  8
WHITE
 10
0.908364
 20
0.778695
 30
0.000000
 40
0.466680
 50
147.804943
 51
188.639087
  6
CONTINUOUS
  0
ARC
  8
WHITE
 10
0.738096
 20
0.889280
 30
0.000000
 40
0.263689
 50
112.193714
 51
148.426827
  6
CONTINUOUS
  0
ARC
  8
WHITE
 10
0.694254
 20
0.922568
 30
0.000000
 40
0.218113
 50
61.432988
 51
104.812876
  6
CONTINUOUS
  0
ARC
  8
WHITE
 10
0.694691
 20
0.896516
 30
0.000000
 40
0.241127
 50
-0.233553
 51
64.485788
  6
CONTINUOUS
  0
ARC
  8
WHITE
 10
0.777341
 20
0.894967
 30
0.000000
 40
0.158477
 50
-19.945502
 51
0.204668
  6
CONTINUOUS
  0
ARC
  8
WHITE
 10
1.736365
 20
0.547512
 30
0.000000
 40
0.861549
 50
160.090038
 51
165.309974
  6
CONTINUOUS
  0
ARC
  8
WHITE
 10
0.942178
 20
0.752379
 30
0.000000
 40
0.041496
 50
160.849449
 51
213.333064
  6
CONTINUOUS
  0
ARC
  8
WHITE
 10
0.940718
 20
0.763751
 30
0.000000
 40
0.047653
 50
-134.179895
 51
-86.889955
  6
CONTINUOUS
  0
ARC
  8
WHITE
 10
0.944294
 20
0.893402
 30
0.000000
 40
0.177236
 50
-90.320260
 51
-72.855488
  6
CONTINUOUS
  0
LINE
  8
WHITE
 10
0.996540
 20
0.724042
 30
0.000000
 11
1.048285
 21
0.740700
 31
0.000000
  6
CONTINUOUS
  0
ARC
  8
WHITE
 10
12.025305
 20
6.740484
 30
0.000000
 40
3.004620
 50
-119.469256
 51
-113.633155
  6
CONTINUOUS
  0
ARC
  8
WHITE
 10
9.915722
 20
1.904832
 30
0.000000
 40
2.271166
 50
60.203090
 51
66.514634
  6
CONTINUOUS
  0
ARC
  8
WHITE
 10
10.928706
 20
3.672335
 30
0.000000
 40
0.233961
 50
34.337852
 51
60.384170
  6
CONTINUOUS
  0
LINE
  8
WHITE
 10
11.121894
 20
3.804306
 30
0.000000
 11
11.118899
 21
3.785306
 31
0.000000
  6
CONTINUOUS
  0
ARC
  8
WHITE
 10
10.781339
 20
3.953826
 30
0.000000
 40
0.377287
 50
-32.497567
 51
-26.529735
  6
CONTINUOUS
  0
ARC
  8
WHITE
 10
12.480439
 20
2.869033
 30
0.000000
 40
1.638579
 50
147.430228
 51
152.392086
  6
CONTINUOUS
  0
ARC
  8
WHITE
 10
12.454984
 20
2.920505
 30
0.000000
 40
1.592528
 50
153.608771
 51
173.399723
  6
CONTINUOUS
  0
ARC
  8
WHITE
 10
13.893958
 20
2.819614
 30
0.000000
 40
3.034262
 50
174.630535
 51
190.623164
  6
CONTINUOUS
  0
ARC
  8
WHITE
 10
11.433066
 20
3.119542
 30
0.000000
 40
1.005088
 50
-134.641112
 51
-121.246847
  6
CONTINUOUS
  0
ARC
  8
WHITE
 10
6.640637
 20
-1.899803
 30
0.000000
 40
5.934906
 50
46.488416
 51
50.293310
  6
CONTINUOUS
  0
ARC
  8
WHITE
 10
2.583732
 20
-6.765204
 30
0.000000
 40
12.269772
 50
50.233633
 51
53.808372
  6
CONTINUOUS
  0
ARC
  8
WHITE
 10
1.790166
 20
-8.204519
 30
0.000000
 40
13.901535
 50
54.671675
 51
61.211106
  6
CONTINUOUS
  0
ARC
  8
WHITE
 10
9.401958
 20
4.258280
 30
0.000000
 40
0.958684
 50
-170.961260
 51
-163.049924
  6
CONTINUOUS
  0
ARC
  8
WHITE
 10
8.581540
 20
4.121618
 30
0.000000
 40
0.127129
 50
128.816514
 51
186.299544
  6
CONTINUOUS
  0
ARC
  8
WHITE
 10
8.574326
 20
4.133584
 30
0.000000
 40
0.113299
 50
98.365720
 51
129.767172
  6
CONTINUOUS
  0
ARC
  8
WHITE
 10
8.590641
 20
4.007134
 30
0.000000
 40
0.240788
 50
80.644619
 51
97.828906
  6
CONTINUOUS
  0
ARC
  8
WHITE
 10
8.449731
 20
3.313766
 30
0.000000
 40
0.948205
 50
68.065883
 51
79.053803
  6
CONTINUOUS
  0
ARC
  8
WHITE
 10
9.497675
 20
5.798092
 30
0.000000
 40
1.748296
 50
-113.379265
 51
-102.816809
  6
CONTINUOUS
  0
ARC
  8
WHITE
 10
9.007117
 20
4.061104
 30
0.000000
 40
0.107669
 50
17.430349
 51
53.510872
  6
CONTINUOUS
  0
ARC
  8
WHITE
 10
8.743475
 20
3.717130
 30
0.000000
 40
0.541044
 50
52.726237
 51
62.063593
  6
CONTINUOUS
  0
ARC
  8
WHITE
 10
9.307596
 20
4.858902
 30
0.000000
 40
0.732871
 50
-131.359421
 51
-115.079521
  6
CONTINUOUS
  0
ARC
  8
WHITE
 10
8.964169
 20
4.457798
 30
0.000000
 40
0.205011
 50
-149.008006
 51
-133.392343
  6
CONTINUOUS
  0
ARC
  8
WHITE
 10
8.870992
 20
4.402051
 30
0.000000
 40
0.096430
 50
178.228234
 51
211.104901
  6
CONTINUOUS
  0
ARC
  8
WHITE
 10
8.860741
 20
4.400177
 30
0.000000
 40
0.086270
 50
142.639974
 51
176.773563
  6
CONTINUOUS
  0
ARC
  8
WHITE
 10
8.936965
 20
4.344805
 30
0.000000
 40
0.180471
 50
126.892004
 51
143.351966
  6
CONTINUOUS
  0
LINE
  8
WHITE
 10
8.828627
 20
4.489139
 30
0.000000
 11
9.594823
 21
4.448276
 31
0.000000
  6
CONTINUOUS
  0
ARC
  8
WHITE
 10
9.567393
 20
4.463423
 30
0.000000
 40
0.031334
 50
-28.907726
 51
16.252226
  6
CONTINUOUS
  0
ARC
  8
WHITE
 10
9.562702
 20
4.455497
 30
0.000000
 40
0.038574
 50
25.646599
 51
64.682832
  6
CONTINUOUS
  0
ARC
  8
WHITE
 10
9.474084
 20
4.263095
 30
0.000000
 40
0.250402
 50
65.179365
 51
80.030150
  6
CONTINUOUS
  0
ARC
  8
WHITE
 10
8.070208
 20
-4.592604
 30
0.000000
 40
9.216652
 50
80.965848
 51
83.062238
  6
CONTINUOUS
  0
ARC
  8
WHITE
 10
6.391732
 20
-12.896320
 30
0.000000
 40
17.674759
 50
80.911950
 51
82.926532
  6
CONTINUOUS
  0
ARC
  8
WHITE
 10
8.315887
 20
2.828155
 30
0.000000
 40
1.833214
 50
82.087886
 51
99.737947
  6
CONTINUOUS
  0
ARC
  8
WHITE
 10
8.063497
 20
4.650072
 30
0.000000
 40
0.059632
 50
-165.315331
 51
-139.332725
  6
CONTINUOUS
  0
ARC
  8
WHITE
 10
8.116511
 20
4.696076
 30
0.000000
 40
0.129823
 50
-139.179600
 51
-125.084119
  6
CONTINUOUS
  0
ARC
  8
WHITE
 10
8.285239
 20
4.953039
 30
0.000000
 40
0.437185
 50
-123.822584
 51
-113.571682
  6
CONTINUOUS
  0
ARC
  8
WHITE
 10
7.727562
 20
3.597659
 30
0.000000
 40
1.028579
 50
59.849649
 51
68.147955
  6
CONTINUOUS
  0
ARC
  8
WHITE
 10
8.111065
 20
4.298896
 30
0.000000
 40
0.230511
 50
24.383055
 51
54.724511
  6
CONTINUOUS
  0
ARC
  8
WHITE
 10
8.205924
 20
4.366569
 30
0.000000
 40
0.118330
 50
-36.285084
 51
13.433678
  6
CONTINUOUS
  0
ARC
  8
WHITE
 10
8.106351
 20
4.445789
 30
0.000000
 40
0.245526
 50
-104.588072
 51
-37.435671
  6
CONTINUOUS
  0
ARC
  8
WHITE
 10
8.398999
 20
5.729640
 30
0.000000
 40
1.562212
 50
-117.680700
 51
-103.115464
  6
CONTINUOUS
  0
ARC
  8
WHITE
 10
7.834185
 20
4.723836
 30
0.000000
 40
0.410465
 50
-121.290180
 51
-113.078984
  6
CONTINUOUS
  0
ARC
  8
WHITE
 10
7.662315
 20
4.444480
 30
0.000000
 40
0.082497
 50
-160.123745
 51
-120.052949
  6
CONTINUOUS
  0
ARC
  8
WHITE
 10
7.868974
 20
4.464333
 30
0.000000
 40
0.288250
 50
178.033217
 51
189.565756
  6
CONTINUOUS
  0
ARC
  8
WHITE
 10
9.698795
 20
4.458555
 30
0.000000
 40
2.117958
 50
176.931875
 51
179.576066
  6
CONTINUOUS
  0
ARC
  8
WHITE
 10
9.095893
 20
4.513802
 30
0.000000
 40
1.513137
 50
171.911495
 51
177.798973
  6
CONTINUOUS
  0
ARC
  8
WHITE
 10
7.646230
 20
4.719096
 30
0.000000
 40
0.049015
 50
117.739240
 51
171.070245
  6
CONTINUOUS
  0
ARC
  8
WHITE
 10
7.730968
 20
4.427323
 30
0.000000
 40
0.351989
 50
96.454754
 51
107.791548
  6
CONTINUOUS
  0
ARC
  8
WHITE
 10
8.009086
 20
2.729861
 30
0.000000
 40
2.071723
 50
90.954579
 51
98.820819
  6
CONTINUOUS
  0
ARC
  8
WHITE
 10
7.023362
 20
-42.065449
 30
0.000000
 40
46.876397
 50
87.066557
 51
88.837282
  6
CONTINUOUS
  0
ARC
  8
WHITE
 10
9.847611
 20
9.350265
 30
0.000000
 40
4.620357
 50
-95.281609
 51
-93.078236
  6
CONTINUOUS
  0
ARC
  8
WHITE
 10
8.339211
 20
-14.738742
 30
0.000000
 40
19.516052
 50
85.041819
 51
86.297431
  6
CONTINUOUS
  0
ARC
  8
WHITE
 10
-2.219896
 20
-97.667690
 30
0.000000
 40
103.101801
 50
82.688129
 51
83.178626
  6
CONTINUOUS
  0
ARC
  8
WHITE
 10
1.046194
 20
-54.172792
 30
0.000000
 40
59.589176
 50
79.525201
 51
80.479881
  6
CONTINUOUS
  0
ARC
  8
WHITE
 10
11.731803
 20
3.840528
 30
0.000000
 40
0.601270
 50
65.422204
 51
75.761872
  6
CONTINUOUS
  0
ARC
  8
WHITE
 10
11.960332
 20
4.342886
 30
0.000000
 40
0.049389
 50
-24.386599
 51
64.121292
  6
CONTINUOUS
  0
ARC
  8
WHITE
 10
12.536555
 20
2.291794
 30
0.000000
 40
2.099038
 50
104.660321
 51
124.044495
  6
CONTINUOUS
  0
ARC
  8
WHITE
 10
11.221726
 20
4.245116
 30
0.000000
 40
0.255612
 50
-79.590756
 51
-56.867775
  6
CONTINUOUS
  0
ARC
  8
WHITE
 10
11.252170
 20
4.403546
 30
0.000000
 40
0.410137
 50
-103.987846
 51
-87.800678
  6
CONTINUOUS
  0
ARC
  8
WHITE
 10
12.282428
 20
9.032977
 30
0.000000
 40
5.152704
 50
-104.134491
 51
-102.661164
  6
CONTINUOUS
  0
ARC
  8
WHITE
 10
18.282343
 20
34.033149
 30
0.000000
 40
30.862505
 50
-104.258111
 51
-103.602148
  6
CONTINUOUS
  0
ARC
  8
WHITE
 10
10.521538
 20
3.617233
 30
0.000000
 40
0.528780
 50
72.425417
 51
82.622674
  6
CONTINUOUS
  0
ARC
  8
WHITE
 10
10.579989
 20
4.104107
 30
0.000000
 40
0.038699
 50
75.872091
 51
148.021059
  6
CONTINUOUS
  0
ARC
  8
WHITE
 10
11.704169
 20
6.135762
 30
0.000000
 40
0.078927
 50
58.647681
 51
90.233680
  6
CONTINUOUS
  0
ARC
  8
WHITE
 10
11.446691
 20
-0.464583
 30
0.000000
 40
6.684220
 50
87.795166
 51
93.605663
  6
CONTINUOUS
  0
ARC
  8
WHITE
 10
11.949623
 20
-4.810479
 30
0.000000
 40
11.055506
 50
94.790618
 51
96.770850
  6
CONTINUOUS
  0
ARC
  8
WHITE
 10
11.620527
 20
-2.729390
 30
0.000000
 40
8.950502
 50
96.249494
 51
98.160308
  6
CONTINUOUS
  0
ARC
  8
WHITE
 10
6.741632
 20
27.842894
 30
0.000000
 40
22.010212
 50
-81.822196
 51
-80.564132
  6
CONTINUOUS
  0
ARC
  8
WHITE
 10
11.667884
 20
-3.458778
 30
0.000000
 40
9.683175
 50
100.685285
 51
113.919130
  6
CONTINUOUS
  0
ARC
  8
WHITE
 10
4.571658
 20
12.534493
 30
0.000000
 40
7.813716
 50
-68.242878
 51
-66.063480
  6
CONTINUOUS
  0
ARC
  8
WHITE
 10
7.601608
 20
4.946537
 30
0.000000
 40
0.356825
 50
111.991132
 51
139.862592
  6
CONTINUOUS
  0
ARC
  8
WHITE
 10
-0.058248
 20
-0.795989
 30
0.000000
 40
9.499472
 50
37.492962
 51
38.956023
  6
CONTINUOUS
  0
ARC
  8
WHITE
 10
7.614888
 20
5.083684
 30
0.000000
 40
0.167438
 50
-144.308490
 51
-102.282176
  6
CONTINUOUS
  0
ARC
  8
WHITE
 10
7.827635
 20
6.276677
 30
0.000000
 40
1.379146
 50
-100.374789
 51
-87.355729
  6
CONTINUOUS
  0
ARC
  8
WHITE
 10
7.868160
 20
5.520604
 30
0.000000
 40
0.622034
 50
-87.871603
 51
-71.877235
  6
CONTINUOUS
  0
ARC
  8
WHITE
 10
7.985081
 20
5.145230
 30
0.000000
 40
0.228982
 50
-70.465655
 51
-52.508207
  6
CONTINUOUS
  0
ARC
  8
WHITE
 10
8.048841
 20
5.060385
 30
0.000000
 40
0.122860
 50
-52.018088
 51
-22.399592
  6
CONTINUOUS
  0
ARC
  8
WHITE
 10
8.071718
 20
5.051520
 30
0.000000
 40
0.098331
 50
-22.703445
 51
34.811404
  6
CONTINUOUS
  0
ARC
  8
WHITE
 10
8.003665
 20
5.003894
 30
0.000000
 40
0.181395
 50
34.891238
 51
73.507670
  6
CONTINUOUS
  0
ARC
  8
WHITE
 10
7.927528
 20
4.671404
 30
0.000000
 40
0.522257
 50
75.854436
 51
95.118435
  6
CONTINUOUS
  0
ARC
  8
WHITE
 10
7.997751
 20
3.754412
 30
0.000000
 40
1.441906
 50
94.646911
 51
101.570748
  6
CONTINUOUS
  0
ARC
  8
WHITE
 10
7.700831
 20
5.182143
 30
0.000000
 40
0.016977
 50
116.134207
 51
296.993185
  6
CONTINUOUS
  0
ARC
  8
WHITE
 10
10.912155
 20
-1.363091
 30
0.000000
 40
7.307566
 50
100.930905
 51
116.134207
  6
CONTINUOUS
  0
ARC
  8
WHITE
 10
6.387480
 20
12.655128
 30
0.000000
 40
7.528816
 50
-70.681384
 51
-65.359185
  6
CONTINUOUS
  0
ARC
  8
WHITE
 10
9.555427
 20
3.532387
 30
0.000000
 40
2.128469
 50
108.553467
 51
114.828735
  6
CONTINUOUS
  0
ARC
  8
WHITE
 10
8.812099
 20
5.104052
 30
0.000000
 40
0.390225
 50
112.674800
 51
132.235005
  6
CONTINUOUS
  0
ARC
  8
WHITE
 10
8.581327
 20
5.352289
 30
0.000000
 40
0.051468
 50
127.773128
 51
206.871878
  6
CONTINUOUS
  0
ARC
  8
WHITE
 10
8.625511
 20
5.382506
 30
0.000000
 40
0.104773
 50
-149.306524
 51
-107.865003
  6
CONTINUOUS
  0
ARC
  8
WHITE
 10
8.885547
 20
7.050675
 30
0.000000
 40
1.791872
 50
-99.384404
 51
-93.849949
  6
CONTINUOUS
  0
ARC
  8
WHITE
 10
9.267918
 20
10.009254
 30
0.000000
 40
4.772951
 50
-96.045563
 51
-93.669205
  6
CONTINUOUS
  0
ARC
  8
WHITE
 10
8.905968
 20
3.134741
 30
0.000000
 40
2.112101
 50
82.330000
 51
88.467108
  6
CONTINUOUS
  0
LINE
  8
WHITE
 10
9.187864
 20
5.227945
 30
0.000000
 11
9.109842
 21
5.207800
 31
0.000000
  6
CONTINUOUS
  0
ARC
  8
WHITE
 10
10.295428
 20
-8.315999
 30
0.000000
 40
13.575668
 50
95.010120
 51
96.732857
  6
CONTINUOUS
  0
ARC
  8
WHITE
 10
8.820600
 20
4.262999
 30
0.000000
 40
0.910567
 50
97.368903
 51
106.796666
  6
CONTINUOUS
  0
ARC
  8
WHITE
 10
8.582288
 20
5.049632
 30
0.000000
 40
0.088632
 50
106.262305
 51
173.100874
  6
CONTINUOUS
  0
ARC
  8
WHITE
 10
8.581174
 20
5.055223
 30
0.000000
 40
0.087023
 50
176.669518
 51
224.980589
  6
CONTINUOUS
  0
ARC
  8
WHITE
 10
8.791359
 20
5.286871
 30
0.000000
 40
0.399733
 50
-132.828362
 51
-104.054463
  6
CONTINUOUS
  0
ARC
  8
WHITE
 10
8.811063
 20
5.346467
 30
0.000000
 40
0.462353
 50
-104.629673
 51
-86.530579
  6
CONTINUOUS
  0
ARC
  8
WHITE
 10
7.379639
 20
-47.145595
 30
0.000000
 40
52.051020
 50
88.003356
 51
88.393333
  6
CONTINUOUS
  0
ARC
  8
WHITE
 10
8.046397
 20
-18.397508
 30
0.000000
 40
23.299568
 50
84.822108
 51
87.178898
  6
CONTINUOUS
  0
ARC
  8
WHITE
 10
7.732037
 20
-15.892348
 30
0.000000
 40
20.839977
 50
76.906411
 51
83.339609
  6
CONTINUOUS
  0
ARC
  8
WHITE
 10
12.412400
 20
4.428427
 30
0.000000
 40
0.046623
 50
-29.009185
 51
30.886948
  6
CONTINUOUS
  0
ARC
  8
WHITE
 10
12.277478
 20
4.363545
 30
0.000000
 40
0.196188
 50
26.917486
 51
43.283534
  6
CONTINUOUS
  0
ARC
  8
WHITE
 10
11.211941
 20
3.458844
 30
0.000000
 40
1.593764
 50
40.696165
 51
45.727287
  6
CONTINUOUS
  0
ARC
  8
WHITE
 10
10.453783
 20
2.344662
 30
0.000000
 40
2.930228
 50
50.325726
 51
68.346502
  6
CONTINUOUS
  0
ARC
  8
WHITE
 10
12.416048
 20
7.698998
 30
0.000000
 40
2.774489
 50
-113.142946
 51
-108.514691
  6
CONTINUOUS
  0
ARC
  8
WHITE
 10
11.552580
 20
5.694975
 30
0.000000
 40
0.592403
 50
-139.801816
 51
-112.528950
  6
CONTINUOUS
  0
ARC
  8
WHITE
 10
11.400300
 20
5.528052
 30
0.000000
 40
0.369508
 50
-161.222288
 51
-144.336141
  6
CONTINUOUS
  0
ARC
  8
WHITE
 10
10.111168
 20
5.095014
 30
0.000000
 40
0.990416
 50
18.489679
 51
24.791746
  6
CONTINUOUS
  0
LINE
  8
WHITE
 10
11.010305
 20
5.510317
 30
0.000000
 11
10.401347
 21
5.561923
 31
0.000000
  6
CONTINUOUS
  0
LINE
  8
WHITE
 10
10.401347
 20
5.561923
 30
0.000000
 11
10.443136
 21
5.614159
 31
0.000000
  6
CONTINUOUS
  0
ARC
  8
WHITE
 10
9.345706
 20
19.569691
 30
0.000000
 40
13.998615
 50
-85.503649
 51
-83.863228
  6
CONTINUOUS
  0
ARC
  8
WHITE
 10
10.801642
 20
6.306125
 30
0.000000
 40
0.656086
 50
-86.456787
 51
-74.812977
  6
CONTINUOUS
  0
ARC
  8
WHITE
 10
10.919478
 20
5.789529
 30
0.000000
 40
0.128492
 50
-65.129807
 51
-31.088702
  6
CONTINUOUS
  0
ARC
  8
WHITE
 10
11.594567
 20
5.428340
 30
0.000000
 40
0.637350
 50
134.144397
 51
152.444772
  6
CONTINUOUS
  0
ARC
  8
WHITE
 10
11.909732
 20
4.971174
 30
0.000000
 40
1.188494
 50
116.614339
 51
129.692969
  6
CONTINUOUS
  0
ARC
  8
WHITE
 10
12.500207
 20
3.883415
 30
0.000000
 40
2.425859
 50
109.025386
 51
117.573593
  6
CONTINUOUS
  0
ARC
  8
WHITE
 10
11.705269
 20
6.219883
 30
0.000000
 40
0.043322
 50
-84.517032
 51
-22.700738
  6
CONTINUOUS
  0
ARC
  8
WHITE
 10
6.225493
 20
5.736827
 30
0.000000
 40
0.159114
 50
-155.320824
 51
-138.413692
  6
CONTINUOUS
  0
ARC
  8
WHITE
 10
4.762484
 20
4.474980
 30
0.000000
 40
1.772911
 50
25.127743
 51
40.705251
  6
CONTINUOUS
  0
ARC
  8
WHITE
 10
6.125387
 20
5.112433
 30
0.000000
 40
0.268308
 50
12.444564
 51
25.472334
  6
CONTINUOUS
  0
ARC
  8
WHITE
 10
6.357088
 20
5.156941
 30
0.000000
 40
0.033097
 50
-53.494245
 51
23.714413
  6
CONTINUOUS
  0
ARC
  8
WHITE
 10
6.380254
 20
5.192225
 30
0.000000
 40
0.061985
 50
-134.729912
 51
-93.215175
  6
CONTINUOUS
  0
ARC
  8
WHITE
 10
1.202171
 20
-0.448881
 30
0.000000
 40
7.595384
 50
47.468352
 51
50.447152
  6
CONTINUOUS
  0
ARC
  8
WHITE
 10
4.932353
 20
4.124708
 30
0.000000
 40
1.694024
 50
49.219179
 51
55.551508
  6
CONTINUOUS
  0
ARC
  8
WHITE
 10
5.820522
 20
5.414980
 30
0.000000
 40
0.127639
 50
56.697782
 51
100.082919
  6
CONTINUOUS
  0
ARC
  8
WHITE
 10
5.832821
 20
5.411687
 30
0.000000
 40
0.133533
 50
105.037410
 51
127.973041
  6
CONTINUOUS
  0
ARC
  8
WHITE
 10
5.944485
 20
5.271309
 30
0.000000
 40
0.312903
 50
128.275449
 51
141.660992
  6
CONTINUOUS
  0
ARC
  8
WHITE
 10
5.654476
 20
5.496512
 30
0.000000
 40
0.054360
 50
-119.680825
 51
-34.903539
  6
CONTINUOUS
  0
ARC
  8
WHITE
 10
5.857466
 20
5.844184
 30
0.000000
 40
0.456950
 50
-134.638574
 51
-120.207602
  6
CONTINUOUS
  0
ARC
  8
WHITE
 10
5.120841
 20
5.068805
 30
0.000000
 40
0.612697
 50
47.293647
 51
53.701205
  6
CONTINUOUS
  0
ARC
  8
WHITE
 10
5.406694
 20
5.460537
 30
0.000000
 40
0.127769
 50
53.018098
 51
78.390672
  6
CONTINUOUS
  0
ARC
  8
WHITE
 10
5.427849
 20
5.530350
 30
0.000000
 40
0.055530
 50
85.292733
 51
148.167470
  6
CONTINUOUS
  0
ARC
  8
WHITE
 10
5.657432
 20
5.402950
 30
0.000000
 40
0.318038
 50
150.483559
 51
185.133664
  6
CONTINUOUS
  0
ARC
  8
WHITE
 10
5.521071
 20
5.404318
 30
0.000000
 40
0.182850
 50
-170.612165
 51
-135.941130
  6
CONTINUOUS
  0
ARC
  8
WHITE
 10
5.517112
 20
5.390100
 30
0.000000
 40
0.170282
 50
-138.453499
 51
-97.248672
  6
CONTINUOUS
  0
LINE
  8
WHITE
 10
5.495626
 20
5.221178
 30
0.000000
 11
5.512341
 21
5.233596
 31
0.000000
  6
CONTINUOUS
  0
ARC
  8
WHITE
 10
6.158044
 20
5.727565
 30
0.000000
 40
0.812981
 50
-146.809435
 51
-142.583664
  6
CONTINUOUS
  0
ARC
  8
WHITE
 10
5.621438
 20
5.369847
 30
0.000000
 40
0.168189
 50
-165.645359
 51
-148.719589
  6
CONTINUOUS
  0
ARC
  8
WHITE
 10
5.470998
 20
5.336896
 30
0.000000
 40
0.015254
 50
75.532597
 51
214.987982
  6
CONTINUOUS
  0
ARC
  8
WHITE
 10
5.284966
 20
4.796315
 30
0.000000
 40
0.586904
 50
37.289836
 51
71.127379
  6
CONTINUOUS
  0
ARC
  8
WHITE
 10
3.852821
 20
3.656405
 30
0.000000
 40
2.417222
 50
25.820775
 51
38.219741
  6
CONTINUOUS
  0
ARC
  8
WHITE
 10
1.552056
 20
2.260062
 30
0.000000
 40
5.102835
 50
26.624997
 51
28.683118
  6
CONTINUOUS
  0
ARC
  8
WHITE
 10
5.606049
 20
4.301455
 30
0.000000
 40
0.563942
 50
17.798175
 51
25.799201
  6
CONTINUOUS
  0
ARC
  8
WHITE
 10
6.006988
 20
4.427722
 30
0.000000
 40
0.143616
 50
-4.369378
 51
18.727478
  6
CONTINUOUS
  0
ARC
  8
WHITE
 10
6.132285
 20
4.417688
 30
0.000000
 40
0.017925
 50
-122.555330
 51
-2.902210
  6
CONTINUOUS
  0
ARC
  8
WHITE
 10
6.166850
 20
4.526567
 30
0.000000
 40
0.131633
 50
-128.625815
 51
-109.624806
  6
CONTINUOUS
  0
ARC
  8
WHITE
 10
6.553197
 20
4.957682
 30
0.000000
 40
0.710361
 50
-141.881421
 51
-131.265358
  6
CONTINUOUS
  0
ARC
  8
WHITE
 10
4.492072
 20
3.297899
 30
0.000000
 40
1.936056
 50
39.109890
 51
43.168685
  6
CONTINUOUS
  0
ARC
  8
WHITE
 10
5.622193
 20
4.357258
 30
0.000000
 40
0.387053
 50
43.247878
 51
63.348414
  6
CONTINUOUS
  0
ARC
  8
WHITE
 10
5.721359
 20
4.579847
 30
0.000000
 40
0.144069
 50
58.883437
 51
123.913441
  6
CONTINUOUS
  0
ARC
  8
WHITE
 10
5.872264
 20
4.395744
 30
0.000000
 40
0.381713
 50
127.294922
 51
145.625600
  6
CONTINUOUS
  0
ARC
  8
WHITE
 10
4.992702
 20
5.021130
 30
0.000000
 40
0.697614
 50
-41.795916
 51
-35.982167
  6
CONTINUOUS
  0
ARC
  8
WHITE
 10
5.495175
 20
4.564104
 30
0.000000
 40
0.019313
 50
-124.908713
 51
-24.208066
  6
CONTINUOUS
  0
ARC
  8
WHITE
 10
6.114919
 20
4.931861
 30
0.000000
 40
0.738274
 50
-155.276853
 51
-148.695705
  6
CONTINUOUS
  0
ARC
  8
WHITE
 10
5.095337
 20
4.448005
 30
0.000000
 40
0.390438
 50
26.643183
 51
41.258149
  6
CONTINUOUS
  0
ARC
  8
WHITE
 10
4.891056
 20
4.317924
 30
0.000000
 40
0.630868
 50
37.902612
 51
44.155272
  6
CONTINUOUS
  0
ARC
  8
WHITE
 10
5.281547
 20
4.695999
 30
0.000000
 40
0.087343
 50
44.658037
 51
64.510837
  6
CONTINUOUS
  0
ARC
  8
WHITE
 10
5.309044
 20
4.753568
 30
0.000000
 40
0.023544
 50
64.623658
 51
122.297424
  6
CONTINUOUS
  0
ARC
  8
WHITE
 10
5.355894
 20
4.704601
 30
0.000000
 40
0.090966
 50
130.792505
 51
163.514704
  6
CONTINUOUS
  0
ARC
  8
WHITE
 10
5.471476
 20
4.660978
 30
0.000000
 40
0.214366
 50
161.100141
 51
203.243263
  6
CONTINUOUS
  0
ARC
  8
WHITE
 10
-9.926801
 20
-5.694964
 30
0.000000
 40
18.346127
 50
33.175652
 51
34.046430
  6
CONTINUOUS
  0
ARC
  8
WHITE
 10
4.634348
 20
3.848650
 30
0.000000
 40
0.936365
 50
20.151782
 51
31.951501
  6
CONTINUOUS
  0
ARC
  8
WHITE
 10
5.088415
 20
4.011445
 30
0.000000
 40
0.454025
 50
-2.859724
 51
20.606168
  6
CONTINUOUS
  0
ARC
  8
WHITE
 10
5.297450
 20
3.993142
 30
0.000000
 40
0.244463
 50
-9.196463
 51
-1.019276
  6
CONTINUOUS
  0
ARC
  8
WHITE
 10
5.519146
 20
3.964102
 30
0.000000
 40
0.022039
 50
-102.307313
 51
-27.071463
  6
CONTINUOUS
  0
ARC
  8
WHITE
 10
5.533730
 20
4.012654
 30
0.000000
 40
0.072690
 50
-144.084357
 51
-105.382658
  6
CONTINUOUS
  0
ARC
  8
WHITE
 10
4.958505
 20
3.542968
 30
0.000000
 40
0.670070
 50
39.592132
 51
60.930905
  6
CONTINUOUS
  0
ARC
  8
WHITE
 10
5.124316
 20
3.865520
 30
0.000000
 40
0.307812
 50
58.735438
 51
101.718293
  6
CONTINUOUS
  0
ARC
  8
WHITE
 10
5.092424
 20
4.023277
 30
0.000000
 40
0.146868
 50
102.035510
 51
165.294564
  6
CONTINUOUS
  0
ARC
  8
WHITE
 10
5.732784
 20
3.874568
 30
0.000000
 40
0.804220
 50
166.628183
 51
244.870537
  6
CONTINUOUS
  0
ARC
  8
WHITE
 10
5.672983
 20
3.933787
 30
0.000000
 40
0.836206
 50
-109.688500
 51
-78.519450
  6
CONTINUOUS
  0
ARC
  8
WHITE
 10
5.702607
 20
3.063205
 30
0.000000
 40
0.146044
 50
20.483534
 51
43.869127
  6
CONTINUOUS
  0
ARC
  8
WHITE
 10
5.441061
 20
2.819803
 30
0.000000
 40
0.503314
 50
43.211089
 51
50.037463
  6
CONTINUOUS
  0
ARC
  8
WHITE
 10
6.043703
 20
3.575430
 30
0.000000
 40
0.463509
 50
-142.559511
 51
-127.065620
  6
CONTINUOUS
  0
ARC
  8
WHITE
 10
5.787449
 20
3.369569
 30
0.000000
 40
0.135114
 50
-165.595227
 51
-145.811331
  6
CONTINUOUS
  0
ARC
  8
WHITE
 10
5.670795
 20
3.344163
 30
0.000000
 40
0.016411
 50
82.166009
 51
210.002676
  6
CONTINUOUS
  0
ARC
  8
WHITE
 10
5.642095
 20
3.155255
 30
0.000000
 40
0.207486
 50
65.298665
 51
81.424998
  6
CONTINUOUS
  0
LINE
  8
WHITE
 10
5.728801
 20
3.343756
 30
0.000000
 11
5.780371
 21
3.319751
 31
0.000000
  6
CONTINUOUS
  0
ARC
  8
WHITE
 10
6.004535
 20
3.802895
 30
0.000000
 40
0.532614
 50
-114.889854
 51
-97.577924
  6
CONTINUOUS
  0
ARC
  8
WHITE
 10
5.958859
 20
3.470890
 30
0.000000
 40
0.197491
 50
-97.144452
 51
-75.837857
  6
CONTINUOUS
  0
ARC
  8
WHITE
 10
5.984246
 20
3.367763
 30
0.000000
 40
0.091288
 50
-75.451020
 51
-34.004086
  6
CONTINUOUS
  0
ARC
  8
WHITE
 10
5.431003
 20
3.659953
 30
0.000000
 40
0.716489
 50
-28.624180
 51
-12.907441
  6
CONTINUOUS
  0
ARC
  8
WHITE
 10
2.733704
 20
4.342912
 30
0.000000
 40
3.498762
 50
-13.942271
 51
-4.758052
  6
CONTINUOUS
  0
ARC
  8
WHITE
 10
4.227304
 20
4.198604
 30
0.000000
 40
1.998438
 50
-4.186954
 51
-0.577855
  6
CONTINUOUS
  0
ARC
  8
WHITE
 10
6.626910
 20
4.168903
 30
0.000000
 40
0.401383
 50
160.819843
 51
178.637198
  6
CONTINUOUS
  0
ARC
  8
WHITE
 10
6.507684
 20
4.202762
 30
0.000000
 40
0.277745
 50
118.648694
 51
159.336261
  6
CONTINUOUS
  0
ARC
  8
WHITE
 10
6.491284
 20
4.241600
 30
0.000000
 40
0.235837
 50
97.156091
 51
119.675968
  6
CONTINUOUS
  0
ARC
  8
WHITE
 10
6.480490
 20
4.324743
 30
0.000000
 40
0.151997
 50
64.667306
 51
97.023194
  6
CONTINUOUS
  0
ARC
  8
WHITE
 10
6.527698
 20
4.416393
 30
0.000000
 40
0.049084
 50
26.394222
 51
68.702264
  6
CONTINUOUS
  0
ARC
  8
WHITE
 10
6.546738
 20
4.437068
 30
0.000000
 40
0.024953
 50
-71.571272
 51
2.629115
  6
CONTINUOUS
  0
LINE
  8
WHITE
 10
6.554626
 20
4.413396
 30
0.000000
 11
6.512177
 21
4.393588
 31
0.000000
  6
CONTINUOUS
  0
ARC
  8
WHITE
 10
6.608295
 20
4.242879
 30
0.000000
 40
0.178751
 50
122.528596
 51
144.527438
  6
CONTINUOUS
  0
ARC
  8
WHITE
 10
6.551977
 20
4.276031
 30
0.000000
 40
0.113789
 50
141.664569
 51
192.761610
  6
CONTINUOUS
  0
ARC
  8
WHITE
 10
6.525364
 20
4.271912
 30
0.000000
 40
0.086944
 50
-166.011627
 51
-133.126216
  6
CONTINUOUS
  0
ARC
  8
WHITE
 10
6.579832
 20
4.329648
 30
0.000000
 40
0.166317
 50
-133.224283
 51
-115.925128
  6
CONTINUOUS
  0
ARC
  8
WHITE
 10
6.674111
 20
4.513384
 30
0.000000
 40
0.372808
 50
-116.610995
 51
-70.470295
  6
CONTINUOUS
  0
ARC
  8
WHITE
 10
6.623096
 20
4.660353
 30
0.000000
 40
0.528378
 50
-70.584269
 51
-37.748422
  6
CONTINUOUS
  0
ARC
  8
WHITE
 10
6.645402
 20
4.648778
 30
0.000000
 40
0.503673
 50
-38.260695
 51
40.733564
  6
CONTINUOUS
  0
ARC
  8
WHITE
 10
6.672741
 20
4.651210
 30
0.000000
 40
0.481637
 50
42.636927
 51
73.557160
  6
CONTINUOUS
  0
ARC
  8
WHITE
 10
6.978981
 20
5.646848
 30
0.000000
 40
0.560093
 50
-116.019651
 51
-107.659408
  6
CONTINUOUS
  0
ARC
  8
WHITE
 10
6.745829
 20
5.174506
 30
0.000000
 40
0.033426
 50
163.124258
 51
247.949729
  6
CONTINUOUS
  0
ARC
  8
WHITE
 10
7.445289
 20
4.858600
 30
0.000000
 40
0.800648
 50
142.805201
 51
156.003377
  6
CONTINUOUS
  0
ARC
  8
WHITE
 10
8.288229
 20
4.226337
 30
0.000000
 40
1.854351
 50
117.017227
 51
142.988388
  6
CONTINUOUS
  0
ARC
  8
WHITE
 10
7.989218
 20
4.901374
 30
0.000000
 40
1.117877
 50
113.103976
 51
119.081230
  6
CONTINUOUS
  0
ARC
  8
WHITE
 10
7.584312
 20
5.845091
 30
0.000000
 40
0.090991
 50
51.241582
 51
111.772205
  6
CONTINUOUS
  0
ARC
  8
WHITE
 10
8.626486
 20
4.306765
 30
0.000000
 40
1.886908
 50
121.475227
 51
132.537580
  6
CONTINUOUS
  0
ARC
  8
WHITE
 10
7.781567
 20
5.214773
 30
0.000000
 40
0.646688
 50
131.768091
 51
163.730948
  6
CONTINUOUS
  0
ARC
  8
WHITE
 10
7.370353
 20
5.339743
 30
0.000000
 40
0.216983
 50
164.989260
 51
179.294878
  6
CONTINUOUS
  0
ARC
  8
WHITE
 10
7.177611
 20
5.335687
 30
0.000000
 40
0.025140
 50
164.481388
 51
249.905037
  6
CONTINUOUS
  0
ARC
  8
WHITE
 10
7.109878
 20
5.445413
 30
0.000000
 40
0.145845
 50
-66.096670
 51
-48.821099
  6
CONTINUOUS
  0
ARC
  8
WHITE
 10
12.959082
 20
-1.330685
 30
0.000000
 40
8.805621
 50
125.953638
 51
130.794873
  6
CONTINUOUS
  0
ARC
  8
WHITE
 10
12.847596
 20
-1.720038
 30
0.000000
 40
9.060955
 50
119.234002
 51
123.937027
  6
CONTINUOUS
  0
LINE
  8
WHITE
 10
8.422428
 20
6.186845
 30
0.000000
 11
8.471693
 21
6.215278
 31
0.000000
  6
CONTINUOUS
  0
ARC
  8
WHITE
 10
8.406768
 20
5.939148
 30
0.000000
 40
0.283660
 50
76.768675
 51
103.658521
  6
CONTINUOUS
  0
ARC
  8
WHITE
 10
8.148822
 20
7.873058
 30
0.000000
 40
1.669230
 50
-87.994873
 51
-83.430848
  6
CONTINUOUS
  0
ARC
  8
WHITE
 10
8.565745
 20
1.900808
 30
0.000000
 40
4.318947
 50
94.761636
 51
98.290811
  6
CONTINUOUS
  0
ARC
  8
WHITE
 10
10.015292
 20
-6.273756
 30
0.000000
 40
12.619689
 50
99.451572
 51
101.866969
  6
CONTINUOUS
  0
ARC
  8
WHITE
 10
9.270987
 20
-3.042288
 30
0.000000
 40
9.304445
 50
101.473610
 51
108.026278
  6
CONTINUOUS
  0
ARC
  8
WHITE
 10
7.046001
 20
3.699971
 30
0.000000
 40
2.204798
 50
107.263318
 51
115.162329
  6
CONTINUOUS
  0
ARC
  8
WHITE
 10
6.123064
 20
5.651843
 30
0.000000
 40
0.046052
 50
108.364183
 51
156.248946
  6
CONTINUOUS
  0
ARC
  8
WHITE
 10
14.161056
 20
3.422952
 30
0.000000
 40
0.298935
 50
-108.954260
 51
-93.949961
  6
CONTINUOUS
  0
ARC
  8
WHITE
 10
13.138660
 20
2.605470
 30
0.000000
 40
1.128379
 50
27.398708
 51
67.273326
  6
CONTINUOUS
  0
ARC
  8
WHITE
 10
13.115884
 20
2.589945
 30
0.000000
 40
1.151595
 50
66.526517
 51
134.904092
  6
CONTINUOUS
  0
ARC
  8
WHITE
 10
13.124438
 20
2.585439
 30
0.000000
 40
1.160829
 50
135.046135
 51
185.937591
  6
CONTINUOUS
  0
ARC
  8
WHITE
 10
12.825699
 20
2.540298
 30
0.000000
 40
0.859136
 50
-174.995826
 51
-168.550046
  6
CONTINUOUS
  0
ARC
  8
WHITE
 10
12.103431
 20
2.380493
 30
0.000000
 40
0.120251
 50
-174.874096
 51
-130.472954
  6
CONTINUOUS
  0
ARC
  8
WHITE
 10
12.085246
 20
2.435576
 30
0.000000
 40
0.158316
 50
-112.219720
 51
-79.511706
  6
CONTINUOUS
  0
ARC
  8
WHITE
 10
12.524231
 20
0.460848
 30
0.000000
 40
1.864727
 50
81.109558
 51
102.706707
  6
CONTINUOUS
  0
ARC
  8
WHITE
 10
12.611097
 20
0.979245
 30
0.000000
 40
1.339146
 50
58.793419
 51
81.353709
  6
CONTINUOUS
  0
ARC
  8
WHITE
 10
12.800579
 20
1.191598
 30
0.000000
 40
1.060621
 50
50.928011
 51
61.605768
  6
CONTINUOUS
  0
ARC
  8
WHITE
 10
13.262299
 20
1.787903
 30
0.000000
 40
0.307149
 50
15.419810
 51
47.682259
  6
CONTINUOUS
  0
ARC
  8
WHITE
 10
13.160549
 20
1.790177
 30
0.000000
 40
0.405688
 50
-10.085033
 51
11.285722
  6
CONTINUOUS
  0
ARC
  8
WHITE
 10
14.910082
 20
1.532091
 30
0.000000
 40
1.363009
 50
172.112388
 51
174.892207
  6
CONTINUOUS
  0
ARC
  8
WHITE
 10
13.600102
 20
1.660058
 30
0.000000
 40
0.048074
 50
-172.086611
 51
-97.933904
  6
CONTINUOUS
  0
ARC
  8
WHITE
 10
13.669674
 20
1.866421
 30
0.000000
 40
0.265163
 50
-106.702300
 51
-81.541838
  6
CONTINUOUS
  0
ARC
  8
WHITE
 10
13.541978
 20
3.364463
 30
0.000000
 40
1.768197
 50
-84.590361
 51
-58.191608
  6
CONTINUOUS
  0
ARC
  8
WHITE
 10
12.536923
 20
4.639484
 30
0.000000
 40
3.386372
 50
-55.109536
 51
-47.427564
  6
CONTINUOUS
  0
ARC
  8
WHITE
 10
14.773555
 20
2.183804
 30
0.000000
 40
0.066364
 50
-35.059529
 51
4.933697
  6
CONTINUOUS
  0
ARC
  8
WHITE
 10
14.755210
 20
2.110844
 30
0.000000
 40
0.115424
 50
42.965101
 51
70.747034
  6
CONTINUOUS
  0
ARC
  8
WHITE
 10
14.195443
 20
0.913643
 30
0.000000
 40
1.436480
 50
65.406681
 51
69.715334
  6
CONTINUOUS
  0
ARC
  8
WHITE
 10
15.048163
 20
3.189379
 30
0.000000
 40
0.993804
 50
-147.716053
 51
-110.911545
  6
CONTINUOUS
  0
ARC
  8
WHITE
 10
9.351203
 20
-0.222815
 30
0.000000
 40
5.647193
 50
30.679403
 51
31.742808
  6
CONTINUOUS
  0
ARC
  8
WHITE
 10
13.811968
 20
2.530017
 30
0.000000
 40
0.405433
 50
32.559887
 51
50.818068
  6
CONTINUOUS
  0
ARC
  8
WHITE
 10
13.819589
 20
2.517175
 30
0.000000
 40
0.410812
 50
52.773954
 51
99.009619
  6
CONTINUOUS
  0
ARC
  8
WHITE
 10
13.802094
 20
2.536537
 30
0.000000
 40
0.389210
 50
96.911835
 51
144.839571
  6
CONTINUOUS
  0
ARC
  8
WHITE
 10
13.780604
 20
2.568376
 30
0.000000
 40
0.353569
 50
147.052805
 51
167.466534
  6
CONTINUOUS
  0
ARC
  8
WHITE
 10
9.546896
 20
3.337621
 30
0.000000
 40
3.949748
 50
-11.407447
 51
-10.097974
  6
CONTINUOUS
  0
ARC
  8
WHITE
 10
13.279869
 20
2.585379
 30
0.000000
 40
0.141739
 50
-28.902296
 51
-11.788774
  6
CONTINUOUS
  0
ARC
  8
WHITE
 10
13.386775
 20
2.524817
 30
0.000000
 40
0.018926
 50
-108.610622
 51
-24.814400
  6
CONTINUOUS
  0
ARC
  8
WHITE
 10
13.453124
 20
2.649960
 30
0.000000
 40
0.160350
 50
-149.702096
 51
-116.836435
  6
CONTINUOUS
  0
ARC
  8
WHITE
 10
13.975023
 20
2.927260
 30
0.000000
 40
0.751241
 50
172.264570
 51
208.476979
  6
CONTINUOUS
  0
ARC
  8
WHITE
 10
14.128430
 20
2.844910
 30
0.000000
 40
0.916366
 50
161.110265
 51
168.450718
  6
CONTINUOUS
  0
ARC
  8
WHITE
 10
13.572615
 20
3.038649
 30
0.000000
 40
0.327779
 50
150.814960
 51
161.697766
  6
CONTINUOUS
  0
ARC
  8
WHITE
 10
13.314125
 20
3.188221
 30
0.000000
 40
0.029519
 50
92.690334
 51
159.653926
  6
CONTINUOUS
  0
ARC
  8
WHITE
 10
13.291470
 20
3.176653
 30
0.000000
 40
0.046237
 50
-0.324322
 51
62.612309
  6
CONTINUOUS
  0
ARC
  8
WHITE
 10
12.687048
 20
3.139404
 30
0.000000
 40
0.651709
 50
-3.124457
 51
3.253529
  6
CONTINUOUS
  0
ARC
  8
WHITE
 10
13.704158
 20
3.099149
 30
0.000000
 40
0.366401
 50
179.259764
 51
192.449241
  6
CONTINUOUS
  0
ARC
  8
WHITE
 10
13.368514
 20
3.036330
 30
0.000000
 40
0.027416
 50
-143.863158
 51
-25.374110
  6
CONTINUOUS
  0
ARC
  8
WHITE
 10
13.812151
 20
2.529731
 30
0.000000
 40
0.648324
 50
103.347536
 51
130.246171
  6
CONTINUOUS
  0
ARC
  8
WHITE
 10
13.831880
 20
2.358297
 30
0.000000
 40
0.819936
 50
78.618145
 51
101.923221
  6
CONTINUOUS
  0
ARC
  8
WHITE
 10
13.862755
 20
2.617889
 30
0.000000
 40
0.559749
 50
68.933428
 51
76.471991
  6
CONTINUOUS
  0
ARC
  8
WHITE
 10
12.452183
 20
2.697801
 30
0.000000
 40
1.331770
 50
-58.321393
 51
-52.919425
  6
CONTINUOUS
  0
ARC
  8
WHITE
 10
12.904030
 20
1.713356
 30
0.000000
 40
0.359692
 50
-12.528402
 51
7.607935
  6
CONTINUOUS
  0
ARC
  8
WHITE
 10
13.113058
 20
1.749500
 30
0.000000
 40
0.147943
 50
4.449264
 51
51.876850
  6
CONTINUOUS
  0
ARC
  8
WHITE
 10
12.400312
 20
0.683587
 30
0.000000
 40
1.429814
 50
55.780431
 51
74.791077
  6
CONTINUOUS
  0
ARC
  8
WHITE
 10
12.263286
 20
0.310379
 30
0.000000
 40
1.826221
 50
73.714273
 51
86.736971
  6
CONTINUOUS
  0
ARC
  8
WHITE
 10
12.342609
 20
1.672065
 30
0.000000
 40
0.462230
 50
86.946143
 51
109.460502
  6
CONTINUOUS
  0
ARC
  8
WHITE
 10
12.244351
 20
1.973282
 30
0.000000
 40
0.145691
 50
112.493191
 51
145.964709
  6
CONTINUOUS
  0
ARC
  8
WHITE
 10
12.157775
 20
2.036707
 30
0.000000
 40
0.038665
 50
152.056167
 51
213.230231
  6
CONTINUOUS
  0
ARC
  8
WHITE
 10
12.017306
 20
1.953953
 30
0.000000
 40
0.124426
 50
11.081115
 51
29.656430
  6
CONTINUOUS
  0
ARC
  8
WHITE
 10
12.113530
 20
1.977798
 30
0.000000
 40
0.025882
 50
-88.538242
 51
0.153708
  6
CONTINUOUS
  0
ARC
  8
WHITE
 10
12.167090
 20
2.129595
 30
0.000000
 40
0.185379
 50
-118.686112
 51
-106.580367
  6
CONTINUOUS
  0
ARC
  8
WHITE
 10
12.043837
 20
1.913954
 30
0.000000
 40
0.063127
 50
57.121254
 51
127.500534
  6
CONTINUOUS
  0
ARC
  8
WHITE
 10
12.242175
 20
1.739634
 30
0.000000
 40
0.326213
 50
136.536004
 51
162.876039
  6
CONTINUOUS
  0
ARC
  8
WHITE
 10
12.457313
 20
1.681475
 30
0.000000
 40
0.548993
 50
163.686402
 51
171.027570
  6
CONTINUOUS
  0
ARC
  8
WHITE
 10
11.795925
 20
1.772734
 30
0.000000
 40
0.119246
 50
-35.465736
 51
-2.710207
  6
CONTINUOUS
  0
ARC
  8
WHITE
 10
11.849107
 20
1.740890
 30
0.000000
 40
0.057665
 50
-105.780202
 51
-40.361479
  6
CONTINUOUS
  0
ARC
  8
WHITE
 10
12.166527
 20
2.325886
 30
0.000000
 40
0.721929
 50
-137.761891
 51
-117.477828
  6
CONTINUOUS
  0
ARC
  8
WHITE
 10
12.432602
 20
2.629643
 30
0.000000
 40
1.124052
 50
133.306992
 51
224.585016
  6
CONTINUOUS
  0
ARC
  8
WHITE
 10
11.588521
 20
3.404601
 30
0.000000
 40
0.084798
 50
-11.619353
 51
30.472123
  6
CONTINUOUS
  0
ARC
  8
WHITE
 10
12.004053
 20
3.162352
 30
0.000000
 40
0.401546
 50
145.891788
 51
163.400849
  6
CONTINUOUS
  0
ARC
  8
WHITE
 10
12.821947
 20
2.880215
 30
0.000000
 40
1.266487
 50
161.739032
 51
204.816940
  6
CONTINUOUS
  0
ARC
  8
WHITE
 10
12.586348
 20
2.768463
 30
0.000000
 40
1.005743
 50
-155.328123
 51
-150.242633
  6
CONTINUOUS
  0
ARC
  8
WHITE
 10
11.926382
 20
2.379468
 30
0.000000
 40
0.239949
 50
-152.664733
 51
-132.020043
  6
CONTINUOUS
  0
ARC
  8
WHITE
 10
11.809630
 20
2.244322
 30
0.000000
 40
0.061508
 50
-135.495937
 51
-57.255200
  6
CONTINUOUS
  0
ARC
  8
WHITE
 10
11.798890
 20
2.272003
 30
0.000000
 40
0.090793
 50
-61.005939
 51
-9.917329
  6
CONTINUOUS
  0
ARC
  8
WHITE
 10
11.633608
 20
2.237646
 30
0.000000
 40
0.255406
 50
4.203236
 51
21.818679
  6
CONTINUOUS
  0
ARC
  8
WHITE
 10
13.352279
 20
2.838900
 30
0.000000
 40
1.565692
 50
-172.280860
 51
-161.132011
  6
CONTINUOUS
  0
ARC
  8
WHITE
 10
12.935803
 20
2.807310
 30
0.000000
 40
1.149011
 50
162.355225
 51
188.947724
  6
CONTINUOUS
  0
ARC
  8
WHITE
 10
13.235465
 20
2.676284
 30
0.000000
 40
1.474684
 50
145.498496
 51
161.032950
  6
CONTINUOUS
  0
ARC
  8
WHITE
 10
13.271333
 20
2.655057
 30
0.000000
 40
1.516269
 50
134.272788
 51
145.605178
  6
CONTINUOUS
  0
ARC
  8
WHITE
 10
11.968931
 20
4.015964
 30
0.000000
 40
0.367764
 50
-48.449041
 51
-39.688471
  6
CONTINUOUS
  0
ARC
  8
WHITE
 10
12.220642
 20
3.811749
 30
0.000000
 40
0.043798
 50
-44.398966
 51
24.705127
  6
CONTINUOUS
  0
ARC
  8
WHITE
 10
15.282749
 20
5.093191
 30
0.000000
 40
3.275656
 50
-160.774749
 51
-157.318173
  6
CONTINUOUS
  0
ARC
  8
WHITE
 10
12.421453
 20
4.082179
 30
0.000000
 40
0.241343
 50
-172.532408
 51
-163.732599
  6
CONTINUOUS
  0
ARC
  8
WHITE
 10
12.209132
 20
4.061951
 30
0.000000
 40
0.029184
 50
134.184488
 51
202.436231
  6
CONTINUOUS
  0
ARC
  8
WHITE
 10
12.207483
 20
4.023521
 30
0.000000
 40
0.062232
 50
48.077955
 51
107.479261
  6
CONTINUOUS
  0
ARC
  8
WHITE
 10
12.433071
 20
4.315286
 30
0.000000
 40
0.306774
 50
-126.857020
 51
-116.219367
  6
CONTINUOUS
  0
ARC
  8
WHITE
 10
12.326971
 20
4.136887
 30
0.000000
 40
0.101187
 50
-106.912044
 51
-50.461590
  6
CONTINUOUS
  0
LINE
  8
WHITE
 10
12.391386
 20
4.058852
 30
0.000000
 11
12.509669
 21
4.150423
 31
0.000000
  6
CONTINUOUS
  0
ARC
  8
WHITE
 10
12.344348
 20
4.401072
 30
0.000000
 40
0.300260
 50
-56.592201
 51
-28.023054
  6
CONTINUOUS
  0
ARC
  8
WHITE
 10
12.432794
 20
2.648170
 30
0.000000
 40
1.621479
 50
83.746975
 51
104.513191
  6
CONTINUOUS
  0
ARC
  8
WHITE
 10
12.332808
 20
2.851409
 30
0.000000
 40
1.400419
 50
102.636441
 51
144.431871
  6
CONTINUOUS
  0
ARC
  8
WHITE
 10
12.590511
 20
2.861504
 30
0.000000
 40
1.611943
 50
150.060862
 51
185.458483
  6
CONTINUOUS
  0
ARC
  8
WHITE
 10
13.145613
 20
2.838527
 30
0.000000
 40
2.163666
 50
-176.545908
 51
-149.185062
  6
CONTINUOUS
  0
ARC
  8
WHITE
 10
12.977836
 20
2.870589
 30
0.000000
 40
2.039158
 50
-145.994816
 51
-129.777369
  6
CONTINUOUS
  0
ARC
  8
WHITE
 10
13.186869
 20
2.967782
 30
0.000000
 40
2.249751
 50
-132.285832
 51
-126.930104
  6
CONTINUOUS
  0
ARC
  8
WHITE
 10
11.913973
 20
1.271713
 30
0.000000
 40
0.129168
 50
-127.618964
 51
-77.094766
  6
CONTINUOUS
  0
ARC
  8
WHITE
 10
13.089443
 20
2.518879
 30
0.000000
 40
1.788873
 50
-146.924078
 51
-129.864512
  6
CONTINUOUS
  0
ARC
  8
WHITE
 10
12.754213
 20
2.350488
 30
0.000000
 40
1.416686
 50
-149.996500
 51
-145.231318
  6
CONTINUOUS
  0
ARC
  8
WHITE
 10
11.622951
 20
1.686912
 30
0.000000
 40
0.105577
 50
-172.867790
 51
-154.866270
  6
CONTINUOUS
  0
ARC
  8
WHITE
 10
11.954881
 20
1.719656
 30
0.000000
 40
0.439091
 50
-179.869081
 51
-174.005918
  6
CONTINUOUS
  0
ARC
  8
WHITE
 10
12.487515
 20
2.583338
 30
0.000000
 40
1.300741
 50
-138.335806
 51
-96.574511
  6
CONTINUOUS
  0
ARC
  8
WHITE
 10
12.468442
 20
2.895368
 30
0.000000
 40
1.609464
 50
-94.627798
 51
-90.645961
  6
CONTINUOUS
  0
ARC
  8
WHITE
 10
12.452465
 20
1.441160
 30
0.000000
 40
0.155169
 50
-90.800397
 51
-55.949135
  6
CONTINUOUS
  0
ARC
  8
WHITE
 10
12.447989
 20
1.441158
 30
0.000000
 40
0.157717
 50
-54.601461
 51
-36.371206
  6
CONTINUOUS
  0
ARC
  8
WHITE
 10
12.534881
 20
1.379202
 30
0.000000
 40
0.051038
 50
-38.214546
 51
16.319005
  6
CONTINUOUS
  0
ARC
  8
WHITE
 10
12.502280
 20
1.358663
 30
0.000000
 40
0.088726
 50
23.148676
 51
50.844009
  6
CONTINUOUS
  0
ARC
  8
WHITE
 10
12.235033
 20
1.023437
 30
0.000000
 40
0.517439
 50
51.335852
 51
73.630278
  6
CONTINUOUS
  0
ARC
  8
WHITE
 10
12.196461
 20
0.770618
 30
0.000000
 40
0.771641
 50
76.173846
 51
84.843633
  6
CONTINUOUS
  0
ARC
  8
WHITE
 10
12.291929
 20
1.556298
 30
0.000000
 40
0.031252
 50
120.401640
 51
213.310462
  6
CONTINUOUS
  0
ARC
  8
WHITE
 10
12.561400
 20
-0.697996
 30
0.000000
 40
2.299019
 50
79.916405
 51
97.128246
  6
CONTINUOUS
  0
ARC
  8
WHITE
 10
13.332348
 20
3.686473
 30
0.000000
 40
2.152724
 50
-99.854313
 51
-96.605047
  6
CONTINUOUS
  0
ARC
  8
WHITE
 10
13.091243
 20
1.665786
 30
0.000000
 40
0.117928
 50
-93.165132
 51
-59.233842
  6
CONTINUOUS
  0
ARC
  8
WHITE
 10
3.236771
 20
-5.925948
 30
0.000000
 40
11.085310
 50
46.183476
 51
67.174092
  6
CONTINUOUS
  0
ARC
  8
WHITE
 10
5.919673
 20
5.454377
 30
0.000000
 40
1.992238
 50
-43.653449
 51
-35.720402
  6
CONTINUOUS
  0
ARC
  8
WHITE
 10
6.902525
 20
4.570496
 30
0.000000
 40
0.672107
 50
-70.495097
 51
-46.975275
  6
CONTINUOUS
  0
ARC
  8
WHITE
 10
8.467346
 20
-0.056688
 30
0.000000
 40
4.212591
 50
108.553620
 51
111.055760
  6
CONTINUOUS
  0
ARC
  8
WHITE
 10
9.329359
 20
3.750741
 30
0.000000
 40
2.378726
 50
177.014482
 51
183.515803
  6
CONTINUOUS
  0
ARC
  8
WHITE
 10
8.861040
 20
3.728295
 30
0.000000
 40
1.909922
 50
-176.294742
 51
-173.258201
  6
CONTINUOUS
  0
ARC
  8
WHITE
 10
7.155297
 20
3.511650
 30
0.000000
 40
0.191123
 50
-177.729771
 51
-151.227143
  6
CONTINUOUS
  0
ARC
  8
WHITE
 10
7.038519
 20
3.482328
 30
0.000000
 40
0.080643
 50
-128.998059
 51
-74.115164
  6
CONTINUOUS
  0
LINE
  8
WHITE
 10
7.060591
 20
3.404765
 30
0.000000
 11
7.323321
 21
3.471793
 31
0.000000
  6
CONTINUOUS
  0
ARC
  8
WHITE
 10
6.860132
 20
5.187257
 30
0.000000
 40
1.776896
 50
-74.889998
 51
-66.143821
  6
CONTINUOUS
  0
ARC
  8
WHITE
 10
6.975287
 20
3.170956
 30
0.000000
 40
0.719207
 50
32.953318
 51
60.712327
  6
CONTINUOUS
  0
ARC
  8
WHITE
 10
7.366690
 20
3.891436
 30
0.000000
 40
0.101258
 50
-141.149405
 51
-113.003687
  6
CONTINUOUS
  0
ARC
  8
WHITE
 10
7.321037
 20
3.845540
 30
0.000000
 40
0.037592
 50
122.531006
 51
207.955348
  6
CONTINUOUS
  0
ARC
  8
WHITE
 10
-2.683662
 20
17.492564
 30
0.000000
 40
16.883932
 50
-53.746414
 51
-53.232164
  6
CONTINUOUS
  0
ARC
  8
WHITE
 10
8.577113
 20
2.454792
 30
0.000000
 40
1.902845
 50
121.264861
 51
127.352646
  6
CONTINUOUS
  0
ARC
  8
WHITE
 10
7.632511
 20
4.021154
 30
0.000000
 40
0.073917
 50
83.816417
 51
125.539569
  6
CONTINUOUS
  0
ARC
  8
WHITE
 10
7.576462
 20
3.499334
 30
0.000000
 40
0.598738
 50
56.387628
 51
83.862798
  6
CONTINUOUS
  0
ARC
  8
WHITE
 10
7.899807
 20
3.974698
 30
0.000000
 40
0.024635
 50
-15.705550
 51
70.806293
  6
CONTINUOUS
  0
ARC
  8
WHITE
 10
7.892634
 20
3.984302
 30
0.000000
 40
0.034913
 50
-90.356903
 51
-27.780791
  6
CONTINUOUS
  0
ARC
  8
WHITE
 10
7.911368
 20
3.798941
 30
0.000000
 40
0.151638
 50
97.179528
 51
112.074892
  6
CONTINUOUS
  0
ARC
  8
WHITE
 10
7.883759
 20
3.846117
 30
0.000000
 40
0.097859
 50
107.470615
 51
156.863746
  6
CONTINUOUS
  0
ARC
  8
WHITE
 10
7.954716
 20
3.808514
 30
0.000000
 40
0.178010
 50
154.707253
 51
216.768105
  6
CONTINUOUS
  0
ARC
  8
WHITE
 10
7.900781
 20
3.772514
 30
0.000000
 40
0.113309
 50
-141.489146
 51
-89.517681
  6
CONTINUOUS
  0
LINE
  8
WHITE
 10
7.901735
 20
3.659209
 30
0.000000
 11
8.010346
 21
3.674013
 31
0.000000
  6
CONTINUOUS
  0
ARC
  8
WHITE
 10
8.148425
 20
2.379234
 30
0.000000
 40
1.302121
 50
85.057109
 51
96.087182
  6
CONTINUOUS
  0
ARC
  8
WHITE
 10
8.173543
 20
2.795138
 30
0.000000
 40
0.885665
 50
65.824805
 51
84.357713
  6
CONTINUOUS
  0
ARC
  8
WHITE
 10
7.910169
 20
2.339124
 30
0.000000
 40
1.410560
 50
50.351822
 51
63.650147
  6
CONTINUOUS
  0
ARC
  8
WHITE
 10
8.798666
 20
3.397214
 30
0.000000
 40
0.030294
 50
-11.193837
 51
67.604692
  6
CONTINUOUS
  0
ARC
  8
WHITE
 10
8.805087
 20
3.398144
 30
0.000000
 40
0.024272
 50
-116.000246
 51
-16.296626
  6
CONTINUOUS
  0
ARC
  8
WHITE
 10
8.403450
 20
2.888808
 30
0.000000
 40
0.624945
 50
51.270028
 51
59.250869
  6
CONTINUOUS
  0
ARC
  8
WHITE
 10
8.299789
 20
2.727636
 30
0.000000
 40
0.816486
 50
58.781844
 51
71.835502
  6
CONTINUOUS
  0
ARC
  8
WHITE
 10
8.291349
 20
2.680793
 30
0.000000
 40
0.863650
 50
72.272281
 51
100.479223
  6
CONTINUOUS
  0
ARC
  8
WHITE
 10
8.169049
 20
3.185750
 30
0.000000
 40
0.346040
 50
95.768414
 51
113.936158
  6
CONTINUOUS
  0
ARC
  8
WHITE
 10
8.041742
 20
3.456468
 30
0.000000
 40
0.047404
 50
106.026901
 51
173.503382
  6
CONTINUOUS
  0
ARC
  8
WHITE
 10
8.122999
 20
3.472930
 30
0.000000
 40
0.128837
 50
-175.058236
 51
-149.989401
  6
CONTINUOUS
  0
ARC
  8
WHITE
 10
8.313115
 20
3.556404
 30
0.000000
 40
0.335990
 50
-153.881388
 51
-144.073006
  6
CONTINUOUS
  0
ARC
  8
WHITE
 10
6.611925
 20
2.421338
 30
0.000000
 40
1.709407
 50
25.054498
 51
33.276697
  6
CONTINUOUS
  0
ARC
  8
WHITE
 10
8.322698
 20
3.207214
 30
0.000000
 40
0.173648
 50
-159.089710
 51
-138.522430
  6
CONTINUOUS
  0
ARC
  8
WHITE
 10
8.300567
 20
3.195511
 30
0.000000
 40
0.149432
 50
-136.263521
 51
-86.864696
  6
CONTINUOUS
  0
ARC
  8
WHITE
 10
7.974367
 20
-2.912400
 30
0.000000
 40
5.968077
 50
81.141970
 51
86.788211
  6
CONTINUOUS
  0
ARC
  8
WHITE
 10
11.414689
 20
14.475008
 30
0.000000
 40
11.763882
 50
-102.376048
 51
-100.848115
  6
CONTINUOUS
  0
ARC
  8
WHITE
 10
9.305179
 20
3.390976
 30
0.000000
 40
0.481115
 50
-102.547865
 51
-83.265058
  6
CONTINUOUS
  0
ARC
  8
WHITE
 10
9.357088
 20
2.939786
 30
0.000000
 40
0.026986
 50
-80.369664
 51
6.172160
  6
CONTINUOUS
  0
ARC
  8
WHITE
 10
8.760708
 20
2.691067
 30
0.000000
 40
0.672088
 50
21.986382
 51
36.333247
  6
CONTINUOUS
  0
ARC
  8
WHITE
 10
9.504095
 20
3.230686
 30
0.000000
 40
0.246555
 50
-164.883391
 51
-144.999305
  6
CONTINUOUS
  0
ARC
  8
WHITE
 10
8.957608
 20
2.277660
 30
0.000000
 40
0.940738
 50
50.712153
 51
70.858871
  6
CONTINUOUS
  0
ARC
  8
WHITE
 10
6.635515
 20
-0.797301
 30
0.000000
 40
4.793412
 50
48.550501
 51
52.503915
  6
CONTINUOUS
  0
ARC
  8
WHITE
 10
8.607041
 20
1.559210
 30
0.000000
 40
1.724003
 50
38.500428
 51
45.818328
  6
CONTINUOUS
  0
ARC
  8
WHITE
 10
9.927301
 20
2.622191
 30
0.000000
 40
0.030710
 50
-33.594661
 51
19.489741
  6
CONTINUOUS
  0
ARC
  8
WHITE
 10
9.929479
 20
2.698419
 30
0.000000
 40
0.096113
 50
-105.566760
 51
-75.907354
  6
CONTINUOUS
  0
ARC
  8
WHITE
 10
10.654097
 20
5.221256
 30
0.000000
 40
2.720949
 50
-114.515058
 51
-106.009111
  6
CONTINUOUS
  0
ARC
  8
WHITE
 10
7.325249
 20
-6.031050
 30
0.000000
 40
9.048138
 50
75.928880
 51
77.882161
  6
CONTINUOUS
  0
ARC
  8
WHITE
 10
8.080508
 20
-2.155396
 30
0.000000
 40
5.100848
 50
77.037904
 51
80.976805
  6
CONTINUOUS
  0
ARC
  8
WHITE
 10
8.555516
 20
-0.579574
 30
0.000000
 40
3.477123
 50
84.637177
 51
103.306213
  6
CONTINUOUS
  0
ARC
  8
WHITE
 10
7.899545
 20
2.160506
 30
0.000000
 40
0.659673
 50
102.635947
 51
107.820615
  6
CONTINUOUS
  0
ARC
  8
WHITE
 10
7.692392
 20
2.776156
 30
0.000000
 40
0.013446
 50
66.934439
 51
212.224832
  6
CONTINUOUS
  0
ARC
  8
WHITE
 10
7.716601
 20
2.909175
 30
0.000000
 40
0.144635
 50
-104.242452
 51
-85.567917
  6
CONTINUOUS
  0
ARC
  8
WHITE
 10
8.308398
 20
-1.747014
 30
0.000000
 40
4.549191
 50
79.720731
 51
97.332746
  6
CONTINUOUS
  0
ARC
  8
WHITE
 10
8.302180
 20
-1.232143
 30
0.000000
 40
4.044882
 50
58.693795
 51
78.332496
  6
CONTINUOUS
  0
ARC
  8
WHITE
 10
11.380733
 20
3.794879
 30
0.000000
 40
1.849960
 50
-121.870649
 51
-113.299736
  6
CONTINUOUS
  0
ARC
  8
WHITE
 10
10.873823
 20
2.623741
 30
0.000000
 40
0.573832
 50
-113.066375
 51
-86.215321
  6
CONTINUOUS
  0
LINE
  8
WHITE
 10
10.911700
 20
2.051160
 30
0.000000
 11
10.911700
 21
2.072775
 31
0.000000
  6
CONTINUOUS
  0
ARC
  8
WHITE
 10
14.072737
 20
3.180602
 30
0.000000
 40
1.218629
 50
-39.192521
 51
-36.276229
  6
CONTINUOUS
  0
ARC
  8
WHITE
 10
14.819786
 20
2.666734
 30
0.000000
 40
0.313563
 50
-41.352774
 51
19.249011
  6
CONTINUOUS
  0
ARC
  8
WHITE
 10
5.416410
 20
-0.862727
 30
0.000000
 40
10.357415
 50
20.533028
 51
21.909033
  6
CONTINUOUS
  0
ARC
  8
WHITE
 10
14.631855
 20
2.877195
 30
0.000000
 40
0.413221
 50
17.576202
 51
43.443543
  6
CONTINUOUS
  0
ARC
  8
WHITE
 10
14.886208
 20
3.095824
 30
0.000000
 40
0.079863
 50
55.122942
 51
105.308988
  6
CONTINUOUS
  0
ARC
  8
WHITE
 10
14.676125
 20
4.184385
 30
0.000000
 40
1.029037
 50
-93.050039
 51
-79.416736
  6
CONTINUOUS
  0
ARC
  8
WHITE
 10
14.621947
 20
3.552026
 30
0.000000
 40
0.395221
 50
-125.529774
 51
-90.083374
  6
CONTINUOUS
  0
LINE
  8
WHITE
 10
14.392274
 20
3.230390
 30
0.000000
 11
14.401400
 21
3.246341
 31
0.000000
  6
CONTINUOUS
  0
ARC
  8
WHITE
 10
14.424501
 20
2.668860
 30
0.000000
 40
0.577943
 50
82.310702
 51
92.290785
  6
CONTINUOUS
  0
ARC
  8
WHITE
 10
14.507440
 20
3.752088
 30
0.000000
 40
0.510513
 50
-90.629595
 51
-68.386012
  6
CONTINUOUS
  0
ARC
  8
WHITE
 10
14.585977
 20
3.605438
 30
0.000000
 40
0.345768
 50
-71.535353
 51
-55.627616
  6
CONTINUOUS
  0
ARC
  8
WHITE
 10
14.759764
 20
3.357303
 30
0.000000
 40
0.042976
 50
-60.100948
 51
2.856485
  6
CONTINUOUS
  0
ARC
  8
WHITE
 10
14.273917
 20
3.149527
 30
0.000000
 40
0.568914
 50
21.652705
 51
40.512766
  6
CONTINUOUS
  0
ARC
  8
WHITE
 10
13.285754
 20
2.434994
 30
0.000000
 40
1.787077
 50
37.346840
 51
83.945875
  6
CONTINUOUS
  0
ARC
  8
WHITE
 10
13.253865
 20
2.404874
 30
0.000000
 40
1.820616
 50
83.047843
 51
100.198937
  6
CONTINUOUS
  0
ARC
  8
WHITE
 10
13.289078
 20
2.240269
 30
0.000000
 40
1.988863
 50
100.357687
 51
107.226426
  6
CONTINUOUS
  0
ARC
  8
WHITE
 10
12.997696
 20
3.215334
 30
0.000000
 40
0.971301
 50
107.843047
 51
114.435945
  6
CONTINUOUS
  0
ARC
  8
WHITE
 10
12.680147
 20
3.865465
 30
0.000000
 40
0.248861
 50
109.789155
 51
134.706715
  6
CONTINUOUS
  0
ARC
  8
WHITE
 10
12.571173
 20
3.984158
 30
0.000000
 40
0.088052
 50
138.645428
 51
155.705831
  6
CONTINUOUS
  0
ARC
  8
WHITE
 10
12.509504
 20
4.010494
 30
0.000000
 40
0.021053
 50
151.979812
 51
293.744006
  6
CONTINUOUS
  0
ARC
  8
WHITE
 10
12.530431
 20
5.768819
 30
0.000000
 40
1.777640
 50
-90.401277
 51
-83.798454
  6
CONTINUOUS
  0
ARC
  8
WHITE
 10
12.848832
 20
2.141810
 30
0.000000
 40
1.864060
 50
82.079329
 51
93.887207
  6
CONTINUOUS
  0
ARC
  8
WHITE
 10
12.939932
 20
2.629580
 30
0.000000
 40
1.368584
 50
68.969424
 51
83.042909
  6
CONTINUOUS
  0
ARC
  8
WHITE
 10
12.758974
 20
2.287828
 30
0.000000
 40
1.753121
 50
48.233546
 51
67.457339
  6
CONTINUOUS
  0
ARC
  8
WHITE
 10
12.968535
 20
2.509114
 30
0.000000
 40
1.448511
 50
31.134396
 51
48.585855
  6
CONTINUOUS
  0
ARC
  8
WHITE
 10
12.034896
 20
2.028370
 30
0.000000
 40
2.497249
 50
21.909182
 51
29.499689
  6
CONTINUOUS
  0
ARC
  8
WHITE
 10
15.236701
 20
3.283958
 30
0.000000
 40
0.942287
 50
-159.903428
 51
-129.722602
  6
CONTINUOUS
  0
ARC
  8
WHITE
 10
15.259809
 20
3.308658
 30
0.000000
 40
0.976055
 50
-129.839324
 51
-115.271297
  6
CONTINUOUS
  0
ARC
  8
WHITE
 10
14.998702
 20
2.720999
 30
0.000000
 40
0.333495
 50
-117.807327
 51
-96.485846
  6
CONTINUOUS
  0
ARC
  8
WHITE
 10
14.967235
 20
2.458962
 30
0.000000
 40
0.069602
 50
-95.113873
 51
-44.111454
  6
CONTINUOUS
  0
ARC
  8
WHITE
 10
10.246754
 20
1.690211
 30
0.000000
 40
0.035638
 50
138.814074
 51
298.503716
  6
CONTINUOUS
  0
ARC
  8
WHITE
 10
9.927648
 20
2.242685
 30
0.000000
 40
0.673635
 50
-60.069185
 51
-45.070371
  6
CONTINUOUS
  0
ARC
  8
WHITE
 10
1.727692
 20
9.045396
 30
0.000000
 40
11.325228
 50
-39.999414
 51
-39.427124
  6
CONTINUOUS
  0
ARC
  8
WHITE
 10
10.605169
 20
1.748576
 30
0.000000
 40
0.166221
 50
116.764579
 51
141.175329
  6
CONTINUOUS
  0
ARC
  8
WHITE
 10
10.548044
 20
1.854635
 30
0.000000
 40
0.045914
 50
67.438036
 51
112.713298
  6
CONTINUOUS
  0
ARC
  8
WHITE
 10
10.417971
 20
1.591421
 30
0.000000
 40
0.339430
 50
58.338167
 51
64.207635
  6
CONTINUOUS
  0
ARC
  8
WHITE
 10
10.428640
 20
1.592274
 30
0.000000
 40
0.333215
 50
32.730741
 51
59.822814
  6
CONTINUOUS
  0
ARC
  8
WHITE
 10
-26.395327
 20
-22.156010
 30
0.000000
 40
44.150855
 50
32.606511
 51
32.817865
  6
CONTINUOUS
  0
ARC
  8
WHITE
 10
58.520899
 20
34.549915
 30
0.000000
 40
57.973605
 50
-145.406533
 51
-145.221720
  6
CONTINUOUS
  0
ARC
  8
WHITE
 10
10.722960
 20
1.357671
 30
0.000000
 40
0.218906
 50
23.287832
 51
34.493734
  6
CONTINUOUS
  0
ARC
  8
WHITE
 10
10.879949
 20
1.425902
 30
0.000000
 40
0.047735
 50
-9.964133
 51
22.559749
  6
CONTINUOUS
  0
ARC
  8
WHITE
 10
10.734464
 20
1.462758
 30
0.000000
 40
0.197716
 50
-48.209221
 51
-13.190185
  6
CONTINUOUS
  0
ARC
  8
WHITE
 10
11.498366
 20
0.647431
 30
0.000000
 40
0.919625
 50
133.423876
 51
139.767695
  6
CONTINUOUS
  0
ARC
  8
WHITE
 10
10.879194
 20
1.175977
 30
0.000000
 40
0.105609
 50
141.717373
 51
208.875960
  6
CONTINUOUS
  0
ARC
  8
WHITE
 10
10.558136
 20
1.558594
 30
0.000000
 40
0.490176
 50
-62.204195
 51
-47.738670
  6
CONTINUOUS
  0
ARC
  8
WHITE
 10
16.517308
 20
-5.019730
 30
0.000000
 40
8.385977
 50
131.387696
 51
132.167626
  6
CONTINUOUS
  0
ARC
  8
WHITE
 10
11.088133
 20
1.144728
 30
0.000000
 40
0.171587
 50
120.270420
 51
132.182747
  6
CONTINUOUS
  0
ARC
  8
WHITE
 10
11.019244
 20
1.265582
 30
0.000000
 40
0.032516
 50
65.510761
 51
122.780269
  6
CONTINUOUS
  0
ARC
  8
WHITE
 10
10.798925
 20
0.900993
 30
0.000000
 40
0.458300
 50
44.518481
 51
59.326791
  6
CONTINUOUS
  0
ARC
  8
WHITE
 10
13.402003
 20
3.466210
 30
0.000000
 40
3.196335
 50
-135.410859
 51
-132.665721
  6
CONTINUOUS
  0
ARC
  8
WHITE
 10
7.049679
 20
-4.046162
 30
0.000000
 40
6.646063
 50
49.697157
 51
50.960037
  6
CONTINUOUS
  0
ARC
  8
WHITE
 10
10.793084
 20
0.370865
 30
0.000000
 40
0.856143
 50
43.746262
 51
49.550010
  6
CONTINUOUS
  0
ARC
  8
WHITE
 10
11.288405
 20
0.846538
 30
0.000000
 40
0.169411
 50
33.197793
 51
43.363109
  6
CONTINUOUS
  0
LINE
  8
WHITE
 10
11.430166
 20
0.939296
 30
0.000000
 11
11.434591
 21
0.923434
 31
0.000000
  6
CONTINUOUS
  0
ARC
  8
WHITE
 10
11.062132
 20
1.076212
 30
0.000000
 40
0.402575
 50
-31.341103
 51
-22.302830
  6
CONTINUOUS
  0
ARC
  8
WHITE
 10
11.709877
 20
0.684732
 30
0.000000
 40
0.354286
 50
149.072135
 51
159.381023
  6
CONTINUOUS
  0
ARC
  8
WHITE
 10
11.482402
 20
0.778717
 30
0.000000
 40
0.108570
 50
163.532200
 51
190.736721
  6
CONTINUOUS
  0
ARC
  8
WHITE
 10
11.404418
 20
0.758546
 30
0.000000
 40
0.028685
 50
-179.890134
 51
-103.898758
  6
CONTINUOUS
  0
ARC
  8
WHITE
 10
11.378286
 20
0.809494
 30
0.000000
 40
0.081108
 50
-76.276476
 51
-41.139029
  6
CONTINUOUS
  0
ARC
  8
WHITE
 10
10.478039
 20
1.633976
 30
0.000000
 40
1.301831
 50
-42.400860
 51
-39.216642
  6
CONTINUOUS
  0
ARC
  8
WHITE
 10
11.645097
 20
0.676001
 30
0.000000
 40
0.208089
 50
129.163382
 51
139.592680
  6
CONTINUOUS
  0
ARC
  8
WHITE
 10
11.551308
 20
0.792878
 30
0.000000
 40
0.058248
 50
93.298765
 51
130.238232
  6
CONTINUOUS
  0
ARC
  8
WHITE
 10
11.535411
 20
0.716337
 30
0.000000
 40
0.135275
 50
64.364181
 51
84.678791
  6
CONTINUOUS
  0
ARC
  8
WHITE
 10
17.891374
 20
13.789332
 30
0.000000
 40
14.400940
 50
-115.931320
 51
-114.756929
  6
CONTINUOUS
  0
ARC
  8
WHITE
 10
12.841625
 20
2.951049
 30
0.000000
 40
2.444544
 50
-113.657692
 51
-106.871434
  6
CONTINUOUS
  0
ARC
  8
WHITE
 10
12.021503
 20
0.245604
 30
0.000000
 40
0.382474
 50
61.973551
 51
73.183313
  6
CONTINUOUS
  0
ARC
  8
WHITE
 10
12.176018
 20
0.534995
 30
0.000000
 40
0.054419
 50
12.759246
 51
62.411930
  6
CONTINUOUS
  0
ARC
  8
WHITE
 10
12.191839
 20
0.539094
 30
0.000000
 40
0.038087
 50
-43.624974
 51
12.001582
  6
CONTINUOUS
  0
ARC
  8
WHITE
 10
12.441613
 20
0.376290
 30
0.000000
 40
0.260796
 50
148.432574
 51
166.732865
  6
CONTINUOUS
  0
ARC
  8
WHITE
 10
12.324144
 20
0.402919
 30
0.000000
 40
0.140354
 50
166.308373
 51
185.863224
  6
CONTINUOUS
  0
ARC
  8
WHITE
 10
12.198849
 20
0.384682
 30
0.000000
 40
0.014847
 50
164.774264
 51
299.959286
  6
CONTINUOUS
  0
ARC
  8
WHITE
 10
12.095959
 20
0.538158
 30
0.000000
 40
0.199589
 50
-56.450477
 51
-26.239530
  6
CONTINUOUS
  0
ARC
  8
WHITE
 10
12.951525
 20
0.089562
 30
0.000000
 40
0.766528
 50
148.621822
 51
151.958555
  6
CONTINUOUS
  0
ARC
  8
WHITE
 10
12.416165
 20
0.414558
 30
0.000000
 40
0.140250
 50
129.519491
 51
148.095391
  6
CONTINUOUS
  0
ARC
  8
WHITE
 10
12.385223
 20
0.448843
 30
0.000000
 40
0.094137
 50
97.959772
 51
128.270476
  6
CONTINUOUS
  0
ARC
  8
WHITE
 10
12.405573
 20
0.321730
 30
0.000000
 40
0.222857
 50
85.713874
 51
98.615797
  6
CONTINUOUS
  0
ARC
  8
WHITE
 10
13.645340
 20
8.302682
 30
0.000000
 40
7.854534
 50
-98.958580
 51
-96.809896
  6
CONTINUOUS
  0
ARC
  8
WHITE
 10
12.856471
 20
3.070769
 30
0.000000
 40
2.571159
 50
-93.176790
 51
-87.245211
  6
CONTINUOUS
  0
ARC
  8
WHITE
 10
13.002338
 20
-0.383433
 30
0.000000
 40
0.886295
 50
84.486043
 51
91.441311
  6
CONTINUOUS
  0
ARC
  8
WHITE
 10
13.066059
 20
0.308473
 30
0.000000
 40
0.191492
 50
71.982641
 51
83.571070
  6
CONTINUOUS
  0
ARC
  8
WHITE
 10
13.108397
 20
0.436683
 30
0.000000
 40
0.056476
 50
44.306682
 51
72.597301
  6
CONTINUOUS
  0
ARC
  8
WHITE
 10
13.060948
 20
0.416978
 30
0.000000
 40
0.105921
 50
4.811842
 51
33.950028
  6
CONTINUOUS
  0
ARC
  8
WHITE
 10
11.847407
 20
0.292686
 30
0.000000
 40
1.325795
 50
2.257574
 51
5.765127
  6
CONTINUOUS
  0
ARC
  8
WHITE
 10
13.188070
 20
0.337328
 30
0.000000
 40
0.017614
 50
154.498073
 51
287.587015
  6
CONTINUOUS
  0
ARC
  8
WHITE
 10
13.119286
 20
0.410573
 30
0.000000
 40
0.116611
 50
-50.543039
 51
-13.631554
  6
CONTINUOUS
  0
ARC
  8
WHITE
 10
14.685095
 20
-0.027970
 30
0.000000
 40
1.509528
 50
162.117771
 51
164.198201
  6
CONTINUOUS
  0
ARC
  8
WHITE
 10
13.355606
 20
0.399881
 30
0.000000
 40
0.112896
 50
134.611686
 51
161.583131
  6
CONTINUOUS
  0
ARC
  8
WHITE
 10
13.347551
 20
0.397950
 30
0.000000
 40
0.108845
 50
101.863466
 51
130.876694
  6
CONTINUOUS
  0
ARC
  8
WHITE
 10
13.691088
 20
-1.101325
 30
0.000000
 40
1.646958
 50
100.923857
 51
102.836831
  6
CONTINUOUS
  0
ARC
  8
WHITE
 10
13.590136
 20
-0.244420
 30
0.000000
 40
0.788989
 50
96.603866
 51
105.523010
  6
CONTINUOUS
  0
ARC
  8
WHITE
 10
13.444670
 20
1.447336
 30
0.000000
 40
0.909649
 50
-86.550726
 51
-78.931466
  6
CONTINUOUS
  0
ARC
  8
WHITE
 10
12.809294
 20
5.034111
 30
0.000000
 40
4.552150
 50
-79.750160
 51
-75.901235
  6
CONTINUOUS
  0
ARC
  8
WHITE
 10
14.003920
 20
0.278762
 30
0.000000
 40
0.350959
 50
91.908355
 51
104.142133
  6
CONTINUOUS
  0
ARC
  8
WHITE
 10
13.994475
 20
0.582104
 30
0.000000
 40
0.047475
 50
39.138191
 51
92.707092
  6
CONTINUOUS
  0
ARC
  8
WHITE
 10
13.975456
 20
0.573335
 30
0.000000
 40
0.067961
 50
-2.307619
 51
34.747244
  6
CONTINUOUS
  0
ARC
  8
WHITE
 10
14.316821
 20
0.562343
 30
0.000000
 40
0.273584
 50
178.270798
 51
188.558789
  6
CONTINUOUS
  0
ARC
  8
WHITE
 10
14.126703
 20
0.532766
 30
0.000000
 40
0.081187
 50
-172.114121
 51
-140.254493
  6
CONTINUOUS
  0
ARC
  8
WHITE
 10
14.072153
 20
0.493442
 30
0.000000
 40
0.014845
 50
-122.031788
 51
2.710240
  6
CONTINUOUS
  0
ARC
  8
WHITE
 10
13.895266
 20
0.557775
 30
0.000000
 40
0.201999
 50
-18.361227
 51
3.768149
  6
CONTINUOUS
  0
ARC
  8
WHITE
 10
14.199987
 20
0.580510
 30
0.000000
 40
0.103591
 50
146.539174
 51
185.239451
  6
CONTINUOUS
  0
ARC
  8
WHITE
 10
14.228061
 20
0.552593
 30
0.000000
 40
0.142619
 50
121.424828
 51
143.399590
  6
CONTINUOUS
  0
ARC
  8
WHITE
 10
14.342685
 20
0.370519
 30
0.000000
 40
0.357762
 50
113.197509
 51
121.886367
  6
CONTINUOUS
  0
ARC
  8
WHITE
 10
15.326747
 20
-2.035683
 30
0.000000
 40
2.957369
 50
108.641570
 51
112.358499
  6
CONTINUOUS
  0
ARC
  8
WHITE
 10
12.430808
 20
5.310154
 30
0.000000
 40
4.944636
 50
-66.765633
 51
-59.999043
  6
CONTINUOUS
  0
LINE
  8
WHITE
 10
14.903198
 20
1.028014
 30
0.000000
 11
14.956040
 21
0.911761
 31
0.000000
  6
CONTINUOUS
  0
ARC
  8
WHITE
 10
13.644240
 20
1.165333
 30
0.000000
 40
1.336083
 50
-10.940389
 51
-7.108942
  6
CONTINUOUS
  0
ARC
  8
WHITE
 10
15.086682
 20
1.000079
 30
0.000000
 40
0.116630
 50
141.670584
 51
180.046550
  6
CONTINUOUS
  0
ARC
  8
WHITE
 10
15.438262
 20
0.641097
 30
0.000000
 40
0.618340
 50
123.105839
 51
135.770393
  6
CONTINUOUS
  0
ARC
  8
WHITE
 10
14.584347
 20
2.061485
 30
0.000000
 40
1.039626
 50
-60.230586
 51
-37.609674
  6
CONTINUOUS
  0
LINE
  8
WHITE
 10
15.407925
 20
1.427023
 30
0.000000
 11
15.342597
 21
1.427023
 31
0.000000
  6
CONTINUOUS
  0
ARC
  8
WHITE
 10
12.614152
 20
5.129811
 30
0.000000
 40
4.599462
 50
-66.876520
 51
-53.614895
  6
CONTINUOUS
  0
ARC
  8
WHITE
 10
13.064634
 20
4.292089
 30
0.000000
 40
3.653128
 50
-96.507889
 51
-68.214574
  6
CONTINUOUS
  0
ARC
  8
WHITE
 10
12.854676
 20
3.196141
 30
0.000000
 40
2.541846
 50
-115.626726
 51
-94.605296
  6
CONTINUOUS
  0
ARC
  8
WHITE
 10
12.969151
 20
3.132000
 30
0.000000
 40
2.536908
 50
-137.136414
 51
-118.585658
  6
CONTINUOUS
  0
ARC
  8
WHITE
 10
12.433102
 20
2.610340
 30
0.000000
 40
1.789223
 50
-146.515771
 51
-137.703668
  6
CONTINUOUS
  0
ARC
  8
WHITE
 10
10.002617
 20
0.993523
 30
0.000000
 40
1.129928
 50
33.868073
 51
46.967704
  6
CONTINUOUS
  0
ARC
  8
WHITE
 10
8.609741
 20
-0.866631
 30
0.000000
 40
3.449318
 50
51.144676
 51
69.330907
  6
CONTINUOUS
  0
ARC
  8
WHITE
 10
8.255304
 20
-1.539758
 30
0.000000
 40
4.205276
 50
68.049670
 51
103.450838
  6
CONTINUOUS
  0
ARC
  8
WHITE
 10
8.150363
 20
-0.902565
 30
0.000000
 40
3.561451
 50
104.193399
 51
113.789600
  6
CONTINUOUS
  0
ARC
  8
WHITE
 10
7.857548
 20
-0.792296
 30
0.000000
 40
3.349896
 50
109.964839
 51
114.329576
  6
CONTINUOUS
  0
ARC
  8
WHITE
 10
6.537760
 20
2.112614
 30
0.000000
 40
0.159342
 50
112.243603
 51
158.956385
  6
CONTINUOUS
  0
ARC
  8
WHITE
 10
6.426903
 20
2.170183
 30
0.000000
 40
0.037860
 50
-179.466383
 51
-112.749252
  6
CONTINUOUS
  0
ARC
  8
WHITE
 10
8.270818
 20
-1.489362
 30
0.000000
 40
4.073349
 50
57.887368
 51
117.146813
  6
CONTINUOUS
  0
LINE
  8
WHITE
 10
10.436150
 20
1.960783
 30
0.000000
 11
10.219934
 21
1.713679
 31
0.000000
  6
CONTINUOUS
  0
ARC
  8
WHITE
 10
4.226805
 20
4.839130
 30
0.000000
 40
0.273601
 50
43.687673
 51
59.819754
  6
CONTINUOUS
  0
ARC
  8
WHITE
 10
4.392295
 20
5.031516
 30
0.000000
 40
0.052232
 50
122.344769
 51
194.330088
  6
CONTINUOUS
  0
ARC
  8
WHITE
 10
4.496105
 20
5.040191
 30
0.000000
 40
0.155920
 50
-172.036067
 51
-125.314031
  6
CONTINUOUS
  0
ARC
  8
WHITE
 10
4.537507
 20
5.093806
 30
0.000000
 40
0.223620
 50
-126.029239
 51
-95.488014
  6
CONTINUOUS
  0
ARC
  8
WHITE
 10
4.579700
 20
5.280780
 30
0.000000
 40
0.414475
 50
-98.823880
 51
-91.099956
  6
CONTINUOUS
  0
ARC
  8
WHITE
 10
4.569162
 20
4.777816
 30
0.000000
 40
0.088603
 50
18.327238
 51
88.330447
  6
CONTINUOUS
  0
ARC
  8
WHITE
 10
3.570870
 20
5.143959
 30
0.000000
 40
1.134032
 50
-37.860509
 51
-17.355536
  6
CONTINUOUS
  0
ARC
  8
WHITE
 10
3.403457
 20
5.251564
 30
0.000000
 40
1.332367
 50
-43.641954
 51
-37.095320
  6
CONTINUOUS
  0
ARC
  8
WHITE
 10
4.154046
 20
4.514986
 30
0.000000
 40
0.281243
 50
-67.716605
 51
-40.580929
  6
CONTINUOUS
  0
ARC
  8
WHITE
 10
4.243750
 20
4.335740
 30
0.000000
 40
0.082746
 50
-118.541580
 51
-78.186802
  6
CONTINUOUS
  0
ARC
  8
WHITE
 10
4.287426
 20
4.477536
 30
0.000000
 40
0.230063
 50
-165.627208
 51
-111.204250
  6
CONTINUOUS
  0
ARC
  8
WHITE
 10
4.231919
 20
4.438526
 30
0.000000
 40
0.168331
 50
158.284489
 51
186.172220
  6
CONTINUOUS
  0
ARC
  8
WHITE
 10
4.058086
 20
4.517353
 30
0.000000
 40
0.024045
 50
-43.478021
 51
129.230937
  6
CONTINUOUS
  0
ARC
  8
WHITE
 10
4.148474
 20
4.396508
 30
0.000000
 40
0.174935
 50
127.129940
 51
209.334648
  6
CONTINUOUS
  0
ARC
  8
WHITE
 10
4.295830
 20
4.471437
 30
0.000000
 40
0.340174
 50
-151.822558
 51
-130.685804
  6
CONTINUOUS
  0
ARC
  8
WHITE
 10
2.799954
 20
2.878885
 30
0.000000
 40
1.845134
 50
42.431449
 51
46.328241
  6
CONTINUOUS
  0
LINE
  8
WHITE
 10
4.161820
 20
4.123811
 30
0.000000
 11
3.828634
 21
3.759388
 31
0.000000
  6
CONTINUOUS
  0
ARC
  8
WHITE
 10
4.198149
 20
4.468423
 30
0.000000
 40
0.799545
 50
-125.505663
 51
-117.526378
  6
CONTINUOUS
  0
ARC
  8
WHITE
 10
3.834585
 20
3.996457
 30
0.000000
 40
0.205351
 50
-173.678943
 51
-119.397031
  6
CONTINUOUS
  0
LINE
  8
WHITE
 10
3.630483
 20
3.973848
 30
0.000000
 11
3.636473
 21
4.046599
 31
0.000000
  6
CONTINUOUS
  0
ARC
  8
WHITE
 10
3.624021
 20
4.052758
 30
0.000000
 40
0.013892
 50
-26.317103
 51
106.672180
  6
CONTINUOUS
  0
ARC
  8
WHITE
 10
3.742586
 20
3.924630
 30
0.000000
 40
0.187144
 50
130.908027
 51
204.181979
  6
CONTINUOUS
  0
ARC
  8
WHITE
 10
3.800249
 20
3.958916
 30
0.000000
 40
0.253907
 50
-154.090015
 51
-127.052812
  6
CONTINUOUS
  0
ARC
  8
WHITE
 10
3.481967
 20
3.534584
 30
0.000000
 40
0.276530
 50
28.451333
 51
53.292583
  6
CONTINUOUS
  0
ARC
  8
WHITE
 10
-84.582817
 20
84.608734
 30
0.000000
 40
119.791324
 50
-42.641833
 51
-42.508150
  6
CONTINUOUS
  0
ARC
  8
WHITE
 10
3.058868
 20
3.904564
 30
0.000000
 40
0.651801
 50
-49.834124
 51
-42.943529
  6
CONTINUOUS
  0
ARC
  8
WHITE
 10
3.431249
 20
3.457697
 30
0.000000
 40
0.070224
 50
-80.576289
 51
-46.843156
  6
CONTINUOUS
  0
ARC
  8
WHITE
 10
3.477774
 20
3.561783
 30
0.000000
 40
0.176865
 50
-128.176663
 51
-101.422583
  6
CONTINUOUS
  0
ARC
  8
WHITE
 10
3.545887
 20
3.672966
 30
0.000000
 40
0.306743
 50
-141.917276
 51
-125.340689
  6
CONTINUOUS
  0
ARC
  8
WHITE
 10
3.437350
 20
3.591514
 30
0.000000
 40
0.171095
 50
-169.842809
 51
-140.968566
  6
CONTINUOUS
  0
ARC
  8
WHITE
 10
3.372751
 20
3.578298
 30
0.000000
 40
0.105190
 50
163.373572
 51
189.276458
  6
CONTINUOUS
  0
ARC
  8
WHITE
 10
3.996328
 20
3.347888
 30
0.000000
 40
0.769788
 50
155.500922
 51
160.219665
  6
CONTINUOUS
  0
ARC
  8
WHITE
 10
3.271342
 20
3.667903
 30
0.000000
 40
0.024516
 50
-1.870213
 51
149.804975
  6
CONTINUOUS
  0
ARC
  8
WHITE
 10
3.331917
 20
3.565726
 30
0.000000
 40
0.140703
 50
125.528976
 51
170.077503
  6
CONTINUOUS
  0
ARC
  8
WHITE
 10
3.396856
 20
3.544277
 30
0.000000
 40
0.208603
 50
167.346818
 51
197.741424
  6
CONTINUOUS
  0
ARC
  8
WHITE
 10
3.418896
 20
3.571465
 30
0.000000
 40
0.238652
 50
-157.649116
 51
-131.205820
  6
CONTINUOUS
  0
ARC
  8
WHITE
 10
2.971893
 20
3.077514
 30
0.000000
 40
0.427581
 50
32.488511
 51
47.332922
  6
CONTINUOUS
  0
ARC
  8
WHITE
 10
3.289233
 20
3.282297
 30
0.000000
 40
0.049961
 50
-31.538505
 51
29.871376
  6
CONTINUOUS
  0
ARC
  8
WHITE
 10
3.084789
 20
3.405090
 30
0.000000
 40
0.288445
 50
-42.700220
 51
-31.084870
  6
CONTINUOUS
  0
ARC
  8
WHITE
 10
5.926704
 20
0.849535
 30
0.000000
 40
3.533536
 50
138.097125
 51
139.530102
  6
CONTINUOUS
  0
ARC
  8
WHITE
 10
9.966471
 20
-2.460923
 30
0.000000
 40
8.756038
 50
140.207923
 51
141.203629
  6
CONTINUOUS
  0
ARC
  8
WHITE
 10
2.795991
 20
3.307843
 30
0.000000
 40
0.446933
 50
-44.955862
 51
-39.225990
  6
CONTINUOUS
  0
ARC
  8
WHITE
 10
3.032352
 20
3.071763
 30
0.000000
 40
0.112867
 50
-61.093033
 51
-44.926088
  6
CONTINUOUS
  0
ARC
  8
WHITE
 10
3.043547
 20
3.045773
 30
0.000000
 40
0.084749
 50
-90.091360
 51
-59.224663
  6
CONTINUOUS
  0
ARC
  8
WHITE
 10
3.064819
 20
3.092494
 30
0.000000
 40
0.133201
 50
-124.906215
 51
-99.248285
  6
CONTINUOUS
  0
ARC
  8
WHITE
 10
3.150257
 20
3.249747
 30
0.000000
 40
0.311691
 50
-146.643387
 51
-121.242195
  6
CONTINUOUS
  0
ARC
  8
WHITE
 10
3.054812
 20
3.170425
 30
0.000000
 40
0.188857
 50
-166.297036
 51
-150.826055
  6
CONTINUOUS
  0
ARC
  8
WHITE
 10
2.657178
 20
3.073067
 30
0.000000
 40
0.220523
 50
13.804813
 51
27.267363
  6
CONTINUOUS
  0
ARC
  8
WHITE
 10
2.836440
 20
3.169503
 30
0.000000
 40
0.017375
 50
15.335715
 51
117.621270
  6
CONTINUOUS
  0
ARC
  8
WHITE
 10
2.892270
 20
3.111474
 30
0.000000
 40
0.097326
 50
131.026323
 51
154.698096
  6
CONTINUOUS
  0
ARC
  8
WHITE
 10
2.918150
 20
3.092683
 30
0.000000
 40
0.128890
 50
152.062179
 51
209.720012
  6
CONTINUOUS
  0
ARC
  8
WHITE
 10
3.068050
 20
3.165338
 30
0.000000
 40
0.295305
 50
-152.456838
 51
-128.201053
  6
CONTINUOUS
  0
ARC
  8
WHITE
 10
3.820286
 20
4.149168
 30
0.000000
 40
1.533741
 50
-127.555451
 51
-125.046453
  6
CONTINUOUS
  0
ARC
  8
WHITE
 10
2.851367
 20
2.767828
 30
0.000000
 40
0.153537
 50
30.343658
 51
54.946109
  6
CONTINUOUS
  0
ARC
  8
WHITE
 10
2.900259
 20
2.831518
 30
0.000000
 40
0.084755
 50
-19.136969
 51
9.421723
  6
CONTINUOUS
  0
ARC
  8
WHITE
 10
1.335047
 20
3.308943
 30
0.000000
 40
1.721103
 50
-26.386951
 51
-17.069926
  6
CONTINUOUS
  0
ARC
  8
WHITE
 10
2.809804
 20
2.573147
 30
0.000000
 40
0.073080
 50
-96.599596
 51
-23.478850
  6
CONTINUOUS
  0
ARC
  8
WHITE
 10
2.816414
 20
2.845737
 30
0.000000
 40
0.345512
 50
-110.606222
 51
-92.489723
  6
CONTINUOUS
  0
ARC
  8
WHITE
 10
2.767527
 20
2.701430
 30
0.000000
 40
0.193298
 50
-160.905151
 51
-112.096927
  6
CONTINUOUS
  0
LINE
  8
WHITE
 10
2.584865
 20
2.638196
 30
0.000000
 11
2.570402
 21
2.680857
 31
0.000000
  6
CONTINUOUS
  0
LINE
  8
WHITE
 10
2.570402
 20
2.680857
 30
0.000000
 11
2.557131
 21
2.679150
 31
0.000000
  6
CONTINUOUS
  0
ARC
  8
WHITE
 10
2.692039
 20
2.589109
 30
0.000000
 40
0.162196
 50
146.279874
 51
194.533463
  6
CONTINUOUS
  0
ARC
  8
WHITE
 10
2.717659
 20
2.611508
 30
0.000000
 40
0.193220
 50
-160.938823
 51
-121.037219
  6
CONTINUOUS
  0
ARC
  8
WHITE
 10
2.741572
 20
2.638370
 30
0.000000
 40
0.228662
 50
-122.701118
 51
-106.111880
  6
CONTINUOUS
  0
ARC
  8
WHITE
 10
2.647829
 20
2.149871
 30
0.000000
 40
0.270519
 50
55.817888
 51
83.571948
  6
CONTINUOUS
  0
ARC
  8
WHITE
 10
2.737579
 20
2.302393
 30
0.000000
 40
0.094615
 50
9.712465
 51
48.870478
  6
CONTINUOUS
  0
ARC
  8
WHITE
 10
1.770814
 20
2.330495
 30
0.000000
 40
1.060094
 50
-7.576288
 51
-0.656154
  6
CONTINUOUS
  0
ARC
  8
WHITE
 10
0.260184
 20
2.220019
 30
0.000000
 40
2.561636
 50
-2.067663
 51
-0.655211
  6
CONTINUOUS
  0
ARC
  8
WHITE
 10
2.721119
 20
2.126842
 30
0.000000
 40
0.099037
 50
-35.741370
 51
0.436161
  6
CONTINUOUS
  0
ARC
  8
WHITE
 10
2.665966
 20
2.211978
 30
0.000000
 40
0.197017
 50
-118.821900
 51
-46.531931
  6
CONTINUOUS
  0
ARC
  8
WHITE
 10
2.708734
 20
2.244201
 30
0.000000
 40
0.246843
 50
-137.900076
 51
-123.920264
  6
CONTINUOUS
  0
ARC
  8
WHITE
 10
2.484607
 20
2.043874
 30
0.000000
 40
0.053784
 50
40.371210
 51
103.613024
  6
CONTINUOUS
  0
ARC
  8
WHITE
 10
2.516052
 20
2.060414
 30
0.000000
 40
0.056762
 50
140.985926
 51
200.057089
  6
CONTINUOUS
  0
ARC
  8
WHITE
 10
2.600317
 20
2.061942
 30
0.000000
 40
0.139177
 50
-171.323814
 51
-122.902679
  6
CONTINUOUS
  0
ARC
  8
WHITE
 10
2.670181
 20
2.209591
 30
0.000000
 40
0.301864
 50
-118.809334
 51
-96.843217
  6
CONTINUOUS
  0
ARC
  8
WHITE
 10
2.696184
 20
2.571083
 30
0.000000
 40
0.664104
 50
-95.354363
 51
-85.522932
  6
CONTINUOUS
  0
ARC
  8
WHITE
 10
2.741214
 20
1.578054
 30
0.000000
 40
0.331022
 50
79.111456
 51
88.821195
  6
CONTINUOUS
  0
ARC
  8
WHITE
 10
2.790252
 20
1.858882
 30
0.000000
 40
0.046247
 50
3.981358
 51
73.038094
  6
CONTINUOUS
  0
ARC
  8
WHITE
 10
4.298497
 20
2.105080
 30
0.000000
 40
1.482164
 50
-170.564295
 51
-162.022905
  6
CONTINUOUS
  0
ARC
  8
WHITE
 10
3.613500
 20
1.888477
 30
0.000000
 40
0.763776
 50
-161.618802
 51
-153.592628
  6
CONTINUOUS
  0
ARC
  8
WHITE
 10
3.028822
 20
1.601811
 30
0.000000
 40
0.112659
 50
-151.923199
 51
-125.241811
  6
CONTINUOUS
  0
ARC
  8
WHITE
 10
2.978221
 20
1.546573
 30
0.000000
 40
0.039495
 50
-111.393591
 51
-35.586852
  6
CONTINUOUS
  0
ARC
  8
WHITE
 10
2.925786
 20
1.584051
 30
0.000000
 40
0.103947
 50
-35.567319
 51
21.604375
  6
CONTINUOUS
  0
LINE
  8
WHITE
 10
3.022431
 20
1.622324
 30
0.000000
 11
2.966320
 21
1.818525
 31
0.000000
  6
CONTINUOUS
  0
ARC
  8
WHITE
 10
4.301615
 20
2.126146
 30
0.000000
 40
1.370271
 50
159.888907
 51
192.973279
  6
CONTINUOUS
  0
ARC
  8
WHITE
 10
3.982564
 20
2.255520
 30
0.000000
 40
1.026257
 50
141.218590
 51
160.546753
  6
CONTINUOUS
  0
ARC
  8
WHITE
 10
18.829936
 20
-10.945775
 30
0.000000
 40
20.892569
 50
136.719230
 51
138.499059
  6
CONTINUOUS
  0
ARC
  8
WHITE
 10
112.508472
 20
-97.782669
 30
0.000000
 40
148.627340
 50
136.669213
 51
137.107070
  6
CONTINUOUS
  0
ARC
  8
WHITE
 10
2.370988
 20
6.003833
 30
0.000000
 40
2.707646
 50
-41.581889
 51
-32.568531
  6
CONTINUOUS
  0
ARC
  8
WHITE
 10
2.882251
 20
5.689515
 30
0.000000
 40
2.107606
 50
-32.849248
 51
-27.784524
  6
CONTINUOUS
  0
ARC
  8
WHITE
 10
3.796229
 20
5.109782
 30
0.000000
 40
1.032421
 50
-22.959222
 51
-3.568184
  6
CONTINUOUS
  0
ARC
  8
WHITE
 10
3.542193
 20
5.140370
 30
0.000000
 40
1.287952
 50
-4.222962
 51
22.982540
  6
CONTINUOUS
  0
ARC
  8
WHITE
 10
3.584562
 20
5.153582
 30
0.000000
 40
1.243795
 50
23.184293
 51
44.309277
  6
CONTINUOUS
  0
ARC
  8
WHITE
 10
3.659591
 20
5.217741
 30
0.000000
 40
1.145308
 50
44.634412
 51
61.841347
  6
CONTINUOUS
  0
ARC
  8
WHITE
 10
8.657600
 20
15.037407
 30
0.000000
 40
9.873401
 50
-117.586257
 51
-116.837888
  6
CONTINUOUS
  0
ARC
  8
WHITE
 10
4.164487
 20
6.401641
 30
0.000000
 40
0.139718
 50
-170.751375
 51
-124.479247
  6
CONTINUOUS
  0
ARC
  8
WHITE
 10
2.833268
 20
6.124304
 30
0.000000
 40
1.220233
 50
12.056690
 51
16.691853
  6
CONTINUOUS
  0
ARC
  8
WHITE
 10
3.785883
 20
6.394490
 30
0.000000
 40
0.230631
 50
20.374371
 51
63.296054
  6
CONTINUOUS
  0
ARC
  8
WHITE
 10
3.781316
 20
6.385766
 30
0.000000
 40
0.240477
 50
63.258054
 51
78.698804
  6
CONTINUOUS
  0
ARC
  8
WHITE
 10
3.857080
 20
6.736041
 30
0.000000
 40
0.117990
 50
-131.519993
 51
-104.047227
  6
CONTINUOUS
  0
ARC
  8
WHITE
 10
3.819572
 20
6.666341
 30
0.000000
 40
0.044771
 50
141.597373
 51
204.606488
  6
CONTINUOUS
  0
ARC
  8
WHITE
 10
2.567268
 20
7.641328
 30
0.000000
 40
1.542325
 50
-37.888193
 51
-31.441916
  6
CONTINUOUS
  0
ARC
  8
WHITE
 10
3.502266
 20
7.032989
 30
0.000000
 40
0.428426
 50
-27.253661
 51
-15.641456
  6
CONTINUOUS
  0
ARC
  8
WHITE
 10
3.677466
 20
6.979090
 30
0.000000
 40
0.245227
 50
-14.551170
 51
-4.407826
  6
CONTINUOUS
  0
LINE
  8
WHITE
 10
3.921968
 20
6.960243
 30
0.000000
 11
3.923827
 21
6.981676
 31
0.000000
  6
CONTINUOUS
  0
ARC
  8
WHITE
 10
3.905817
 20
6.978064
 30
0.000000
 40
0.018369
 50
11.341529
 51
79.045344
  6
CONTINUOUS
  0
ARC
  8
WHITE
 10
4.102811
 20
6.760997
 30
0.000000
 40
0.304493
 50
129.456609
 51
148.225920
  6
CONTINUOUS
  0
ARC
  8
WHITE
 10
2.900944
 20
7.547080
 30
0.000000
 40
1.131733
 50
-43.048202
 51
-33.566802
  6
CONTINUOUS
  0
ARC
  8
WHITE
 10
3.822036
 20
6.672275
 30
0.000000
 40
0.138936
 50
132.601032
 51
200.252101
  6
CONTINUOUS
  0
ARC
  8
WHITE
 10
3.799255
 20
6.672425
 30
0.000000
 40
0.117889
 50
-155.843929
 51
-120.985845
  6
CONTINUOUS
  0
LINE
  8
WHITE
 10
3.738563
 20
6.571360
 30
0.000000
 11
3.861022
 21
6.516050
 31
0.000000
  6
CONTINUOUS
  0
ARC
  8
WHITE
 10
3.806157
 20
6.397140
 30
0.000000
 40
0.130957
 50
39.482942
 51
65.231386
  6
CONTINUOUS
  0
ARC
  8
WHITE
 10
3.866542
 20
6.434726
 30
0.000000
 40
0.061176
 50
-55.768158
 51
48.308769
  6
CONTINUOUS
  0
ARC
  8
WHITE
 10
3.766346
 20
6.623573
 30
0.000000
 40
0.274672
 50
-80.760325
 51
-60.654352
  6
CONTINUOUS
  0
ARC
  8
WHITE
 10
3.837788
 20
6.069847
 30
0.000000
 40
0.283937
 50
95.525383
 51
163.618845
  6
CONTINUOUS
  0
ARC
  8
WHITE
 10
3.897598
 20
6.053537
 30
0.000000
 40
0.345921
 50
163.820925
 51
219.778564
  6
CONTINUOUS
  0
ARC
  8
WHITE
 10
2.707888
 20
5.828533
 30
0.000000
 40
0.923869
 50
0.227975
 51
7.532746
  6
CONTINUOUS
  0
ARC
  8
WHITE
 10
4.046238
 20
5.999792
 30
0.000000
 40
0.425420
 50
167.318132
 51
186.769488
  6
CONTINUOUS
  0
ARC
  8
WHITE
 10
3.827016
 20
6.041859
 30
0.000000
 40
0.202435
 50
97.951044
 51
165.311951
  6
CONTINUOUS
  0
ARC
  8
WHITE
 10
3.797941
 20
6.045863
 30
0.000000
 40
0.196488
 50
16.299571
 51
89.687180
  6
CONTINUOUS
  0
ARC
  8
WHITE
 10
3.844817
 20
6.051876
 30
0.000000
 40
0.149990
 50
-31.517072
 51
19.121714
  6
CONTINUOUS
  0
ARC
  8
WHITE
 10
4.092964
 20
5.905443
 30
0.000000
 40
0.138185
 50
150.509916
 51
171.451135
  6
CONTINUOUS
  0
ARC
  8
WHITE
 10
4.061835
 20
5.924050
 30
0.000000
 40
0.105539
 50
178.949628
 51
214.700337
  6
CONTINUOUS
  0
ARC
  8
WHITE
 10
3.688288
 20
6.372274
 30
0.000000
 40
0.583624
 50
-60.568940
 51
-45.432495
  6
CONTINUOUS
  0
ARC
  8
WHITE
 10
5.582983
 20
4.518016
 30
0.000000
 40
2.067566
 50
133.911471
 51
135.914489
  6
CONTINUOUS
  0
ARC
  8
WHITE
 10
4.211394
 20
5.955921
 30
0.000000
 40
0.080940
 50
90.796844
 51
140.398039
  6
CONTINUOUS
  0
ARC
  8
WHITE
 10
4.198153
 20
5.895488
 30
0.000000
 40
0.141883
 50
57.754177
 51
85.101558
  6
CONTINUOUS
  0
ARC
  8
WHITE
 10
4.084386
 20
5.661444
 30
0.000000
 40
0.401554
 50
43.091467
 51
61.846226
  6
CONTINUOUS
  0
ARC
  8
WHITE
 10
3.558292
 20
5.111959
 30
0.000000
 40
1.161884
 50
33.004462
 51
45.156154
  6
CONTINUOUS
  0
ARC
  8
WHITE
 10
4.303316
 20
5.580167
 30
0.000000
 40
0.282359
 50
13.844423
 51
35.676929
  6
CONTINUOUS
  0
ARC
  8
WHITE
 10
4.483696
 20
5.654225
 30
0.000000
 40
0.094000
 50
-65.322237
 51
-3.961158
  6
CONTINUOUS
  0
ARC
  8
WHITE
 10
4.397380
 20
5.768672
 30
0.000000
 40
0.236032
 50
-103.881252
 51
-57.861128
  6
CONTINUOUS
  0
ARC
  8
WHITE
 10
4.330088
 20
5.458629
 30
0.000000
 40
0.081604
 50
82.490127
 51
111.560332
  6
CONTINUOUS
  0
ARC
  8
WHITE
 10
4.318158
 20
5.519648
 30
0.000000
 40
0.023396
 50
140.519543
 51
239.078577
  6
CONTINUOUS
  0
ARC
  8
WHITE
 10
4.411868
 20
5.565168
 30
0.000000
 40
0.124424
 50
-148.186838
 51
-76.396687
  6
CONTINUOUS
  0
ARC
  8
WHITE
 10
4.326586
 20
5.940296
 30
0.000000
 40
0.509115
 50
-76.997645
 51
-61.673854
  6
CONTINUOUS
  0
ARC
  8
WHITE
 10
4.614736
 20
5.430794
 30
0.000000
 40
0.077028
 50
83.133716
 51
127.208505
  6
CONTINUOUS
  0
ARC
  8
WHITE
 10
4.594071
 20
5.445528
 30
0.000000
 40
0.068588
 50
17.689962
 51
64.179468
  6
CONTINUOUS
  0
ARC
  8
WHITE
 10
4.380953
 20
5.332839
 30
0.000000
 40
0.308824
 50
6.187272
 51
25.618986
  6
CONTINUOUS
  0
ARC
  8
WHITE
 10
3.267139
 20
5.138671
 30
0.000000
 40
1.438930
 50
1.797783
 51
9.094929
  6
CONTINUOUS
  0
ARC
  8
WHITE
 10
4.032777
 20
5.118626
 30
0.000000
 40
0.675735
 50
-6.099015
 51
5.535854
  6
CONTINUOUS
  0
ARC
  8
WHITE
 10
4.610715
 20
5.065033
 30
0.000000
 40
0.095719
 50
-72.701488
 51
-10.962064
  6
CONTINUOUS
  0
ARC
  8
WHITE
 10
4.579054
 20
5.210344
 30
0.000000
 40
0.244217
 50
-111.999675
 51
-75.748001
  6
CONTINUOUS
  0
ARC
  8
WHITE
 10
4.575513
 20
5.175968
 30
0.000000
 40
0.211236
 50
-135.577002
 51
-114.602888
  6
CONTINUOUS
  0
ARC
  8
WHITE
 10
17.685281
 20
1.483548
 30
0.000000
 40
0.029997
 50
-159.267234
 51
-88.296242
  6
CONTINUOUS
  0
ARC
  8
WHITE
 10
17.516080
 20
0.242953
 30
0.000000
 40
1.222502
 50
73.691317
 51
82.002202
  6
CONTINUOUS
  0
ARC
  8
WHITE
 10
17.803074
 20
1.189100
 30
0.000000
 40
0.234038
 50
22.540237
 51
76.080549
  6
CONTINUOUS
  0
ARC
  8
WHITE
 10
17.937890
 20
1.248302
 30
0.000000
 40
0.086878
 50
-18.820308
 51
20.561172
  6
CONTINUOUS
  0
ARC
  8
WHITE
 10
17.855158
 20
1.277877
 30
0.000000
 40
0.174734
 50
-40.679789
 51
-19.248006
  6
CONTINUOUS
  0
ARC
  8
WHITE
 10
17.671149
 20
1.439820
 30
0.000000
 40
0.419848
 50
-60.451383
 51
-41.071323
  6
CONTINUOUS
  0
ARC
  8
WHITE
 10
17.552790
 20
1.615381
 30
0.000000
 40
0.631159
 50
-112.032689
 51
-58.963812
  6
CONTINUOUS
  0
ARC
  8
WHITE
 10
17.536225
 20
1.690253
 30
0.000000
 40
0.695707
 50
-134.863863
 51
-108.452607
  6
CONTINUOUS
  0
ARC
  8
WHITE
 10
17.346539
 20
1.497115
 30
0.000000
 40
0.425007
 50
-149.485001
 51
-135.106219
  6
CONTINUOUS
  0
ARC
  8
WHITE
 10
17.028330
 20
1.311954
 30
0.000000
 40
0.056891
 50
163.424187
 51
212.589628
  6
CONTINUOUS
  0
ARC
  8
WHITE
 10
17.038994
 20
1.286288
 30
0.000000
 40
0.077493
 50
123.805452
 51
147.272413
  6
CONTINUOUS
  0
ARC
  8
WHITE
 10
17.354093
 20
0.845608
 30
0.000000
 40
0.619205
 50
120.753398
 51
125.345588
  6
CONTINUOUS
  0
ARC
  8
WHITE
 10
16.361191
 20
2.545512
 30
0.000000
 40
1.349461
 50
-59.924234
 51
-53.946744
  6
CONTINUOUS
  0
ARC
  8
WHITE
 10
16.871584
 20
1.871510
 30
0.000000
 40
0.504418
 50
-55.760192
 51
-12.599991
  6
CONTINUOUS
  0
ARC
  8
WHITE
 10
16.777600
 20
1.880825
 30
0.000000
 40
0.598279
 50
-11.507092
 51
16.722139
  6
CONTINUOUS
  0
ARC
  8
WHITE
 10
15.577134
 20
1.420206
 30
0.000000
 40
1.882949
 50
19.636317
 51
22.500357
  6
CONTINUOUS
  0
ARC
  8
WHITE
 10
17.947199
 20
2.404111
 30
0.000000
 40
0.683234
 50
-165.679500
 51
-157.331161
  6
CONTINUOUS
  0
ARC
  8
WHITE
 10
17.348494
 20
2.255031
 30
0.000000
 40
0.066357
 50
157.078757
 51
197.464534
  6
CONTINUOUS
  0
ARC
  8
WHITE
 10
17.372490
 20
2.213959
 30
0.000000
 40
0.108268
 50
115.276124
 51
141.825775
  6
CONTINUOUS
  0
ARC
  8
WHITE
 10
17.408934
 20
2.135272
 30
0.000000
 40
0.194985
 50
100.012348
 51
115.087183
  6
CONTINUOUS
  0
ARC
  8
WHITE
 10
17.447828
 20
1.889342
 30
0.000000
 40
0.443953
 50
88.046129
 51
99.437276
  6
CONTINUOUS
  0
ARC
  8
WHITE
 10
17.478566
 20
1.558245
 30
0.000000
 40
0.774949
 50
61.480487
 51
91.153572
  6
CONTINUOUS
  0
ARC
  8
WHITE
 10
17.534334
 20
1.666389
 30
0.000000
 40
0.653305
 50
42.544517
 51
61.249532
  6
CONTINUOUS
  0
ARC
  8
WHITE
 10
24.552440
 20
7.617929
 30
0.000000
 40
8.549118
 50
-139.872739
 51
-138.616805
  6
CONTINUOUS
  0
LINE
  8
WHITE
 10
18.137995
 20
1.966178
 30
0.000000
 11
18.232538
 21
1.870291
 31
0.000000
  6
CONTINUOUS
  0
ARC
  8
WHITE
 10
17.957153
 20
1.589335
 30
0.000000
 40
0.393412
 50
27.394790
 51
45.573720
  6
CONTINUOUS
  0
ARC
  8
WHITE
 10
18.240992
 20
1.739656
 30
0.000000
 40
0.072296
 50
-14.577105
 51
25.124534
  6
CONTINUOUS
  0
ARC
  8
WHITE
 10
18.126059
 20
1.793754
 30
0.000000
 40
0.198531
 50
-29.534859
 51
-21.354740
  6
CONTINUOUS
  0
ARC
  8
WHITE
 10
17.525848
 20
2.126184
 30
0.000000
 40
0.884645
 50
-35.032739
 51
-29.104601
  6
CONTINUOUS
  0
ARC
  8
WHITE
 10
17.966354
 20
1.801424
 30
0.000000
 40
0.337774
 50
-48.317348
 51
-32.818320
  6
CONTINUOUS
  0
ARC
  8
WHITE
 10
18.156491
 20
1.612525
 30
0.000000
 40
0.072140
 50
-109.576806
 51
-61.443945
  6
CONTINUOUS
  0
ARC
  8
WHITE
 10
18.005218
 20
1.132810
 30
0.000000
 40
0.430916
 50
72.845140
 51
83.662340
  6
CONTINUOUS
  0
ARC
  8
WHITE
 10
17.971407
 20
0.860596
 30
0.000000
 40
0.705208
 50
83.373481
 51
109.815151
  6
CONTINUOUS
  0
ARC
  8
WHITE
 10
17.772710
 20
1.383980
 30
0.000000
 40
0.145768
 50
106.073629
 51
142.395471
  6
CONTINUOUS
  0
ARC
  8
WHITE
 10
8.307071
 20
4.820447
 30
0.000000
 40
0.980048
 50
127.986694
 51
138.085621
  6
CONTINUOUS
  0
ARC
  8
WHITE
 10
7.588704
 20
5.465326
 30
0.000000
 40
0.014688
 50
138.084639
 51
290.004759
  6
CONTINUOUS
  0
ARC
  8
WHITE
 10
10.645446
 20
-1.005682
 30
0.000000
 40
7.142024
 50
109.905288
 51
115.295719
  6
CONTINUOUS
  0
ARC
  8
WHITE
 10
11.611836
 20
-3.332146
 30
0.000000
 40
9.659224
 50
95.146586
 51
110.596777
  6
CONTINUOUS
  0
ARC
  8
WHITE
 10
11.617649
 20
-5.626225
 30
0.000000
 40
11.946250
 50
93.690315
 51
94.187321
  6
CONTINUOUS
  0
ARC
  8
WHITE
 10
10.839360
 20
6.428819
 30
0.000000
 40
0.133893
 50
-85.980628
 51
-45.904237
  6
CONTINUOUS
  0
ARC
  8
WHITE
 10
12.617131
 20
11.759735
 30
0.000000
 40
5.682519
 50
-109.370668
 51
-107.244689
  6
CONTINUOUS
  0
ARC
  8
WHITE
 10
10.981018
 20
7.130656
 30
0.000000
 40
0.772860
 50
-124.058435
 51
-108.767779
  6
CONTINUOUS
  0
ARC
  8
WHITE
 10
10.757676
 20
6.760968
 30
0.000000
 40
0.342214
 50
-153.563270
 51
-127.745698
  6
CONTINUOUS
  0
ARC
  8
WHITE
 10
10.251631
 20
6.509153
 30
0.000000
 40
0.223022
 50
26.484489
 51
40.294605
  6
CONTINUOUS
  0
ARC
  8
WHITE
 10
10.374515
 20
6.594276
 30
0.000000
 40
0.075656
 50
51.379207
 51
83.659745
  6
CONTINUOUS
  0
ARC
  8
WHITE
 10
10.350714
 20
6.419502
 30
0.000000
 40
0.252027
 50
82.669705
 51
94.675337
  6
CONTINUOUS
  0
ARC
  8
WHITE
 10
10.418036
 20
5.692865
 30
0.000000
 40
0.981765
 50
95.134645
 51
100.778797
  6
CONTINUOUS
  0
ARC
  8
WHITE
 10
10.695069
 20
3.438882
 30
0.000000
 40
3.251224
 50
98.145199
 51
104.705370
  6
CONTINUOUS
  0
ARC
  8
WHITE
 10
10.615880
 20
2.637403
 30
0.000000
 40
4.016124
 50
100.706818
 51
108.391111
  6
CONTINUOUS
  0
ARC
  8
WHITE
 10
10.899686
 20
1.457414
 30
0.000000
 40
5.226400
 50
107.262114
 51
127.696232
  6
CONTINUOUS
  0
ARC
  8
WHITE
 10
13.968201
 20
1.193763
 30
0.000000
 40
0.018714
 50
23.447886
 51
124.701581
  6
CONTINUOUS
  0
ARC
  8
WHITE
 10
14.204920
 20
-0.270832
 30
0.000000
 40
1.500512
 50
99.489047
 51
103.046385
  6
CONTINUOUS
  0
ARC
  8
WHITE
 10
13.463705
 20
2.858052
 30
0.000000
 40
1.715002
 50
-86.526531
 51
-76.426793
  6
CONTINUOUS
  0
ARC
  8
WHITE
 10
13.492212
 20
2.987714
 30
0.000000
 40
1.843057
 50
-106.653237
 51
-87.655398
  6
CONTINUOUS
  0
ARC
  8
WHITE
 10
13.009927
 20
1.408719
 30
0.000000
 40
0.192316
 50
-137.201820
 51
-103.806856
  6
CONTINUOUS
  0
ARC
  8
WHITE
 10
12.946149
 20
1.342475
 30
0.000000
 40
0.100649
 50
-168.642099
 51
-140.205902
  6
CONTINUOUS
  0
ARC
  8
WHITE
 10
12.913730
 20
1.336143
 30
0.000000
 40
0.067618
 50
149.389312
 51
191.507463
  6
CONTINUOUS
  0
ARC
  8
WHITE
 10
12.929180
 20
1.327686
 30
0.000000
 40
0.085224
 50
92.521805
 51
149.785080
  6
CONTINUOUS
  0
ARC
  8
WHITE
 10
12.937171
 20
1.065934
 30
0.000000
 40
0.347091
 50
74.396377
 51
91.938469
  6
CONTINUOUS
  0
ARC
  8
WHITE
 10
13.449281
 20
2.706266
 30
0.000000
 40
1.371522
 50
-107.777246
 51
-97.252922
  6
CONTINUOUS
  0
ARC
  8
WHITE
 10
13.462508
 20
3.584694
 30
0.000000
 40
2.246720
 50
-94.758552
 51
-70.786953
  6
CONTINUOUS
  0
ARC
  8
WHITE
 10
13.357552
 20
3.530772
 30
0.000000
 40
2.233400
 50
-67.787782
 51
-36.856087
  6
CONTINUOUS
  0
ARC
  8
WHITE
 10
15.280847
 20
1.950202
 30
0.000000
 40
0.276816
 50
103.662379
 51
119.486218
  6
CONTINUOUS
  0
ARC
  8
WHITE
 10
10.887408
 20
16.997265
 30
0.000000
 40
15.398821
 50
-73.676280
 51
-72.809720
  6
CONTINUOUS
  0
LINE
  8
WHITE
 10
15.438468
 20
2.286332
 30
0.000000
 11
15.452799
 21
2.229006
 31
0.000000
  6
CONTINUOUS
  0
ARC
  8
WHITE
 10
11.340498
 20
4.120120
 30
0.000000
 40
4.526293
 50
-27.767642
 51
-24.696169
  6
CONTINUOUS
  0
ARC
  8
WHITE
 10
13.270437
 20
3.191469
 30
0.000000
 40
2.387208
 50
-55.299960
 51
-29.626186
  6
CONTINUOUS
  0
ARC
  8
WHITE
 10
13.420936
 20
3.210380
 30
0.000000
 40
2.320980
 50
-77.522320
 51
-58.622029
  6
CONTINUOUS
  0
ARC
  8
WHITE
 10
12.974761
 20
4.336104
 30
0.000000
 40
3.521774
 50
-77.888868
 51
-74.390386
  6
CONTINUOUS
  0
ARC
  8
WHITE
 10
13.581919
 20
1.425675
 30
0.000000
 40
0.549001
 50
-100.242809
 51
-76.115585
  6
CONTINUOUS
  0
ARC
  8
WHITE
 10
13.681231
 20
0.711902
 30
0.000000
 40
0.262475
 50
110.065008
 51
138.616452
  6
CONTINUOUS
  0
ARC
  8
WHITE
 10
13.327890
 20
1.733972
 30
0.000000
 40
0.819000
 50
-71.247762
 51
-62.083465
  6
CONTINUOUS
  0
ARC
  8
WHITE
 10
12.870640
 20
2.574714
 30
0.000000
 40
1.776013
 50
-61.747388
 51
-53.296304
  6
CONTINUOUS
  0
ARC
  8
WHITE
 10
13.890425
 20
1.248207
 30
0.000000
 40
0.105940
 50
-66.821686
 51
-26.335325
  6
CONTINUOUS
  0
ARC
  8
WHITE
 10
19.413676
 20
1.314041
 30
0.000000
 40
1.086861
 50
98.109053
 51
121.899709
  6
CONTINUOUS
  0
ARC
  8
WHITE
 10
20.113599
 20
0.319635
 30
0.000000
 40
2.301976
 50
123.610858
 51
129.464996
  6
CONTINUOUS
  0
ARC
  8
WHITE
 10
17.884079
 20
3.005243
 30
0.000000
 40
1.188531
 50
-59.703089
 51
-49.849090
  6
CONTINUOUS
  0
ARC
  8
WHITE
 10
19.015174
 20
2.337636
 30
0.000000
 40
0.641162
 50
160.845632
 51
214.007053
  6
CONTINUOUS
  0
ARC
  8
WHITE
 10
19.014556
 20
2.350169
 30
0.000000
 40
0.636572
 50
83.544320
 51
161.893042
  6
CONTINUOUS
  0
ARC
  8
WHITE
 10
18.978691
 20
2.351240
 30
0.000000
 40
0.640540
 50
29.492389
 51
80.344133
  6
CONTINUOUS
  0
ARC
  8
WHITE
 10
19.060825
 20
2.368406
 30
0.000000
 40
0.561176
 50
5.982875
 51
32.096165
  6
CONTINUOUS
  0
ARC
  8
WHITE
 10
11.195838
 20
82.598656
 30
0.000000
 40
80.613023
 50
-84.258525
 51
-84.002321
  6
CONTINUOUS
  0
ARC
  8
WHITE
 10
6.544367
 20
6.907906
 30
0.000000
 40
1.259407
 50
-133.141150
 51
-125.161974
  6
CONTINUOUS
  0
ARC
  8
WHITE
 10
6.451596
 20
6.759419
 30
0.000000
 40
1.084632
 50
-125.672764
 51
-120.782605
  6
CONTINUOUS
  0
ARC
  8
WHITE
 10
6.052856
 20
6.081505
 30
0.000000
 40
0.298190
 50
-121.624344
 51
-108.764772
  6
CONTINUOUS
  0
ARC
  8
WHITE
 10
5.960789
 20
5.942512
 30
0.000000
 40
0.143400
 50
-91.540918
 51
-74.157562
  6
CONTINUOUS
  0
ARC
  8
WHITE
 10
-22.711584
 20
101.446309
 30
0.000000
 40
99.858377
 50
-73.290317
 51
-72.849117
  6
CONTINUOUS
  0
ARC
  8
WHITE
 10
9.255914
 20
-3.056250
 30
0.000000
 40
9.427862
 50
98.834828
 51
105.505499
  6
CONTINUOUS
  0
ARC
  8
WHITE
 10
7.800937
 20
6.273677
 30
0.000000
 40
0.015578
 50
-63.361928
 51
50.268336
  6
CONTINUOUS
  0
ARC
  8
WHITE
 10
7.745169
 20
6.205283
 30
0.000000
 40
0.103826
 50
50.725698
 51
73.318247
  6
CONTINUOUS
  0
ARC
  8
WHITE
 10
7.536695
 20
5.530817
 30
0.000000
 40
0.809773
 50
72.887272
 51
80.380137
  6
CONTINUOUS
  0
ARC
  8
WHITE
 10
7.915592
 20
7.862761
 30
0.000000
 40
1.552781
 50
-106.910531
 51
-99.024916
  6
CONTINUOUS
  0
ARC
  8
WHITE
 10
7.532535
 20
6.549869
 30
0.000000
 40
0.185875
 50
-143.838329
 51
-111.662326
  6
CONTINUOUS
  0
ARC
  8
WHITE
 10
-6.501884
 20
-3.755613
 30
0.000000
 40
17.225842
 50
36.291243
 51
36.881273
  6
CONTINUOUS
  0
ARC
  8
WHITE
 10
8.530330
 20
0.427498
 30
0.000000
 40
6.281491
 50
101.511766
 51
113.215105
  6
CONTINUOUS
  0
ARC
  8
WHITE
 10
6.978320
 20
4.147259
 30
0.000000
 40
2.251489
 50
114.231169
 51
125.116009
  6
CONTINUOUS
  0
ARC
  8
WHITE
 10
4.940577
 20
1.612503
 30
0.000000
 40
0.343746
 50
-19.436381
 51
6.455678
  6
CONTINUOUS
  0
ARC
  8
WHITE
 10
5.205692
 20
1.630315
 30
0.000000
 40
0.079240
 50
15.245751
 51
85.496341
  6
CONTINUOUS
  0
ARC
  8
WHITE
 10
5.251319
 20
0.294710
 30
0.000000
 40
1.415148
 50
91.595613
 51
122.165043
  6
CONTINUOUS
  0
ARC
  8
WHITE
 10
5.225165
 20
0.334973
 30
0.000000
 40
1.367142
 50
122.135479
 51
145.868117
  6
CONTINUOUS
  0
ARC
  8
WHITE
 10
4.280756
 20
0.974262
 30
0.000000
 40
0.226706
 50
145.681790
 51
159.100406
  6
CONTINUOUS
  0
ARC
  8
WHITE
 10
4.143297
 20
1.024435
 30
0.000000
 40
0.080421
 50
157.558504
 51
175.879947
  6
CONTINUOUS
  0
ARC
  8
WHITE
 10
4.083923
 20
1.024665
 30
0.000000
 40
0.021566
 50
165.092538
 51
300.476837
  6
CONTINUOUS
  0
ARC
  8
WHITE
 10
3.807873
 20
1.801657
 30
0.000000
 40
0.845758
 50
-70.164166
 51
-63.522317
  6
CONTINUOUS
  0
ARC
  8
WHITE
 10
4.342586
 20
0.705058
 30
0.000000
 40
0.374360
 50
100.837684
 51
114.902317
  6
CONTINUOUS
  0
ARC
  8
WHITE
 10
4.296332
 20
0.884671
 30
0.000000
 40
0.189611
 50
71.262312
 51
97.313047
  6
CONTINUOUS
  0
ARC
  8
WHITE
 10
4.412838
 20
1.219050
 30
0.000000
 40
0.164497
 50
-109.753592
 51
-53.396160
  6
CONTINUOUS
  0
ARC
  8
WHITE
 10
4.257202
 20
1.459324
 30
0.000000
 40
0.450558
 50
-55.727657
 51
-46.735311
  6
CONTINUOUS
  0
ARC
  8
WHITE
 10
4.677423
 20
1.025554
 30
0.000000
 40
0.153565
 50
87.056600
 51
136.516223
  6
CONTINUOUS
  0
ARC
  8
WHITE
 10
4.642448
 20
0.831111
 30
0.000000
 40
0.350437
 50
64.005068
 51
82.974799
  6
CONTINUOUS
  0
ARC
  8
WHITE
 10
4.931329
 20
1.470301
 30
0.000000
 40
0.351301
 50
-112.650232
 51
-96.109301
  6
CONTINUOUS
  0
ARC
  8
WHITE
 10
4.899597
 20
1.258511
 30
0.000000
 40
0.137632
 50
-92.354976
 51
-55.309083
  6
CONTINUOUS
  0
ARC
  8
WHITE
 10
4.692471
 20
1.670393
 30
0.000000
 40
0.597631
 50
-61.467853
 51
-16.753990
  6
CONTINUOUS
  0
LINE
  8
WHITE
 10
7.662645
 20
3.369541
 30
0.000000
 11
6.952120
 21
3.194642
 31
0.000000
  6
CONTINUOUS
  0
ARC
  8
WHITE
 10
7.507245
 20
2.897157
 30
0.000000
 40
0.629810
 50
151.813663
 51
163.014088
  6
CONTINUOUS
  0
ARC
  8
WHITE
 10
5.400827
 20
3.428950
 30
0.000000
 40
1.543771
 50
-21.012603
 51
-13.020166
  6
CONTINUOUS
  0
ARC
  8
WHITE
 10
8.893047
 20
1.793826
 30
0.000000
 40
2.318799
 50
152.196878
 51
156.188748
  6
CONTINUOUS
  0
ARC
  8
WHITE
 10
6.874266
 20
2.678910
 30
0.000000
 40
0.114647
 50
153.545944
 51
183.703454
  6
CONTINUOUS
  0
ARC
  8
WHITE
 10
6.782870
 20
2.674142
 30
0.000000
 40
0.023163
 50
-173.462015
 51
-108.602313
  6
CONTINUOUS
  0
ARC
  8
WHITE
 10
6.806240
 20
2.715684
 30
0.000000
 40
0.070553
 50
-115.847020
 51
-75.454087
  6
CONTINUOUS
  0
ARC
  8
WHITE
 10
6.694425
 20
3.861359
 30
0.000000
 40
1.220857
 50
-83.909377
 51
-67.579223
  6
CONTINUOUS
  0
ARC
  8
WHITE
 10
6.501318
 20
4.557450
 30
0.000000
 40
1.939933
 50
-70.149133
 51
-50.907144
  6
CONTINUOUS
  0
ARC
  8
WHITE
 10
5.267154
 20
3.111569
 30
0.000000
 40
2.458171
 50
-1.392788
 51
3.314887
  6
CONTINUOUS
  0
ARC
  8
WHITE
 10
7.574697
 20
3.236555
 30
0.000000
 40
0.147515
 50
6.677755
 51
28.915977
  6
CONTINUOUS
  0
ARC
  8
WHITE
 10
6.999056
 20
2.881798
 30
0.000000
 40
0.823555
 50
31.156164
 51
36.316171
  6
CONTINUOUS
  0
ARC
  8
WHITE
 10
14.130297
 20
3.049851
 30
0.000000
 40
2.011215
 50
-36.772785
 51
-6.186943
  6
CONTINUOUS
  0
ARC
  8
WHITE
 10
16.099899
 20
2.696220
 30
0.000000
 40
0.140104
 50
77.678094
 51
114.747209
  6
CONTINUOUS
  0
ARC
  8
WHITE
 10
16.322265
 20
2.387770
 30
0.000000
 40
0.518453
 50
122.821768
 51
141.604339
  6
CONTINUOUS
  0
ARC
  8
WHITE
 10
16.695628
 20
1.829805
 30
0.000000
 40
1.175702
 50
131.542486
 51
189.521163
  6
CONTINUOUS
  0
ARC
  8
WHITE
 10
15.376994
 20
1.950934
 30
0.000000
 40
0.353451
 50
-63.242716
 51
-39.051421
  6
CONTINUOUS
  0
ARC
  8
WHITE
 10
14.274769
 20
2.873058
 30
0.000000
 40
1.790504
 50
-39.745280
 51
-35.008459
  6
CONTINUOUS
  0
ARC
  8
WHITE
 10
15.861461
 20
0.291769
 30
0.000000
 40
0.926030
 50
131.704288
 51
140.127923
  6
CONTINUOUS
  0
ARC
  8
WHITE
 10
15.264098
 20
1.027718
 30
0.000000
 40
0.181919
 50
-128.539151
 51
-90.162435
  6
CONTINUOUS
  0
ARC
  8
WHITE
 10
15.331064
 20
1.686154
 30
0.000000
 40
0.843059
 50
-94.591090
 51
-80.115675
  6
CONTINUOUS
  0
ARC
  8
WHITE
 10
15.347210
 20
1.499865
 30
0.000000
 40
0.656960
 50
-78.713844
 51
-50.844015
  6
CONTINUOUS
  0
ARC
  8
WHITE
 10
15.091768
 20
1.864150
 30
0.000000
 40
1.101196
 50
-52.506338
 51
-35.882241
  6
CONTINUOUS
  0
ARC
  8
WHITE
 10
15.603316
 20
1.344185
 30
0.000000
 40
0.400812
 50
-18.242472
 51
8.882875
  6
CONTINUOUS
  0
ARC
  8
WHITE
 10
15.815312
 20
1.377748
 30
0.000000
 40
0.186176
 50
8.752061
 51
61.467416
  6
CONTINUOUS
  0
ARC
  8
WHITE
 10
15.884047
 20
1.492057
 30
0.000000
 40
0.053234
 50
67.707402
 51
124.824644
  6
CONTINUOUS
  0
ARC
  8
WHITE
 10
15.970119
 20
1.350673
 30
0.000000
 40
0.218682
 50
122.181943
 51
137.561861
  6
CONTINUOUS
  0
ARC
  8
WHITE
 10
-10.492160
 20
27.219347
 30
0.000000
 40
36.787392
 50
-44.877702
 51
-44.361469
  6
CONTINUOUS
  0
ARC
  8
WHITE
 10
59.818068
 20
-52.553723
 30
0.000000
 40
69.667307
 50
129.423613
 51
129.630841
  6
CONTINUOUS
  0
ARC
  8
WHITE
 10
18.094975
 20
-2.145451
 30
0.000000
 40
4.231806
 50
129.880891
 51
132.328012
  6
CONTINUOUS
  0
ARC
  8
WHITE
 10
6.252935
 20
1.624252
 30
0.000000
 40
0.531964
 50
127.455417
 51
149.648928
  6
CONTINUOUS
  0
ARC
  8
WHITE
 10
6.235095
 20
1.727399
 30
0.000000
 40
0.471288
 50
159.421546
 51
182.608073
  6
CONTINUOUS
  0
ARC
  8
WHITE
 10
2.426673
 20
5.007744
 30
0.000000
 40
4.694842
 50
-44.690787
 51
-34.878100
  6
CONTINUOUS
  0
ARC
  8
WHITE
 10
4.647783
 20
3.402103
 30
0.000000
 40
1.955119
 50
-33.497150
 51
-9.984785
  6
CONTINUOUS
  0
ARC
  8
WHITE
 10
6.507948
 20
3.078687
 30
0.000000
 40
0.067172
 50
-13.407490
 51
30.498485
  6
CONTINUOUS
  0
ARC
  8
WHITE
 10
6.482970
 20
3.008713
 30
0.000000
 40
0.133021
 50
51.473292
 51
98.879039
  6
CONTINUOUS
  0
ARC
  8
WHITE
 10
6.461334
 20
2.777965
 30
0.000000
 40
0.362176
 50
89.825278
 51
108.424884
  6
CONTINUOUS
  0
ARC
  8
WHITE
 10
6.377419
 20
3.064291
 30
0.000000
 40
0.064924
 50
118.074834
 51
171.830719
  6
CONTINUOUS
  0
ARC
  8
WHITE
 10
6.484261
 20
3.038652
 30
0.000000
 40
0.174624
 50
168.483159
 51
189.072468
  6
CONTINUOUS
  0
ARC
  8
WHITE
 10
3.532085
 20
2.810238
 30
0.000000
 40
2.786986
 50
2.801670
 51
4.133316
  6
CONTINUOUS
  0
ARC
  8
WHITE
 10
5.107627
 20
2.845436
 30
0.000000
 40
1.212330
 50
-9.210734
 51
4.780159
  6
CONTINUOUS
  0
ARC
  8
WHITE
 10
5.463275
 20
2.804059
 30
0.000000
 40
0.854796
 50
-32.977781
 51
-10.288866
  6
CONTINUOUS
  0
ARC
  8
WHITE
 10
5.127044
 20
2.989318
 30
0.000000
 40
1.238001
 50
-49.599551
 51
-31.700102
  6
CONTINUOUS
  0
ARC
  8
WHITE
 10
16.807931
 20
1.891169
 30
0.000000
 40
0.341865
 50
-77.368204
 51
-61.094977
  6
CONTINUOUS
  0
ARC
  8
WHITE
 10
16.771563
 20
1.897111
 30
0.000000
 40
0.365794
 50
-56.553284
 51
-24.415351
  6
CONTINUOUS
  0
ARC
  8
WHITE
 10
16.898060
 20
1.846880
 30
0.000000
 40
0.229940
 50
-26.047269
 51
38.244859
  6
CONTINUOUS
  0
ARC
  8
WHITE
 10
16.970894
 20
1.911022
 30
0.000000
 40
0.133138
 50
35.967970
 51
99.304874
  6
CONTINUOUS
  0
ARC
  8
WHITE
 10
16.965787
 20
1.869909
 30
0.000000
 40
0.173278
 50
95.437447
 51
138.033925
  6
CONTINUOUS
  0
ARC
  8
WHITE
 10
17.442767
 20
1.478028
 30
0.000000
 40
0.790461
 50
140.032891
 51
156.370132
  6
CONTINUOUS
  0
ARC
  8
WHITE
 10
15.766520
 20
2.228065
 30
0.000000
 40
1.045986
 50
-33.727976
 51
-24.466056
  6
CONTINUOUS
  0
ARC
  8
WHITE
 10
16.851906
 20
1.513585
 30
0.000000
 40
0.253567
 50
148.179531
 51
162.507991
  6
CONTINUOUS
  0
ARC
  8
WHITE
 10
16.656432
 20
1.568394
 30
0.000000
 40
0.051070
 50
155.218846
 51
217.389327
  6
CONTINUOUS
  0
ARC
  8
WHITE
 10
16.710451
 20
1.627487
 30
0.000000
 40
0.130642
 50
-136.393055
 51
-51.337098
  6
CONTINUOUS
  0
ARC
  8
WHITE
 10
16.902606
 20
1.357385
 30
0.000000
 40
0.201180
 50
95.680827
 51
123.329067
  6
CONTINUOUS
  0
ARC
  8
WHITE
 10
4.018041
 20
6.625303
 30
0.000000
 40
0.179699
 50
83.528690
 51
99.244695
  6
CONTINUOUS
  0
ARC
  8
WHITE
 10
3.983522
 20
6.792627
 30
0.000000
 40
0.011521
 50
60.633064
 51
203.704221
  6
CONTINUOUS
  0
ARC
  8
WHITE
 10
4.171638
 20
7.200924
 30
0.000000
 40
0.458234
 50
-115.692843
 51
-102.517303
  6
CONTINUOUS
  0
ARC
  8
WHITE
 10
3.813873
 20
5.416392
 30
0.000000
 40
1.361937
 50
39.270664
 51
79.060850
  6
CONTINUOUS
  0
ARC
  8
WHITE
 10
3.755133
 20
5.383383
 30
0.000000
 40
1.428353
 50
-8.788542
 51
38.804258
  6
CONTINUOUS
  0
ARC
  8
WHITE
 10
3.269383
 20
5.308212
 30
0.000000
 40
1.902719
 50
-21.712818
 51
-4.312112
  6
CONTINUOUS
  0
ARC
  8
WHITE
 10
2.867947
 20
5.607240
 30
0.000000
 40
2.389800
 50
-37.042562
 51
-24.814289
  6
CONTINUOUS
  0
ARC
  8
WHITE
 10
2.970410
 20
5.570551
 30
0.000000
 40
2.286144
 50
-42.574232
 51
-37.855602
  6
CONTINUOUS
  0
ARC
  8
WHITE
 10
4.785292
 20
3.904721
 30
0.000000
 40
0.177351
 50
137.790662
 51
154.989490
  6
CONTINUOUS
  0
ARC
  8
WHITE
 10
4.644896
 20
3.970030
 30
0.000000
 40
0.022509
 50
154.551002
 51
237.667721
  6
CONTINUOUS
  0
ARC
  8
WHITE
 10
4.634205
 20
3.986377
 30
0.000000
 40
0.035391
 50
-92.181088
 51
-18.730619
  6
CONTINUOUS
  0
ARC
  8
WHITE
 10
4.432357
 20
4.265486
 30
0.000000
 40
0.373860
 50
-50.982916
 51
-40.957183
  6
CONTINUOUS
  0
ARC
  8
WHITE
 10
2.817027
 20
5.652479
 30
0.000000
 40
2.502949
 50
-40.696590
 51
-37.646544
  6
CONTINUOUS
  0
ARC
  8
WHITE
 10
3.054410
 20
5.502063
 30
0.000000
 40
2.223269
 50
-38.313831
 51
-21.192896
  6
CONTINUOUS
  0
ARC
  8
WHITE
 10
3.382295
 20
5.290843
 30
0.000000
 40
1.842870
 50
-18.754616
 51
0.980212
  6
CONTINUOUS
  0
ARC
  8
WHITE
 10
3.732270
 20
5.384133
 30
0.000000
 40
1.493903
 50
-2.369509
 51
41.528442
  6
CONTINUOUS
  0
ARC
  8
WHITE
 10
3.816893
 20
5.401614
 30
0.000000
 40
1.419614
 50
43.264903
 51
81.027600
  6
CONTINUOUS
  0
ARC
  8
WHITE
 10
3.715073
 20
1.683920
 30
0.000000
 40
0.391435
 50
-177.972942
 51
-168.863899
  6
CONTINUOUS
  0
ARC
  8
WHITE
 10
13.927486
 20
-1.613599
 30
0.000000
 40
11.075472
 50
162.055831
 51
163.087818
  6
CONTINUOUS
  0
ARC
  8
WHITE
 10
3.854245
 20
1.604799
 30
0.000000
 40
0.502393
 50
135.967568
 51
157.303820
  6
CONTINUOUS
  0
ARC
  8
WHITE
 10
3.634325
 20
1.838610
 30
0.000000
 40
0.182405
 50
85.734904
 51
140.759859
  6
CONTINUOUS
  0
ARC
  8
WHITE
 10
3.606171
 20
1.859069
 30
0.000000
 40
0.166745
 50
47.261038
 51
75.510605
  6
CONTINUOUS
  0
ARC
  8
WHITE
 10
2.094430
 20
0.441077
 30
0.000000
 40
2.239045
 50
39.395480
 51
43.471823
  6
CONTINUOUS
  0
ARC
  8
WHITE
 10
4.240638
 20
2.215458
 30
0.000000
 40
0.545730
 50
-139.651199
 51
-108.275206
  6
CONTINUOUS
  0
ARC
  8
WHITE
 10
4.263382
 20
2.254660
 30
0.000000
 40
0.590161
 50
-109.178502
 51
-96.491435
  6
CONTINUOUS
  0
ARC
  8
WHITE
 10
4.219113
 20
1.926633
 30
0.000000
 40
0.259324
 50
-94.966706
 51
-81.431717
  6
CONTINUOUS
  0
ARC
  8
WHITE
 10
4.251337
 20
1.761942
 30
0.000000
 40
0.091963
 50
-86.001737
 51
-49.013787
  6
CONTINUOUS
  0
ARC
  8
WHITE
 10
4.271396
 20
1.731173
 30
0.000000
 40
0.055807
 50
-43.833504
 51
15.365169
  6
CONTINUOUS
  0
ARC
  8
WHITE
 10
9.720866
 20
3.124519
 30
0.000000
 40
5.568980
 50
-167.958896
 51
-165.667869
  6
CONTINUOUS
  0
ARC
  8
WHITE
 10
4.751895
 20
2.041612
 30
0.000000
 40
0.483949
 50
143.284923
 51
189.377818
  6
CONTINUOUS
  0
ARC
  8
WHITE
 10
4.444740
 20
2.277341
 30
0.000000
 40
0.096948
 50
59.641397
 51
146.440431
  6
CONTINUOUS
  0
ARC
  8
WHITE
 10
4.401321
 20
2.208579
 30
0.000000
 40
0.178247
 50
38.211388
 51
58.769426
  6
CONTINUOUS
  0
ARC
  8
WHITE
 10
5.938335
 20
3.575728
 30
0.000000
 40
1.879168
 50
-138.021210
 51
-123.393306
  6
CONTINUOUS
  0
ARC
  8
WHITE
 10
5.848133
 20
3.456240
 30
0.000000
 40
1.729786
 50
-123.077093
 51
-115.132329
  6
CONTINUOUS
  0
ARC
  8
WHITE
 10
5.527817
 20
2.674522
 30
0.000000
 40
0.887028
 50
-117.847040
 51
-110.100618
  6
CONTINUOUS
  0
ARC
  8
WHITE
 10
5.278830
 20
1.974586
 30
0.000000
 40
0.144312
 50
-112.771807
 51
-65.148173
  6
CONTINUOUS
  0
ARC
  8
WHITE
 10
6.143314
 20
3.867147
 30
0.000000
 40
2.177324
 50
-132.625278
 51
-111.665307
  6
CONTINUOUS
  0
ARC
  8
WHITE
 10
6.598980
 20
4.345514
 30
0.000000
 40
2.837906
 50
-135.868938
 51
-132.853982
  6
CONTINUOUS
  0
ARC
  8
WHITE
 10
4.438846
 20
2.253529
 30
0.000000
 40
0.169201
 50
43.255440
 51
90.700775
  6
CONTINUOUS
  0
ARC
  8
WHITE
 10
4.445463
 20
2.276922
 30
0.000000
 40
0.146054
 50
93.409623
 51
144.926510
  6
CONTINUOUS
  0
ARC
  8
WHITE
 10
4.698081
 20
2.091197
 30
0.000000
 40
0.459573
 50
144.073821
 51
174.751205
  6
CONTINUOUS
  0
ARC
  8
WHITE
 10
4.993612
 20
2.023463
 30
0.000000
 40
0.761135
 50
171.707493
 51
187.918275
  6
CONTINUOUS
  0
ARC
  8
WHITE
 10
5.178345
 20
2.055012
 30
0.000000
 40
0.948471
 50
-171.731396
 51
-166.040293
  6
CONTINUOUS
  0
ARC
  8
WHITE
 10
3.934065
 20
1.762386
 30
0.000000
 40
0.330051
 50
-4.169998
 51
11.148746
  6
CONTINUOUS
  0
ARC
  8
WHITE
 10
4.211314
 20
1.754882
 30
0.000000
 40
0.054485
 50
-104.922188
 51
-17.623525
  6
CONTINUOUS
  0
ARC
  8
WHITE
 10
4.240730
 20
2.169002
 30
0.000000
 40
0.468784
 50
-133.261203
 51
-95.317689
  6
CONTINUOUS
  0
ARC
  8
WHITE
 10
7.916143
 20
5.503404
 30
0.000000
 40
5.430000
 50
-139.851495
 51
-137.394952
  6
CONTINUOUS
  0
ARC
  8
WHITE
 10
3.523575
 20
1.765977
 30
0.000000
 40
0.338253
 50
44.318873
 51
59.112447
  6
CONTINUOUS
  0
ARC
  8
WHITE
 10
3.631101
 20
1.932289
 30
0.000000
 40
0.140499
 50
61.927091
 51
124.192858
  6
CONTINUOUS
  0
ARC
  8
WHITE
 10
3.817351
 20
1.630479
 30
0.000000
 40
0.495054
 50
122.392344
 51
175.412473
  6
CONTINUOUS
  0
ARC
  8
WHITE
 10
6.450851
 20
3.598927
 30
0.000000
 40
0.301075
 50
-91.302185
 51
-58.054280
  6
CONTINUOUS
  0
ARC
  8
WHITE
 10
5.384868
 20
3.537242
 30
0.000000
 40
1.240517
 50
-8.987491
 51
9.345374
  6
CONTINUOUS
  0
ARC
  8
WHITE
 10
2.165473
 20
3.197546
 30
0.000000
 40
4.476277
 50
6.943478
 51
8.365688
  6
CONTINUOUS
  0
ARC
  8
WHITE
 10
6.342881
 20
3.787291
 30
0.000000
 40
0.258660
 50
13.757123
 51
41.285243
  6
CONTINUOUS
  0
ARC
  8
WHITE
 10
7.523582
 20
3.244437
 30
0.000000
 40
1.217361
 50
144.117842
 51
176.808837
  6
CONTINUOUS
  0
ARC
  8
WHITE
 10
6.379041
 20
3.429114
 30
0.000000
 40
0.136745
 50
-121.246263
 51
-88.976546
  6
CONTINUOUS
  0
ARC
  8
WHITE
 10
6.368804
 20
3.791130
 30
0.000000
 40
0.498901
 50
-88.543678
 51
-81.330119
  6
CONTINUOUS
  0
ARC
  8
WHITE
 10
3.427937
 20
6.808800
 30
0.000000
 40
0.026627
 50
35.216691
 51
146.645992
  6
CONTINUOUS
  0
ARC
  8
WHITE
 10
3.635112
 20
6.165662
 30
0.000000
 40
0.696637
 50
109.227479
 51
126.202980
  6
CONTINUOUS
  0
ARC
  8
WHITE
 10
3.779594
 20
5.923644
 30
0.000000
 40
0.977623
 50
124.657873
 51
136.762071
  6
CONTINUOUS
  0
ARC
  8
WHITE
 10
3.795844
 20
5.911315
 30
0.000000
 40
0.997908
 50
136.885507
 51
160.598343
  6
CONTINUOUS
  0
ARC
  8
WHITE
 10
2.888890
 20
6.228098
 30
0.000000
 40
0.037309
 50
156.778170
 51
241.395885
  6
CONTINUOUS
  0
ARC
  8
WHITE
 10
2.897252
 20
6.291623
 30
0.000000
 40
0.099788
 50
-105.236052
 51
-71.690850
  6
CONTINUOUS
  0
ARC
  8
WHITE
 10
2.814998
 20
6.647853
 30
0.000000
 40
0.465055
 50
-75.860937
 51
-59.316648
  6
CONTINUOUS
  0
ARC
  8
WHITE
 10
2.444401
 20
7.411201
 30
0.000000
 40
1.312560
 50
-62.409473
 51
-55.710600
  6
CONTINUOUS
  0
ARC
  8
WHITE
 10
3.024343
 20
6.610394
 30
0.000000
 40
0.325413
 50
-60.646045
 51
-29.813950
  6
CONTINUOUS
  0
ARC
  8
WHITE
 10
3.240227
 20
6.471432
 30
0.000000
 40
0.070270
 50
-18.957555
 51
57.689668
  6
CONTINUOUS
  0
ARC
  8
WHITE
 10
3.349343
 20
6.623034
 30
0.000000
 40
0.116718
 50
-151.398308
 51
-127.811380
  6
CONTINUOUS
  0
ARC
  8
WHITE
 10
3.297686
 20
6.582342
 30
0.000000
 40
0.053038
 50
142.733211
 51
196.634955
  6
CONTINUOUS
  0
ARC
  8
WHITE
 10
3.486049
 20
6.486804
 30
0.000000
 40
0.263552
 50
139.845600
 51
151.029282
  6
CONTINUOUS
  0
ARC
  8
WHITE
 10
5.553491
 20
4.584468
 30
0.000000
 40
3.072812
 50
133.208078
 51
137.592870
  6
CONTINUOUS
  0
ARC
  8
WHITE
 10
4.793833
 20
3.452168
 30
0.000000
 40
0.026516
 50
27.375254
 51
105.708823
  6
CONTINUOUS
  0
ARC
  8
WHITE
 10
4.825573
 20
3.459591
 30
0.000000
 40
0.042923
 50
155.055261
 51
208.593985
  6
CONTINUOUS
  0
ARC
  8
WHITE
 10
4.322810
 20
3.056347
 30
0.000000
 40
0.602291
 50
9.405028
 51
39.450290
  6
CONTINUOUS
  0
ARC
  8
WHITE
 10
4.463993
 20
3.087586
 30
0.000000
 40
0.457966
 50
-8.852606
 51
8.435634
  6
CONTINUOUS
  0
ARC
  8
WHITE
 10
3.973279
 20
3.181891
 30
0.000000
 40
0.957511
 50
-13.784736
 51
-9.909654
  6
CONTINUOUS
  0
ARC
  8
WHITE
 10
5.012199
 20
2.926565
 30
0.000000
 40
0.112324
 50
165.999155
 51
230.083927
  6
CONTINUOUS
  0
ARC
  8
WHITE
 10
8.816807
 20
6.904650
 30
0.000000
 40
5.616644
 50
-133.647004
 51
-131.246984
  6
CONTINUOUS
  0
ARC
  8
WHITE
 10
4.626336
 20
2.195558
 30
0.000000
 40
0.688342
 50
27.787210
 51
44.923361
  6
CONTINUOUS
  0
ARC
  8
WHITE
 10
4.701872
 20
2.242822
 30
0.000000
 40
0.599520
 50
18.547519
 51
27.156469
  6
CONTINUOUS
  0
ARC
  8
WHITE
 10
0.717935
 20
1.211757
 30
0.000000
 40
4.713418
 50
13.997778
 51
15.023213
  6
CONTINUOUS
  0
ARC
  8
WHITE
 10
5.617457
 20
2.453918
 30
0.000000
 40
0.341668
 50
-162.619900
 51
-109.653406
  6
CONTINUOUS
  0
ARC
  8
WHITE
 10
5.520457
 20
2.193714
 30
0.000000
 40
0.064113
 50
-106.224217
 51
0.841188
  6
CONTINUOUS
  0
ARC
  8
WHITE
 10
6.412327
 20
2.231564
 30
0.000000
 40
0.828587
 50
153.813236
 51
182.553041
  6
CONTINUOUS
  0
ARC
  8
WHITE
 10
6.281323
 20
2.193153
 30
0.000000
 40
0.733805
 50
130.361566
 51
146.588820
  6
CONTINUOUS
  0
ARC
  8
WHITE
 10
5.172394
 20
3.490021
 30
0.000000
 40
0.972538
 50
-49.337351
 51
-43.215631
  6
CONTINUOUS
  0
ARC
  8
WHITE
 10
5.673258
 20
3.043205
 30
0.000000
 40
0.302061
 50
-46.505249
 51
-26.791217
  6
CONTINUOUS
  0
ARC
  8
WHITE
 10
5.833093
 20
2.959347
 30
0.000000
 40
0.121617
 50
-25.466264
 51
-0.877396
  6
CONTINUOUS
  0
ARC
  8
WHITE
 10
5.947136
 20
2.966501
 30
0.000000
 40
0.011766
 50
-50.022879
 51
152.661759
  6
CONTINUOUS
  0
ARC
  8
WHITE
 10
6.533687
 20
2.529683
 30
0.000000
 40
0.742948
 50
143.471320
 51
147.839877
  6
CONTINUOUS
  0
ARC
  8
WHITE
 10
5.615023
 20
3.094232
 30
0.000000
 40
0.335444
 50
-50.663816
 51
-30.269587
  6
CONTINUOUS
  0
ARC
  8
WHITE
 10
6.945087
 20
1.506738
 30
0.000000
 40
1.735620
 50
130.077675
 51
135.715671
  6
CONTINUOUS
  0
ARC
  8
WHITE
 10
6.043307
 20
2.387358
 30
0.000000
 40
0.475184
 50
135.809859
 51
156.169446
  6
CONTINUOUS
  0
ARC
  8
WHITE
 10
6.800188
 20
2.134907
 30
0.000000
 40
1.271742
 50
159.544826
 51
170.940735
  6
CONTINUOUS
  0
ARC
  8
WHITE
 10
3.405443
 20
2.472192
 30
0.000000
 40
2.143253
 50
-5.898209
 51
-3.666048
  6
CONTINUOUS
  0
ARC
  8
WHITE
 10
5.428576
 20
2.264695
 30
0.000000
 40
0.109518
 50
-25.930208
 51
-6.683795
  6
CONTINUOUS
  0
ARC
  8
WHITE
 10
5.502612
 20
2.229598
 30
0.000000
 40
0.027600
 50
-88.137249
 51
-27.612942
  6
CONTINUOUS
  0
ARC
  8
WHITE
 10
5.502143
 20
2.324445
 30
0.000000
 40
0.122440
 50
-133.480637
 51
-89.360698
  6
CONTINUOUS
  0
ARC
  8
WHITE
 10
5.535064
 20
2.372041
 30
0.000000
 40
0.179848
 50
-162.206148
 51
-130.655753
  6
CONTINUOUS
  0
ARC
  8
WHITE
 10
3.541232
 20
1.765885
 30
0.000000
 40
1.904112
 50
16.826619
 51
20.975317
  6
CONTINUOUS
  0
ARC
  8
WHITE
 10
4.121233
 20
1.909642
 30
0.000000
 40
1.313137
 50
24.179176
 51
34.569262
  6
CONTINUOUS
  0
ARC
  8
WHITE
 10
4.682924
 20
2.264292
 30
0.000000
 40
0.649937
 50
36.921157
 51
49.548016
  6
CONTINUOUS
  0
ARC
  8
WHITE
 10
6.252019
 20
4.107557
 30
0.000000
 40
1.770742
 50
-135.065627
 51
-130.389631
  6
CONTINUOUS
  0
ARC
  8
WHITE
 10
5.115622
 20
2.961592
 30
0.000000
 40
0.157114
 50
179.343043
 51
221.791419
  6
CONTINUOUS
  0
ARC
  8
WHITE
 10
5.569971
 20
2.977590
 30
0.000000
 40
0.611617
 50
173.022535
 51
181.330042
  6
CONTINUOUS
  0
ARC
  8
WHITE
 10
4.319529
 20
3.082685
 30
0.000000
 40
0.644091
 50
-2.740568
 51
12.874890
  6
CONTINUOUS
  0
ARC
  8
WHITE
 10
4.267267
 20
3.012197
 30
0.000000
 40
0.713033
 50
17.465717
 51
32.917968
  6
CONTINUOUS
  0
ARC
  8
WHITE
 10
4.485653
 20
3.165404
 30
0.000000
 40
0.446561
 50
31.643755
 51
42.025604
  6
CONTINUOUS
  0
ARC
  8
WHITE
 10
6.549271
 20
3.921304
 30
0.000000
 40
2.361209
 50
-145.196432
 51
-132.443242
  6
CONTINUOUS
  0
ARC
  8
WHITE
 10
5.827609
 20
3.083723
 30
0.000000
 40
1.256524
 50
-133.934566
 51
-117.771790
  6
CONTINUOUS
  0
ARC
  8
WHITE
 10
5.355069
 20
2.195771
 30
0.000000
 40
0.250712
 50
-116.773928
 51
-107.645350
  6
CONTINUOUS
  0
ARC
  8
WHITE
 10
5.253424
 20
1.956183
 30
0.000000
 40
0.025657
 50
1.500862
 51
79.491247
  6
CONTINUOUS
  0
ARC
  8
WHITE
 10
4.239987
 20
0.777428
 30
0.000000
 40
1.576748
 50
49.781327
 51
54.103194
  6
CONTINUOUS
  0
ARC
  8
WHITE
 10
6.527031
 20
3.879686
 30
0.000000
 40
2.277518
 50
-147.569078
 51
-126.745572
  6
CONTINUOUS
  0
ARC
  8
WHITE
 10
7.372008
 20
4.387240
 30
0.000000
 40
3.262997
 50
-152.670322
 51
-148.003693
  6
CONTINUOUS
  0
ARC
  8
WHITE
 10
3.698755
 20
2.468359
 30
0.000000
 40
0.881412
 50
28.517283
 51
35.276954
  6
CONTINUOUS
  0
ARC
  8
WHITE
 10
4.198072
 20
2.821645
 30
0.000000
 40
0.269751
 50
35.268060
 51
53.503592
  6
CONTINUOUS
  0
ARC
  8
WHITE
 10
4.205308
 20
2.784579
 30
0.000000
 40
0.296556
 50
58.894748
 51
104.602764
  6
CONTINUOUS
  0
ARC
  8
WHITE
 10
4.518592
 20
1.810543
 30
0.000000
 40
1.319370
 50
107.104667
 51
133.406500
  6
CONTINUOUS
  0
ARC
  8
WHITE
 10
5.077822
 20
1.228609
 30
0.000000
 40
2.126438
 50
133.578708
 51
143.712783
  6
CONTINUOUS
  0
ARC
  8
WHITE
 10
4.111669
 20
1.922413
 30
0.000000
 40
0.937128
 50
142.945230
 51
152.351483
  6
CONTINUOUS
  0
ARC
  8
WHITE
 10
3.410626
 20
2.291327
 30
0.000000
 40
0.144951
 50
152.933208
 51
169.780303
  6
CONTINUOUS
  0
ARC
  8
WHITE
 10
3.284161
 20
2.312145
 30
0.000000
 40
0.016912
 50
163.158893
 51
251.428790
  6
CONTINUOUS
  0
ARC
  8
WHITE
 10
3.258456
 20
2.357055
 30
0.000000
 40
0.064239
 50
-71.560509
 51
-28.404598
  6
CONTINUOUS
  0
ARC
  8
WHITE
 10
4.718182
 20
1.518288
 30
0.000000
 40
1.619330
 50
114.510173
 51
150.059477
  6
CONTINUOUS
  0
ARC
  8
WHITE
 10
4.253595
 20
2.524885
 30
0.000000
 40
0.510730
 50
97.527852
 51
113.934617
  6
CONTINUOUS
  0
ARC
  8
WHITE
 10
4.215550
 20
2.816757
 30
0.000000
 40
0.216390
 50
59.636178
 51
97.665672
  6
CONTINUOUS
  0
ARC
  8
WHITE
 10
4.177253
 20
2.777771
 30
0.000000
 40
0.269717
 50
34.612121
 51
56.801870
  6
CONTINUOUS
  0
ARC
  8
WHITE
 10
3.614459
 20
2.388698
 30
0.000000
 40
0.953907
 50
27.497923
 51
34.644336
  6
CONTINUOUS
  0
ARC
  8
WHITE
 10
8.575955
 20
5.070865
 30
0.000000
 40
4.686310
 50
-151.421807
 51
-147.799545
  6
CONTINUOUS
  0
ARC
  8
WHITE
 10
4.438575
 20
3.605846
 30
0.000000
 40
0.019944
 50
-38.543590
 51
104.324516
  6
CONTINUOUS
  0
ARC
  8
WHITE
 10
4.449073
 20
3.389778
 30
0.000000
 40
0.235897
 50
93.750973
 51
120.368536
  6
CONTINUOUS
  0
ARC
  8
WHITE
 10
4.569244
 20
3.112039
 30
0.000000
 40
0.537539
 50
116.450335
 51
140.638110
  6
CONTINUOUS
  0
LINE
  8
WHITE
 10
4.153643
 20
3.452954
 30
0.000000
 11
4.105097
 21
3.391459
 31
0.000000
  6
CONTINUOUS
  0
ARC
  8
WHITE
 10
3.872543
 20
3.581854
 30
0.000000
 40
0.300552
 50
-54.760687
 51
-39.307635
  6
CONTINUOUS
  0
ARC
  8
WHITE
 10
4.958254
 20
1.224074
 30
0.000000
 40
2.300893
 50
113.359291
 51
124.623958
  6
CONTINUOUS
  0
ARC
  8
WHITE
 10
4.483588
 20
2.058350
 30
0.000000
 40
1.347254
 50
128.174045
 51
161.370886
  6
CONTINUOUS
  0
ARC
  8
WHITE
 10
4.218338
 20
2.061378
 30
0.000000
 40
1.097990
 50
157.095144
 51
163.387913
  6
CONTINUOUS
  0
ARC
  8
WHITE
 10
3.314961
 20
2.326497
 30
0.000000
 40
0.156581
 50
161.845969
 51
205.028663
  6
CONTINUOUS
  0
ARC
  8
WHITE
 10
0.366172
 20
3.431251
 30
0.000000
 40
3.041380
 50
-22.645109
 51
-17.623221
  6
CONTINUOUS
  0
ARC
  8
WHITE
 10
4.400034
 20
2.121547
 30
0.000000
 40
1.199989
 50
139.364302
 51
161.089395
  6
CONTINUOUS
  0
ARC
  8
WHITE
 10
4.321772
 20
2.191515
 30
0.000000
 40
1.095033
 50
120.921311
 51
139.475668
  6
CONTINUOUS
  0
ARC
  8
WHITE
 10
4.925113
 20
1.128948
 30
0.000000
 40
2.316790
 50
111.704605
 51
120.218432
  6
CONTINUOUS
  0
ARC
  8
WHITE
 10
3.982765
 20
3.445560
 30
0.000000
 40
0.185039
 50
-62.462387
 51
-35.683318
  6
CONTINUOUS
  0
ARC
  8
WHITE
 10
2.184409
 20
4.802985
 30
0.000000
 40
2.438142
 50
-36.942619
 51
-34.905517
  6
CONTINUOUS
  0
ARC
  8
WHITE
 10
4.579794
 20
3.132575
 30
0.000000
 40
0.482156
 50
134.809872
 51
145.189661
  6
CONTINUOUS
  0
ARC
  8
WHITE
 10
4.583369
 20
3.107953
 30
0.000000
 40
0.502362
 50
104.902500
 51
133.119795
  6
CONTINUOUS
  0
ARC
  8
WHITE
 10
2.648097
 20
4.958102
 30
0.000000
 40
0.327551
 50
-28.129596
 51
-0.220892
  6
CONTINUOUS
  0
ARC
  8
WHITE
 10
2.908241
 20
4.955881
 30
0.000000
 40
0.067411
 50
0.814440
 51
50.696900
  6
CONTINUOUS
  0
ARC
  8
WHITE
 10
2.933735
 20
4.977828
 30
0.000000
 40
0.034772
 50
60.341684
 51
145.744450
  6
CONTINUOUS
  0
ARC
  8
WHITE
 10
3.215087
 20
4.732742
 30
0.000000
 40
0.407678
 50
139.519790
 51
164.873755
  6
CONTINUOUS
  0
ARC
  8
WHITE
 10
3.838678
 20
4.496520
 30
0.000000
 40
1.073293
 50
161.384951
 51
166.203277
  6
CONTINUOUS
  0
ARC
  8
WHITE
 10
3.198224
 20
4.657636
 30
0.000000
 40
0.412912
 50
166.721323
 51
172.983515
  6
CONTINUOUS
  0
ARC
  8
WHITE
 10
2.836799
 20
4.693433
 30
0.000000
 40
0.050562
 50
163.166512
 51
214.361301
  6
CONTINUOUS
  0
ARC
  8
WHITE
 10
2.799332
 20
4.717198
 30
0.000000
 40
0.052476
 50
-94.667997
 51
-44.865630
  6
CONTINUOUS
  0
ARC
  8
WHITE
 10
2.425596
 20
5.116961
 30
0.000000
 40
0.599701
 50
-46.746829
 51
-31.493900
  6
CONTINUOUS
  0
ARC
  8
WHITE
 10
2.640376
 20
5.806066
 30
0.000000
 40
0.093197
 50
113.566922
 51
158.344419
  6
CONTINUOUS
  0
ARC
  8
WHITE
 10
2.970844
 20
5.662498
 30
0.000000
 40
0.453466
 50
156.893324
 51
166.345897
  6
CONTINUOUS
  0
LINE
  8
WHITE
 10
2.530194
 20
5.769543
 30
0.000000
 11
2.542052
 21
5.757111
 31
0.000000
  6
CONTINUOUS
  0
ARC
  8
WHITE
 10
3.399223
 20
4.458525
 30
0.000000
 40
1.555978
 50
121.482328
 51
123.428030
  6
CONTINUOUS
  0
ARC
  8
WHITE
 10
2.445058
 20
6.065661
 30
0.000000
 40
0.313934
 50
-63.193345
 51
-40.526952
  6
CONTINUOUS
  0
ARC
  8
WHITE
 10
2.663738
 20
5.870191
 30
0.000000
 40
0.021687
 50
-23.149040
 51
92.725174
  6
CONTINUOUS
  0
ARC
  8
WHITE
 10
2.633521
 20
5.791534
 30
0.000000
 40
0.104478
 50
73.778589
 51
106.920007
  6
CONTINUOUS
  0
ENDSEC
  0
EOF
