  0
SECTION
  2
HEADER
  9
$ACADVER
  1
AC1009
  9
$LIMMIN
 10
0.000000
 20
0.000000
  9
$LIMMAX
 10
411.050251
 20
490.727423
  0
ENDSEC
  0
SECTION
  2
TABLES
  0
TABLE
  2
LTYPE
 70
     4
  0
LTYPE
  2
CONTINUOUS
 70
     0
  3
Solid line
 72
     65
 73
     0
 40
0.000000
  0
LTYPE
  2
HIDDEN
 70
     0
  3
 _ _ _ _ _ _ _ _ _ _ _
 72
     65
 73
     2
 40
0.375000
 49
0.250000
 49
-0.125000
  0
LTYPE
  2
DASHED
 70
     0
  3
 ___ ___ ___ ___ ___ ___ ___ 
 72
     65
 73
     2
 40
0.750000
 49
0.500000
 49
-0.250000
  0
LTYPE
  2
CENTER
 70
     0
  3
___ _ ___ _ ___ _ ___
 72
     65
 73
     4
 40
2.000000
 49
1.250000
 49
-0.250000
 49
0.250000
 49
-0.250000
  0
LTYPE
  2
BORDER
 70
     0
  3
___ ___ . ___ ___ . ___ ___
 72
     65
 73
     6
 40
1.750000
 49
0.500000
 49
-0.250000
 49
0.500000
 49
-0.250000
 49
0.000000
 49
-0.250000
  0
LTYPE
  2
DOT
 70
     0
  3
.................
 72
     65
 73
     2
 40
0.250000
 49
0.000000
 49
-0.250000
  0
LTYPE
  2
DASHDOT
 70
     0
  3
__ . __ . __ . __
 72
     65
 73
     4
 40
1.000000
 49
0.500000
 49
-0.250000
 49
0.000000
 49
-0.250000
  0
LTYPE
  2
DIVIDE
 70
     0
  3
___ .. ___ .. ___ .. ___
 72
     65
 73
     6
 40
1.250000
 49
0.500000
 49
-0.250000
 49
0.000000
 49
-0.250000
 49
0.000000
 49
-0.250000
  0
ENDTAB
  0
TABLE
  2
LAYER
 70
     8
  0
LAYER
  2
BLACK
 70
     0
 62
     1
  6
CONTINUOUS
  0
LAYER
  2
WHITE
 70
     0
 62
     7
  6
CONTINUOUS
  0
LAYER
  2
RED
 70
     0
 62
     1
  6
CONTINUOUS
  0
LAYER
  2
YELLOW
 70
     0
 62
     2
  6
CONTINUOUS
  0
LAYER
  2
GREEN
 70
     0
 62
     3
  6
CONTINUOUS
  0
LAYER
  2
CYAN
 70
     0
 62
     4
  6
CONTINUOUS
  0
LAYER
  2
BLUE
 70
     0
 62
     5
  6
CONTINUOUS
  0
LAYER
  2
MAGENTA
 70
     0
 62
     6
  6
CONTINUOUS
  0
ENDTAB
  0
TABLE
  2
APPID
 70
     1
  0
APPID
  2
TC_BEND_DATA
 70
     0
  0
ENDTAB
  0
ENDSEC
  0
SECTION
  2
BLOCKS
  0
ENDSEC
  0
SECTION
  2
ENTITIES
  0
ARC
  8
WHITE
 10
53.387179
 20
249.482754
 30
0.000000
 40
13.380857
 50
84.937276
 51
181.648955
  6
CONTINUOUS
  0
ARC
  8
WHITE
 10
84.658990
 20
227.084921
 30
0.000000
 40
49.778800
 50
153.754891
 51
201.456457
  6
CONTINUOUS
  0
ARC
  8
WHITE
 10
31.054796
 20
219.571803
 30
0.000000
 40
12.935492
 50
-88.215505
 51
-55.776174
  6
CONTINUOUS
  0
ARC
  8
WHITE
 10
31.390080
 20
208.810134
 30
0.000000
 40
2.168601
 50
-177.203266
 51
-88.215503
  6
CONTINUOUS
  0
ARC
  8
WHITE
 10
22.486127
 20
208.375168
 30
0.000000
 40
6.745971
 50
2.796724
 51
120.254869
  6
CONTINUOUS
  0
ARC
  8
WHITE
 10
9.562870
 20
205.654109
 30
0.000000
 40
12.797812
 50
41.908329
 51
133.809869
  6
CONTINUOUS
  0
ARC
  8
WHITE
 10
6.459044
 20
207.652995
 30
0.000000
 40
9.246371
 50
23.105420
 51
128.497475
  6
CONTINUOUS
  0
ARC
  8
WHITE
 10
19.033484
 20
210.475349
 30
0.000000
 40
4.148845
 50
168.795819
 51
285.154055
  6
CONTINUOUS
  0
ARC
  8
WHITE
 10
20.948090
 20
203.406027
 30
0.000000
 40
3.175158
 50
21.715861
 51
105.154050
  6
CONTINUOUS
  0
ARC
  8
WHITE
 10
36.529950
 20
209.611796
 30
0.000000
 40
13.597019
 50
-158.284152
 51
-108.250816
  6
CONTINUOUS
  0
ARC
  8
WHITE
 10
28.916919
 20
203.045022
 30
0.000000
 40
7.178382
 50
-142.740959
 51
-62.138164
  6
CONTINUOUS
  0
ARC
  8
WHITE
 10
12.890837
 20
190.854515
 30
0.000000
 40
12.957252
 50
37.259039
 51
174.196380
  6
CONTINUOUS
  0
ARC
  8
WHITE
 10
11.601874
 20
184.963503
 30
0.000000
 40
13.655084
 50
95.042720
 51
148.172286
  6
CONTINUOUS
  0
ARC
  8
WHITE
 10
25.682939
 20
203.386188
 30
0.000000
 40
16.023598
 50
-162.492258
 51
-90.759223
  6
CONTINUOUS
  0
ARC
  8
WHITE
 10
14.943001
 20
199.723884
 30
0.000000
 40
16.235686
 50
-88.143227
 51
-49.577079
  6
CONTINUOUS
  0
ARC
  8
WHITE
 10
15.745758
 20
174.961317
 30
0.000000
 40
8.539890
 50
91.856775
 51
240.971245
  6
CONTINUOUS
  0
ARC
  8
WHITE
 10
17.497927
 20
172.266414
 30
0.000000
 40
7.585387
 50
107.615747
 51
218.985771
  6
CONTINUOUS
  0
ARC
  8
WHITE
 10
27.670948
 20
194.395739
 30
0.000000
 40
19.428463
 50
-129.923915
 51
-50.076083
  6
CONTINUOUS
  0
ARC
  8
WHITE
 10
55.086927
 20
161.634394
 30
0.000000
 40
23.290872
 50
59.149104
 51
129.923914
  6
CONTINUOUS
  0
ARC
  8
WHITE
 10
40.865815
 20
159.154115
 30
0.000000
 40
34.492748
 50
-39.407819
 51
40.662624
  6
CONTINUOUS
  0
ARC
  8
WHITE
 10
127.582209
 20
-57.835641
 30
0.000000
 40
204.129804
 50
107.112712
 51
108.873308
  6
CONTINUOUS
  0
ARC
  8
WHITE
 10
56.069635
 20
151.353444
 30
0.000000
 40
16.945119
 50
-105.858437
 51
-71.126692
  6
CONTINUOUS
  0
ARC
  8
WHITE
 10
59.925179
 20
144.604950
 30
0.000000
 40
12.776809
 50
-131.618796
 51
-72.910751
  6
CONTINUOUS
  0
ARC
  8
WHITE
 10
64.224682
 20
130.619862
 30
0.000000
 40
1.854268
 50
-38.515496
 51
107.089264
  6
CONTINUOUS
  0
ARC
  8
WHITE
 10
17.025639
 20
168.184522
 30
0.000000
 40
62.177177
 50
-46.505396
 51
-38.515496
  6
CONTINUOUS
  0
ARC
  8
WHITE
 10
68.082544
 20
114.371621
 30
0.000000
 40
12.002577
 50
133.494603
 51
167.553724
  6
CONTINUOUS
  0
ARC
  8
WHITE
 10
47.605262
 20
118.891185
 30
0.000000
 40
8.967534
 50
-80.765729
 51
-12.446277
  6
CONTINUOUS
  0
ARC
  8
WHITE
 10
50.590098
 20
122.873297
 30
0.000000
 40
12.926192
 50
-96.868254
 51
-36.718438
  6
CONTINUOUS
  0
ARC
  8
WHITE
 10
82.452371
 20
104.919386
 30
0.000000
 40
23.808586
 50
154.564776
 51
244.372448
  6
CONTINUOUS
  0
ARC
  8
WHITE
 10
65.100144
 20
68.747143
 30
0.000000
 40
16.310375
 50
-13.377327
 51
64.372448
  6
CONTINUOUS
  0
ARC
  8
WHITE
 10
75.282104
 20
73.103772
 30
0.000000
 40
9.921191
 50
-55.033048
 51
8.225828
  6
CONTINUOUS
  0
ARC
  8
WHITE
 10
67.364928
 20
55.909477
 30
0.000000
 40
25.710867
 50
-16.739557
 51
46.382824
  6
CONTINUOUS
  0
ARC
  8
WHITE
 10
77.011316
 20
65.622010
 30
0.000000
 40
22.743549
 50
-48.820031
 51
-6.446530
  6
CONTINUOUS
  0
ARC
  8
WHITE
 10
63.616998
 20
49.774352
 30
0.000000
 40
38.370635
 50
-8.784173
 51
20.271286
  6
CONTINUOUS
  0
ARC
  8
WHITE
 10
115.756684
 20
41.717450
 30
0.000000
 40
14.387876
 50
171.215829
 51
225.027892
  6
CONTINUOUS
  0
ARC
  8
WHITE
 10
114.199076
 20
35.900031
 30
0.000000
 40
9.652655
 50
151.766860
 51
206.860749
  6
CONTINUOUS
  0
ARC
  8
WHITE
 10
94.966409
 20
46.226824
 30
0.000000
 40
12.177098
 50
-28.233142
 51
1.965094
  6
CONTINUOUS
  0
ARC
  8
WHITE
 10
89.695560
 20
34.694400
 30
0.000000
 40
21.141976
 50
-16.974558
 51
34.417953
  6
CONTINUOUS
  0
ARC
  8
WHITE
 10
127.822566
 20
23.056315
 30
0.000000
 40
18.721712
 50
163.025443
 51
219.200639
  6
CONTINUOUS
  0
ARC
  8
WHITE
 10
102.826383
 20
2.669462
 30
0.000000
 40
13.534032
 50
-11.375649
 51
39.200637
  6
CONTINUOUS
  0
ARC
  8
WHITE
 10
101.141838
 20
7.177966
 30
0.000000
 40
16.586334
 50
-25.643090
 51
29.487002
  6
CONTINUOUS
  0
ARC
  8
WHITE
 10
125.237623
 20
20.803490
 30
0.000000
 40
11.095099
 50
140.208834
 51
209.487002
  6
CONTINUOUS
  0
ARC
  8
WHITE
 10
106.432975
 20
36.466021
 30
0.000000
 40
13.377941
 50
-39.791167
 51
26.933670
  6
CONTINUOUS
  0
ARC
  8
WHITE
 10
111.917095
 20
31.812618
 30
0.000000
 40
12.501137
 50
-29.593761
 51
58.977683
  6
CONTINUOUS
  0
ARC
  8
WHITE
 10
111.381659
 20
38.034706
 30
0.000000
 40
16.844769
 50
-47.381680
 51
39.753530
  6
CONTINUOUS
  0
ARC
  8
WHITE
 10
198.314280
 20
110.344866
 30
0.000000
 40
96.230602
 50
-149.049645
 51
-140.246469
  6
CONTINUOUS
  0
ARC
  8
WHITE
 10
112.797935
 20
46.722941
 30
0.000000
 40
14.443382
 50
31.954155
 51
78.061806
  6
CONTINUOUS
  0
ARC
  8
WHITE
 10
133.548249
 20
59.666102
 30
0.000000
 40
10.012720
 50
-148.045843
 51
-100.971199
  6
CONTINUOUS
  0
ARC
  8
WHITE
 10
138.119365
 20
57.870356
 30
0.000000
 40
10.319508
 50
-177.679581
 51
-128.874480
  6
CONTINUOUS
  0
ARC
  8
WHITE
 10
115.234939
 20
56.943053
 30
0.000000
 40
12.583698
 50
2.320422
 51
61.198540
  6
CONTINUOUS
  0
ARC
  8
WHITE
 10
20.004633
 20
-116.269775
 30
0.000000
 40
210.248806
 50
61.198540
 51
64.920729
  6
CONTINUOUS
  0
ARC
  8
WHITE
 10
107.148685
 20
39.209248
 30
0.000000
 40
35.003723
 50
65.884288
 51
86.766357
  6
CONTINUOUS
  0
ARC
  8
WHITE
 10
91.533611
 20
48.645871
 30
0.000000
 40
37.440816
 50
36.960932
 51
85.198983
  6
CONTINUOUS
  0
ARC
  8
WHITE
 10
96.247516
 20
104.770320
 30
0.000000
 40
18.881245
 50
-120.783736
 51
-94.801017
  6
CONTINUOUS
  0
ARC
  8
WHITE
 10
107.734023
 20
110.798677
 30
0.000000
 40
30.697744
 50
128.439720
 51
226.451151
  6
CONTINUOUS
  0
ARC
  8
WHITE
 10
62.137492
 20
168.245328
 30
0.000000
 40
42.645021
 50
-51.560282
 51
35.061749
  6
CONTINUOUS
  0
ARC
  8
WHITE
 10
110.240960
 20
199.732922
 30
0.000000
 40
14.933865
 50
71.619548
 51
207.907731
  6
CONTINUOUS
  0
ARC
  8
WHITE
 10
138.473307
 20
284.699263
 30
0.000000
 40
74.600176
 50
-108.380452
 51
-77.204952
  6
CONTINUOUS
  0
ARC
  8
WHITE
 10
202.313758
 20
346.423316
 30
0.000000
 40
142.554441
 50
-109.386423
 51
-91.602172
  6
CONTINUOUS
  0
ARC
  8
WHITE
 10
196.180901
 20
127.161367
 30
0.000000
 40
76.793260
 50
79.902370
 51
88.397829
  6
CONTINUOUS
  0
ARC
  8
WHITE
 10
208.287512
 20
195.143782
 30
0.000000
 40
7.741260
 50
-78.241745
 51
79.902371
  6
CONTINUOUS
  0
ARC
  8
WHITE
 10
213.203766
 20
171.525055
 30
0.000000
 40
16.383703
 50
101.758260
 51
155.955906
  6
CONTINUOUS
  0
ARC
  8
WHITE
 10
197.610877
 20
166.364954
 30
0.000000
 40
11.852266
 50
86.949339
 51
199.569533
  6
CONTINUOUS
  0
ARC
  8
WHITE
 10
195.819504
 20
162.877764
 30
0.000000
 40
9.388673
 50
60.844096
 51
182.947251
  6
CONTINUOUS
  0
ARC
  8
WHITE
 10
206.158200
 20
171.796145
 30
0.000000
 40
5.809350
 50
-172.887726
 51
-116.905776
  6
CONTINUOUS
  0
ARC
  8
WHITE
 10
208.633968
 20
176.676999
 30
0.000000
 40
11.282207
 50
-116.901028
 51
-59.149107
  6
CONTINUOUS
  0
ARC
  8
WHITE
 10
226.363239
 20
146.995847
 30
0.000000
 40
23.290872
 50
50.076087
 51
120.850896
  6
CONTINUOUS
  0
ARC
  8
WHITE
 10
253.779217
 20
179.757193
 30
0.000000
 40
19.428463
 50
-129.923914
 51
-50.076087
  6
CONTINUOUS
  0
ARC
  8
WHITE
 10
263.952238
 20
157.627867
 30
0.000000
 40
7.585386
 50
-38.985760
 51
72.384253
  6
CONTINUOUS
  0
ARC
  8
WHITE
 10
265.704408
 20
160.322771
 30
0.000000
 40
8.539890
 50
-60.971245
 51
88.143231
  6
CONTINUOUS
  0
ARC
  8
WHITE
 10
266.507164
 20
185.085337
 30
0.000000
 40
16.235686
 50
-130.422918
 51
-91.856773
  6
CONTINUOUS
  0
ARC
  8
WHITE
 10
255.767227
 20
188.747641
 30
0.000000
 40
16.023597
 50
-89.240777
 51
-17.507740
  6
CONTINUOUS
  0
ARC
  8
WHITE
 10
269.848291
 20
170.324957
 30
0.000000
 40
13.655084
 50
31.827713
 51
84.957280
  6
CONTINUOUS
  0
ARC
  8
WHITE
 10
268.559328
 20
176.215968
 30
0.000000
 40
12.957252
 50
5.803623
 51
142.740960
  6
CONTINUOUS
  0
ARC
  8
WHITE
 10
252.533246
 20
188.406475
 30
0.000000
 40
7.178382
 50
-117.861838
 51
-37.259039
  6
CONTINUOUS
  0
ARC
  8
WHITE
 10
234.873374
 20
154.998991
 30
0.000000
 40
30.609594
 50
62.138164
 51
95.130154
  6
CONTINUOUS
  0
ARC
  8
WHITE
 10
224.197553
 20
252.869848
 30
0.000000
 40
67.849918
 50
-83.280735
 51
-59.087129
  6
CONTINUOUS
  0
ARC
  8
WHITE
 10
296.083894
 20
132.817735
 30
0.000000
 40
72.079192
 50
108.334259
 51
120.912871
  6
CONTINUOUS
  0
ARC
  8
WHITE
 10
268.240964
 20
216.838423
 30
0.000000
 40
16.434675
 50
-71.665741
 51
55.295670
  6
CONTINUOUS
  0
ARC
  8
WHITE
 10
281.090603
 20
235.392662
 30
0.000000
 40
6.134618
 50
169.987867
 51
235.295669
  6
CONTINUOUS
  0
ARC
  8
WHITE
 10
121.010992
 20
263.653970
 30
0.000000
 40
156.420552
 50
-10.012133
 51
16.521523
  6
CONTINUOUS
  0
ARC
  8
WHITE
 10
276.527187
 20
313.037628
 30
0.000000
 40
7.407364
 50
-138.570014
 51
-60.550180
  6
CONTINUOUS
  0
ARC
  8
WHITE
 10
274.718120
 20
301.961828
 30
0.000000
 40
7.149059
 50
-67.457974
 51
40.317105
  6
CONTINUOUS
  0
ARC
  8
WHITE
 10
275.946478
 20
305.167445
 30
0.000000
 40
9.924380
 50
-81.234918
 51
11.060421
  6
CONTINUOUS
  0
ARC
  8
WHITE
 10
281.865397
 20
310.303297
 30
0.000000
 40
5.004624
 50
-40.224669
 51
46.673717
  6
CONTINUOUS
  0
ARC
  8
WHITE
 10
276.285092
 20
304.387062
 30
0.000000
 40
13.137374
 50
46.673714
 51
107.085479
  6
CONTINUOUS
  0
ARC
  8
WHITE
 10
271.553736
 20
319.780455
 30
0.000000
 40
2.966734
 50
-168.144879
 51
-72.914520
  6
CONTINUOUS
  0
ARC
  8
WHITE
 10
272.885069
 20
320.059921
 30
0.000000
 40
4.327082
 50
126.753993
 51
191.855109
  6
CONTINUOUS
  0
ARC
  8
WHITE
 10
272.818545
 20
320.148994
 30
0.000000
 40
4.215910
 50
51.869459
 51
126.753989
  6
CONTINUOUS
  0
ARC
  8
WHITE
 10
280.071718
 20
329.389163
 30
0.000000
 40
7.530972
 50
-128.130530
 51
-40.931279
  6
CONTINUOUS
  0
ARC
  8
WHITE
 10
282.943305
 20
316.369335
 30
0.000000
 40
8.562877
 50
-13.739686
 51
70.785921
  6
CONTINUOUS
  0
ARC
  8
WHITE
 10
283.869311
 20
320.033261
 30
0.000000
 40
9.332908
 50
-37.625382
 51
65.488760
  6
CONTINUOUS
  0
ARC
  8
WHITE
 10
281.233408
 20
324.671403
 30
0.000000
 40
7.563277
 50
30.632239
 51
73.816389
  6
CONTINUOUS
  0
ARC
  8
WHITE
 10
274.767974
 20
302.393450
 30
0.000000
 40
30.760454
 50
73.816389
 51
96.995105
  6
CONTINUOUS
  0
ARC
  8
WHITE
 10
272.239531
 20
323.000520
 30
0.000000
 40
9.998846
 50
96.995104
 51
131.363110
  6
CONTINUOUS
  0
ARC
  8
WHITE
 10
264.955204
 20
331.273699
 30
0.000000
 40
1.024172
 50
147.434305
 51
311.363113
  6
CONTINUOUS
  0
ARC
  8
WHITE
 10
274.409036
 20
325.235691
 30
0.000000
 40
12.241681
 50
72.100041
 51
147.434295
  6
CONTINUOUS
  0
ARC
  8
WHITE
 10
279.808017
 20
341.951300
 30
0.000000
 40
5.324212
 50
-107.899956
 51
-13.209187
  6
CONTINUOUS
  0
ARC
  8
WHITE
 10
286.762814
 20
334.453510
 30
0.000000
 40
6.526189
 50
-19.593733
 51
105.749817
  6
CONTINUOUS
  0
ARC
  8
WHITE
 10
285.334897
 20
337.628345
 30
0.000000
 40
9.282495
 50
-35.295633
 51
80.535362
  6
CONTINUOUS
  0
ARC
  8
WHITE
 10
284.284066
 20
346.949367
 30
0.000000
 40
2.582503
 50
-3.660699
 51
66.318065
  6
CONTINUOUS
  0
ARC
  8
WHITE
 10
280.066503
 20
337.333244
 30
0.000000
 40
13.082868
 50
66.318082
 51
136.466190
  6
CONTINUOUS
  0
ARC
  8
WHITE
 10
245.004508
 20
370.645179
 30
0.000000
 40
35.280636
 50
-74.692964
 51
-43.533810
  6
CONTINUOUS
  0
LINE
  8
WHITE
 10
254.318296
 20
336.616123
 30
0.000000
 11
254.063072
 21
336.895969
 31
0.000000
  6
CONTINUOUS
  0
LINE
  8
WHITE
 10
254.063072
 20
336.895969
 30
0.000000
 11
253.809750
 21
337.173545
 31
0.000000
  6
CONTINUOUS
  0
LINE
  8
WHITE
 10
253.809750
 20
337.173545
 30
0.000000
 11
253.558315
 21
337.448868
 31
0.000000
  6
CONTINUOUS
  0
LINE
  8
WHITE
 10
253.558315
 20
337.448868
 30
0.000000
 11
253.308754
 21
337.721958
 31
0.000000
  6
CONTINUOUS
  0
LINE
  8
WHITE
 10
253.308754
 20
337.721958
 30
0.000000
 11
253.061055
 21
337.992834
 31
0.000000
  6
CONTINUOUS
  0
LINE
  8
WHITE
 10
253.061055
 20
337.992834
 30
0.000000
 11
252.815204
 21
338.261514
 31
0.000000
  6
CONTINUOUS
  0
LINE
  8
WHITE
 10
252.815204
 20
338.261514
 30
0.000000
 11
252.571188
 21
338.528017
 31
0.000000
  6
CONTINUOUS
  0
LINE
  8
WHITE
 10
252.571188
 20
338.528017
 30
0.000000
 11
252.328994
 21
338.792360
 31
0.000000
  6
CONTINUOUS
  0
LINE
  8
WHITE
 10
252.328994
 20
338.792360
 30
0.000000
 11
252.088609
 21
339.054562
 31
0.000000
  6
CONTINUOUS
  0
LINE
  8
WHITE
 10
252.088609
 20
339.054562
 30
0.000000
 11
251.850020
 21
339.314640
 31
0.000000
  6
CONTINUOUS
  0
LINE
  8
WHITE
 10
251.850020
 20
339.314640
 30
0.000000
 11
251.613215
 21
339.572613
 31
0.000000
  6
CONTINUOUS
  0
LINE
  8
WHITE
 10
251.613215
 20
339.572613
 30
0.000000
 11
251.378180
 21
339.828498
 31
0.000000
  6
CONTINUOUS
  0
LINE
  8
WHITE
 10
251.378180
 20
339.828498
 30
0.000000
 11
251.144905
 21
340.082312
 31
0.000000
  6
CONTINUOUS
  0
LINE
  8
WHITE
 10
251.144905
 20
340.082312
 30
0.000000
 11
250.913375
 21
340.334073
 31
0.000000
  6
CONTINUOUS
  0
LINE
  8
WHITE
 10
250.913375
 20
340.334073
 30
0.000000
 11
250.683578
 21
340.583797
 31
0.000000
  6
CONTINUOUS
  0
LINE
  8
WHITE
 10
250.683578
 20
340.583797
 30
0.000000
 11
250.455502
 21
340.831502
 31
0.000000
  6
CONTINUOUS
  0
LINE
  8
WHITE
 10
250.455502
 20
340.831502
 30
0.000000
 11
250.229135
 21
341.077205
 31
0.000000
  6
CONTINUOUS
  0
LINE
  8
WHITE
 10
250.229135
 20
341.077205
 30
0.000000
 11
250.004465
 21
341.320922
 31
0.000000
  6
CONTINUOUS
  0
LINE
  8
WHITE
 10
250.004465
 20
341.320922
 30
0.000000
 11
249.781479
 21
341.562670
 31
0.000000
  6
CONTINUOUS
  0
LINE
  8
WHITE
 10
249.781479
 20
341.562670
 30
0.000000
 11
249.560166
 21
341.802464
 31
0.000000
  6
CONTINUOUS
  0
LINE
  8
WHITE
 10
249.560166
 20
341.802464
 30
0.000000
 11
249.340513
 21
342.040322
 31
0.000000
  6
CONTINUOUS
  0
LINE
  8
WHITE
 10
249.340513
 20
342.040322
 30
0.000000
 11
249.122509
 21
342.276260
 31
0.000000
  6
CONTINUOUS
  0
LINE
  8
WHITE
 10
249.122509
 20
342.276260
 30
0.000000
 11
248.906141
 21
342.510293
 31
0.000000
  6
CONTINUOUS
  0
LINE
  8
WHITE
 10
248.906141
 20
342.510293
 30
0.000000
 11
248.691399
 21
342.742437
 31
0.000000
  6
CONTINUOUS
  0
LINE
  8
WHITE
 10
248.691399
 20
342.742437
 30
0.000000
 11
248.478270
 21
342.972708
 31
0.000000
  6
CONTINUOUS
  0
LINE
  8
WHITE
 10
248.478270
 20
342.972708
 30
0.000000
 11
248.266742
 21
343.201121
 31
0.000000
  6
CONTINUOUS
  0
LINE
  8
WHITE
 10
248.266742
 20
343.201121
 30
0.000000
 11
248.056805
 21
343.427692
 31
0.000000
  6
CONTINUOUS
  0
LINE
  8
WHITE
 10
248.056805
 20
343.427692
 30
0.000000
 11
247.848447
 21
343.652436
 31
0.000000
  6
CONTINUOUS
  0
LINE
  8
WHITE
 10
247.848447
 20
343.652436
 30
0.000000
 11
247.641656
 21
343.875369
 31
0.000000
  6
CONTINUOUS
  0
LINE
  8
WHITE
 10
247.641656
 20
343.875369
 30
0.000000
 11
247.436422
 21
344.096504
 31
0.000000
  6
CONTINUOUS
  0
LINE
  8
WHITE
 10
247.436422
 20
344.096504
 30
0.000000
 11
247.232732
 21
344.315858
 31
0.000000
  6
CONTINUOUS
  0
LINE
  8
WHITE
 10
247.232732
 20
344.315858
 30
0.000000
 11
246.828363
 21
344.750979
 31
0.000000
  6
CONTINUOUS
  0
LINE
  8
WHITE
 10
246.828363
 20
344.750979
 30
0.000000
 11
246.430089
 21
345.179092
 31
0.000000
  6
CONTINUOUS
  0
LINE
  8
WHITE
 10
246.430089
 20
345.179092
 30
0.000000
 11
246.037821
 21
345.600315
 31
0.000000
  6
CONTINUOUS
  0
LINE
  8
WHITE
 10
246.037821
 20
345.600315
 30
0.000000
 11
245.651473
 21
346.014760
 31
0.000000
  6
CONTINUOUS
  0
LINE
  8
WHITE
 10
245.651473
 20
346.014760
 30
0.000000
 11
245.270957
 21
346.422540
 31
0.000000
  6
CONTINUOUS
  0
LINE
  8
WHITE
 10
245.270957
 20
346.422540
 30
0.000000
 11
244.896191
 21
346.823765
 31
0.000000
  6
CONTINUOUS
  0
LINE
  8
WHITE
 10
244.896191
 20
346.823765
 30
0.000000
 11
244.527090
 21
347.218542
 31
0.000000
  6
CONTINUOUS
  0
LINE
  8
WHITE
 10
244.527090
 20
347.218542
 30
0.000000
 11
244.163571
 21
347.606979
 31
0.000000
  6
CONTINUOUS
  0
LINE
  8
WHITE
 10
244.163571
 20
347.606979
 30
0.000000
 11
243.805553
 21
347.989178
 31
0.000000
  6
CONTINUOUS
  0
LINE
  8
WHITE
 10
243.805553
 20
347.989178
 30
0.000000
 11
243.452956
 21
348.365244
 31
0.000000
  6
CONTINUOUS
  0
LINE
  8
WHITE
 10
243.452956
 20
348.365244
 30
0.000000
 11
243.105701
 21
348.735276
 31
0.000000
  6
CONTINUOUS
  0
LINE
  8
WHITE
 10
243.105701
 20
348.735276
 30
0.000000
 11
242.763709
 21
349.099373
 31
0.000000
  6
CONTINUOUS
  0
LINE
  8
WHITE
 10
242.763709
 20
349.099373
 30
0.000000
 11
242.426903
 21
349.457634
 31
0.000000
  6
CONTINUOUS
  0
LINE
  8
WHITE
 10
242.426903
 20
349.457634
 30
0.000000
 11
242.095207
 21
349.810153
 31
0.000000
  6
CONTINUOUS
  0
LINE
  8
WHITE
 10
242.095207
 20
349.810153
 30
0.000000
 11
241.768546
 21
350.157026
 31
0.000000
  6
CONTINUOUS
  0
LINE
  8
WHITE
 10
241.768546
 20
350.157026
 30
0.000000
 11
241.446846
 21
350.498343
 31
0.000000
  6
CONTINUOUS
  0
LINE
  8
WHITE
 10
241.446846
 20
350.498343
 30
0.000000
 11
241.130035
 21
350.834197
 31
0.000000
  6
CONTINUOUS
  0
LINE
  8
WHITE
 10
241.130035
 20
350.834197
 30
0.000000
 11
240.818039
 21
351.164677
 31
0.000000
  6
CONTINUOUS
  0
LINE
  8
WHITE
 10
240.818039
 20
351.164677
 30
0.000000
 11
240.510788
 21
351.489870
 31
0.000000
  6
CONTINUOUS
  0
LINE
  8
WHITE
 10
240.510788
 20
351.489870
 30
0.000000
 11
240.208212
 21
351.809862
 31
0.000000
  6
CONTINUOUS
  0
LINE
  8
WHITE
 10
240.208212
 20
351.809862
 30
0.000000
 11
239.910242
 21
352.124740
 31
0.000000
  6
CONTINUOUS
  0
LINE
  8
WHITE
 10
239.910242
 20
352.124740
 30
0.000000
 11
239.616810
 21
352.434586
 31
0.000000
  6
CONTINUOUS
  0
LINE
  8
WHITE
 10
239.616810
 20
352.434586
 30
0.000000
 11
239.327848
 21
352.739481
 31
0.000000
  6
CONTINUOUS
  0
LINE
  8
WHITE
 10
239.327848
 20
352.739481
 30
0.000000
 11
239.043290
 21
353.039508
 31
0.000000
  6
CONTINUOUS
  0
LINE
  8
WHITE
 10
239.043290
 20
353.039508
 30
0.000000
 11
238.763071
 21
353.334745
 31
0.000000
  6
CONTINUOUS
  0
LINE
  8
WHITE
 10
238.763071
 20
353.334745
 30
0.000000
 11
238.487126
 21
353.625271
 31
0.000000
  6
CONTINUOUS
  0
LINE
  8
WHITE
 10
238.487126
 20
353.625271
 30
0.000000
 11
238.215392
 21
353.911161
 31
0.000000
  6
CONTINUOUS
  0
LINE
  8
WHITE
 10
238.215392
 20
353.911161
 30
0.000000
 11
237.947806
 21
354.192491
 31
0.000000
  6
CONTINUOUS
  0
LINE
  8
WHITE
 10
237.947806
 20
354.192491
 30
0.000000
 11
237.684307
 21
354.469335
 31
0.000000
  6
CONTINUOUS
  0
LINE
  8
WHITE
 10
237.684307
 20
354.469335
 30
0.000000
 11
237.424834
 21
354.741767
 31
0.000000
  6
CONTINUOUS
  0
LINE
  8
WHITE
 10
237.424834
 20
354.741767
 30
0.000000
 11
237.169326
 21
355.009857
 31
0.000000
  6
CONTINUOUS
  0
LINE
  8
WHITE
 10
237.169326
 20
355.009857
 30
0.000000
 11
236.917724
 21
355.273676
 31
0.000000
  6
CONTINUOUS
  0
LINE
  8
WHITE
 10
236.917724
 20
355.273676
 30
0.000000
 11
236.669971
 21
355.533294
 31
0.000000
  6
CONTINUOUS
  0
LINE
  8
WHITE
 10
236.669971
 20
355.533294
 30
0.000000
 11
236.426008
 21
355.788778
 31
0.000000
  6
CONTINUOUS
  0
LINE
  8
WHITE
 10
236.426008
 20
355.788778
 30
0.000000
 11
236.185778
 21
356.040196
 31
0.000000
  6
CONTINUOUS
  0
LINE
  8
WHITE
 10
236.185778
 20
356.040196
 30
0.000000
 11
235.949227
 21
356.287613
 31
0.000000
  6
CONTINUOUS
  0
LINE
  8
WHITE
 10
235.949227
 20
356.287613
 30
0.000000
 11
235.716298
 21
356.531094
 31
0.000000
  6
CONTINUOUS
  0
LINE
  8
WHITE
 10
235.716298
 20
356.531094
 30
0.000000
 11
235.486938
 21
356.770703
 31
0.000000
  6
CONTINUOUS
  0
LINE
  8
WHITE
 10
235.486938
 20
356.770703
 30
0.000000
 11
235.261093
 21
357.006502
 31
0.000000
  6
CONTINUOUS
  0
LINE
  8
WHITE
 10
235.261093
 20
357.006502
 30
0.000000
 11
235.038710
 21
357.238552
 31
0.000000
  6
CONTINUOUS
  0
LINE
  8
WHITE
 10
235.038710
 20
357.238552
 30
0.000000
 11
234.819738
 21
357.466915
 31
0.000000
  6
CONTINUOUS
  0
LINE
  8
WHITE
 10
234.819738
 20
357.466915
 30
0.000000
 11
234.604124
 21
357.691650
 31
0.000000
  6
CONTINUOUS
  0
LINE
  8
WHITE
 10
234.604124
 20
357.691650
 30
0.000000
 11
234.391818
 21
357.912815
 31
0.000000
  6
CONTINUOUS
  0
LINE
  8
WHITE
 10
234.391818
 20
357.912815
 30
0.000000
 11
234.182771
 21
358.130469
 31
0.000000
  6
CONTINUOUS
  0
LINE
  8
WHITE
 10
234.182771
 20
358.130469
 30
0.000000
 11
233.771040
 21
358.558810
 31
0.000000
  6
CONTINUOUS
  0
LINE
  8
WHITE
 10
233.771040
 20
358.558810
 30
0.000000
 11
233.371961
 21
358.973559
 31
0.000000
  6
CONTINUOUS
  0
LINE
  8
WHITE
 10
233.371961
 20
358.973559
 30
0.000000
 11
232.985151
 21
359.375152
 31
0.000000
  6
CONTINUOUS
  0
LINE
  8
WHITE
 10
232.985151
 20
359.375152
 30
0.000000
 11
232.610239
 21
359.764014
 31
0.000000
  6
CONTINUOUS
  0
LINE
  8
WHITE
 10
232.610239
 20
359.764014
 30
0.000000
 11
232.246866
 21
360.140552
 31
0.000000
  6
CONTINUOUS
  0
LINE
  8
WHITE
 10
232.246866
 20
360.140552
 30
0.000000
 11
231.894682
 21
360.505163
 31
0.000000
  6
CONTINUOUS
  0
LINE
  8
WHITE
 10
231.894682
 20
360.505163
 30
0.000000
 11
231.553347
 21
360.858228
 31
0.000000
  6
CONTINUOUS
  0
LINE
  8
WHITE
 10
231.553347
 20
360.858228
 30
0.000000
 11
231.222533
 21
361.200119
 31
0.000000
  6
CONTINUOUS
  0
LINE
  8
WHITE
 10
231.222533
 20
361.200119
 30
0.000000
 11
230.901919
 21
361.531193
 31
0.000000
  6
CONTINUOUS
  0
LINE
  8
WHITE
 10
230.901919
 20
361.531193
 30
0.000000
 11
230.591195
 21
361.851795
 31
0.000000
  6
CONTINUOUS
  0
LINE
  8
WHITE
 10
230.591195
 20
361.851795
 30
0.000000
 11
230.290061
 21
362.162262
 31
0.000000
  6
CONTINUOUS
  0
LINE
  8
WHITE
 10
230.290061
 20
362.162262
 30
0.000000
 11
229.998223
 21
362.462916
 31
0.000000
  6
CONTINUOUS
  0
LINE
  8
WHITE
 10
229.998223
 20
362.462916
 30
0.000000
 11
229.715399
 21
362.754071
 31
0.000000
  6
CONTINUOUS
  0
LINE
  8
WHITE
 10
229.715399
 20
362.754071
 30
0.000000
 11
229.441313
 21
363.036031
 31
0.000000
  6
CONTINUOUS
  0
LINE
  8
WHITE
 10
229.441313
 20
363.036031
 30
0.000000
 11
229.175699
 21
363.309088
 31
0.000000
  6
CONTINUOUS
  0
LINE
  8
WHITE
 10
229.175699
 20
363.309088
 30
0.000000
 11
228.918297
 21
363.573527
 31
0.000000
  6
CONTINUOUS
  0
LINE
  8
WHITE
 10
228.918297
 20
363.573527
 30
0.000000
 11
228.668857
 21
363.829622
 31
0.000000
  6
CONTINUOUS
  0
LINE
  8
WHITE
 10
228.668857
 20
363.829622
 30
0.000000
 11
228.427134
 21
364.077639
 31
0.000000
  6
CONTINUOUS
  0
LINE
  8
WHITE
 10
228.427134
 20
364.077639
 30
0.000000
 11
228.192893
 21
364.317834
 31
0.000000
  6
CONTINUOUS
  0
LINE
  8
WHITE
 10
228.192893
 20
364.317834
 30
0.000000
 11
227.965903
 21
364.550456
 31
0.000000
  6
CONTINUOUS
  0
LINE
  8
WHITE
 10
227.965903
 20
364.550456
 30
0.000000
 11
227.745943
 21
364.775747
 31
0.000000
  6
CONTINUOUS
  0
LINE
  8
WHITE
 10
227.745943
 20
364.775747
 30
0.000000
 11
227.532797
 21
364.993939
 31
0.000000
  6
CONTINUOUS
  0
LINE
  8
WHITE
 10
227.532797
 20
364.993939
 30
0.000000
 11
227.119658
 21
365.416522
 31
0.000000
  6
CONTINUOUS
  0
LINE
  8
WHITE
 10
227.119658
 20
365.416522
 30
0.000000
 11
226.732139
 21
365.812497
 31
0.000000
  6
CONTINUOUS
  0
LINE
  8
WHITE
 10
226.732139
 20
365.812497
 30
0.000000
 11
226.368664
 21
366.183550
 31
0.000000
  6
CONTINUOUS
  0
LINE
  8
WHITE
 10
226.368664
 20
366.183550
 30
0.000000
 11
226.027751
 21
366.531261
 31
0.000000
  6
CONTINUOUS
  0
LINE
  8
WHITE
 10
226.027751
 20
366.531261
 30
0.000000
 11
225.708009
 21
366.857106
 31
0.000000
  6
CONTINUOUS
  0
LINE
  8
WHITE
 10
225.708009
 20
366.857106
 30
0.000000
 11
225.408131
 21
367.162468
 31
0.000000
  6
CONTINUOUS
  0
LINE
  8
WHITE
 10
225.408131
 20
367.162468
 30
0.000000
 11
225.126890
 21
367.448642
 31
0.000000
  6
CONTINUOUS
  0
LINE
  8
WHITE
 10
225.126890
 20
367.448642
 30
0.000000
 11
224.863134
 21
367.716839
 31
0.000000
  6
CONTINUOUS
  0
LINE
  8
WHITE
 10
224.863134
 20
367.716839
 30
0.000000
 11
224.615782
 21
367.968193
 31
0.000000
  6
CONTINUOUS
  0
LINE
  8
WHITE
 10
224.615782
 20
367.968193
 30
0.000000
 11
224.383818
 21
368.203768
 31
0.000000
  6
CONTINUOUS
  0
LINE
  8
WHITE
 10
224.383818
 20
368.203768
 30
0.000000
 11
224.166288
 21
368.424558
 31
0.000000
  6
CONTINUOUS
  0
LINE
  8
WHITE
 10
224.166288
 20
368.424558
 30
0.000000
 11
223.758258
 21
368.838378
 31
0.000000
  6
CONTINUOUS
  0
LINE
  8
WHITE
 10
223.758258
 20
368.838378
 30
0.000000
 11
223.401057
 21
369.200297
 31
0.000000
  6
CONTINUOUS
  0
LINE
  8
WHITE
 10
223.401057
 20
369.200297
 30
0.000000
 11
223.088372
 21
369.516845
 31
0.000000
  6
CONTINUOUS
  0
LINE
  8
WHITE
 10
223.088372
 20
369.516845
 30
0.000000
 11
222.814670
 21
369.793723
 31
0.000000
  6
CONTINUOUS
  0
LINE
  8
WHITE
 10
222.814670
 20
369.793723
 30
0.000000
 11
222.575102
 21
370.035914
 31
0.000000
  6
CONTINUOUS
  0
LINE
  8
WHITE
 10
222.575102
 20
370.035914
 30
0.000000
 11
222.155683
 21
370.459573
 31
0.000000
  6
CONTINUOUS
  0
LINE
  8
WHITE
 10
222.155683
 20
370.459573
 30
0.000000
 11
221.840972
 21
370.777173
 31
0.000000
  6
CONTINUOUS
  0
LINE
  8
WHITE
 10
221.840972
 20
370.777173
 30
0.000000
 11
221.604856
 21
371.015290
 31
0.000000
  6
CONTINUOUS
  0
LINE
  8
WHITE
 10
221.604856
 20
371.015290
 30
0.000000
 11
221.250550
 21
371.372335
 31
0.000000
  6
CONTINUOUS
  0
LINE
  8
WHITE
 10
221.250550
 20
371.372335
 30
0.000000
 11
220.896084
 21
371.729222
 31
0.000000
  6
CONTINUOUS
  0
ARC
  8
WHITE
 10
252.457353
 20
403.090365
 30
0.000000
 40
44.493089
 50
-167.514879
 51
-135.182230
  6
CONTINUOUS
  0
ARC
  8
WHITE
 10
236.992665
 20
399.666139
 30
0.000000
 40
28.653837
 50
124.527596
 51
192.485120
  6
CONTINUOUS
  0
ARC
  8
WHITE
 10
239.430262
 20
396.123070
 30
0.000000
 40
32.954444
 50
82.993976
 51
124.527596
  6
CONTINUOUS
  0
ARC
  8
WHITE
 10
238.187187
 20
386.007833
 30
0.000000
 40
43.145776
 50
48.518982
 51
82.993975
  6
CONTINUOUS
  0
ARC
  8
WHITE
 10
46.319960
 20
168.996538
 30
0.000000
 40
332.812714
 50
43.755757
 51
48.518984
  6
CONTINUOUS
  0
ARC
  8
WHITE
 10
255.436669
 20
340.168868
 30
0.000000
 40
66.771923
 50
62.073293
 51
80.240257
  6
CONTINUOUS
  0
ARC
  8
WHITE
 10
256.863308
 20
380.656934
 30
0.000000
 40
27.181491
 50
11.042002
 51
68.657836
  6
CONTINUOUS
  0
ARC
  8
WHITE
 10
260.884107
 20
364.593336
 30
0.000000
 40
31.076657
 50
43.190374
 51
84.421208
  6
CONTINUOUS
  0
ARC
  8
WHITE
 10
257.092060
 20
373.799389
 30
0.000000
 40
22.766762
 50
9.724192
 51
72.586922
  6
CONTINUOUS
  0
ARC
  8
WHITE
 10
265.312788
 20
364.681464
 30
0.000000
 40
19.241271
 50
42.355347
 51
86.276179
  6
CONTINUOUS
  0
ARC
  8
WHITE
 10
263.058133
 20
369.908634
 30
0.000000
 40
14.406191
 50
3.237310
 51
75.921499
  6
CONTINUOUS
  0
ARC
  8
WHITE
 10
284.090551
 20
371.098268
 30
0.000000
 40
6.659844
 50
-176.762690
 51
-91.213034
  6
CONTINUOUS
  0
ARC
  8
WHITE
 10
283.371250
 20
337.128212
 30
0.000000
 40
27.317826
 50
34.314263
 51
88.786969
  6
CONTINUOUS
  0
ARC
  8
WHITE
 10
296.420452
 20
334.548282
 30
0.000000
 40
20.341943
 50
62.114109
 51
100.340416
  6
CONTINUOUS
  0
ARC
  8
WHITE
 10
293.054601
 20
349.043543
 30
0.000000
 40
5.523683
 50
28.928565
 51
92.962226
  6
CONTINUOUS
  0
ARC
  8
WHITE
 10
304.053215
 20
355.122260
 30
0.000000
 40
7.042952
 50
-151.071438
 51
-114.254190
  6
CONTINUOUS
  0
ARC
  8
WHITE
 10
294.168572
 20
333.183452
 30
0.000000
 40
17.019830
 50
0.231234
 51
65.745808
  6
CONTINUOUS
  0
ARC
  8
WHITE
 10
330.028394
 20
333.328175
 30
0.000000
 40
18.840284
 50
-179.768768
 51
-130.247762
  6
CONTINUOUS
  0
ARC
  8
WHITE
 10
320.759881
 20
332.663062
 30
0.000000
 40
14.018973
 50
-134.311931
 51
-101.955614
  6
CONTINUOUS
  0
ARC
  8
WHITE
 10
328.366887
 20
328.745666
 30
0.000000
 40
18.443010
 50
-160.640208
 51
-86.160600
  6
CONTINUOUS
  0
ARC
  8
WHITE
 10
324.263144
 20
339.914600
 30
0.000000
 40
30.048613
 50
-109.357593
 51
-79.766023
  6
CONTINUOUS
  0
ARC
  8
WHITE
 10
329.711330
 20
335.295801
 30
0.000000
 40
28.294486
 50
-122.994942
 51
-71.443100
  6
CONTINUOUS
  0
ARC
  8
WHITE
 10
329.404079
 20
310.435318
 30
0.000000
 40
9.516506
 50
-100.130682
 51
-11.903537
  6
CONTINUOUS
  0
ARC
  8
WHITE
 10
332.422051
 20
312.978147
 30
0.000000
 40
12.801746
 50
-111.500057
 51
-19.444502
  6
CONTINUOUS
  0
ARC
  8
WHITE
 10
338.413451
 20
300.822911
 30
0.000000
 40
9.963829
 50
-19.636314
 51
52.394139
  6
CONTINUOUS
  0
ARC
  8
WHITE
 10
341.262733
 20
304.002043
 30
0.000000
 40
9.236626
 50
-44.966513
 51
10.309863
  6
CONTINUOUS
  0
ARC
  8
WHITE
 10
423.486969
 20
318.959341
 30
0.000000
 40
74.336970
 50
174.333198
 51
190.309863
  6
CONTINUOUS
  0
ARC
  8
WHITE
 10
342.384226
 20
327.007573
 30
0.000000
 40
7.164129
 50
-5.671259
 51
104.323557
  6
CONTINUOUS
  0
ARC
  8
WHITE
 10
338.799325
 20
341.048240
 30
0.000000
 40
7.326966
 50
-176.669540
 51
-75.677725
  6
CONTINUOUS
  0
ARC
  8
WHITE
 10
313.122803
 20
339.554044
 30
0.000000
 40
18.392995
 50
3.330463
 51
59.517729
  6
CONTINUOUS
  0
ARC
  8
WHITE
 10
320.973190
 20
315.808723
 30
0.000000
 40
39.623793
 50
44.014933
 51
87.859635
  6
CONTINUOUS
  0
ARC
  8
WHITE
 10
329.602691
 20
324.146469
 30
0.000000
 40
27.624364
 50
26.422608
 51
44.014953
  6
CONTINUOUS
  0
ARC
  8
WHITE
 10
363.177881
 20
340.829664
 30
0.000000
 40
9.867267
 50
-153.578381
 51
-92.562976
  6
CONTINUOUS
  0
ARC
  8
WHITE
 10
352.403700
 20
332.351422
 30
0.000000
 40
10.424575
 50
-83.629688
 51
-7.602428
  6
CONTINUOUS
  0
ARC
  8
WHITE
 10
356.532060
 20
338.080818
 30
0.000000
 40
16.361737
 50
-100.464467
 51
-33.627361
  6
CONTINUOUS
  0
ARC
  8
WHITE
 10
372.617592
 20
327.382540
 30
0.000000
 40
2.956584
 50
74.242418
 51
146.372634
  6
CONTINUOUS
  0
ARC
  8
WHITE
 10
384.404664
 20
369.155186
 30
0.000000
 40
40.447206
 50
-105.757582
 51
-82.084485
  6
CONTINUOUS
  0
ARC
  8
WHITE
 10
390.270093
 20
326.969232
 30
0.000000
 40
2.144553
 50
37.586440
 51
97.915523
  6
CONTINUOUS
  0
ARC
  8
WHITE
 10
385.056629
 20
322.956051
 30
0.000000
 40
8.723749
 50
-50.522400
 51
37.587683
  6
CONTINUOUS
  0
ARC
  8
WHITE
 10
389.105851
 20
325.757340
 30
0.000000
 40
9.651738
 50
-81.076515
 51
26.954304
  6
CONTINUOUS
  0
ARC
  8
WHITE
 10
394.662091
 20
336.332656
 30
0.000000
 40
6.908617
 50
-63.829393
 51
51.966344
  6
CONTINUOUS
  0
ARC
  8
WHITE
 10
405.613614
 20
350.333007
 30
0.000000
 40
10.866244
 50
167.492318
 51
231.966344
  6
CONTINUOUS
  0
ARC
  8
WHITE
 10
402.491679
 20
351.025140
 30
0.000000
 40
7.668506
 50
137.155013
 51
167.489239
  6
CONTINUOUS
  0
ARC
  8
WHITE
 10
394.776337
 20
358.180545
 30
0.000000
 40
2.854152
 50
-42.839965
 51
93.395406
  6
CONTINUOUS
  0
ARC
  8
WHITE
 10
394.515490
 20
362.577065
 30
0.000000
 40
1.550100
 50
117.114831
 51
273.395382
  6
CONTINUOUS
  0
ARC
  8
WHITE
 10
387.939752
 20
375.418986
 30
0.000000
 40
12.877486
 50
-62.885170
 51
25.930504
  6
CONTINUOUS
  0
ARC
  8
WHITE
 10
422.597971
 20
392.270921
 30
0.000000
 40
25.660546
 50
116.744871
 51
205.930503
  6
CONTINUOUS
  0
ARC
  8
WHITE
 10
418.948185
 20
390.151599
 30
0.000000
 40
26.250957
 50
107.509428
 51
202.940289
  6
CONTINUOUS
  0
ARC
  8
WHITE
 10
384.810736
 20
375.703081
 30
0.000000
 40
10.818237
 50
-66.091421
 51
22.940282
  6
CONTINUOUS
  0
ARC
  8
WHITE
 10
381.963036
 20
360.155667
 30
0.000000
 40
9.182050
 50
38.035009
 51
104.664887
  6
CONTINUOUS
  0
ARC
  8
WHITE
 10
376.554948
 20
380.821659
 30
0.000000
 40
12.179847
 50
-125.015914
 51
-75.335109
  6
CONTINUOUS
  0
ARC
  8
WHITE
 10
365.914550
 20
379.669219
 30
0.000000
 40
9.548562
 50
-67.516384
 51
85.129967
  6
CONTINUOUS
  0
ARC
  8
WHITE
 10
340.998133
 20
373.703260
 30
0.000000
 40
30.025206
 50
31.035459
 51
97.664404
  6
CONTINUOUS
  0
ARC
  8
WHITE
 10
357.538843
 20
436.699856
 30
0.000000
 40
39.076560
 50
159.067238
 51
238.280072
  6
CONTINUOUS
  0
ARC
  8
WHITE
 10
357.801504
 20
426.472426
 30
0.000000
 40
44.004425
 50
146.654870
 51
201.327133
  6
CONTINUOUS
  0
ARC
  8
WHITE
 10
478.063501
 20
557.969253
 30
0.000000
 40
218.538402
 50
-152.014477
 51
-137.550298
  6
CONTINUOUS
  0
ARC
  8
WHITE
 10
216.926996
 20
419.205133
 30
0.000000
 40
77.177265
 50
27.985524
 51
51.988245
  6
CONTINUOUS
  0
ARC
  8
WHITE
 10
227.869166
 20
461.805154
 30
0.000000
 40
40.865330
 50
-1.673630
 51
26.457274
  6
CONTINUOUS
  0
ARC
  8
WHITE
 10
225.003431
 20
430.437473
 30
0.000000
 40
53.116491
 50
34.616111
 51
90.999183
  6
CONTINUOUS
  0
ARC
  8
WHITE
 10
219.413331
 20
451.913842
 30
0.000000
 40
31.974016
 50
38.159828
 51
81.612705
  6
CONTINUOUS
  0
ARC
  8
WHITE
 10
220.370906
 20
378.175599
 30
0.000000
 40
96.570639
 50
75.497594
 51
104.979868
  6
CONTINUOUS
  0
ARC
  8
WHITE
 10
204.903356
 20
412.864670
 30
0.000000
 40
59.363879
 50
73.644568
 51
99.202763
  6
CONTINUOUS
  0
ARC
  8
WHITE
 10
184.671415
 20
584.322848
 30
0.000000
 40
120.310662
 50
-86.053343
 51
-72.114891
  6
CONTINUOUS
  0
ARC
  8
WHITE
 10
191.303784
 20
488.189452
 30
0.000000
 40
23.948750
 50
-112.692972
 51
-86.053343
  6
CONTINUOUS
  0
ARC
  8
WHITE
 10
195.789617
 20
480.742417
 30
0.000000
 40
20.073220
 50
-133.137482
 51
-87.345423
  6
CONTINUOUS
  0
ARC
  8
WHITE
 10
202.836220
 20
439.821163
 30
0.000000
 40
21.747548
 50
106.335985
 51
155.458518
  6
CONTINUOUS
  0
ARC
  8
WHITE
 10
191.444257
 20
418.687449
 30
0.000000
 40
31.311842
 50
105.544065
 51
170.389195
  6
CONTINUOUS
  0
ARC
  8
WHITE
 10
154.851454
 20
406.656345
 30
0.000000
 40
18.182087
 50
71.662165
 51
140.925931
  6
CONTINUOUS
  0
ARC
  8
WHITE
 10
136.592065
 20
421.481631
 30
0.000000
 40
5.337998
 50
-92.632595
 51
-39.074067
  6
CONTINUOUS
  0
ARC
  8
WHITE
 10
126.396268
 20
416.228344
 30
0.000000
 40
9.950930
 50
-0.455318
 51
61.213573
  6
CONTINUOUS
  0
ARC
  8
WHITE
 10
137.594421
 20
436.609144
 30
0.000000
 40
13.303653
 50
149.509659
 51
241.213574
  6
CONTINUOUS
  0
ARC
  8
WHITE
 10
130.586628
 20
440.735864
 30
0.000000
 40
5.171065
 50
77.635953
 51
149.513527
  6
CONTINUOUS
  0
ARC
  8
WHITE
 10
136.581882
 20
468.086170
 30
0.000000
 40
22.828619
 50
-102.363775
 51
-81.931393
  6
CONTINUOUS
  0
ARC
  8
WHITE
 10
141.325581
 20
434.623779
 30
0.000000
 40
10.968338
 50
70.732715
 51
98.068606
  6
CONTINUOUS
  0
ARC
  8
WHITE
 10
147.009109
 20
450.883141
 30
0.000000
 40
6.255754
 50
-109.267291
 51
-11.548122
  6
CONTINUOUS
  0
ARC
  8
WHITE
 10
148.370622
 20
454.922727
 30
0.000000
 40
7.122822
 50
-47.983685
 51
81.726544
  6
CONTINUOUS
  0
ARC
  8
WHITE
 10
147.608644
 20
457.298577
 30
0.000000
 40
5.002858
 50
-51.681693
 51
69.072702
  6
CONTINUOUS
  0
ARC
  8
WHITE
 10
147.088995
 20
443.681259
 30
0.000000
 40
10.346701
 50
69.511361
 51
129.597218
  6
CONTINUOUS
  0
ARC
  8
WHITE
 10
139.034757
 20
453.418124
 30
0.000000
 40
2.289648
 50
-155.347221
 51
-50.402800
  6
CONTINUOUS
  0
ARC
  8
WHITE
 10
139.948113
 20
453.837309
 30
0.000000
 40
3.294603
 50
105.313434
 51
204.652776
  6
CONTINUOUS
  0
ARC
  8
WHITE
 10
137.053958
 20
464.407004
 30
0.000000
 40
7.664165
 50
-74.686926
 51
-33.735219
  6
CONTINUOUS
  0
ARC
  8
WHITE
 10
157.169675
 20
450.974283
 30
0.000000
 40
16.524264
 50
128.572313
 51
146.266703
  6
CONTINUOUS
  0
ARC
  8
WHITE
 10
143.260678
 20
468.415062
 30
0.000000
 40
5.783605
 50
-51.427691
 51
22.953126
  6
CONTINUOUS
  0
ARC
  8
WHITE
 10
140.945829
 20
472.056429
 30
0.000000
 40
7.765206
 50
-10.280897
 51
96.331033
  6
CONTINUOUS
  0
ARC
  8
WHITE
 10
139.326006
 20
474.428060
 30
0.000000
 40
5.400465
 50
-29.323702
 51
81.872124
  6
CONTINUOUS
  0
ARC
  8
WHITE
 10
142.709320
 20
464.220999
 30
0.000000
 40
7.677451
 50
80.060645
 51
180.180809
  6
CONTINUOUS
  0
ARC
  8
WHITE
 10
132.463391
 20
464.188666
 30
0.000000
 40
2.568529
 50
-55.472759
 51
0.180802
  6
CONTINUOUS
  0
ARC
  8
WHITE
 10
127.733799
 20
471.063262
 30
0.000000
 40
10.912935
 50
-90.451705
 51
-55.472763
  6
CONTINUOUS
  0
ARC
  8
WHITE
 10
127.705142
 20
467.428418
 30
0.000000
 40
7.277978
 50
-106.609826
 51
-90.451703
  6
CONTINUOUS
  0
ARC
  8
WHITE
 10
126.449567
 20
463.219311
 30
0.000000
 40
2.885593
 50
144.259246
 51
253.390168
  6
CONTINUOUS
  0
ARC
  8
WHITE
 10
113.199376
 20
472.754837
 30
0.000000
 40
13.439045
 50
-35.740752
 51
1.032705
  6
CONTINUOUS
  0
ARC
  8
WHITE
 10
132.027494
 20
473.094234
 30
0.000000
 40
5.392132
 50
132.916311
 51
181.032708
  6
CONTINUOUS
  0
ARC
  8
WHITE
 10
124.521130
 20
481.167433
 30
0.000000
 40
5.631573
 50
-47.083685
 51
37.935846
  6
CONTINUOUS
  0
ARC
  8
WHITE
 10
126.683625
 20
482.853063
 30
0.000000
 40
2.889724
 50
37.935851
 51
88.934146
  6
CONTINUOUS
  0
ARC
  8
WHITE
 10
115.816753
 20
476.273289
 30
0.000000
 40
14.454134
 50
40.927731
 51
108.371992
  6
CONTINUOUS
  0
ARC
  8
WHITE
 10
112.946848
 20
479.876889
 30
0.000000
 40
10.253348
 50
26.978956
 51
99.463362
  6
CONTINUOUS
  0
ARC
  8
WHITE
 10
122.428021
 20
478.797694
 30
0.000000
 40
5.741057
 50
93.431829
 51
192.563099
  6
CONTINUOUS
  0
ARC
  8
WHITE
 10
110.525571
 20
476.144483
 30
0.000000
 40
6.453526
 50
-26.147510
 51
12.569557
  6
CONTINUOUS
  0
ARC
  8
WHITE
 10
138.776051
 20
462.274379
 30
0.000000
 40
25.018198
 50
153.849864
 51
169.280236
  6
CONTINUOUS
  0
ARC
  8
WHITE
 10
109.717820
 20
467.775371
 30
0.000000
 40
4.556144
 50
-42.410339
 51
-10.719766
  6
CONTINUOUS
  0
ARC
  8
WHITE
 10
103.839454
 20
473.145003
 30
0.000000
 40
12.517812
 50
-60.270045
 51
-42.410341
  6
CONTINUOUS
  0
ARC
  8
WHITE
 10
116.436437
 20
451.086945
 30
0.000000
 40
12.883801
 50
119.729955
 51
192.881612
  6
CONTINUOUS
  0
ARC
  8
WHITE
 10
110.245362
 20
449.671090
 30
0.000000
 40
6.532892
 50
-167.118392
 51
-126.343515
  6
CONTINUOUS
  0
ARC
  8
WHITE
 10
96.682284
 20
431.236557
 30
0.000000
 40
16.353547
 50
1.705636
 51
53.656485
  6
CONTINUOUS
  0
ARC
  8
WHITE
 10
83.891543
 20
430.855678
 30
0.000000
 40
29.149958
 50
-29.408473
 51
1.705635
  6
CONTINUOUS
  0
ARC
  8
WHITE
 10
122.774958
 20
408.938423
 30
0.000000
 40
15.485074
 50
150.591526
 51
213.813669
  6
CONTINUOUS
  0
ARC
  8
WHITE
 10
104.383862
 20
396.620302
 30
0.000000
 40
6.650158
 50
-36.909985
 51
33.813672
  6
CONTINUOUS
  0
ARC
  8
WHITE
 10
90.535005
 20
407.023431
 30
0.000000
 40
23.971126
 50
-58.793797
 51
-36.912542
  6
CONTINUOUS
  0
ARC
  8
WHITE
 10
106.315018
 20
380.974491
 30
0.000000
 40
6.484679
 50
121.208922
 51
191.113594
  6
CONTINUOUS
  0
ARC
  8
WHITE
 10
93.943712
 20
378.544289
 30
0.000000
 40
6.123059
 50
-84.052065
 51
11.113593
  6
CONTINUOUS
  0
ARC
  8
WHITE
 10
96.324822
 20
379.442336
 30
0.000000
 40
7.203110
 50
-104.032956
 51
-5.958839
  6
CONTINUOUS
  0
ARC
  8
WHITE
 10
108.599304
 20
378.161150
 30
0.000000
 40
5.138055
 50
82.833444
 51
174.041154
  6
CONTINUOUS
  0
ARC
  8
WHITE
 10
108.894383
 20
380.507952
 30
0.000000
 40
2.772775
 50
-51.785223
 51
82.833456
  6
CONTINUOUS
  0
ARC
  8
WHITE
 10
114.795341
 20
373.013150
 30
0.000000
 40
6.766270
 50
128.214776
 51
197.077175
  6
CONTINUOUS
  0
ARC
  8
WHITE
 10
102.107204
 20
369.115302
 30
0.000000
 40
6.507088
 50
-70.207276
 51
17.077172
  6
CONTINUOUS
  0
ARC
  8
WHITE
 10
104.430153
 20
370.366204
 30
0.000000
 40
7.374545
 50
-90.928710
 51
9.425618
  6
CONTINUOUS
  0
ARC
  8
WHITE
 10
116.022925
 20
372.290701
 30
0.000000
 40
4.376883
 50
79.542055
 51
189.425621
  6
CONTINUOUS
  0
ARC
  8
WHITE
 10
116.340726
 20
374.012456
 30
0.000000
 40
2.626043
 50
-52.354558
 51
79.542046
  6
CONTINUOUS
  0
ARC
  8
WHITE
 10
119.792047
 20
369.538170
 30
0.000000
 40
3.024696
 50
127.645447
 51
236.445375
  6
CONTINUOUS
  0
ARC
  8
WHITE
 10
123.575914
 20
366.879348
 30
0.000000
 40
5.457462
 50
102.175678
 51
178.549318
  6
CONTINUOUS
  0
ARC
  8
WHITE
 10
121.059203
 20
378.543565
 30
0.000000
 40
6.475174
 50
-77.824318
 51
27.422076
  6
CONTINUOUS
  0
ARC
  8
WHITE
 10
132.263167
 20
384.356626
 30
0.000000
 40
6.147048
 50
86.077617
 51
207.422075
  6
CONTINUOUS
  0
ARC
  8
WHITE
 10
134.861139
 20
422.246921
 30
0.000000
 40
31.832208
 50
-93.922382
 51
-57.586407
  6
CONTINUOUS
  0
ARC
  8
WHITE
 10
272.308296
 20
396.511435
 30
0.000000
 40
120.389603
 50
-179.458733
 51
-128.224265
  6
CONTINUOUS
  0
ARC
  8
WHITE
 10
169.325205
 20
265.756390
 30
0.000000
 40
46.050764
 50
-4.630115
 51
51.776399
  6
CONTINUOUS
  0
ARC
  8
WHITE
 10
198.124862
 20
263.423989
 30
0.000000
 40
17.156814
 50
-93.952699
 51
-4.630116
  6
CONTINUOUS
  0
ARC
  8
WHITE
 10
197.263158
 20
253.626178
 30
0.000000
 40
7.325227
 50
124.054348
 51
267.488702
  6
CONTINUOUS
  0
ARC
  8
WHITE
 10
201.201560
 20
246.402094
 30
0.000000
 40
15.535562
 50
121.167815
 51
197.743010
  6
CONTINUOUS
  0
ARC
  8
WHITE
 10
138.660276
 20
218.678105
 30
0.000000
 40
52.991285
 50
25.711284
 51
73.393559
  6
CONTINUOUS
  0
ARC
  8
WHITE
 10
146.149404
 20
254.984488
 30
0.000000
 40
16.374479
 50
6.146021
 51
62.125862
  6
CONTINUOUS
  0
ARC
  8
WHITE
 10
214.460248
 20
329.605437
 30
0.000000
 40
89.537115
 50
-138.354293
 51
-125.528313
  6
CONTINUOUS
  0
ARC
  8
WHITE
 10
131.096098
 20
255.472274
 30
0.000000
 40
22.021423
 50
41.645704
 51
85.890413
  6
CONTINUOUS
  0
ARC
  8
WHITE
 10
134.147818
 20
297.946313
 30
0.000000
 40
20.562105
 50
178.557134
 51
265.890414
  6
CONTINUOUS
  0
ARC
  8
WHITE
 10
123.446418
 20
290.313904
 30
0.000000
 40
12.787893
 50
140.406655
 51
227.040823
  6
CONTINUOUS
  0
ARC
  8
WHITE
 10
118.153752
 20
306.657153
 30
0.000000
 40
25.928737
 50
-134.130468
 51
-97.583836
  6
CONTINUOUS
  0
ARC
  8
WHITE
 10
88.391708
 20
275.977768
 30
0.000000
 40
16.814729
 50
45.869531
 51
114.031771
  6
CONTINUOUS
  0
ARC
  8
WHITE
 10
64.563049
 20
329.418041
 30
0.000000
 40
41.697386
 50
-119.995071
 51
-65.968228
  6
CONTINUOUS
  0
ARC
  8
WHITE
 10
69.842839
 20
326.600634
 30
0.000000
 40
42.321599
 50
-128.119669
 51
-83.118589
  6
CONTINUOUS
  0
ARC
  8
WHITE
 10
75.271635
 20
281.617121
 30
0.000000
 40
2.988314
 50
-84.397583
 51
96.881418
  6
CONTINUOUS
  0
ARC
  8
WHITE
 10
77.845533
 20
255.377879
 30
0.000000
 40
23.376867
 50
95.602418
 51
114.787991
  6
CONTINUOUS
  0
ARC
  8
WHITE
 10
57.061620
 20
300.383159
 30
0.000000
 40
26.195770
 50
-90.138535
 51
-65.212009
  6
CONTINUOUS
  0
ARC
  8
WHITE
 10
56.953694
 20
255.747156
 30
0.000000
 40
18.440363
 50
89.861463
 51
153.807250
  6
CONTINUOUS
  0
ARC
  8
WHITE
 10
50.188864
 20
258.994553
 30
0.000000
 40
10.937047
 50
55.132708
 51
153.430018
  6
CONTINUOUS
  0
ARC
  8
WHITE
 10
54.818496
 20
265.639054
 30
0.000000
 40
2.838721
 50
-95.062721
 51
55.132720
  6
CONTINUOUS
  0
ARC
  8
WHITE
 10
101.846472
 20
228.269575
 30
0.000000
 40
24.572400
 50
22.404417
 51
100.075895
  6
CONTINUOUS
  0
ARC
  8
WHITE
 10
102.365926
 20
225.346249
 30
0.000000
 40
27.541519
 50
100.075893
 51
211.445693
  6
CONTINUOUS
  0
ARC
  8
WHITE
 10
61.952624
 20
216.025903
 30
0.000000
 40
17.653722
 50
-16.614665
 51
7.817255
  6
CONTINUOUS
  0
ARC
  8
WHITE
 10
92.200172
 20
220.178582
 30
0.000000
 40
12.877556
 50
131.070657
 51
187.817254
  6
CONTINUOUS
  0
ARC
  8
WHITE
 10
110.775206
 20
198.863596
 30
0.000000
 40
41.150520
 50
70.422386
 51
131.070658
  6
CONTINUOUS
  0
LINE
  8
WHITE
 10
186.905133
 20
432.780535
 30
0.000000
 11
186.649979
 21
432.430588
 31
0.000000
  6
CONTINUOUS
  0
LINE
  8
WHITE
 10
186.649979
 20
432.430588
 30
0.000000
 11
186.398678
 21
432.086206
 31
0.000000
  6
CONTINUOUS
  0
LINE
  8
WHITE
 10
186.398678
 20
432.086206
 30
0.000000
 11
186.151176
 21
431.747298
 31
0.000000
  6
CONTINUOUS
  0
LINE
  8
WHITE
 10
186.151176
 20
431.747298
 30
0.000000
 11
185.907415
 21
431.413778
 31
0.000000
  6
CONTINUOUS
  0
LINE
  8
WHITE
 10
185.907415
 20
431.413778
 30
0.000000
 11
185.667343
 21
431.085557
 31
0.000000
  6
CONTINUOUS
  0
LINE
  8
WHITE
 10
185.667343
 20
431.085557
 30
0.000000
 11
185.430904
 21
430.762551
 31
0.000000
  6
CONTINUOUS
  0
LINE
  8
WHITE
 10
185.430904
 20
430.762551
 30
0.000000
 11
185.198046
 21
430.444675
 31
0.000000
  6
CONTINUOUS
  0
LINE
  8
WHITE
 10
185.198046
 20
430.444675
 30
0.000000
 11
184.968716
 21
430.131846
 31
0.000000
  6
CONTINUOUS
  0
LINE
  8
WHITE
 10
184.968716
 20
430.131846
 30
0.000000
 11
184.742863
 21
429.823983
 31
0.000000
  6
CONTINUOUS
  0
LINE
  8
WHITE
 10
184.742863
 20
429.823983
 30
0.000000
 11
184.520435
 21
429.521007
 31
0.000000
  6
CONTINUOUS
  0
LINE
  8
WHITE
 10
184.520435
 20
429.521007
 30
0.000000
 11
184.301383
 21
429.222838
 31
0.000000
  6
CONTINUOUS
  0
LINE
  8
WHITE
 10
184.301383
 20
429.222838
 30
0.000000
 11
184.085657
 21
428.929399
 31
0.000000
  6
CONTINUOUS
  0
LINE
  8
WHITE
 10
184.085657
 20
428.929399
 30
0.000000
 11
183.873207
 21
428.640614
 31
0.000000
  6
CONTINUOUS
  0
LINE
  8
WHITE
 10
183.873207
 20
428.640614
 30
0.000000
 11
183.663987
 21
428.356408
 31
0.000000
  6
CONTINUOUS
  0
LINE
  8
WHITE
 10
183.663987
 20
428.356408
 30
0.000000
 11
183.457947
 21
428.076708
 31
0.000000
  6
CONTINUOUS
  0
LINE
  8
WHITE
 10
183.457947
 20
428.076708
 30
0.000000
 11
183.255041
 21
427.801441
 31
0.000000
  6
CONTINUOUS
  0
LINE
  8
WHITE
 10
183.255041
 20
427.801441
 30
0.000000
 11
183.055222
 21
427.530537
 31
0.000000
  6
CONTINUOUS
  0
LINE
  8
WHITE
 10
183.055222
 20
427.530537
 30
0.000000
 11
182.858446
 21
427.263924
 31
0.000000
  6
CONTINUOUS
  0
LINE
  8
WHITE
 10
182.858446
 20
427.263924
 30
0.000000
 11
182.664667
 21
427.001534
 31
0.000000
  6
CONTINUOUS
  0
LINE
  8
WHITE
 10
182.664667
 20
427.001534
 30
0.000000
 11
182.473840
 21
426.743300
 31
0.000000
  6
CONTINUOUS
  0
LINE
  8
WHITE
 10
182.473840
 20
426.743300
 30
0.000000
 11
182.285922
 21
426.489155
 31
0.000000
  6
CONTINUOUS
  0
LINE
  8
WHITE
 10
182.285922
 20
426.489155
 30
0.000000
 11
182.100870
 21
426.239032
 31
0.000000
  6
CONTINUOUS
  0
LINE
  8
WHITE
 10
182.100870
 20
426.239032
 30
0.000000
 11
181.918641
 21
425.992869
 31
0.000000
  6
CONTINUOUS
  0
LINE
  8
WHITE
 10
181.918641
 20
425.992869
 30
0.000000
 11
181.739193
 21
425.750601
 31
0.000000
  6
CONTINUOUS
  0
LINE
  8
WHITE
 10
181.739193
 20
425.750601
 30
0.000000
 11
181.562485
 21
425.512166
 31
0.000000
  6
CONTINUOUS
  0
LINE
  8
WHITE
 10
181.562485
 20
425.512166
 30
0.000000
 11
181.214404
 21
425.042884
 31
0.000000
  6
CONTINUOUS
  0
LINE
  8
WHITE
 10
181.214404
 20
425.042884
 30
0.000000
 11
180.876966
 21
424.588443
 31
0.000000
  6
CONTINUOUS
  0
LINE
  8
WHITE
 10
180.876966
 20
424.588443
 30
0.000000
 11
180.549852
 21
424.148366
 31
0.000000
  6
CONTINUOUS
  0
LINE
  8
WHITE
 10
180.549852
 20
424.148366
 30
0.000000
 11
180.232753
 21
423.722196
 31
0.000000
  6
CONTINUOUS
  0
LINE
  8
WHITE
 10
180.232753
 20
423.722196
 30
0.000000
 11
179.925369
 21
423.309489
 31
0.000000
  6
CONTINUOUS
  0
LINE
  8
WHITE
 10
179.925369
 20
423.309489
 30
0.000000
 11
179.627409
 21
422.909814
 31
0.000000
  6
CONTINUOUS
  0
LINE
  8
WHITE
 10
179.627409
 20
422.909814
 30
0.000000
 11
179.338589
 21
422.522756
 31
0.000000
  6
CONTINUOUS
  0
LINE
  8
WHITE
 10
179.338589
 20
422.522756
 30
0.000000
 11
179.058635
 21
422.147914
 31
0.000000
  6
CONTINUOUS
  0
LINE
  8
WHITE
 10
179.058635
 20
422.147914
 30
0.000000
 11
178.787279
 21
421.784898
 31
0.000000
  6
CONTINUOUS
  0
LINE
  8
WHITE
 10
178.787279
 20
421.784898
 30
0.000000
 11
178.524261
 21
421.433332
 31
0.000000
  6
CONTINUOUS
  0
LINE
  8
WHITE
 10
178.524261
 20
421.433332
 30
0.000000
 11
178.269330
 21
421.092851
 31
0.000000
  6
CONTINUOUS
  0
LINE
  8
WHITE
 10
178.269330
 20
421.092851
 30
0.000000
 11
178.022242
 21
420.763104
 31
0.000000
  6
CONTINUOUS
  0
LINE
  8
WHITE
 10
178.022242
 20
420.763104
 30
0.000000
 11
177.782759
 21
420.443748
 31
0.000000
  6
CONTINUOUS
  0
LINE
  8
WHITE
 10
177.782759
 20
420.443748
 30
0.000000
 11
177.550650
 21
420.134455
 31
0.000000
  6
CONTINUOUS
  0
LINE
  8
WHITE
 10
177.550650
 20
420.134455
 30
0.000000
 11
177.325692
 21
419.834903
 31
0.000000
  6
CONTINUOUS
  0
LINE
  8
WHITE
 10
177.325692
 20
419.834903
 30
0.000000
 11
177.107667
 21
419.544785
 31
0.000000
  6
CONTINUOUS
  0
LINE
  8
WHITE
 10
177.107667
 20
419.544785
 30
0.000000
 11
176.896366
 21
419.263802
 31
0.000000
  6
CONTINUOUS
  0
LINE
  8
WHITE
 10
176.896366
 20
419.263802
 30
0.000000
 11
176.691583
 21
418.991662
 31
0.000000
  6
CONTINUOUS
  0
LINE
  8
WHITE
 10
176.691583
 20
418.991662
 30
0.000000
 11
176.493120
 21
418.728087
 31
0.000000
  6
CONTINUOUS
  0
LINE
  8
WHITE
 10
176.493120
 20
418.728087
 30
0.000000
 11
176.300784
 21
418.472805
 31
0.000000
  6
CONTINUOUS
  0
LINE
  8
WHITE
 10
176.300784
 20
418.472805
 30
0.000000
 11
176.114388
 21
418.225553
 31
0.000000
  6
CONTINUOUS
  0
LINE
  8
WHITE
 10
176.114388
 20
418.225553
 30
0.000000
 11
175.933752
 21
417.986077
 31
0.000000
  6
CONTINUOUS
  0
LINE
  8
WHITE
 10
175.933752
 20
417.986077
 30
0.000000
 11
175.583586
 21
417.522232
 31
0.000000
  6
CONTINUOUS
  0
LINE
  8
WHITE
 10
175.583586
 20
417.522232
 30
0.000000
 11
175.255085
 21
417.087543
 31
0.000000
  6
CONTINUOUS
  0
LINE
  8
WHITE
 10
175.255085
 20
417.087543
 30
0.000000
 11
174.946922
 21
416.680169
 31
0.000000
  6
CONTINUOUS
  0
LINE
  8
WHITE
 10
174.946922
 20
416.680169
 30
0.000000
 11
174.657848
 21
416.298384
 31
0.000000
  6
CONTINUOUS
  0
LINE
  8
WHITE
 10
174.657848
 20
416.298384
 30
0.000000
 11
174.386693
 21
415.940574
 31
0.000000
  6
CONTINUOUS
  0
LINE
  8
WHITE
 10
174.386693
 20
415.940574
 30
0.000000
 11
174.132353
 21
415.605226
 31
0.000000
  6
CONTINUOUS
  0
LINE
  8
WHITE
 10
174.132353
 20
415.605226
 30
0.000000
 11
173.893795
 21
415.290925
 31
0.000000
  6
CONTINUOUS
  0
LINE
  8
WHITE
 10
173.893795
 20
415.290925
 30
0.000000
 11
173.670045
 21
414.996345
 31
0.000000
  6
CONTINUOUS
  0
LINE
  8
WHITE
 10
173.670045
 20
414.996345
 30
0.000000
 11
173.460190
 21
414.720244
 31
0.000000
  6
CONTINUOUS
  0
LINE
  8
WHITE
 10
173.460190
 20
414.720244
 30
0.000000
 11
173.263373
 21
414.461459
 31
0.000000
  6
CONTINUOUS
  0
LINE
  8
WHITE
 10
173.263373
 20
414.461459
 30
0.000000
 11
173.078789
 21
414.218900
 31
0.000000
  6
CONTINUOUS
  0
LINE
  8
WHITE
 10
173.078789
 20
414.218900
 30
0.000000
 11
172.732513
 21
413.764238
 31
0.000000
  6
CONTINUOUS
  0
LINE
  8
WHITE
 10
172.732513
 20
413.764238
 30
0.000000
 11
172.429330
 21
413.366555
 31
0.000000
  6
CONTINUOUS
  0
LINE
  8
WHITE
 10
172.429330
 20
413.366555
 30
0.000000
 11
172.163899
 21
413.018695
 31
0.000000
  6
CONTINUOUS
  0
LINE
  8
WHITE
 10
172.163899
 20
413.018695
 30
0.000000
 11
171.931533
 21
412.714402
 31
0.000000
  6
CONTINUOUS
  0
LINE
  8
WHITE
 10
171.931533
 20
412.714402
 30
0.000000
 11
171.728128
 21
412.448212
 31
0.000000
  6
CONTINUOUS
  0
LINE
  8
WHITE
 10
171.728128
 20
412.448212
 30
0.000000
 11
171.371976
 21
411.982527
 31
0.000000
  6
CONTINUOUS
  0
LINE
  8
WHITE
 10
171.371976
 20
411.982527
 30
0.000000
 11
171.104700
 21
411.633387
 31
0.000000
  6
CONTINUOUS
  0
LINE
  8
WHITE
 10
171.104700
 20
411.633387
 30
0.000000
 11
170.904153
 21
411.371601
 31
0.000000
  6
CONTINUOUS
  0
LINE
  8
WHITE
 10
170.904153
 20
411.371601
 30
0.000000
 11
170.603186
 21
410.979034
 31
0.000000
  6
CONTINUOUS
  0
LINE
  8
WHITE
 10
170.603186
 20
410.979034
 30
0.000000
 11
170.302045
 21
410.586601
 31
0.000000
  6
CONTINUOUS
  0
ARC
  8
WHITE
 10
207.559976
 20
329.103226
 30
0.000000
 40
89.597399
 50
106.920116
 51
114.572050
  6
CONTINUOUS
  0
ARC
  8
WHITE
 10
207.830086
 20
395.292804
 30
0.000000
 40
32.795182
 50
143.452256
 51
218.964928
  6
CONTINUOUS
  0
ARC
  8
WHITE
 10
201.744109
 20
378.135525
 30
0.000000
 40
19.720238
 50
142.695909
 51
190.122194
  6
CONTINUOUS
  0
ARC
  8
WHITE
 10
205.192549
 20
383.512939
 30
0.000000
 40
20.232307
 50
161.039093
 51
258.924185
  6
CONTINUOUS
  0
ARC
  8
WHITE
 10
197.414809
 20
343.780699
 30
0.000000
 40
20.254038
 50
30.363326
 51
78.924185
  6
CONTINUOUS
  0
ARC
  8
WHITE
 10
200.402055
 20
336.441478
 30
0.000000
 40
22.778993
 50
50.501714
 51
88.458559
  6
CONTINUOUS
  0
ARC
  8
WHITE
 10
220.993009
 20
374.864467
 30
0.000000
 40
25.379541
 50
-141.922508
 51
-103.646442
  6
CONTINUOUS
  0
ARC
  8
WHITE
 10
204.043948
 20
305.053089
 30
0.000000
 40
46.459858
 50
41.645046
 51
76.353557
  6
CONTINUOUS
  0
ARC
  8
WHITE
 10
212.915116
 20
269.182708
 30
0.000000
 40
71.573630
 50
68.830581
 51
83.736176
  6
CONTINUOUS
  0
ARC
  8
WHITE
 10
254.648016
 20
376.311850
 30
0.000000
 40
49.452827
 50
-133.312865
 51
-109.518467
  6
CONTINUOUS
  0
ARC
  8
WHITE
 10
231.319316
 20
310.501053
 30
0.000000
 40
20.370446
 50
18.571449
 51
70.481532
  6
CONTINUOUS
  0
ARC
  8
WHITE
 10
274.755445
 20
325.094833
 30
0.000000
 40
25.451773
 50
-161.428552
 51
-110.500419
  6
CONTINUOUS
  0
ARC
  8
WHITE
 10
263.959920
 20
327.168441
 30
0.000000
 40
25.981759
 50
-134.876984
 51
-85.846224
  6
CONTINUOUS
  0
ARC
  8
WHITE
 10
183.502360
 20
244.121212
 30
0.000000
 40
89.651227
 50
33.087630
 51
46.134719
  6
CONTINUOUS
  0
ARC
  8
WHITE
 10
240.762208
 20
281.430824
 30
0.000000
 40
21.308728
 50
4.228146
 51
33.087630
  6
CONTINUOUS
  0
ARC
  8
WHITE
 10
276.370150
 20
284.063296
 30
0.000000
 40
14.396391
 50
-175.771849
 51
-122.300634
  6
CONTINUOUS
  0
ARC
  8
WHITE
 10
272.751973
 20
287.789113
 30
0.000000
 40
16.408437
 50
-157.706197
 51
-104.378697
  6
CONTINUOUS
  0
ARC
  8
WHITE
 10
282.775745
 20
284.811262
 30
0.000000
 40
25.413944
 50
-172.660047
 51
-132.300168
  6
CONTINUOUS
  0
ARC
  8
WHITE
 10
257.676733
 20
257.227970
 30
0.000000
 40
11.879467
 50
-16.460931
 51
47.699833
  6
CONTINUOUS
  0
ARC
  8
WHITE
 10
278.912686
 20
250.953342
 30
0.000000
 40
10.264080
 50
163.539069
 51
209.553512
  6
CONTINUOUS
  0
ARC
  8
WHITE
 10
274.639629
 20
253.152007
 30
0.000000
 40
8.625601
 50
168.259278
 51
237.333765
  6
CONTINUOUS
  0
ARC
  8
WHITE
 10
261.480203
 20
255.886949
 30
0.000000
 40
4.815024
 50
-11.740728
 51
53.191840
  6
CONTINUOUS
  0
ARC
  8
WHITE
 10
263.099328
 20
258.050635
 30
0.000000
 40
2.112598
 50
53.191849
 51
210.221751
  6
CONTINUOUS
  0
ARC
  8
WHITE
 10
252.209453
 20
251.707040
 30
0.000000
 40
10.490202
 50
-49.726601
 51
30.221754
  6
CONTINUOUS
  0
ARC
  8
WHITE
 10
262.683403
 20
239.344952
 30
0.000000
 40
5.712417
 50
130.273402
 51
229.637319
  6
CONTINUOUS
  0
ARC
  8
WHITE
 10
264.149833
 20
242.246434
 30
0.000000
 40
8.905561
 50
144.329693
 51
234.543916
  6
CONTINUOUS
  0
ARC
  8
WHITE
 10
254.739954
 20
249.001748
 30
0.000000
 40
2.678051
 50
-35.688074
 51
169.944321
  6
CONTINUOUS
  0
ARC
  8
WHITE
 10
243.499304
 20
406.302917
 30
0.000000
 40
37.573453
 50
67.213827
 51
183.731606
  6
CONTINUOUS
  0
ARC
  8
WHITE
 10
278.377584
 20
394.810298
 30
0.000000
 40
26.524774
 50
9.526669
 51
65.498553
  6
CONTINUOUS
  0
ARC
  8
WHITE
 10
313.073140
 20
470.937653
 30
0.000000
 40
57.136183
 50
-157.057527
 51
-114.501447
  6
CONTINUOUS
  0
ARC
  8
WHITE
 10
328.157000
 20
501.076357
 30
0.000000
 40
85.616766
 50
-142.254479
 51
-114.121666
  6
CONTINUOUS
  0
ARC
  8
WHITE
 10
268.983802
 20
368.927104
 30
0.000000
 40
59.175818
 50
42.066919
 51
65.878334
  6
CONTINUOUS
  0
ARC
  8
WHITE
 10
373.864284
 20
396.406259
 30
0.000000
 40
37.320730
 50
-121.692000
 51
-105.184949
  6
CONTINUOUS
  0
ARC
  8
WHITE
 10
339.619251
 20
340.941144
 30
0.000000
 40
27.864400
 50
58.308389
 51
98.094577
  6
CONTINUOUS
  0
ARC
  8
WHITE
 10
323.414966
 20
454.873722
 30
0.000000
 40
87.214751
 50
-88.606737
 51
-81.905241
  6
CONTINUOUS
  0
ARC
  8
WHITE
 10
324.571928
 20
407.304858
 30
0.000000
 40
39.631819
 50
-146.828679
 51
-88.606737
  6
CONTINUOUS
  0
ARC
  8
WHITE
 10
326.658261
 20
403.172614
 30
0.000000
 40
39.386810
 50
-153.536125
 51
-81.106971
  6
CONTINUOUS
  0
ARC
  8
WHITE
 10
336.750868
 20
338.671236
 30
0.000000
 40
25.899395
 50
51.823199
 51
98.893030
  6
CONTINUOUS
  0
ARC
  8
WHITE
 10
365.150239
 20
374.791002
 30
0.000000
 40
20.047986
 50
-128.175883
 51
-73.131361
  6
CONTINUOUS
  0
ARC
  8
WHITE
 10
370.478552
 20
357.218848
 30
0.000000
 40
1.685755
 50
-73.131000
 51
8.193136
  6
CONTINUOUS
  0
ARC
  8
WHITE
 10
378.162786
 20
358.326533
 30
0.000000
 40
6.077905
 50
31.703651
 51
188.205362
  6
CONTINUOUS
  0
ARC
  8
WHITE
 10
382.049473
 20
360.727022
 30
0.000000
 40
1.509680
 50
168.886084
 51
391.714000
  6
CONTINUOUS
  0
ARC
  8
WHITE
 10
319.944288
 20
350.317128
 30
0.000000
 40
5.845137
 50
109.088484
 51
218.493470
  6
CONTINUOUS
  0
ARC
  8
WHITE
 10
279.592713
 20
318.227548
 30
0.000000
 40
45.710569
 50
17.225861
 51
38.493466
  6
CONTINUOUS
  0
ARC
  8
WHITE
 10
346.263488
 20
338.898818
 30
0.000000
 40
24.091248
 50
-162.773601
 51
-140.273799
  6
CONTINUOUS
  0
ARC
  8
WHITE
 10
330.817300
 20
326.063100
 30
0.000000
 40
4.007912
 50
-140.275000
 51
-12.591582
  6
CONTINUOUS
  0
ARC
  8
WHITE
 10
330.921134
 20
321.546263
 30
0.000000
 40
5.269793
 50
-34.791133
 51
43.734682
  6
CONTINUOUS
  0
ARC
  8
WHITE
 10
340.526271
 20
323.816664
 30
0.000000
 40
7.463271
 50
-135.000610
 51
-75.790489
  6
CONTINUOUS
  0
ARC
  8
WHITE
 10
340.322124
 20
321.191375
 30
0.000000
 40
5.039313
 50
-66.168274
 51
20.666329
  6
CONTINUOUS
  0
ARC
  8
WHITE
 10
340.581517
 20
318.056595
 30
0.000000
 40
6.632731
 50
-29.107085
 51
47.796428
  6
CONTINUOUS
  0
ARC
  8
WHITE
 10
351.503004
 20
373.829245
 30
0.000000
 40
3.309919
 50
-87.078000
 51
197.981029
  6
CONTINUOUS
  0
ARC
  8
WHITE
 10
350.825134
 20
387.115014
 30
0.000000
 40
16.612970
 50
-109.986902
 51
-87.078937
  6
CONTINUOUS
  0
ARC
  8
WHITE
 10
350.931360
 20
387.409046
 30
0.000000
 40
16.925602
 50
-144.449838
 51
-109.984622
  6
CONTINUOUS
  0
ARC
  8
WHITE
 10
335.798859
 20
380.531925
 30
0.000000
 40
3.261549
 50
-109.674187
 51
-65.322780
  6
CONTINUOUS
  0
ARC
  8
WHITE
 10
328.406828
 20
359.857436
 30
0.000000
 40
18.694694
 50
70.325816
 51
94.043599
  6
CONTINUOUS
  0
ARC
  8
WHITE
 10
326.311669
 20
389.495490
 30
0.000000
 40
11.017323
 50
146.843554
 51
274.043598
  6
CONTINUOUS
  0
ARC
  8
WHITE
 10
326.297663
 20
393.510733
 30
0.000000
 40
9.426365
 50
167.685525
 51
255.291235
  6
CONTINUOUS
  0
ARC
  8
WHITE
 10
339.056936
 20
392.264179
 30
0.000000
 40
17.074977
 50
163.329489
 51
207.449137
  6
CONTINUOUS
  0
ARC
  8
WHITE
 10
308.713728
 20
401.350558
 30
0.000000
 40
14.599501
 50
-16.670513
 51
14.934410
  6
CONTINUOUS
  0
ARC
  8
WHITE
 10
319.279060
 20
399.604762
 30
0.000000
 40
6.548279
 50
-9.880011
 51
57.264899
  6
CONTINUOUS
  0
ARC
  8
WHITE
 10
338.157921
 20
396.316659
 30
0.000000
 40
12.614784
 50
170.119985
 51
249.088920
  6
CONTINUOUS
  0
ARC
  8
WHITE
 10
344.948290
 20
390.699070
 30
0.000000
 40
12.866678
 50
136.524924
 51
208.636291
  6
CONTINUOUS
  0
ARC
  8
WHITE
 10
347.439392
 20
395.927595
 30
0.000000
 40
12.370911
 50
162.964416
 51
266.354777
  6
CONTINUOUS
  0
ARC
  8
WHITE
 10
345.942972
 20
372.438544
 30
0.000000
 40
11.165758
 50
19.316279
 51
86.354776
  6
CONTINUOUS
  0
ARC
  8
WHITE
 10
360.496005
 20
377.539586
 30
0.000000
 40
4.255377
 50
-160.683722
 51
-17.069671
  6
CONTINUOUS
  0
ARC
  8
WHITE
 10
356.533244
 20
378.756395
 30
0.000000
 40
8.400748
 50
-17.069673
 51
81.684345
  6
CONTINUOUS
  0
ENDSEC
  0
EOF
