  0
SECTION
  2
HEADER
  9
$ACADVER
  1
AC1009
  9
$EXTMIN
 10
0.52158150
 20
0.52158150
 30
0.0
  9
$EXTMAX
 10
9.47841850
 20
9.47841850
 30
0.0
  0
ENDSEC
  0
SECTION
  2
TABLES
  0
TABLE
  2
LAYER
 70
1
 0
LAYER
 2
Default_Layer
 70
0
 62
1
 6
CONTINUOUS
 0
ENDTAB
 0
ENDSEC
  0
SECTION
  2
ENTITIES
  0
POLYLINE
  8
Default_Layer
 66
   1
 39
0.000000
 70
    1
  0
VERTEX
  8
0
 10
2.51441855
 20
1.60551003
  0
VERTEX
  8
0
 10
2.48656441
 20
1.56356385
  0
VERTEX
  8
0
 10
2.47727969
 20
1.51584889
  0
VERTEX
  8
0
 10
2.48656441
 20
1.46813392
  0
VERTEX
  8
0
 10
2.51441855
 20
1.42618775
  0
VERTEX
  8
0
 10
2.55636473
 20
1.39833360
  0
VERTEX
  8
0
 10
2.60407969
 20
1.38904889
  0
VERTEX
  8
0
 10
2.65179465
 20
1.39833360
  0
VERTEX
  8
0
 10
2.69374083
 20
1.42618775
  0
VERTEX
  8
0
 10
2.72159498
 20
1.46813392
  0
VERTEX
  8
0
 10
2.73087969
 20
1.51584889
  0
VERTEX
  8
0
 10
2.72159498
 20
1.56356385
  0
VERTEX
  8
0
 10
2.69374083
 20
1.60551003
  0
VERTEX
  8
0
 10
2.65179465
 20
1.63336417
  0
VERTEX
  8
0
 10
2.60407969
 20
1.64264889
  0
VERTEX
  8
0
 10
2.55636473
 20
1.63336417
  0
VERTEX
  8
0
 10
2.51441855
 20
1.60551003
  0
SEQEND
  0
POLYLINE
  8
Default_Layer
 66
   1
 39
0.000000
 70
    1
  0
VERTEX
  8
0
 10
2.33116887
 20
1.78875971
  0
VERTEX
  8
0
 10
2.28922269
 20
1.76090557
  0
VERTEX
  8
0
 10
2.24150773
 20
1.75162085
  0
VERTEX
  8
0
 10
2.19379277
 20
1.76090557
  0
VERTEX
  8
0
 10
2.15184659
 20
1.78875971
  0
VERTEX
  8
0
 10
2.12399244
 20
1.83070589
  0
VERTEX
  8
0
 10
2.11470773
 20
1.87842085
  0
VERTEX
  8
0
 10
2.12399244
 20
1.92613581
  0
VERTEX
  8
0
 10
2.15184659
 20
1.96808199
  0
VERTEX
  8
0
 10
2.19379277
 20
1.99593614
  0
VERTEX
  8
0
 10
2.24150773
 20
2.00522085
  0
VERTEX
  8
0
 10
2.28922269
 20
1.99593614
  0
VERTEX
  8
0
 10
2.33116887
 20
1.96808199
  0
VERTEX
  8
0
 10
2.35902301
 20
1.92613581
  0
VERTEX
  8
0
 10
2.36830773
 20
1.87842085
  0
VERTEX
  8
0
 10
2.35902301
 20
1.83070589
  0
VERTEX
  8
0
 10
2.33116887
 20
1.78875971
  0
SEQEND
  0
POLYLINE
  8
Default_Layer
 66
   1
 39
0.000000
 70
    1
  0
VERTEX
  8
0
 10
6.19998862
 20
9.47841850
  0
VERTEX
  8
0
 10
8.27842988
 20
8.27842988
  0
VERTEX
  8
0
 10
9.47841850
 20
6.19998862
  0
VERTEX
  8
0
 10
9.47841850
 20
3.80001138
  0
VERTEX
  8
0
 10
8.27842988
 20
1.72157012
  0
VERTEX
  8
0
 10
6.19998862
 20
0.52158150
  0
VERTEX
  8
0
 10
3.80001138
 20
0.52158150
  0
VERTEX
  8
0
 10
1.72157012
 20
1.72157012
  0
VERTEX
  8
0
 10
0.52158150
 20
3.80001138
  0
VERTEX
  8
0
 10
0.52158150
 20
6.19998862
  0
VERTEX
  8
0
 10
1.72157012
 20
8.27842988
  0
VERTEX
  8
0
 10
3.80001138
 20
9.47841850
  0
VERTEX
  8
0
 10
6.19998862
 20
9.47841850
  0
SEQEND
  0
POLYLINE
  8
Default_Layer
 66
   1
 39
0.000000
 70
    1
  0
VERTEX
  8
0
 10
0.68715000
 20
3.97350000
  0
VERTEX
  8
0
 10
0.69711457
 20
4.02285628
  0
VERTEX
  8
0
 10
0.72428886
 20
4.06316114
  0
VERTEX
  8
0
 10
0.76459372
 20
4.09033543
  0
VERTEX
  8
0
 10
0.81395000
 20
4.10030000
  0
VERTEX
  8
0
 10
0.86330628
 20
4.09033543
  0
VERTEX
  8
0
 10
0.90361114
 20
4.06316114
  0
VERTEX
  8
0
 10
0.93078543
 20
4.02285628
  0
VERTEX
  8
0
 10
0.94075000
 20
3.97350000
  0
VERTEX
  8
0
 10
0.93078543
 20
3.92414372
  0
VERTEX
  8
0
 10
0.90361114
 20
3.88383886
  0
VERTEX
  8
0
 10
0.86330628
 20
3.85666457
  0
VERTEX
  8
0
 10
0.81395000
 20
3.84670000
  0
VERTEX
  8
0
 10
0.76459372
 20
3.85666457
  0
VERTEX
  8
0
 10
0.72428886
 20
3.88383886
  0
VERTEX
  8
0
 10
0.69711457
 20
3.92414372
  0
VERTEX
  8
0
 10
0.68715000
 20
3.97350000
  0
SEQEND
  0
POLYLINE
  8
Default_Layer
 66
   1
 39
0.000000
 70
    1
  0
VERTEX
  8
0
 10
1.11662156
 20
3.97350000
  0
VERTEX
  8
0
 10
1.12658613
 20
4.02285628
  0
VERTEX
  8
0
 10
1.15376042
 20
4.06316114
  0
VERTEX
  8
0
 10
1.19406528
 20
4.09033543
  0
VERTEX
  8
0
 10
1.24342156
 20
4.10030000
  0
VERTEX
  8
0
 10
1.29277784
 20
4.09033543
  0
VERTEX
  8
0
 10
1.33308270
 20
4.06316114
  0
VERTEX
  8
0
 10
1.36025699
 20
4.02285628
  0
VERTEX
  8
0
 10
1.37022156
 20
3.97350000
  0
VERTEX
  8
0
 10
1.36025699
 20
3.92414372
  0
VERTEX
  8
0
 10
1.33308270
 20
3.88383886
  0
VERTEX
  8
0
 10
1.29277784
 20
3.85666457
  0
VERTEX
  8
0
 10
1.24342156
 20
3.84670000
  0
VERTEX
  8
0
 10
1.19406528
 20
3.85666457
  0
VERTEX
  8
0
 10
1.15376042
 20
3.88383886
  0
VERTEX
  8
0
 10
1.12658613
 20
3.92414372
  0
VERTEX
  8
0
 10
1.11662156
 20
3.97350000
  0
SEQEND
  0
POLYLINE
  8
Default_Layer
 66
   1
 39
0.000000
 70
    1
  0
VERTEX
  8
0
 10
1.54609312
 20
3.97350000
  0
VERTEX
  8
0
 10
1.55605769
 20
4.02285628
  0
VERTEX
  8
0
 10
1.58323198
 20
4.06316114
  0
VERTEX
  8
0
 10
1.62353684
 20
4.09033543
  0
VERTEX
  8
0
 10
1.67289312
 20
4.10030000
  0
VERTEX
  8
0
 10
1.72224940
 20
4.09033543
  0
VERTEX
  8
0
 10
1.76255426
 20
4.06316114
  0
VERTEX
  8
0
 10
1.78972855
 20
4.02285628
  0
VERTEX
  8
0
 10
1.79969312
 20
3.97350000
  0
VERTEX
  8
0
 10
1.78972855
 20
3.92414372
  0
VERTEX
  8
0
 10
1.76255426
 20
3.88383886
  0
VERTEX
  8
0
 10
1.72224940
 20
3.85666457
  0
VERTEX
  8
0
 10
1.67289312
 20
3.84670000
  0
VERTEX
  8
0
 10
1.62353684
 20
3.85666457
  0
VERTEX
  8
0
 10
1.58323198
 20
3.88383886
  0
VERTEX
  8
0
 10
1.55605769
 20
3.92414372
  0
VERTEX
  8
0
 10
1.54609312
 20
3.97350000
  0
SEQEND
  0
POLYLINE
  8
Default_Layer
 66
   1
 39
0.000000
 70
    1
  0
VERTEX
  8
0
 10
1.97526414
 20
3.97350000
  0
VERTEX
  8
0
 10
1.98522871
 20
4.02285628
  0
VERTEX
  8
0
 10
2.01240300
 20
4.06316114
  0
VERTEX
  8
0
 10
2.05270786
 20
4.09033543
  0
VERTEX
  8
0
 10
2.10206414
 20
4.10030000
  0
VERTEX
  8
0
 10
2.15142042
 20
4.09033543
  0
VERTEX
  8
0
 10
2.19172528
 20
4.06316114
  0
VERTEX
  8
0
 10
2.21889957
 20
4.02285628
  0
VERTEX
  8
0
 10
2.22886414
 20
3.97350000
  0
VERTEX
  8
0
 10
2.21889957
 20
3.92414372
  0
VERTEX
  8
0
 10
2.19172528
 20
3.88383886
  0
VERTEX
  8
0
 10
2.15142042
 20
3.85666457
  0
VERTEX
  8
0
 10
2.10206414
 20
3.84670000
  0
VERTEX
  8
0
 10
2.05270786
 20
3.85666457
  0
VERTEX
  8
0
 10
2.01240300
 20
3.88383886
  0
VERTEX
  8
0
 10
1.98522871
 20
3.92414372
  0
VERTEX
  8
0
 10
1.97526414
 20
3.97350000
  0
SEQEND
  0
POLYLINE
  8
Default_Layer
 66
   1
 39
0.000000
 70
    1
  0
VERTEX
  8
0
 10
2.40473570
 20
3.97350000
  0
VERTEX
  8
0
 10
2.41470027
 20
4.02285628
  0
VERTEX
  8
0
 10
2.44187456
 20
4.06316114
  0
VERTEX
  8
0
 10
2.48217942
 20
4.09033543
  0
VERTEX
  8
0
 10
2.53153570
 20
4.10030000
  0
VERTEX
  8
0
 10
2.58089198
 20
4.09033543
  0
VERTEX
  8
0
 10
2.62119684
 20
4.06316114
  0
VERTEX
  8
0
 10
2.64837113
 20
4.02285628
  0
VERTEX
  8
0
 10
2.65833570
 20
3.97350000
  0
VERTEX
  8
0
 10
2.64837113
 20
3.92414372
  0
VERTEX
  8
0
 10
2.62119684
 20
3.88383886
  0
VERTEX
  8
0
 10
2.58089198
 20
3.85666457
  0
VERTEX
  8
0
 10
2.53153570
 20
3.84670000
  0
VERTEX
  8
0
 10
2.48217942
 20
3.85666457
  0
VERTEX
  8
0
 10
2.44187456
 20
3.88383886
  0
VERTEX
  8
0
 10
2.41470027
 20
3.92414372
  0
VERTEX
  8
0
 10
2.40473570
 20
3.97350000
  0
SEQEND
  0
POLYLINE
  8
Default_Layer
 66
   1
 39
0.000000
 70
    1
  0
VERTEX
  8
0
 10
2.83420726
 20
3.97350000
  0
VERTEX
  8
0
 10
2.84417183
 20
4.02285628
  0
VERTEX
  8
0
 10
2.87134612
 20
4.06316114
  0
VERTEX
  8
0
 10
2.91165098
 20
4.09033543
  0
VERTEX
  8
0
 10
2.96100726
 20
4.10030000
  0
VERTEX
  8
0
 10
3.01036354
 20
4.09033543
  0
VERTEX
  8
0
 10
3.05066840
 20
4.06316114
  0
VERTEX
  8
0
 10
3.07784269
 20
4.02285628
  0
VERTEX
  8
0
 10
3.08780726
 20
3.97350000
  0
VERTEX
  8
0
 10
3.07784269
 20
3.92414372
  0
VERTEX
  8
0
 10
3.05066840
 20
3.88383886
  0
VERTEX
  8
0
 10
3.01036354
 20
3.85666457
  0
VERTEX
  8
0
 10
2.96100726
 20
3.84670000
  0
VERTEX
  8
0
 10
2.91165098
 20
3.85666457
  0
VERTEX
  8
0
 10
2.87134612
 20
3.88383886
  0
VERTEX
  8
0
 10
2.84417183
 20
3.92414372
  0
VERTEX
  8
0
 10
2.83420726
 20
3.97350000
  0
SEQEND
  0
POLYLINE
  8
Default_Layer
 66
   1
 39
0.000000
 70
    1
  0
VERTEX
  8
0
 10
3.26084868
 20
3.98432358
  0
VERTEX
  8
0
 10
3.28007822
 20
4.03085916
  0
VERTEX
  8
0
 10
3.31446624
 20
4.06521593
  0
VERTEX
  8
0
 10
3.35922808
 20
4.08417117
  0
VERTEX
  8
0
 10
3.40957910
 20
4.08450213
  0
VERTEX
  8
0
 10
3.45611468
 20
4.06527259
  0
VERTEX
  8
0
 10
3.49047146
 20
4.03088457
  0
VERTEX
  8
0
 10
3.50942669
 20
3.98612273
  0
VERTEX
  8
0
 10
3.50975765
 20
3.93577171
  0
VERTEX
  8
0
 10
3.49052811
 20
3.88923613
  0
VERTEX
  8
0
 10
3.45614010
 20
3.85487935
  0
VERTEX
  8
0
 10
3.41137826
 20
3.83592412
  0
VERTEX
  8
0
 10
3.36102723
 20
3.83559316
  0
VERTEX
  8
0
 10
3.31449165
 20
3.85482270
  0
VERTEX
  8
0
 10
3.28013488
 20
3.88921071
  0
VERTEX
  8
0
 10
3.26117964
 20
3.93397255
  0
VERTEX
  8
0
 10
3.26084868
 20
3.98432358
  0
SEQEND
  0
POLYLINE
  8
Default_Layer
 66
   1
 39
0.000000
 70
    1
  0
VERTEX
  8
0
 10
3.66918498
 20
3.85083041
  0
VERTEX
  8
0
 10
3.71107400
 20
3.87877045
  0
VERTEX
  8
0
 10
3.75876983
 20
3.88815291
  0
VERTEX
  8
0
 10
3.80650372
 20
3.87896598
  0
VERTEX
  8
0
 10
3.84850688
 20
3.85119785
  0
VERTEX
  8
0
 10
3.87644692
 20
3.80930883
  0
VERTEX
  8
0
 10
3.88582938
 20
3.76161299
  0
VERTEX
  8
0
 10
3.87664245
 20
3.71387911
  0
VERTEX
  8
0
 10
3.84887431
 20
3.67187594
  0
VERTEX
  8
0
 10
3.80698530
 20
3.64393591
  0
VERTEX
  8
0
 10
3.75928946
 20
3.63455344
  0
VERTEX
  8
0
 10
3.71155557
 20
3.64374037
  0
VERTEX
  8
0
 10
3.66955241
 20
3.67150851
  0
VERTEX
  8
0
 10
3.64161238
 20
3.71339753
  0
VERTEX
  8
0
 10
3.63222991
 20
3.76109336
  0
VERTEX
  8
0
 10
3.64141684
 20
3.80882725
  0
VERTEX
  8
0
 10
3.66918498
 20
3.85083041
  0
SEQEND
  0
POLYLINE
  8
Default_Layer
 66
   1
 39
0.000000
 70
    1
  0
VERTEX
  8
0
 10
3.93456955
 20
3.51300050
  0
VERTEX
  8
0
 10
3.98492153
 20
3.51288650
  0
VERTEX
  8
0
 10
4.02976463
 20
3.49412432
  0
VERTEX
  8
0
 10
4.06430037
 20
3.45991603
  0
VERTEX
  8
0
 10
4.08373024
 20
3.41346374
  0
VERTEX
  8
0
 10
4.08361624
 20
3.36311176
  0
VERTEX
  8
0
 10
4.06485406
 20
3.31826866
  0
VERTEX
  8
0
 10
4.03064578
 20
3.28373292
  0
VERTEX
  8
0
 10
3.98419349
 20
3.26430305
  0
VERTEX
  8
0
 10
3.93384150
 20
3.26441705
  0
VERTEX
  8
0
 10
3.88899840
 20
3.28317923
  0
VERTEX
  8
0
 10
3.85446267
 20
3.31738752
  0
VERTEX
  8
0
 10
3.83503279
 20
3.36383981
  0
VERTEX
  8
0
 10
3.83514679
 20
3.41419179
  0
VERTEX
  8
0
 10
3.85390898
 20
3.45903489
  0
VERTEX
  8
0
 10
3.88811726
 20
3.49357063
  0
VERTEX
  8
0
 10
3.93456955
 20
3.51300050
  0
SEQEND
  0
POLYLINE
  8
Default_Layer
 66
   1
 39
0.000000
 70
    1
  0
VERTEX
  8
0
 10
3.97350000
 20
3.08826194
  0
VERTEX
  8
0
 10
4.02285628
 20
3.07829736
  0
VERTEX
  8
0
 10
4.06316114
 20
3.05112308
  0
VERTEX
  8
0
 10
4.09033543
 20
3.01081822
  0
VERTEX
  8
0
 10
4.10030000
 20
2.96146194
  0
VERTEX
  8
0
 10
4.09033543
 20
2.91210565
  0
VERTEX
  8
0
 10
4.06316114
 20
2.87180080
  0
VERTEX
  8
0
 10
4.02285628
 20
2.84462651
  0
VERTEX
  8
0
 10
3.97350000
 20
2.83466194
  0
VERTEX
  8
0
 10
3.92414372
 20
2.84462651
  0
VERTEX
  8
0
 10
3.88383886
 20
2.87180080
  0
VERTEX
  8
0
 10
3.85666457
 20
2.91210565
  0
VERTEX
  8
0
 10
3.84670000
 20
2.96146194
  0
VERTEX
  8
0
 10
3.85666457
 20
3.01081822
  0
VERTEX
  8
0
 10
3.88383886
 20
3.05112308
  0
VERTEX
  8
0
 10
3.92414372
 20
3.07829736
  0
VERTEX
  8
0
 10
3.97350000
 20
3.08826194
  0
SEQEND
  0
POLYLINE
  8
Default_Layer
 66
   1
 39
0.000000
 70
    1
  0
VERTEX
  8
0
 10
3.97350000
 20
2.65881965
  0
VERTEX
  8
0
 10
4.02285628
 20
2.64885508
  0
VERTEX
  8
0
 10
4.06316114
 20
2.62168079
  0
VERTEX
  8
0
 10
4.09033543
 20
2.58137594
  0
VERTEX
  8
0
 10
4.10030000
 20
2.53201965
  0
VERTEX
  8
0
 10
4.09033543
 20
2.48266337
  0
VERTEX
  8
0
 10
4.06316114
 20
2.44235851
  0
VERTEX
  8
0
 10
4.02285628
 20
2.41518423
  0
VERTEX
  8
0
 10
3.97350000
 20
2.40521965
  0
VERTEX
  8
0
 10
3.92414372
 20
2.41518423
  0
VERTEX
  8
0
 10
3.88383886
 20
2.44235851
  0
VERTEX
  8
0
 10
3.85666457
 20
2.48266337
  0
VERTEX
  8
0
 10
3.84670000
 20
2.53201965
  0
VERTEX
  8
0
 10
3.85666457
 20
2.58137594
  0
VERTEX
  8
0
 10
3.88383886
 20
2.62168079
  0
VERTEX
  8
0
 10
3.92414372
 20
2.64885508
  0
VERTEX
  8
0
 10
3.97350000
 20
2.65881965
  0
SEQEND
  0
POLYLINE
  8
Default_Layer
 66
   1
 39
0.000000
 70
    1
  0
VERTEX
  8
0
 10
3.97350000
 20
2.22937737
  0
VERTEX
  8
0
 10
4.02285628
 20
2.21941280
  0
VERTEX
  8
0
 10
4.06316114
 20
2.19223851
  0
VERTEX
  8
0
 10
4.09033543
 20
2.15193365
  0
VERTEX
  8
0
 10
4.10030000
 20
2.10257737
  0
VERTEX
  8
0
 10
4.09033543
 20
2.05322109
  0
VERTEX
  8
0
 10
4.06316114
 20
2.01291623
  0
VERTEX
  8
0
 10
4.02285628
 20
1.98574194
  0
VERTEX
  8
0
 10
3.97350000
 20
1.97577737
  0
VERTEX
  8
0
 10
3.92414372
 20
1.98574194
  0
VERTEX
  8
0
 10
3.88383886
 20
2.01291623
  0
VERTEX
  8
0
 10
3.85666457
 20
2.05322109
  0
VERTEX
  8
0
 10
3.84670000
 20
2.10257737
  0
VERTEX
  8
0
 10
3.85666457
 20
2.15193365
  0
VERTEX
  8
0
 10
3.88383886
 20
2.19223851
  0
VERTEX
  8
0
 10
3.92414372
 20
2.21941280
  0
VERTEX
  8
0
 10
3.97350000
 20
2.22937737
  0
SEQEND
  0
POLYLINE
  8
Default_Layer
 66
   1
 39
0.000000
 70
    1
  0
VERTEX
  8
0
 10
3.97350000
 20
1.80023561
  0
VERTEX
  8
0
 10
4.02285628
 20
1.79027103
  0
VERTEX
  8
0
 10
4.06316114
 20
1.76309675
  0
VERTEX
  8
0
 10
4.09033543
 20
1.72279189
  0
VERTEX
  8
0
 10
4.10030000
 20
1.67343561
  0
VERTEX
  8
0
 10
4.09033543
 20
1.62407932
  0
VERTEX
  8
0
 10
4.06316114
 20
1.58377447
  0
VERTEX
  8
0
 10
4.02285628
 20
1.55660018
  0
VERTEX
  8
0
 10
3.97350000
 20
1.54663561
  0
VERTEX
  8
0
 10
3.92414372
 20
1.55660018
  0
VERTEX
  8
0
 10
3.88383886
 20
1.58377447
  0
VERTEX
  8
0
 10
3.85666457
 20
1.62407932
  0
VERTEX
  8
0
 10
3.84670000
 20
1.67343561
  0
VERTEX
  8
0
 10
3.85666457
 20
1.72279189
  0
VERTEX
  8
0
 10
3.88383886
 20
1.76309675
  0
VERTEX
  8
0
 10
3.92414372
 20
1.79027103
  0
VERTEX
  8
0
 10
3.97350000
 20
1.80023561
  0
SEQEND
  0
POLYLINE
  8
Default_Layer
 66
   1
 39
0.000000
 70
    1
  0
VERTEX
  8
0
 10
3.97350000
 20
1.37079332
  0
VERTEX
  8
0
 10
4.02285628
 20
1.36082875
  0
VERTEX
  8
0
 10
4.06316114
 20
1.33365446
  0
VERTEX
  8
0
 10
4.09033543
 20
1.29334960
  0
VERTEX
  8
0
 10
4.10030000
 20
1.24399332
  0
VERTEX
  8
0
 10
4.09033543
 20
1.19463704
  0
VERTEX
  8
0
 10
4.06316114
 20
1.15433218
  0
VERTEX
  8
0
 10
4.02285628
 20
1.12715789
  0
VERTEX
  8
0
 10
3.97350000
 20
1.11719332
  0
VERTEX
  8
0
 10
3.92414372
 20
1.12715789
  0
VERTEX
  8
0
 10
3.88383886
 20
1.15433218
  0
VERTEX
  8
0
 10
3.85666457
 20
1.19463704
  0
VERTEX
  8
0
 10
3.84670000
 20
1.24399332
  0
VERTEX
  8
0
 10
3.85666457
 20
1.29334960
  0
VERTEX
  8
0
 10
3.88383886
 20
1.33365446
  0
VERTEX
  8
0
 10
3.92414372
 20
1.36082875
  0
VERTEX
  8
0
 10
3.97350000
 20
1.37079332
  0
SEQEND
  0
POLYLINE
  8
Default_Layer
 66
   1
 39
0.000000
 70
    1
  0
VERTEX
  8
0
 10
3.97350000
 20
0.94135104
  0
VERTEX
  8
0
 10
4.02285628
 20
0.93138647
  0
VERTEX
  8
0
 10
4.06316114
 20
0.90421218
  0
VERTEX
  8
0
 10
4.09033543
 20
0.86390732
  0
VERTEX
  8
0
 10
4.10030000
 20
0.81455104
  0
VERTEX
  8
0
 10
4.09033543
 20
0.76519476
  0
VERTEX
  8
0
 10
4.06316114
 20
0.72488990
  0
VERTEX
  8
0
 10
4.02285628
 20
0.69771561
  0
VERTEX
  8
0
 10
3.97350000
 20
0.68775104
  0
VERTEX
  8
0
 10
3.92414372
 20
0.69771561
  0
VERTEX
  8
0
 10
3.88383886
 20
0.72488990
  0
VERTEX
  8
0
 10
3.85666457
 20
0.76519476
  0
VERTEX
  8
0
 10
3.84670000
 20
0.81455104
  0
VERTEX
  8
0
 10
3.85666457
 20
0.86390732
  0
VERTEX
  8
0
 10
3.88383886
 20
0.90421218
  0
VERTEX
  8
0
 10
3.92414372
 20
0.93138647
  0
VERTEX
  8
0
 10
3.97350000
 20
0.94135104
  0
SEQEND
  0
POLYLINE
  8
Default_Layer
 66
   1
 39
0.000000
 70
    1
  0
VERTEX
  8
0
 10
3.97350000
 20
0.94105052
  0
VERTEX
  8
0
 10
4.02285628
 20
0.93108595
  0
VERTEX
  8
0
 10
4.06316114
 20
0.90391166
  0
VERTEX
  8
0
 10
4.09033543
 20
0.86360680
  0
VERTEX
  8
0
 10
4.10030000
 20
0.81425052
  0
VERTEX
  8
0
 10
4.09033543
 20
0.76489424
  0
VERTEX
  8
0
 10
4.06316114
 20
0.72458938
  0
VERTEX
  8
0
 10
4.02285628
 20
0.69741509
  0
VERTEX
  8
0
 10
3.97350000
 20
0.68745052
  0
VERTEX
  8
0
 10
3.92414372
 20
0.69741509
  0
VERTEX
  8
0
 10
3.88383886
 20
0.72458938
  0
VERTEX
  8
0
 10
3.85666457
 20
0.76489424
  0
VERTEX
  8
0
 10
3.84670000
 20
0.81425052
  0
VERTEX
  8
0
 10
3.85666457
 20
0.86360680
  0
VERTEX
  8
0
 10
3.88383886
 20
0.90391166
  0
VERTEX
  8
0
 10
3.92414372
 20
0.93108595
  0
VERTEX
  8
0
 10
3.97350000
 20
0.94105052
  0
SEQEND
  0
POLYLINE
  8
Default_Layer
 66
   1
 39
0.000000
 70
    1
  0
VERTEX
  8
0
 10
6.15330000
 20
0.81639585
  0
VERTEX
  8
0
 10
6.14333543
 20
0.76703957
  0
VERTEX
  8
0
 10
6.11616114
 20
0.72673471
  0
VERTEX
  8
0
 10
6.07585628
 20
0.69956043
  0
VERTEX
  8
0
 10
6.02650000
 20
0.68959585
  0
VERTEX
  8
0
 10
5.97714372
 20
0.69956043
  0
VERTEX
  8
0
 10
5.93683886
 20
0.72673471
  0
VERTEX
  8
0
 10
5.90966457
 20
0.76703957
  0
VERTEX
  8
0
 10
5.89970000
 20
0.81639585
  0
VERTEX
  8
0
 10
5.90966457
 20
0.86575214
  0
VERTEX
  8
0
 10
5.93683886
 20
0.90605699
  0
VERTEX
  8
0
 10
5.97714372
 20
0.93323128
  0
VERTEX
  8
0
 10
6.02650000
 20
0.94319585
  0
VERTEX
  8
0
 10
6.07585628
 20
0.93323128
  0
VERTEX
  8
0
 10
6.11616114
 20
0.90605699
  0
VERTEX
  8
0
 10
6.14333543
 20
0.86575214
  0
VERTEX
  8
0
 10
6.15330000
 20
0.81639585
  0
SEQEND
  0
POLYLINE
  8
Default_Layer
 66
   1
 39
0.000000
 70
    1
  0
VERTEX
  8
0
 10
5.63999868
 20
0.81639585
  0
VERTEX
  8
0
 10
5.63003411
 20
0.76703957
  0
VERTEX
  8
0
 10
5.60285982
 20
0.72673471
  0
VERTEX
  8
0
 10
5.56255496
 20
0.69956043
  0
VERTEX
  8
0
 10
5.51319868
 20
0.68959585
  0
VERTEX
  8
0
 10
5.46384240
 20
0.69956043
  0
VERTEX
  8
0
 10
5.42353754
 20
0.72673471
  0
VERTEX
  8
0
 10
5.39636325
 20
0.76703957
  0
VERTEX
  8
0
 10
5.38639868
 20
0.81639585
  0
VERTEX
  8
0
 10
5.39636325
 20
0.86575214
  0
VERTEX
  8
0
 10
5.42353754
 20
0.90605699
  0
VERTEX
  8
0
 10
5.46384240
 20
0.93323128
  0
VERTEX
  8
0
 10
5.51319868
 20
0.94319585
  0
VERTEX
  8
0
 10
5.56255496
 20
0.93323128
  0
VERTEX
  8
0
 10
5.60285982
 20
0.90605699
  0
VERTEX
  8
0
 10
5.63003411
 20
0.86575214
  0
VERTEX
  8
0
 10
5.63999868
 20
0.81639585
  0
SEQEND
  0
POLYLINE
  8
Default_Layer
 66
   1
 39
0.000000
 70
    1
  0
VERTEX
  8
0
 10
5.12680000
 20
0.81639585
  0
VERTEX
  8
0
 10
5.11683543
 20
0.76703957
  0
VERTEX
  8
0
 10
5.08966114
 20
0.72673471
  0
VERTEX
  8
0
 10
5.04935628
 20
0.69956043
  0
VERTEX
  8
0
 10
5.00000000
 20
0.68959585
  0
VERTEX
  8
0
 10
4.95064372
 20
0.69956043
  0
VERTEX
  8
0
 10
4.91033886
 20
0.72673471
  0
VERTEX
  8
0
 10
4.88316457
 20
0.76703957
  0
VERTEX
  8
0
 10
4.87320000
 20
0.81639585
  0
VERTEX
  8
0
 10
4.88316457
 20
0.86575214
  0
VERTEX
  8
0
 10
4.91033886
 20
0.90605699
  0
VERTEX
  8
0
 10
4.95064372
 20
0.93323128
  0
VERTEX
  8
0
 10
5.00000000
 20
0.94319585
  0
VERTEX
  8
0
 10
5.04935628
 20
0.93323128
  0
VERTEX
  8
0
 10
5.08966114
 20
0.90605699
  0
VERTEX
  8
0
 10
5.11683543
 20
0.86575214
  0
VERTEX
  8
0
 10
5.12680000
 20
0.81639585
  0
SEQEND
  0
POLYLINE
  8
Default_Layer
 66
   1
 39
0.000000
 70
    1
  0
VERTEX
  8
0
 10
4.61344735
 20
0.81639585
  0
VERTEX
  8
0
 10
4.60348278
 20
0.76703957
  0
VERTEX
  8
0
 10
4.57630849
 20
0.72673471
  0
VERTEX
  8
0
 10
4.53600363
 20
0.69956043
  0
VERTEX
  8
0
 10
4.48664735
 20
0.68959585
  0
VERTEX
  8
0
 10
4.43729107
 20
0.69956043
  0
VERTEX
  8
0
 10
4.39698621
 20
0.72673471
  0
VERTEX
  8
0
 10
4.36981192
 20
0.76703957
  0
VERTEX
  8
0
 10
4.35984735
 20
0.81639585
  0
VERTEX
  8
0
 10
4.36981192
 20
0.86575214
  0
VERTEX
  8
0
 10
4.39698621
 20
0.90605699
  0
VERTEX
  8
0
 10
4.43729107
 20
0.93323128
  0
VERTEX
  8
0
 10
4.48664735
 20
0.94319585
  0
VERTEX
  8
0
 10
4.53600363
 20
0.93323128
  0
VERTEX
  8
0
 10
4.57630849
 20
0.90605699
  0
VERTEX
  8
0
 10
4.60348278
 20
0.86575214
  0
VERTEX
  8
0
 10
4.61344735
 20
0.81639585
  0
SEQEND
  0
POLYLINE
  8
Default_Layer
 66
   1
 39
0.000000
 70
    1
  0
VERTEX
  8
0
 10
0.68715000
 20
6.02650000
  0
VERTEX
  8
0
 10
0.69711457
 20
5.97714372
  0
VERTEX
  8
0
 10
0.72428886
 20
5.93683886
  0
VERTEX
  8
0
 10
0.76459372
 20
5.90966457
  0
VERTEX
  8
0
 10
0.81395000
 20
5.89970000
  0
VERTEX
  8
0
 10
0.86330628
 20
5.90966457
  0
VERTEX
  8
0
 10
0.90361114
 20
5.93683886
  0
VERTEX
  8
0
 10
0.93078543
 20
5.97714372
  0
VERTEX
  8
0
 10
0.94075000
 20
6.02650000
  0
VERTEX
  8
0
 10
0.93078543
 20
6.07585628
  0
VERTEX
  8
0
 10
0.90361114
 20
6.11616114
  0
VERTEX
  8
0
 10
0.86330628
 20
6.14333543
  0
VERTEX
  8
0
 10
0.81395000
 20
6.15330000
  0
VERTEX
  8
0
 10
0.76459372
 20
6.14333543
  0
VERTEX
  8
0
 10
0.72428886
 20
6.11616114
  0
VERTEX
  8
0
 10
0.69711457
 20
6.07585628
  0
VERTEX
  8
0
 10
0.68715000
 20
6.02650000
  0
SEQEND
  0
POLYLINE
  8
Default_Layer
 66
   1
 39
0.000000
 70
    1
  0
VERTEX
  8
0
 10
1.11662156
 20
6.02650000
  0
VERTEX
  8
0
 10
1.12658613
 20
5.97714372
  0
VERTEX
  8
0
 10
1.15376042
 20
5.93683886
  0
VERTEX
  8
0
 10
1.19406528
 20
5.90966457
  0
VERTEX
  8
0
 10
1.24342156
 20
5.89970000
  0
VERTEX
  8
0
 10
1.29277784
 20
5.90966457
  0
VERTEX
  8
0
 10
1.33308270
 20
5.93683886
  0
VERTEX
  8
0
 10
1.36025699
 20
5.97714372
  0
VERTEX
  8
0
 10
1.37022156
 20
6.02650000
  0
VERTEX
  8
0
 10
1.36025699
 20
6.07585628
  0
VERTEX
  8
0
 10
1.33308270
 20
6.11616114
  0
VERTEX
  8
0
 10
1.29277784
 20
6.14333543
  0
VERTEX
  8
0
 10
1.24342156
 20
6.15330000
  0
VERTEX
  8
0
 10
1.19406528
 20
6.14333543
  0
VERTEX
  8
0
 10
1.15376042
 20
6.11616114
  0
VERTEX
  8
0
 10
1.12658613
 20
6.07585628
  0
VERTEX
  8
0
 10
1.11662156
 20
6.02650000
  0
SEQEND
  0
POLYLINE
  8
Default_Layer
 66
   1
 39
0.000000
 70
    1
  0
VERTEX
  8
0
 10
1.54609312
 20
6.02650000
  0
VERTEX
  8
0
 10
1.55605769
 20
5.97714372
  0
VERTEX
  8
0
 10
1.58323198
 20
5.93683886
  0
VERTEX
  8
0
 10
1.62353684
 20
5.90966457
  0
VERTEX
  8
0
 10
1.67289312
 20
5.89970000
  0
VERTEX
  8
0
 10
1.72224940
 20
5.90966457
  0
VERTEX
  8
0
 10
1.76255426
 20
5.93683886
  0
VERTEX
  8
0
 10
1.78972855
 20
5.97714372
  0
VERTEX
  8
0
 10
1.79969312
 20
6.02650000
  0
VERTEX
  8
0
 10
1.78972855
 20
6.07585628
  0
VERTEX
  8
0
 10
1.76255426
 20
6.11616114
  0
VERTEX
  8
0
 10
1.72224940
 20
6.14333543
  0
VERTEX
  8
0
 10
1.67289312
 20
6.15330000
  0
VERTEX
  8
0
 10
1.62353684
 20
6.14333543
  0
VERTEX
  8
0
 10
1.58323198
 20
6.11616114
  0
VERTEX
  8
0
 10
1.55605769
 20
6.07585628
  0
VERTEX
  8
0
 10
1.54609312
 20
6.02650000
  0
SEQEND
  0
POLYLINE
  8
Default_Layer
 66
   1
 39
0.000000
 70
    1
  0
VERTEX
  8
0
 10
1.97526414
 20
6.02650000
  0
VERTEX
  8
0
 10
1.98522871
 20
5.97714372
  0
VERTEX
  8
0
 10
2.01240300
 20
5.93683886
  0
VERTEX
  8
0
 10
2.05270786
 20
5.90966457
  0
VERTEX
  8
0
 10
2.10206414
 20
5.89970000
  0
VERTEX
  8
0
 10
2.15142042
 20
5.90966457
  0
VERTEX
  8
0
 10
2.19172528
 20
5.93683886
  0
VERTEX
  8
0
 10
2.21889957
 20
5.97714372
  0
VERTEX
  8
0
 10
2.22886414
 20
6.02650000
  0
VERTEX
  8
0
 10
2.21889957
 20
6.07585628
  0
VERTEX
  8
0
 10
2.19172528
 20
6.11616114
  0
VERTEX
  8
0
 10
2.15142042
 20
6.14333543
  0
VERTEX
  8
0
 10
2.10206414
 20
6.15330000
  0
VERTEX
  8
0
 10
2.05270786
 20
6.14333543
  0
VERTEX
  8
0
 10
2.01240300
 20
6.11616114
  0
VERTEX
  8
0
 10
1.98522871
 20
6.07585628
  0
VERTEX
  8
0
 10
1.97526414
 20
6.02650000
  0
SEQEND
  0
POLYLINE
  8
Default_Layer
 66
   1
 39
0.000000
 70
    1
  0
VERTEX
  8
0
 10
2.40473570
 20
6.02650000
  0
VERTEX
  8
0
 10
2.41470027
 20
5.97714372
  0
VERTEX
  8
0
 10
2.44187456
 20
5.93683886
  0
VERTEX
  8
0
 10
2.48217942
 20
5.90966457
  0
VERTEX
  8
0
 10
2.53153570
 20
5.89970000
  0
VERTEX
  8
0
 10
2.58089198
 20
5.90966457
  0
VERTEX
  8
0
 10
2.62119684
 20
5.93683886
  0
VERTEX
  8
0
 10
2.64837113
 20
5.97714372
  0
VERTEX
  8
0
 10
2.65833570
 20
6.02650000
  0
VERTEX
  8
0
 10
2.64837113
 20
6.07585628
  0
VERTEX
  8
0
 10
2.62119684
 20
6.11616114
  0
VERTEX
  8
0
 10
2.58089198
 20
6.14333543
  0
VERTEX
  8
0
 10
2.53153570
 20
6.15330000
  0
VERTEX
  8
0
 10
2.48217942
 20
6.14333543
  0
VERTEX
  8
0
 10
2.44187456
 20
6.11616114
  0
VERTEX
  8
0
 10
2.41470027
 20
6.07585628
  0
VERTEX
  8
0
 10
2.40473570
 20
6.02650000
  0
SEQEND
  0
POLYLINE
  8
Default_Layer
 66
   1
 39
0.000000
 70
    1
  0
VERTEX
  8
0
 10
2.83420726
 20
6.02650000
  0
VERTEX
  8
0
 10
2.84417183
 20
5.97714372
  0
VERTEX
  8
0
 10
2.87134612
 20
5.93683886
  0
VERTEX
  8
0
 10
2.91165098
 20
5.90966457
  0
VERTEX
  8
0
 10
2.96100726
 20
5.89970000
  0
VERTEX
  8
0
 10
3.01036354
 20
5.90966457
  0
VERTEX
  8
0
 10
3.05066840
 20
5.93683886
  0
VERTEX
  8
0
 10
3.07784269
 20
5.97714372
  0
VERTEX
  8
0
 10
3.08780726
 20
6.02650000
  0
VERTEX
  8
0
 10
3.07784269
 20
6.07585628
  0
VERTEX
  8
0
 10
3.05066840
 20
6.11616114
  0
VERTEX
  8
0
 10
3.01036354
 20
6.14333543
  0
VERTEX
  8
0
 10
2.96100726
 20
6.15330000
  0
VERTEX
  8
0
 10
2.91165098
 20
6.14333543
  0
VERTEX
  8
0
 10
2.87134612
 20
6.11616114
  0
VERTEX
  8
0
 10
2.84417183
 20
6.07585628
  0
VERTEX
  8
0
 10
2.83420726
 20
6.02650000
  0
SEQEND
  0
POLYLINE
  8
Default_Layer
 66
   1
 39
0.000000
 70
    1
  0
VERTEX
  8
0
 10
3.26084868
 20
6.01567642
  0
VERTEX
  8
0
 10
3.28007822
 20
5.96914084
  0
VERTEX
  8
0
 10
3.31446624
 20
5.93478407
  0
VERTEX
  8
0
 10
3.35922808
 20
5.91582883
  0
VERTEX
  8
0
 10
3.40957910
 20
5.91549787
  0
VERTEX
  8
0
 10
3.45611468
 20
5.93472741
  0
VERTEX
  8
0
 10
3.49047146
 20
5.96911543
  0
VERTEX
  8
0
 10
3.50942669
 20
6.01387727
  0
VERTEX
  8
0
 10
3.50975765
 20
6.06422829
  0
VERTEX
  8
0
 10
3.49052811
 20
6.11076387
  0
VERTEX
  8
0
 10
3.45614010
 20
6.14512065
  0
VERTEX
  8
0
 10
3.41137826
 20
6.16407588
  0
VERTEX
  8
0
 10
3.36102723
 20
6.16440684
  0
VERTEX
  8
0
 10
3.31449165
 20
6.14517730
  0
VERTEX
  8
0
 10
3.28013488
 20
6.11078929
  0
VERTEX
  8
0
 10
3.26117964
 20
6.06602745
  0
VERTEX
  8
0
 10
3.26084868
 20
6.01567642
  0
SEQEND
  0
POLYLINE
  8
Default_Layer
 66
   1
 39
0.000000
 70
    1
  0
VERTEX
  8
0
 10
3.66918498
 20
6.14916959
  0
VERTEX
  8
0
 10
3.71107400
 20
6.12122955
  0
VERTEX
  8
0
 10
3.75876983
 20
6.11184709
  0
VERTEX
  8
0
 10
3.80650372
 20
6.12103402
  0
VERTEX
  8
0
 10
3.84850688
 20
6.14880215
  0
VERTEX
  8
0
 10
3.87644692
 20
6.19069117
  0
VERTEX
  8
0
 10
3.88582938
 20
6.23838701
  0
VERTEX
  8
0
 10
3.87664245
 20
6.28612089
  0
VERTEX
  8
0
 10
3.84887431
 20
6.32812406
  0
VERTEX
  8
0
 10
3.80698530
 20
6.35606409
  0
VERTEX
  8
0
 10
3.75928946
 20
6.36544656
  0
VERTEX
  8
0
 10
3.71155557
 20
6.35625963
  0
VERTEX
  8
0
 10
3.66955241
 20
6.32849149
  0
VERTEX
  8
0
 10
3.64161238
 20
6.28660247
  0
VERTEX
  8
0
 10
3.63222991
 20
6.23890664
  0
VERTEX
  8
0
 10
3.64141684
 20
6.19117275
  0
VERTEX
  8
0
 10
3.66918498
 20
6.14916959
  0
SEQEND
  0
POLYLINE
  8
Default_Layer
 66
   1
 39
0.000000
 70
    1
  0
VERTEX
  8
0
 10
3.93456955
 20
6.48699950
  0
VERTEX
  8
0
 10
3.98492153
 20
6.48711350
  0
VERTEX
  8
0
 10
4.02976463
 20
6.50587568
  0
VERTEX
  8
0
 10
4.06430037
 20
6.54008397
  0
VERTEX
  8
0
 10
4.08373024
 20
6.58653626
  0
VERTEX
  8
0
 10
4.08361624
 20
6.63688824
  0
VERTEX
  8
0
 10
4.06485406
 20
6.68173134
  0
VERTEX
  8
0
 10
4.03064578
 20
6.71626708
  0
VERTEX
  8
0
 10
3.98419349
 20
6.73569695
  0
VERTEX
  8
0
 10
3.93384150
 20
6.73558295
  0
VERTEX
  8
0
 10
3.88899840
 20
6.71682077
  0
VERTEX
  8
0
 10
3.85446267
 20
6.68261248
  0
VERTEX
  8
0
 10
3.83503279
 20
6.63616019
  0
VERTEX
  8
0
 10
3.83514679
 20
6.58580821
  0
VERTEX
  8
0
 10
3.85390898
 20
6.54096511
  0
VERTEX
  8
0
 10
3.88811726
 20
6.50642937
  0
VERTEX
  8
0
 10
3.93456955
 20
6.48699950
  0
SEQEND
  0
POLYLINE
  8
Default_Layer
 66
   1
 39
0.000000
 70
    1
  0
VERTEX
  8
0
 10
3.97350000
 20
6.91173806
  0
VERTEX
  8
0
 10
4.02285628
 20
6.92170264
  0
VERTEX
  8
0
 10
4.06316114
 20
6.94887692
  0
VERTEX
  8
0
 10
4.09033543
 20
6.98918178
  0
VERTEX
  8
0
 10
4.10030000
 20
7.03853806
  0
VERTEX
  8
0
 10
4.09033543
 20
7.08789435
  0
VERTEX
  8
0
 10
4.06316114
 20
7.12819920
  0
VERTEX
  8
0
 10
4.02285628
 20
7.15537349
  0
VERTEX
  8
0
 10
3.97350000
 20
7.16533806
  0
VERTEX
  8
0
 10
3.92414372
 20
7.15537349
  0
VERTEX
  8
0
 10
3.88383886
 20
7.12819920
  0
VERTEX
  8
0
 10
3.85666457
 20
7.08789435
  0
VERTEX
  8
0
 10
3.84670000
 20
7.03853806
  0
VERTEX
  8
0
 10
3.85666457
 20
6.98918178
  0
VERTEX
  8
0
 10
3.88383886
 20
6.94887692
  0
VERTEX
  8
0
 10
3.92414372
 20
6.92170264
  0
VERTEX
  8
0
 10
3.97350000
 20
6.91173806
  0
SEQEND
  0
POLYLINE
  8
Default_Layer
 66
   1
 39
0.000000
 70
    1
  0
VERTEX
  8
0
 10
3.97350000
 20
7.34118035
  0
VERTEX
  8
0
 10
4.02285628
 20
7.35114492
  0
VERTEX
  8
0
 10
4.06316114
 20
7.37831921
  0
VERTEX
  8
0
 10
4.09033543
 20
7.41862406
  0
VERTEX
  8
0
 10
4.10030000
 20
7.46798035
  0
VERTEX
  8
0
 10
4.09033543
 20
7.51733663
  0
VERTEX
  8
0
 10
4.06316114
 20
7.55764149
  0
VERTEX
  8
0
 10
4.02285628
 20
7.58481577
  0
VERTEX
  8
0
 10
3.97350000
 20
7.59478035
  0
VERTEX
  8
0
 10
3.92414372
 20
7.58481577
  0
VERTEX
  8
0
 10
3.88383886
 20
7.55764149
  0
VERTEX
  8
0
 10
3.85666457
 20
7.51733663
  0
VERTEX
  8
0
 10
3.84670000
 20
7.46798035
  0
VERTEX
  8
0
 10
3.85666457
 20
7.41862406
  0
VERTEX
  8
0
 10
3.88383886
 20
7.37831921
  0
VERTEX
  8
0
 10
3.92414372
 20
7.35114492
  0
VERTEX
  8
0
 10
3.97350000
 20
7.34118035
  0
SEQEND
  0
POLYLINE
  8
Default_Layer
 66
   1
 39
0.000000
 70
    1
  0
VERTEX
  8
0
 10
3.97350000
 20
7.77062263
  0
VERTEX
  8
0
 10
4.02285628
 20
7.78058720
  0
VERTEX
  8
0
 10
4.06316114
 20
7.80776149
  0
VERTEX
  8
0
 10
4.09033543
 20
7.84806635
  0
VERTEX
  8
0
 10
4.10030000
 20
7.89742263
  0
VERTEX
  8
0
 10
4.09033543
 20
7.94677891
  0
VERTEX
  8
0
 10
4.06316114
 20
7.98708377
  0
VERTEX
  8
0
 10
4.02285628
 20
8.01425806
  0
VERTEX
  8
0
 10
3.97350000
 20
8.02422263
  0
VERTEX
  8
0
 10
3.92414372
 20
8.01425806
  0
VERTEX
  8
0
 10
3.88383886
 20
7.98708377
  0
VERTEX
  8
0
 10
3.85666457
 20
7.94677891
  0
VERTEX
  8
0
 10
3.84670000
 20
7.89742263
  0
VERTEX
  8
0
 10
3.85666457
 20
7.84806635
  0
VERTEX
  8
0
 10
3.88383886
 20
7.80776149
  0
VERTEX
  8
0
 10
3.92414372
 20
7.78058720
  0
VERTEX
  8
0
 10
3.97350000
 20
7.77062263
  0
SEQEND
  0
POLYLINE
  8
Default_Layer
 66
   1
 39
0.000000
 70
    1
  0
VERTEX
  8
0
 10
3.97350000
 20
8.19976439
  0
VERTEX
  8
0
 10
4.02285628
 20
8.20972897
  0
VERTEX
  8
0
 10
4.06316114
 20
8.23690325
  0
VERTEX
  8
0
 10
4.09033543
 20
8.27720811
  0
VERTEX
  8
0
 10
4.10030000
 20
8.32656439
  0
VERTEX
  8
0
 10
4.09033543
 20
8.37592068
  0
VERTEX
  8
0
 10
4.06316114
 20
8.41622553
  0
VERTEX
  8
0
 10
4.02285628
 20
8.44339982
  0
VERTEX
  8
0
 10
3.97350000
 20
8.45336439
  0
VERTEX
  8
0
 10
3.92414372
 20
8.44339982
  0
VERTEX
  8
0
 10
3.88383886
 20
8.41622553
  0
VERTEX
  8
0
 10
3.85666457
 20
8.37592068
  0
VERTEX
  8
0
 10
3.84670000
 20
8.32656439
  0
VERTEX
  8
0
 10
3.85666457
 20
8.27720811
  0
VERTEX
  8
0
 10
3.88383886
 20
8.23690325
  0
VERTEX
  8
0
 10
3.92414372
 20
8.20972897
  0
VERTEX
  8
0
 10
3.97350000
 20
8.19976439
  0
SEQEND
  0
POLYLINE
  8
Default_Layer
 66
   1
 39
0.000000
 70
    1
  0
VERTEX
  8
0
 10
3.97350000
 20
8.62920668
  0
VERTEX
  8
0
 10
4.02285628
 20
8.63917125
  0
VERTEX
  8
0
 10
4.06316114
 20
8.66634554
  0
VERTEX
  8
0
 10
4.09033543
 20
8.70665040
  0
VERTEX
  8
0
 10
4.10030000
 20
8.75600668
  0
VERTEX
  8
0
 10
4.09033543
 20
8.80536296
  0
VERTEX
  8
0
 10
4.06316114
 20
8.84566782
  0
VERTEX
  8
0
 10
4.02285628
 20
8.87284211
  0
VERTEX
  8
0
 10
3.97350000
 20
8.88280668
  0
VERTEX
  8
0
 10
3.92414372
 20
8.87284211
  0
VERTEX
  8
0
 10
3.88383886
 20
8.84566782
  0
VERTEX
  8
0
 10
3.85666457
 20
8.80536296
  0
VERTEX
  8
0
 10
3.84670000
 20
8.75600668
  0
VERTEX
  8
0
 10
3.85666457
 20
8.70665040
  0
VERTEX
  8
0
 10
3.88383886
 20
8.66634554
  0
VERTEX
  8
0
 10
3.92414372
 20
8.63917125
  0
VERTEX
  8
0
 10
3.97350000
 20
8.62920668
  0
SEQEND
  0
POLYLINE
  8
Default_Layer
 66
   1
 39
0.000000
 70
    1
  0
VERTEX
  8
0
 10
3.97350000
 20
9.05864896
  0
VERTEX
  8
0
 10
4.02285628
 20
9.06861353
  0
VERTEX
  8
0
 10
4.06316114
 20
9.09578782
  0
VERTEX
  8
0
 10
4.09033543
 20
9.13609268
  0
VERTEX
  8
0
 10
4.10030000
 20
9.18544896
  0
VERTEX
  8
0
 10
4.09033543
 20
9.23480524
  0
VERTEX
  8
0
 10
4.06316114
 20
9.27511010
  0
VERTEX
  8
0
 10
4.02285628
 20
9.30228439
  0
VERTEX
  8
0
 10
3.97350000
 20
9.31224896
  0
VERTEX
  8
0
 10
3.92414372
 20
9.30228439
  0
VERTEX
  8
0
 10
3.88383886
 20
9.27511010
  0
VERTEX
  8
0
 10
3.85666457
 20
9.23480524
  0
VERTEX
  8
0
 10
3.84670000
 20
9.18544896
  0
VERTEX
  8
0
 10
3.85666457
 20
9.13609268
  0
VERTEX
  8
0
 10
3.88383886
 20
9.09578782
  0
VERTEX
  8
0
 10
3.92414372
 20
9.06861353
  0
VERTEX
  8
0
 10
3.97350000
 20
9.05864896
  0
SEQEND
  0
POLYLINE
  8
Default_Layer
 66
   1
 39
0.000000
 70
    1
  0
VERTEX
  8
0
 10
3.97350000
 20
9.05894948
  0
VERTEX
  8
0
 10
4.02285628
 20
9.06891405
  0
VERTEX
  8
0
 10
4.06316114
 20
9.09608834
  0
VERTEX
  8
0
 10
4.09033543
 20
9.13639320
  0
VERTEX
  8
0
 10
4.10030000
 20
9.18574948
  0
VERTEX
  8
0
 10
4.09033543
 20
9.23510576
  0
VERTEX
  8
0
 10
4.06316114
 20
9.27541062
  0
VERTEX
  8
0
 10
4.02285628
 20
9.30258491
  0
VERTEX
  8
0
 10
3.97350000
 20
9.31254948
  0
VERTEX
  8
0
 10
3.92414372
 20
9.30258491
  0
VERTEX
  8
0
 10
3.88383886
 20
9.27541062
  0
VERTEX
  8
0
 10
3.85666457
 20
9.23510576
  0
VERTEX
  8
0
 10
3.84670000
 20
9.18574948
  0
VERTEX
  8
0
 10
3.85666457
 20
9.13639320
  0
VERTEX
  8
0
 10
3.88383886
 20
9.09608834
  0
VERTEX
  8
0
 10
3.92414372
 20
9.06891405
  0
VERTEX
  8
0
 10
3.97350000
 20
9.05894948
  0
SEQEND
  0
POLYLINE
  8
Default_Layer
 66
   1
 39
0.000000
 70
    1
  0
VERTEX
  8
0
 10
4.61344735
 20
9.18360415
  0
VERTEX
  8
0
 10
4.60348278
 20
9.23296043
  0
VERTEX
  8
0
 10
4.57630849
 20
9.27326529
  0
VERTEX
  8
0
 10
4.53600363
 20
9.30043957
  0
VERTEX
  8
0
 10
4.48664735
 20
9.31040415
  0
VERTEX
  8
0
 10
4.43729107
 20
9.30043957
  0
VERTEX
  8
0
 10
4.39698621
 20
9.27326529
  0
VERTEX
  8
0
 10
4.36981192
 20
9.23296043
  0
VERTEX
  8
0
 10
4.35984735
 20
9.18360415
  0
VERTEX
  8
0
 10
4.36981192
 20
9.13424786
  0
VERTEX
  8
0
 10
4.39698621
 20
9.09394301
  0
VERTEX
  8
0
 10
4.43729107
 20
9.06676872
  0
VERTEX
  8
0
 10
4.48664735
 20
9.05680415
  0
VERTEX
  8
0
 10
4.53600363
 20
9.06676872
  0
VERTEX
  8
0
 10
4.57630849
 20
9.09394301
  0
VERTEX
  8
0
 10
4.60348278
 20
9.13424786
  0
VERTEX
  8
0
 10
4.61344735
 20
9.18360415
  0
SEQEND
  0
POLYLINE
  8
Default_Layer
 66
   1
 39
0.000000
 70
    1
  0
VERTEX
  8
0
 10
5.12680000
 20
9.18360415
  0
VERTEX
  8
0
 10
5.11683543
 20
9.23296043
  0
VERTEX
  8
0
 10
5.08966114
 20
9.27326529
  0
VERTEX
  8
0
 10
5.04935628
 20
9.30043957
  0
VERTEX
  8
0
 10
5.00000000
 20
9.31040415
  0
VERTEX
  8
0
 10
4.95064372
 20
9.30043957
  0
VERTEX
  8
0
 10
4.91033886
 20
9.27326529
  0
VERTEX
  8
0
 10
4.88316457
 20
9.23296043
  0
VERTEX
  8
0
 10
4.87320000
 20
9.18360415
  0
VERTEX
  8
0
 10
4.88316457
 20
9.13424786
  0
VERTEX
  8
0
 10
4.91033886
 20
9.09394301
  0
VERTEX
  8
0
 10
4.95064372
 20
9.06676872
  0
VERTEX
  8
0
 10
5.00000000
 20
9.05680415
  0
VERTEX
  8
0
 10
5.04935628
 20
9.06676872
  0
VERTEX
  8
0
 10
5.08966114
 20
9.09394301
  0
VERTEX
  8
0
 10
5.11683543
 20
9.13424786
  0
VERTEX
  8
0
 10
5.12680000
 20
9.18360415
  0
SEQEND
  0
POLYLINE
  8
Default_Layer
 66
   1
 39
0.000000
 70
    1
  0
VERTEX
  8
0
 10
5.63999868
 20
9.18360415
  0
VERTEX
  8
0
 10
5.63003411
 20
9.23296043
  0
VERTEX
  8
0
 10
5.60285982
 20
9.27326529
  0
VERTEX
  8
0
 10
5.56255496
 20
9.30043957
  0
VERTEX
  8
0
 10
5.51319868
 20
9.31040415
  0
VERTEX
  8
0
 10
5.46384240
 20
9.30043957
  0
VERTEX
  8
0
 10
5.42353754
 20
9.27326529
  0
VERTEX
  8
0
 10
5.39636325
 20
9.23296043
  0
VERTEX
  8
0
 10
5.38639868
 20
9.18360415
  0
VERTEX
  8
0
 10
5.39636325
 20
9.13424786
  0
VERTEX
  8
0
 10
5.42353754
 20
9.09394301
  0
VERTEX
  8
0
 10
5.46384240
 20
9.06676872
  0
VERTEX
  8
0
 10
5.51319868
 20
9.05680415
  0
VERTEX
  8
0
 10
5.56255496
 20
9.06676872
  0
VERTEX
  8
0
 10
5.60285982
 20
9.09394301
  0
VERTEX
  8
0
 10
5.63003411
 20
9.13424786
  0
VERTEX
  8
0
 10
5.63999868
 20
9.18360415
  0
SEQEND
  0
POLYLINE
  8
Default_Layer
 66
   1
 39
0.000000
 70
    1
  0
VERTEX
  8
0
 10
0.81411360
 20
4.36000132
  0
VERTEX
  8
0
 10
0.76475732
 20
4.36996589
  0
VERTEX
  8
0
 10
0.72445246
 20
4.39714018
  0
VERTEX
  8
0
 10
0.69727817
 20
4.43744504
  0
VERTEX
  8
0
 10
0.68731360
 20
4.48680132
  0
VERTEX
  8
0
 10
0.69727817
 20
4.53615760
  0
VERTEX
  8
0
 10
0.72445246
 20
4.57646246
  0
VERTEX
  8
0
 10
0.76475732
 20
4.60363675
  0
VERTEX
  8
0
 10
0.81411360
 20
4.61360132
  0
VERTEX
  8
0
 10
0.86346988
 20
4.60363675
  0
VERTEX
  8
0
 10
0.90377474
 20
4.57646246
  0
VERTEX
  8
0
 10
0.93094903
 20
4.53615760
  0
VERTEX
  8
0
 10
0.94091360
 20
4.48680132
  0
VERTEX
  8
0
 10
0.93094903
 20
4.43744504
  0
VERTEX
  8
0
 10
0.90377474
 20
4.39714018
  0
VERTEX
  8
0
 10
0.86346988
 20
4.36996589
  0
VERTEX
  8
0
 10
0.81411360
 20
4.36000132
  0
SEQEND
  0
POLYLINE
  8
Default_Layer
 66
   1
 39
0.000000
 70
    1
  0
VERTEX
  8
0
 10
0.81411360
 20
4.87320000
  0
VERTEX
  8
0
 10
0.76475732
 20
4.88316457
  0
VERTEX
  8
0
 10
0.72445246
 20
4.91033886
  0
VERTEX
  8
0
 10
0.69727817
 20
4.95064372
  0
VERTEX
  8
0
 10
0.68731360
 20
5.00000000
  0
VERTEX
  8
0
 10
0.69727817
 20
5.04935628
  0
VERTEX
  8
0
 10
0.72445246
 20
5.08966114
  0
VERTEX
  8
0
 10
0.76475732
 20
5.11683543
  0
VERTEX
  8
0
 10
0.81411360
 20
5.12680000
  0
VERTEX
  8
0
 10
0.86346988
 20
5.11683543
  0
VERTEX
  8
0
 10
0.90377474
 20
5.08966114
  0
VERTEX
  8
0
 10
0.93094903
 20
5.04935628
  0
VERTEX
  8
0
 10
0.94091360
 20
5.00000000
  0
VERTEX
  8
0
 10
0.93094903
 20
4.95064372
  0
VERTEX
  8
0
 10
0.90377474
 20
4.91033886
  0
VERTEX
  8
0
 10
0.86346988
 20
4.88316457
  0
VERTEX
  8
0
 10
0.81411360
 20
4.87320000
  0
SEQEND
  0
POLYLINE
  8
Default_Layer
 66
   1
 39
0.000000
 70
    1
  0
VERTEX
  8
0
 10
0.81411360
 20
5.38655265
  0
VERTEX
  8
0
 10
0.76475732
 20
5.39651722
  0
VERTEX
  8
0
 10
0.72445246
 20
5.42369151
  0
VERTEX
  8
0
 10
0.69727817
 20
5.46399637
  0
VERTEX
  8
0
 10
0.68731360
 20
5.51335265
  0
VERTEX
  8
0
 10
0.69727817
 20
5.56270893
  0
VERTEX
  8
0
 10
0.72445246
 20
5.60301379
  0
VERTEX
  8
0
 10
0.76475732
 20
5.63018808
  0
VERTEX
  8
0
 10
0.81411360
 20
5.64015265
  0
VERTEX
  8
0
 10
0.86346988
 20
5.63018808
  0
VERTEX
  8
0
 10
0.90377474
 20
5.60301379
  0
VERTEX
  8
0
 10
0.93094903
 20
5.56270893
  0
VERTEX
  8
0
 10
0.94091360
 20
5.51335265
  0
VERTEX
  8
0
 10
0.93094903
 20
5.46399637
  0
VERTEX
  8
0
 10
0.90377474
 20
5.42369151
  0
VERTEX
  8
0
 10
0.86346988
 20
5.39651722
  0
VERTEX
  8
0
 10
0.81411360
 20
5.38655265
  0
SEQEND
  0
POLYLINE
  8
Default_Layer
 66
   1
 39
0.000000
 70
    1
  0
VERTEX
  8
0
 10
9.31285000
 20
6.02650000
  0
VERTEX
  8
0
 10
9.30288543
 20
5.97714372
  0
VERTEX
  8
0
 10
9.27571114
 20
5.93683886
  0
VERTEX
  8
0
 10
9.23540628
 20
5.90966457
  0
VERTEX
  8
0
 10
9.18605000
 20
5.89970000
  0
VERTEX
  8
0
 10
9.13669372
 20
5.90966457
  0
VERTEX
  8
0
 10
9.09638886
 20
5.93683886
  0
VERTEX
  8
0
 10
9.06921457
 20
5.97714372
  0
VERTEX
  8
0
 10
9.05925000
 20
6.02650000
  0
VERTEX
  8
0
 10
9.06921457
 20
6.07585628
  0
VERTEX
  8
0
 10
9.09638886
 20
6.11616114
  0
VERTEX
  8
0
 10
9.13669372
 20
6.14333543
  0
VERTEX
  8
0
 10
9.18605000
 20
6.15330000
  0
VERTEX
  8
0
 10
9.23540628
 20
6.14333543
  0
VERTEX
  8
0
 10
9.27571114
 20
6.11616114
  0
VERTEX
  8
0
 10
9.30288543
 20
6.07585628
  0
VERTEX
  8
0
 10
9.31285000
 20
6.02650000
  0
SEQEND
  0
POLYLINE
  8
Default_Layer
 66
   1
 39
0.000000
 70
    1
  0
VERTEX
  8
0
 10
8.88337844
 20
6.02650000
  0
VERTEX
  8
0
 10
8.87341387
 20
5.97714372
  0
VERTEX
  8
0
 10
8.84623958
 20
5.93683886
  0
VERTEX
  8
0
 10
8.80593472
 20
5.90966457
  0
VERTEX
  8
0
 10
8.75657844
 20
5.89970000
  0
VERTEX
  8
0
 10
8.70722216
 20
5.90966457
  0
VERTEX
  8
0
 10
8.66691730
 20
5.93683886
  0
VERTEX
  8
0
 10
8.63974301
 20
5.97714372
  0
VERTEX
  8
0
 10
8.62977844
 20
6.02650000
  0
VERTEX
  8
0
 10
8.63974301
 20
6.07585628
  0
VERTEX
  8
0
 10
8.66691730
 20
6.11616114
  0
VERTEX
  8
0
 10
8.70722216
 20
6.14333543
  0
VERTEX
  8
0
 10
8.75657844
 20
6.15330000
  0
VERTEX
  8
0
 10
8.80593472
 20
6.14333543
  0
VERTEX
  8
0
 10
8.84623958
 20
6.11616114
  0
VERTEX
  8
0
 10
8.87341387
 20
6.07585628
  0
VERTEX
  8
0
 10
8.88337844
 20
6.02650000
  0
SEQEND
  0
POLYLINE
  8
Default_Layer
 66
   1
 39
0.000000
 70
    1
  0
VERTEX
  8
0
 10
8.45390688
 20
6.02650000
  0
VERTEX
  8
0
 10
8.44394231
 20
5.97714372
  0
VERTEX
  8
0
 10
8.41676802
 20
5.93683886
  0
VERTEX
  8
0
 10
8.37646316
 20
5.90966457
  0
VERTEX
  8
0
 10
8.32710688
 20
5.89970000
  0
VERTEX
  8
0
 10
8.27775060
 20
5.90966457
  0
VERTEX
  8
0
 10
8.23744574
 20
5.93683886
  0
VERTEX
  8
0
 10
8.21027145
 20
5.97714372
  0
VERTEX
  8
0
 10
8.20030688
 20
6.02650000
  0
VERTEX
  8
0
 10
8.21027145
 20
6.07585628
  0
VERTEX
  8
0
 10
8.23744574
 20
6.11616114
  0
VERTEX
  8
0
 10
8.27775060
 20
6.14333543
  0
VERTEX
  8
0
 10
8.32710688
 20
6.15330000
  0
VERTEX
  8
0
 10
8.37646316
 20
6.14333543
  0
VERTEX
  8
0
 10
8.41676802
 20
6.11616114
  0
VERTEX
  8
0
 10
8.44394231
 20
6.07585628
  0
VERTEX
  8
0
 10
8.45390688
 20
6.02650000
  0
SEQEND
  0
POLYLINE
  8
Default_Layer
 66
   1
 39
0.000000
 70
    1
  0
VERTEX
  8
0
 10
8.02473586
 20
6.02650000
  0
VERTEX
  8
0
 10
8.01477129
 20
5.97714372
  0
VERTEX
  8
0
 10
7.98759700
 20
5.93683886
  0
VERTEX
  8
0
 10
7.94729214
 20
5.90966457
  0
VERTEX
  8
0
 10
7.89793586
 20
5.89970000
  0
VERTEX
  8
0
 10
7.84857958
 20
5.90966457
  0
VERTEX
  8
0
 10
7.80827472
 20
5.93683886
  0
VERTEX
  8
0
 10
7.78110043
 20
5.97714372
  0
VERTEX
  8
0
 10
7.77113586
 20
6.02650000
  0
VERTEX
  8
0
 10
7.78110043
 20
6.07585628
  0
VERTEX
  8
0
 10
7.80827472
 20
6.11616114
  0
VERTEX
  8
0
 10
7.84857958
 20
6.14333543
  0
VERTEX
  8
0
 10
7.89793586
 20
6.15330000
  0
VERTEX
  8
0
 10
7.94729214
 20
6.14333543
  0
VERTEX
  8
0
 10
7.98759700
 20
6.11616114
  0
VERTEX
  8
0
 10
8.01477129
 20
6.07585628
  0
VERTEX
  8
0
 10
8.02473586
 20
6.02650000
  0
SEQEND
  0
POLYLINE
  8
Default_Layer
 66
   1
 39
0.000000
 70
    1
  0
VERTEX
  8
0
 10
7.59526430
 20
6.02650000
  0
VERTEX
  8
0
 10
7.58529973
 20
5.97714372
  0
VERTEX
  8
0
 10
7.55812544
 20
5.93683886
  0
VERTEX
  8
0
 10
7.51782058
 20
5.90966457
  0
VERTEX
  8
0
 10
7.46846430
 20
5.89970000
  0
VERTEX
  8
0
 10
7.41910802
 20
5.90966457
  0
VERTEX
  8
0
 10
7.37880316
 20
5.93683886
  0
VERTEX
  8
0
 10
7.35162887
 20
5.97714372
  0
VERTEX
  8
0
 10
7.34166430
 20
6.02650000
  0
VERTEX
  8
0
 10
7.35162887
 20
6.07585628
  0
VERTEX
  8
0
 10
7.37880316
 20
6.11616114
  0
VERTEX
  8
0
 10
7.41910802
 20
6.14333543
  0
VERTEX
  8
0
 10
7.46846430
 20
6.15330000
  0
VERTEX
  8
0
 10
7.51782058
 20
6.14333543
  0
VERTEX
  8
0
 10
7.55812544
 20
6.11616114
  0
VERTEX
  8
0
 10
7.58529973
 20
6.07585628
  0
VERTEX
  8
0
 10
7.59526430
 20
6.02650000
  0
SEQEND
  0
POLYLINE
  8
Default_Layer
 66
   1
 39
0.000000
 70
    1
  0
VERTEX
  8
0
 10
7.16579274
 20
6.02650000
  0
VERTEX
  8
0
 10
7.15582817
 20
5.97714372
  0
VERTEX
  8
0
 10
7.12865388
 20
5.93683886
  0
VERTEX
  8
0
 10
7.08834902
 20
5.90966457
  0
VERTEX
  8
0
 10
7.03899274
 20
5.89970000
  0
VERTEX
  8
0
 10
6.98963646
 20
5.90966457
  0
VERTEX
  8
0
 10
6.94933160
 20
5.93683886
  0
VERTEX
  8
0
 10
6.92215731
 20
5.97714372
  0
VERTEX
  8
0
 10
6.91219274
 20
6.02650000
  0
VERTEX
  8
0
 10
6.92215731
 20
6.07585628
  0
VERTEX
  8
0
 10
6.94933160
 20
6.11616114
  0
VERTEX
  8
0
 10
6.98963646
 20
6.14333543
  0
VERTEX
  8
0
 10
7.03899274
 20
6.15330000
  0
VERTEX
  8
0
 10
7.08834902
 20
6.14333543
  0
VERTEX
  8
0
 10
7.12865388
 20
6.11616114
  0
VERTEX
  8
0
 10
7.15582817
 20
6.07585628
  0
VERTEX
  8
0
 10
7.16579274
 20
6.02650000
  0
SEQEND
  0
POLYLINE
  8
Default_Layer
 66
   1
 39
0.000000
 70
    1
  0
VERTEX
  8
0
 10
6.73915132
 20
6.01567642
  0
VERTEX
  8
0
 10
6.71992178
 20
5.96914084
  0
VERTEX
  8
0
 10
6.68553376
 20
5.93478407
  0
VERTEX
  8
0
 10
6.64077192
 20
5.91582883
  0
VERTEX
  8
0
 10
6.59042090
 20
5.91549787
  0
VERTEX
  8
0
 10
6.54388532
 20
5.93472741
  0
VERTEX
  8
0
 10
6.50952854
 20
5.96911543
  0
VERTEX
  8
0
 10
6.49057331
 20
6.01387727
  0
VERTEX
  8
0
 10
6.49024235
 20
6.06422829
  0
VERTEX
  8
0
 10
6.50947189
 20
6.11076387
  0
VERTEX
  8
0
 10
6.54385990
 20
6.14512065
  0
VERTEX
  8
0
 10
6.58862174
 20
6.16407588
  0
VERTEX
  8
0
 10
6.63897277
 20
6.16440684
  0
VERTEX
  8
0
 10
6.68550835
 20
6.14517730
  0
VERTEX
  8
0
 10
6.71986512
 20
6.11078929
  0
VERTEX
  8
0
 10
6.73882036
 20
6.06602745
  0
VERTEX
  8
0
 10
6.73915132
 20
6.01567642
  0
SEQEND
  0
POLYLINE
  8
Default_Layer
 66
   1
 39
0.000000
 70
    1
  0
VERTEX
  8
0
 10
6.33081502
 20
6.14916959
  0
VERTEX
  8
0
 10
6.28892600
 20
6.12122955
  0
VERTEX
  8
0
 10
6.24123017
 20
6.11184709
  0
VERTEX
  8
0
 10
6.19349628
 20
6.12103402
  0
VERTEX
  8
0
 10
6.15149312
 20
6.14880215
  0
VERTEX
  8
0
 10
6.12355308
 20
6.19069117
  0
VERTEX
  8
0
 10
6.11417062
 20
6.23838701
  0
VERTEX
  8
0
 10
6.12335755
 20
6.28612089
  0
VERTEX
  8
0
 10
6.15112569
 20
6.32812406
  0
VERTEX
  8
0
 10
6.19301470
 20
6.35606409
  0
VERTEX
  8
0
 10
6.24071054
 20
6.36544656
  0
VERTEX
  8
0
 10
6.28844443
 20
6.35625963
  0
VERTEX
  8
0
 10
6.33044759
 20
6.32849149
  0
VERTEX
  8
0
 10
6.35838762
 20
6.28660247
  0
VERTEX
  8
0
 10
6.36777009
 20
6.23890664
  0
VERTEX
  8
0
 10
6.35858316
 20
6.19117275
  0
VERTEX
  8
0
 10
6.33081502
 20
6.14916959
  0
SEQEND
  0
POLYLINE
  8
Default_Layer
 66
   1
 39
0.000000
 70
    1
  0
VERTEX
  8
0
 10
6.06543045
 20
6.48699950
  0
VERTEX
  8
0
 10
6.01507847
 20
6.48711350
  0
VERTEX
  8
0
 10
5.97023537
 20
6.50587568
  0
VERTEX
  8
0
 10
5.93569963
 20
6.54008397
  0
VERTEX
  8
0
 10
5.91626976
 20
6.58653626
  0
VERTEX
  8
0
 10
5.91638376
 20
6.63688824
  0
VERTEX
  8
0
 10
5.93514594
 20
6.68173134
  0
VERTEX
  8
0
 10
5.96935422
 20
6.71626708
  0
VERTEX
  8
0
 10
6.01580651
 20
6.73569695
  0
VERTEX
  8
0
 10
6.06615850
 20
6.73558295
  0
VERTEX
  8
0
 10
6.11100160
 20
6.71682077
  0
VERTEX
  8
0
 10
6.14553733
 20
6.68261248
  0
VERTEX
  8
0
 10
6.16496721
 20
6.63616019
  0
VERTEX
  8
0
 10
6.16485321
 20
6.58580821
  0
VERTEX
  8
0
 10
6.14609102
 20
6.54096511
  0
VERTEX
  8
0
 10
6.11188274
 20
6.50642937
  0
VERTEX
  8
0
 10
6.06543045
 20
6.48699950
  0
SEQEND
  0
POLYLINE
  8
Default_Layer
 66
   1
 39
0.000000
 70
    1
  0
VERTEX
  8
0
 10
6.02650000
 20
6.91173806
  0
VERTEX
  8
0
 10
5.97714372
 20
6.92170264
  0
VERTEX
  8
0
 10
5.93683886
 20
6.94887692
  0
VERTEX
  8
0
 10
5.90966457
 20
6.98918178
  0
VERTEX
  8
0
 10
5.89970000
 20
7.03853806
  0
VERTEX
  8
0
 10
5.90966457
 20
7.08789435
  0
VERTEX
  8
0
 10
5.93683886
 20
7.12819920
  0
VERTEX
  8
0
 10
5.97714372
 20
7.15537349
  0
VERTEX
  8
0
 10
6.02650000
 20
7.16533806
  0
VERTEX
  8
0
 10
6.07585628
 20
7.15537349
  0
VERTEX
  8
0
 10
6.11616114
 20
7.12819920
  0
VERTEX
  8
0
 10
6.14333543
 20
7.08789435
  0
VERTEX
  8
0
 10
6.15330000
 20
7.03853806
  0
VERTEX
  8
0
 10
6.14333543
 20
6.98918178
  0
VERTEX
  8
0
 10
6.11616114
 20
6.94887692
  0
VERTEX
  8
0
 10
6.07585628
 20
6.92170264
  0
VERTEX
  8
0
 10
6.02650000
 20
6.91173806
  0
SEQEND
  0
POLYLINE
  8
Default_Layer
 66
   1
 39
0.000000
 70
    1
  0
VERTEX
  8
0
 10
6.02650000
 20
7.34118035
  0
VERTEX
  8
0
 10
5.97714372
 20
7.35114492
  0
VERTEX
  8
0
 10
5.93683886
 20
7.37831921
  0
VERTEX
  8
0
 10
5.90966457
 20
7.41862406
  0
VERTEX
  8
0
 10
5.89970000
 20
7.46798035
  0
VERTEX
  8
0
 10
5.90966457
 20
7.51733663
  0
VERTEX
  8
0
 10
5.93683886
 20
7.55764149
  0
VERTEX
  8
0
 10
5.97714372
 20
7.58481577
  0
VERTEX
  8
0
 10
6.02650000
 20
7.59478035
  0
VERTEX
  8
0
 10
6.07585628
 20
7.58481577
  0
VERTEX
  8
0
 10
6.11616114
 20
7.55764149
  0
VERTEX
  8
0
 10
6.14333543
 20
7.51733663
  0
VERTEX
  8
0
 10
6.15330000
 20
7.46798035
  0
VERTEX
  8
0
 10
6.14333543
 20
7.41862406
  0
VERTEX
  8
0
 10
6.11616114
 20
7.37831921
  0
VERTEX
  8
0
 10
6.07585628
 20
7.35114492
  0
VERTEX
  8
0
 10
6.02650000
 20
7.34118035
  0
SEQEND
  0
POLYLINE
  8
Default_Layer
 66
   1
 39
0.000000
 70
    1
  0
VERTEX
  8
0
 10
6.02650000
 20
7.77062263
  0
VERTEX
  8
0
 10
5.97714372
 20
7.78058720
  0
VERTEX
  8
0
 10
5.93683886
 20
7.80776149
  0
VERTEX
  8
0
 10
5.90966457
 20
7.84806635
  0
VERTEX
  8
0
 10
5.89970000
 20
7.89742263
  0
VERTEX
  8
0
 10
5.90966457
 20
7.94677891
  0
VERTEX
  8
0
 10
5.93683886
 20
7.98708377
  0
VERTEX
  8
0
 10
5.97714372
 20
8.01425806
  0
VERTEX
  8
0
 10
6.02650000
 20
8.02422263
  0
VERTEX
  8
0
 10
6.07585628
 20
8.01425806
  0
VERTEX
  8
0
 10
6.11616114
 20
7.98708377
  0
VERTEX
  8
0
 10
6.14333543
 20
7.94677891
  0
VERTEX
  8
0
 10
6.15330000
 20
7.89742263
  0
VERTEX
  8
0
 10
6.14333543
 20
7.84806635
  0
VERTEX
  8
0
 10
6.11616114
 20
7.80776149
  0
VERTEX
  8
0
 10
6.07585628
 20
7.78058720
  0
VERTEX
  8
0
 10
6.02650000
 20
7.77062263
  0
SEQEND
  0
POLYLINE
  8
Default_Layer
 66
   1
 39
0.000000
 70
    1
  0
VERTEX
  8
0
 10
6.02650000
 20
8.19976439
  0
VERTEX
  8
0
 10
5.97714372
 20
8.20972897
  0
VERTEX
  8
0
 10
5.93683886
 20
8.23690325
  0
VERTEX
  8
0
 10
5.90966457
 20
8.27720811
  0
VERTEX
  8
0
 10
5.89970000
 20
8.32656439
  0
VERTEX
  8
0
 10
5.90966457
 20
8.37592068
  0
VERTEX
  8
0
 10
5.93683886
 20
8.41622553
  0
VERTEX
  8
0
 10
5.97714372
 20
8.44339982
  0
VERTEX
  8
0
 10
6.02650000
 20
8.45336439
  0
VERTEX
  8
0
 10
6.07585628
 20
8.44339982
  0
VERTEX
  8
0
 10
6.11616114
 20
8.41622553
  0
VERTEX
  8
0
 10
6.14333543
 20
8.37592068
  0
VERTEX
  8
0
 10
6.15330000
 20
8.32656439
  0
VERTEX
  8
0
 10
6.14333543
 20
8.27720811
  0
VERTEX
  8
0
 10
6.11616114
 20
8.23690325
  0
VERTEX
  8
0
 10
6.07585628
 20
8.20972897
  0
VERTEX
  8
0
 10
6.02650000
 20
8.19976439
  0
SEQEND
  0
POLYLINE
  8
Default_Layer
 66
   1
 39
0.000000
 70
    1
  0
VERTEX
  8
0
 10
6.02650000
 20
8.62920668
  0
VERTEX
  8
0
 10
5.97714372
 20
8.63917125
  0
VERTEX
  8
0
 10
5.93683886
 20
8.66634554
  0
VERTEX
  8
0
 10
5.90966457
 20
8.70665040
  0
VERTEX
  8
0
 10
5.89970000
 20
8.75600668
  0
VERTEX
  8
0
 10
5.90966457
 20
8.80536296
  0
VERTEX
  8
0
 10
5.93683886
 20
8.84566782
  0
VERTEX
  8
0
 10
5.97714372
 20
8.87284211
  0
VERTEX
  8
0
 10
6.02650000
 20
8.88280668
  0
VERTEX
  8
0
 10
6.07585628
 20
8.87284211
  0
VERTEX
  8
0
 10
6.11616114
 20
8.84566782
  0
VERTEX
  8
0
 10
6.14333543
 20
8.80536296
  0
VERTEX
  8
0
 10
6.15330000
 20
8.75600668
  0
VERTEX
  8
0
 10
6.14333543
 20
8.70665040
  0
VERTEX
  8
0
 10
6.11616114
 20
8.66634554
  0
VERTEX
  8
0
 10
6.07585628
 20
8.63917125
  0
VERTEX
  8
0
 10
6.02650000
 20
8.62920668
  0
SEQEND
  0
POLYLINE
  8
Default_Layer
 66
   1
 39
0.000000
 70
    1
  0
VERTEX
  8
0
 10
6.02650000
 20
9.05864896
  0
VERTEX
  8
0
 10
5.97714372
 20
9.06861353
  0
VERTEX
  8
0
 10
5.93683886
 20
9.09578782
  0
VERTEX
  8
0
 10
5.90966457
 20
9.13609268
  0
VERTEX
  8
0
 10
5.89970000
 20
9.18544896
  0
VERTEX
  8
0
 10
5.90966457
 20
9.23480524
  0
VERTEX
  8
0
 10
5.93683886
 20
9.27511010
  0
VERTEX
  8
0
 10
5.97714372
 20
9.30228439
  0
VERTEX
  8
0
 10
6.02650000
 20
9.31224896
  0
VERTEX
  8
0
 10
6.07585628
 20
9.30228439
  0
VERTEX
  8
0
 10
6.11616114
 20
9.27511010
  0
VERTEX
  8
0
 10
6.14333543
 20
9.23480524
  0
VERTEX
  8
0
 10
6.15330000
 20
9.18544896
  0
VERTEX
  8
0
 10
6.14333543
 20
9.13609268
  0
VERTEX
  8
0
 10
6.11616114
 20
9.09578782
  0
VERTEX
  8
0
 10
6.07585628
 20
9.06861353
  0
VERTEX
  8
0
 10
6.02650000
 20
9.05864896
  0
SEQEND
  0
POLYLINE
  8
Default_Layer
 66
   1
 39
0.000000
 70
    1
  0
VERTEX
  8
0
 10
6.02650000
 20
9.05894948
  0
VERTEX
  8
0
 10
5.97714372
 20
9.06891405
  0
VERTEX
  8
0
 10
5.93683886
 20
9.09608834
  0
VERTEX
  8
0
 10
5.90966457
 20
9.13639320
  0
VERTEX
  8
0
 10
5.89970000
 20
9.18574948
  0
VERTEX
  8
0
 10
5.90966457
 20
9.23510576
  0
VERTEX
  8
0
 10
5.93683886
 20
9.27541062
  0
VERTEX
  8
0
 10
5.97714372
 20
9.30258491
  0
VERTEX
  8
0
 10
6.02650000
 20
9.31254948
  0
VERTEX
  8
0
 10
6.07585628
 20
9.30258491
  0
VERTEX
  8
0
 10
6.11616114
 20
9.27541062
  0
VERTEX
  8
0
 10
6.14333543
 20
9.23510576
  0
VERTEX
  8
0
 10
6.15330000
 20
9.18574948
  0
VERTEX
  8
0
 10
6.14333543
 20
9.13639320
  0
VERTEX
  8
0
 10
6.11616114
 20
9.09608834
  0
VERTEX
  8
0
 10
6.07585628
 20
9.06891405
  0
VERTEX
  8
0
 10
6.02650000
 20
9.05894948
  0
SEQEND
  0
POLYLINE
  8
Default_Layer
 66
   1
 39
0.000000
 70
    1
  0
VERTEX
  8
0
 10
9.18588640
 20
4.36000132
  0
VERTEX
  8
0
 10
9.23524268
 20
4.36996589
  0
VERTEX
  8
0
 10
9.27554754
 20
4.39714018
  0
VERTEX
  8
0
 10
9.30272183
 20
4.43744504
  0
VERTEX
  8
0
 10
9.31268640
 20
4.48680132
  0
VERTEX
  8
0
 10
9.30272183
 20
4.53615760
  0
VERTEX
  8
0
 10
9.27554754
 20
4.57646246
  0
VERTEX
  8
0
 10
9.23524268
 20
4.60363675
  0
VERTEX
  8
0
 10
9.18588640
 20
4.61360132
  0
VERTEX
  8
0
 10
9.13653012
 20
4.60363675
  0
VERTEX
  8
0
 10
9.09622526
 20
4.57646246
  0
VERTEX
  8
0
 10
9.06905097
 20
4.53615760
  0
VERTEX
  8
0
 10
9.05908640
 20
4.48680132
  0
VERTEX
  8
0
 10
9.06905097
 20
4.43744504
  0
VERTEX
  8
0
 10
9.09622526
 20
4.39714018
  0
VERTEX
  8
0
 10
9.13653012
 20
4.36996589
  0
VERTEX
  8
0
 10
9.18588640
 20
4.36000132
  0
SEQEND
  0
POLYLINE
  8
Default_Layer
 66
   1
 39
0.000000
 70
    1
  0
VERTEX
  8
0
 10
9.18588640
 20
4.87320000
  0
VERTEX
  8
0
 10
9.23524268
 20
4.88316457
  0
VERTEX
  8
0
 10
9.27554754
 20
4.91033886
  0
VERTEX
  8
0
 10
9.30272183
 20
4.95064372
  0
VERTEX
  8
0
 10
9.31268640
 20
5.00000000
  0
VERTEX
  8
0
 10
9.30272183
 20
5.04935628
  0
VERTEX
  8
0
 10
9.27554754
 20
5.08966114
  0
VERTEX
  8
0
 10
9.23524268
 20
5.11683543
  0
VERTEX
  8
0
 10
9.18588640
 20
5.12680000
  0
VERTEX
  8
0
 10
9.13653012
 20
5.11683543
  0
VERTEX
  8
0
 10
9.09622526
 20
5.08966114
  0
VERTEX
  8
0
 10
9.06905097
 20
5.04935628
  0
VERTEX
  8
0
 10
9.05908640
 20
5.00000000
  0
VERTEX
  8
0
 10
9.06905097
 20
4.95064372
  0
VERTEX
  8
0
 10
9.09622526
 20
4.91033886
  0
VERTEX
  8
0
 10
9.13653012
 20
4.88316457
  0
VERTEX
  8
0
 10
9.18588640
 20
4.87320000
  0
SEQEND
  0
POLYLINE
  8
Default_Layer
 66
   1
 39
0.000000
 70
    1
  0
VERTEX
  8
0
 10
9.18588640
 20
5.38655265
  0
VERTEX
  8
0
 10
9.23524268
 20
5.39651722
  0
VERTEX
  8
0
 10
9.27554754
 20
5.42369151
  0
VERTEX
  8
0
 10
9.30272183
 20
5.46399637
  0
VERTEX
  8
0
 10
9.31268640
 20
5.51335265
  0
VERTEX
  8
0
 10
9.30272183
 20
5.56270893
  0
VERTEX
  8
0
 10
9.27554754
 20
5.60301379
  0
VERTEX
  8
0
 10
9.23524268
 20
5.63018808
  0
VERTEX
  8
0
 10
9.18588640
 20
5.64015265
  0
VERTEX
  8
0
 10
9.13653012
 20
5.63018808
  0
VERTEX
  8
0
 10
9.09622526
 20
5.60301379
  0
VERTEX
  8
0
 10
9.06905097
 20
5.56270893
  0
VERTEX
  8
0
 10
9.05908640
 20
5.51335265
  0
VERTEX
  8
0
 10
9.06905097
 20
5.46399637
  0
VERTEX
  8
0
 10
9.09622526
 20
5.42369151
  0
VERTEX
  8
0
 10
9.13653012
 20
5.39651722
  0
VERTEX
  8
0
 10
9.18588640
 20
5.38655265
  0
SEQEND
  0
POLYLINE
  8
Default_Layer
 66
   1
 39
0.000000
 70
    1
  0
VERTEX
  8
0
 10
9.31285000
 20
3.97350000
  0
VERTEX
  8
0
 10
9.30288543
 20
4.02285628
  0
VERTEX
  8
0
 10
9.27571114
 20
4.06316114
  0
VERTEX
  8
0
 10
9.23540628
 20
4.09033543
  0
VERTEX
  8
0
 10
9.18605000
 20
4.10030000
  0
VERTEX
  8
0
 10
9.13669372
 20
4.09033543
  0
VERTEX
  8
0
 10
9.09638886
 20
4.06316114
  0
VERTEX
  8
0
 10
9.06921457
 20
4.02285628
  0
VERTEX
  8
0
 10
9.05925000
 20
3.97350000
  0
VERTEX
  8
0
 10
9.06921457
 20
3.92414372
  0
VERTEX
  8
0
 10
9.09638886
 20
3.88383886
  0
VERTEX
  8
0
 10
9.13669372
 20
3.85666457
  0
VERTEX
  8
0
 10
9.18605000
 20
3.84670000
  0
VERTEX
  8
0
 10
9.23540628
 20
3.85666457
  0
VERTEX
  8
0
 10
9.27571114
 20
3.88383886
  0
VERTEX
  8
0
 10
9.30288543
 20
3.92414372
  0
VERTEX
  8
0
 10
9.31285000
 20
3.97350000
  0
SEQEND
  0
POLYLINE
  8
Default_Layer
 66
   1
 39
0.000000
 70
    1
  0
VERTEX
  8
0
 10
8.88337844
 20
3.97350000
  0
VERTEX
  8
0
 10
8.87341387
 20
4.02285628
  0
VERTEX
  8
0
 10
8.84623958
 20
4.06316114
  0
VERTEX
  8
0
 10
8.80593472
 20
4.09033543
  0
VERTEX
  8
0
 10
8.75657844
 20
4.10030000
  0
VERTEX
  8
0
 10
8.70722216
 20
4.09033543
  0
VERTEX
  8
0
 10
8.66691730
 20
4.06316114
  0
VERTEX
  8
0
 10
8.63974301
 20
4.02285628
  0
VERTEX
  8
0
 10
8.62977844
 20
3.97350000
  0
VERTEX
  8
0
 10
8.63974301
 20
3.92414372
  0
VERTEX
  8
0
 10
8.66691730
 20
3.88383886
  0
VERTEX
  8
0
 10
8.70722216
 20
3.85666457
  0
VERTEX
  8
0
 10
8.75657844
 20
3.84670000
  0
VERTEX
  8
0
 10
8.80593472
 20
3.85666457
  0
VERTEX
  8
0
 10
8.84623958
 20
3.88383886
  0
VERTEX
  8
0
 10
8.87341387
 20
3.92414372
  0
VERTEX
  8
0
 10
8.88337844
 20
3.97350000
  0
SEQEND
  0
POLYLINE
  8
Default_Layer
 66
   1
 39
0.000000
 70
    1
  0
VERTEX
  8
0
 10
8.45390688
 20
3.97350000
  0
VERTEX
  8
0
 10
8.44394231
 20
4.02285628
  0
VERTEX
  8
0
 10
8.41676802
 20
4.06316114
  0
VERTEX
  8
0
 10
8.37646316
 20
4.09033543
  0
VERTEX
  8
0
 10
8.32710688
 20
4.10030000
  0
VERTEX
  8
0
 10
8.27775060
 20
4.09033543
  0
VERTEX
  8
0
 10
8.23744574
 20
4.06316114
  0
VERTEX
  8
0
 10
8.21027145
 20
4.02285628
  0
VERTEX
  8
0
 10
8.20030688
 20
3.97350000
  0
VERTEX
  8
0
 10
8.21027145
 20
3.92414372
  0
VERTEX
  8
0
 10
8.23744574
 20
3.88383886
  0
VERTEX
  8
0
 10
8.27775060
 20
3.85666457
  0
VERTEX
  8
0
 10
8.32710688
 20
3.84670000
  0
VERTEX
  8
0
 10
8.37646316
 20
3.85666457
  0
VERTEX
  8
0
 10
8.41676802
 20
3.88383886
  0
VERTEX
  8
0
 10
8.44394231
 20
3.92414372
  0
VERTEX
  8
0
 10
8.45390688
 20
3.97350000
  0
SEQEND
  0
POLYLINE
  8
Default_Layer
 66
   1
 39
0.000000
 70
    1
  0
VERTEX
  8
0
 10
8.02473586
 20
3.97350000
  0
VERTEX
  8
0
 10
8.01477129
 20
4.02285628
  0
VERTEX
  8
0
 10
7.98759700
 20
4.06316114
  0
VERTEX
  8
0
 10
7.94729214
 20
4.09033543
  0
VERTEX
  8
0
 10
7.89793586
 20
4.10030000
  0
VERTEX
  8
0
 10
7.84857958
 20
4.09033543
  0
VERTEX
  8
0
 10
7.80827472
 20
4.06316114
  0
VERTEX
  8
0
 10
7.78110043
 20
4.02285628
  0
VERTEX
  8
0
 10
7.77113586
 20
3.97350000
  0
VERTEX
  8
0
 10
7.78110043
 20
3.92414372
  0
VERTEX
  8
0
 10
7.80827472
 20
3.88383886
  0
VERTEX
  8
0
 10
7.84857958
 20
3.85666457
  0
VERTEX
  8
0
 10
7.89793586
 20
3.84670000
  0
VERTEX
  8
0
 10
7.94729214
 20
3.85666457
  0
VERTEX
  8
0
 10
7.98759700
 20
3.88383886
  0
VERTEX
  8
0
 10
8.01477129
 20
3.92414372
  0
VERTEX
  8
0
 10
8.02473586
 20
3.97350000
  0
SEQEND
  0
POLYLINE
  8
Default_Layer
 66
   1
 39
0.000000
 70
    1
  0
VERTEX
  8
0
 10
7.59526430
 20
3.97350000
  0
VERTEX
  8
0
 10
7.58529973
 20
4.02285628
  0
VERTEX
  8
0
 10
7.55812544
 20
4.06316114
  0
VERTEX
  8
0
 10
7.51782058
 20
4.09033543
  0
VERTEX
  8
0
 10
7.46846430
 20
4.10030000
  0
VERTEX
  8
0
 10
7.41910802
 20
4.09033543
  0
VERTEX
  8
0
 10
7.37880316
 20
4.06316114
  0
VERTEX
  8
0
 10
7.35162887
 20
4.02285628
  0
VERTEX
  8
0
 10
7.34166430
 20
3.97350000
  0
VERTEX
  8
0
 10
7.35162887
 20
3.92414372
  0
VERTEX
  8
0
 10
7.37880316
 20
3.88383886
  0
VERTEX
  8
0
 10
7.41910802
 20
3.85666457
  0
VERTEX
  8
0
 10
7.46846430
 20
3.84670000
  0
VERTEX
  8
0
 10
7.51782058
 20
3.85666457
  0
VERTEX
  8
0
 10
7.55812544
 20
3.88383886
  0
VERTEX
  8
0
 10
7.58529973
 20
3.92414372
  0
VERTEX
  8
0
 10
7.59526430
 20
3.97350000
  0
SEQEND
  0
POLYLINE
  8
Default_Layer
 66
   1
 39
0.000000
 70
    1
  0
VERTEX
  8
0
 10
7.16579274
 20
3.97350000
  0
VERTEX
  8
0
 10
7.15582817
 20
4.02285628
  0
VERTEX
  8
0
 10
7.12865388
 20
4.06316114
  0
VERTEX
  8
0
 10
7.08834902
 20
4.09033543
  0
VERTEX
  8
0
 10
7.03899274
 20
4.10030000
  0
VERTEX
  8
0
 10
6.98963646
 20
4.09033543
  0
VERTEX
  8
0
 10
6.94933160
 20
4.06316114
  0
VERTEX
  8
0
 10
6.92215731
 20
4.02285628
  0
VERTEX
  8
0
 10
6.91219274
 20
3.97350000
  0
VERTEX
  8
0
 10
6.92215731
 20
3.92414372
  0
VERTEX
  8
0
 10
6.94933160
 20
3.88383886
  0
VERTEX
  8
0
 10
6.98963646
 20
3.85666457
  0
VERTEX
  8
0
 10
7.03899274
 20
3.84670000
  0
VERTEX
  8
0
 10
7.08834902
 20
3.85666457
  0
VERTEX
  8
0
 10
7.12865388
 20
3.88383886
  0
VERTEX
  8
0
 10
7.15582817
 20
3.92414372
  0
VERTEX
  8
0
 10
7.16579274
 20
3.97350000
  0
SEQEND
  0
POLYLINE
  8
Default_Layer
 66
   1
 39
0.000000
 70
    1
  0
VERTEX
  8
0
 10
6.73915132
 20
3.98432358
  0
VERTEX
  8
0
 10
6.71992178
 20
4.03085916
  0
VERTEX
  8
0
 10
6.68553376
 20
4.06521593
  0
VERTEX
  8
0
 10
6.64077192
 20
4.08417117
  0
VERTEX
  8
0
 10
6.59042090
 20
4.08450213
  0
VERTEX
  8
0
 10
6.54388532
 20
4.06527259
  0
VERTEX
  8
0
 10
6.50952854
 20
4.03088457
  0
VERTEX
  8
0
 10
6.49057331
 20
3.98612273
  0
VERTEX
  8
0
 10
6.49024235
 20
3.93577171
  0
VERTEX
  8
0
 10
6.50947189
 20
3.88923613
  0
VERTEX
  8
0
 10
6.54385990
 20
3.85487935
  0
VERTEX
  8
0
 10
6.58862174
 20
3.83592412
  0
VERTEX
  8
0
 10
6.63897277
 20
3.83559316
  0
VERTEX
  8
0
 10
6.68550835
 20
3.85482270
  0
VERTEX
  8
0
 10
6.71986512
 20
3.88921071
  0
VERTEX
  8
0
 10
6.73882036
 20
3.93397255
  0
VERTEX
  8
0
 10
6.73915132
 20
3.98432358
  0
SEQEND
  0
POLYLINE
  8
Default_Layer
 66
   1
 39
0.000000
 70
    1
  0
VERTEX
  8
0
 10
6.33081502
 20
3.85083041
  0
VERTEX
  8
0
 10
6.28892600
 20
3.87877045
  0
VERTEX
  8
0
 10
6.24123017
 20
3.88815291
  0
VERTEX
  8
0
 10
6.19349628
 20
3.87896598
  0
VERTEX
  8
0
 10
6.15149312
 20
3.85119785
  0
VERTEX
  8
0
 10
6.12355308
 20
3.80930883
  0
VERTEX
  8
0
 10
6.11417062
 20
3.76161299
  0
VERTEX
  8
0
 10
6.12335755
 20
3.71387911
  0
VERTEX
  8
0
 10
6.15112569
 20
3.67187594
  0
VERTEX
  8
0
 10
6.19301470
 20
3.64393591
  0
VERTEX
  8
0
 10
6.24071054
 20
3.63455344
  0
VERTEX
  8
0
 10
6.28844443
 20
3.64374037
  0
VERTEX
  8
0
 10
6.33044759
 20
3.67150851
  0
VERTEX
  8
0
 10
6.35838762
 20
3.71339753
  0
VERTEX
  8
0
 10
6.36777009
 20
3.76109336
  0
VERTEX
  8
0
 10
6.35858316
 20
3.80882725
  0
VERTEX
  8
0
 10
6.33081502
 20
3.85083041
  0
SEQEND
  0
POLYLINE
  8
Default_Layer
 66
   1
 39
0.000000
 70
    1
  0
VERTEX
  8
0
 10
6.06543045
 20
3.51300050
  0
VERTEX
  8
0
 10
6.01507847
 20
3.51288650
  0
VERTEX
  8
0
 10
5.97023537
 20
3.49412432
  0
VERTEX
  8
0
 10
5.93569963
 20
3.45991603
  0
VERTEX
  8
0
 10
5.91626976
 20
3.41346374
  0
VERTEX
  8
0
 10
5.91638376
 20
3.36311176
  0
VERTEX
  8
0
 10
5.93514594
 20
3.31826866
  0
VERTEX
  8
0
 10
5.96935422
 20
3.28373292
  0
VERTEX
  8
0
 10
6.01580651
 20
3.26430305
  0
VERTEX
  8
0
 10
6.06615850
 20
3.26441705
  0
VERTEX
  8
0
 10
6.11100160
 20
3.28317923
  0
VERTEX
  8
0
 10
6.14553733
 20
3.31738752
  0
VERTEX
  8
0
 10
6.16496721
 20
3.36383981
  0
VERTEX
  8
0
 10
6.16485321
 20
3.41419179
  0
VERTEX
  8
0
 10
6.14609102
 20
3.45903489
  0
VERTEX
  8
0
 10
6.11188274
 20
3.49357063
  0
VERTEX
  8
0
 10
6.06543045
 20
3.51300050
  0
SEQEND
  0
POLYLINE
  8
Default_Layer
 66
   1
 39
0.000000
 70
    1
  0
VERTEX
  8
0
 10
6.02650000
 20
3.08826194
  0
VERTEX
  8
0
 10
5.97714372
 20
3.07829736
  0
VERTEX
  8
0
 10
5.93683886
 20
3.05112308
  0
VERTEX
  8
0
 10
5.90966457
 20
3.01081822
  0
VERTEX
  8
0
 10
5.89970000
 20
2.96146194
  0
VERTEX
  8
0
 10
5.90966457
 20
2.91210565
  0
VERTEX
  8
0
 10
5.93683886
 20
2.87180080
  0
VERTEX
  8
0
 10
5.97714372
 20
2.84462651
  0
VERTEX
  8
0
 10
6.02650000
 20
2.83466194
  0
VERTEX
  8
0
 10
6.07585628
 20
2.84462651
  0
VERTEX
  8
0
 10
6.11616114
 20
2.87180080
  0
VERTEX
  8
0
 10
6.14333543
 20
2.91210565
  0
VERTEX
  8
0
 10
6.15330000
 20
2.96146194
  0
VERTEX
  8
0
 10
6.14333543
 20
3.01081822
  0
VERTEX
  8
0
 10
6.11616114
 20
3.05112308
  0
VERTEX
  8
0
 10
6.07585628
 20
3.07829736
  0
VERTEX
  8
0
 10
6.02650000
 20
3.08826194
  0
SEQEND
  0
POLYLINE
  8
Default_Layer
 66
   1
 39
0.000000
 70
    1
  0
VERTEX
  8
0
 10
6.02650000
 20
2.65881965
  0
VERTEX
  8
0
 10
5.97714372
 20
2.64885508
  0
VERTEX
  8
0
 10
5.93683886
 20
2.62168079
  0
VERTEX
  8
0
 10
5.90966457
 20
2.58137594
  0
VERTEX
  8
0
 10
5.89970000
 20
2.53201965
  0
VERTEX
  8
0
 10
5.90966457
 20
2.48266337
  0
VERTEX
  8
0
 10
5.93683886
 20
2.44235851
  0
VERTEX
  8
0
 10
5.97714372
 20
2.41518423
  0
VERTEX
  8
0
 10
6.02650000
 20
2.40521965
  0
VERTEX
  8
0
 10
6.07585628
 20
2.41518423
  0
VERTEX
  8
0
 10
6.11616114
 20
2.44235851
  0
VERTEX
  8
0
 10
6.14333543
 20
2.48266337
  0
VERTEX
  8
0
 10
6.15330000
 20
2.53201965
  0
VERTEX
  8
0
 10
6.14333543
 20
2.58137594
  0
VERTEX
  8
0
 10
6.11616114
 20
2.62168079
  0
VERTEX
  8
0
 10
6.07585628
 20
2.64885508
  0
VERTEX
  8
0
 10
6.02650000
 20
2.65881965
  0
SEQEND
  0
POLYLINE
  8
Default_Layer
 66
   1
 39
0.000000
 70
    1
  0
VERTEX
  8
0
 10
6.02650000
 20
2.22937737
  0
VERTEX
  8
0
 10
5.97714372
 20
2.21941280
  0
VERTEX
  8
0
 10
5.93683886
 20
2.19223851
  0
VERTEX
  8
0
 10
5.90966457
 20
2.15193365
  0
VERTEX
  8
0
 10
5.89970000
 20
2.10257737
  0
VERTEX
  8
0
 10
5.90966457
 20
2.05322109
  0
VERTEX
  8
0
 10
5.93683886
 20
2.01291623
  0
VERTEX
  8
0
 10
5.97714372
 20
1.98574194
  0
VERTEX
  8
0
 10
6.02650000
 20
1.97577737
  0
VERTEX
  8
0
 10
6.07585628
 20
1.98574194
  0
VERTEX
  8
0
 10
6.11616114
 20
2.01291623
  0
VERTEX
  8
0
 10
6.14333543
 20
2.05322109
  0
VERTEX
  8
0
 10
6.15330000
 20
2.10257737
  0
VERTEX
  8
0
 10
6.14333543
 20
2.15193365
  0
VERTEX
  8
0
 10
6.11616114
 20
2.19223851
  0
VERTEX
  8
0
 10
6.07585628
 20
2.21941280
  0
VERTEX
  8
0
 10
6.02650000
 20
2.22937737
  0
SEQEND
  0
POLYLINE
  8
Default_Layer
 66
   1
 39
0.000000
 70
    1
  0
VERTEX
  8
0
 10
6.02650000
 20
1.80023561
  0
VERTEX
  8
0
 10
5.97714372
 20
1.79027103
  0
VERTEX
  8
0
 10
5.93683886
 20
1.76309675
  0
VERTEX
  8
0
 10
5.90966457
 20
1.72279189
  0
VERTEX
  8
0
 10
5.89970000
 20
1.67343561
  0
VERTEX
  8
0
 10
5.90966457
 20
1.62407932
  0
VERTEX
  8
0
 10
5.93683886
 20
1.58377447
  0
VERTEX
  8
0
 10
5.97714372
 20
1.55660018
  0
VERTEX
  8
0
 10
6.02650000
 20
1.54663561
  0
VERTEX
  8
0
 10
6.07585628
 20
1.55660018
  0
VERTEX
  8
0
 10
6.11616114
 20
1.58377447
  0
VERTEX
  8
0
 10
6.14333543
 20
1.62407932
  0
VERTEX
  8
0
 10
6.15330000
 20
1.67343561
  0
VERTEX
  8
0
 10
6.14333543
 20
1.72279189
  0
VERTEX
  8
0
 10
6.11616114
 20
1.76309675
  0
VERTEX
  8
0
 10
6.07585628
 20
1.79027103
  0
VERTEX
  8
0
 10
6.02650000
 20
1.80023561
  0
SEQEND
  0
POLYLINE
  8
Default_Layer
 66
   1
 39
0.000000
 70
    1
  0
VERTEX
  8
0
 10
6.02650000
 20
1.37079332
  0
VERTEX
  8
0
 10
5.97714372
 20
1.36082875
  0
VERTEX
  8
0
 10
5.93683886
 20
1.33365446
  0
VERTEX
  8
0
 10
5.90966457
 20
1.29334960
  0
VERTEX
  8
0
 10
5.89970000
 20
1.24399332
  0
VERTEX
  8
0
 10
5.90966457
 20
1.19463704
  0
VERTEX
  8
0
 10
5.93683886
 20
1.15433218
  0
VERTEX
  8
0
 10
5.97714372
 20
1.12715789
  0
VERTEX
  8
0
 10
6.02650000
 20
1.11719332
  0
VERTEX
  8
0
 10
6.07585628
 20
1.12715789
  0
VERTEX
  8
0
 10
6.11616114
 20
1.15433218
  0
VERTEX
  8
0
 10
6.14333543
 20
1.19463704
  0
VERTEX
  8
0
 10
6.15330000
 20
1.24399332
  0
VERTEX
  8
0
 10
6.14333543
 20
1.29334960
  0
VERTEX
  8
0
 10
6.11616114
 20
1.33365446
  0
VERTEX
  8
0
 10
6.07585628
 20
1.36082875
  0
VERTEX
  8
0
 10
6.02650000
 20
1.37079332
  0
SEQEND
  0
POLYLINE
  8
Default_Layer
 66
   1
 39
0.000000
 70
    1
  0
VERTEX
  8
0
 10
6.02650000
 20
0.94135104
  0
VERTEX
  8
0
 10
5.97714372
 20
0.93138647
  0
VERTEX
  8
0
 10
5.93683886
 20
0.90421218
  0
VERTEX
  8
0
 10
5.90966457
 20
0.86390732
  0
VERTEX
  8
0
 10
5.89970000
 20
0.81455104
  0
VERTEX
  8
0
 10
5.90966457
 20
0.76519476
  0
VERTEX
  8
0
 10
5.93683886
 20
0.72488990
  0
VERTEX
  8
0
 10
5.97714372
 20
0.69771561
  0
VERTEX
  8
0
 10
6.02650000
 20
0.68775104
  0
VERTEX
  8
0
 10
6.07585628
 20
0.69771561
  0
VERTEX
  8
0
 10
6.11616114
 20
0.72488990
  0
VERTEX
  8
0
 10
6.14333543
 20
0.76519476
  0
VERTEX
  8
0
 10
6.15330000
 20
0.81455104
  0
VERTEX
  8
0
 10
6.14333543
 20
0.86390732
  0
VERTEX
  8
0
 10
6.11616114
 20
0.90421218
  0
VERTEX
  8
0
 10
6.07585628
 20
0.93138647
  0
VERTEX
  8
0
 10
6.02650000
 20
0.94135104
  0
SEQEND
  0
POLYLINE
  8
Default_Layer
 66
   1
 39
0.000000
 70
    1
  0
VERTEX
  8
0
 10
6.02650000
 20
0.94105052
  0
VERTEX
  8
0
 10
5.97714372
 20
0.93108595
  0
VERTEX
  8
0
 10
5.93683886
 20
0.90391166
  0
VERTEX
  8
0
 10
5.90966457
 20
0.86360680
  0
VERTEX
  8
0
 10
5.89970000
 20
0.81425052
  0
VERTEX
  8
0
 10
5.90966457
 20
0.76489424
  0
VERTEX
  8
0
 10
5.93683886
 20
0.72458938
  0
VERTEX
  8
0
 10
5.97714372
 20
0.69741509
  0
VERTEX
  8
0
 10
6.02650000
 20
0.68745052
  0
VERTEX
  8
0
 10
6.07585628
 20
0.69741509
  0
VERTEX
  8
0
 10
6.11616114
 20
0.72458938
  0
VERTEX
  8
0
 10
6.14333543
 20
0.76489424
  0
VERTEX
  8
0
 10
6.15330000
 20
0.81425052
  0
VERTEX
  8
0
 10
6.14333543
 20
0.86360680
  0
VERTEX
  8
0
 10
6.11616114
 20
0.90391166
  0
VERTEX
  8
0
 10
6.07585628
 20
0.93108595
  0
VERTEX
  8
0
 10
6.02650000
 20
0.94105052
  0
SEQEND
  0
POLYLINE
  8
Default_Layer
 66
   1
 39
0.000000
 70
    1
  0
VERTEX
  8
0
 10
1.96828260
 20
2.15164598
  0
VERTEX
  8
0
 10
1.92633642
 20
2.12379183
  0
VERTEX
  8
0
 10
1.87862146
 20
2.11450712
  0
VERTEX
  8
0
 10
1.83090650
 20
2.12379183
  0
VERTEX
  8
0
 10
1.78896032
 20
2.15164598
  0
VERTEX
  8
0
 10
1.76110618
 20
2.19359216
  0
VERTEX
  8
0
 10
1.75182146
 20
2.24130712
  0
VERTEX
  8
0
 10
1.76110618
 20
2.28902208
  0
VERTEX
  8
0
 10
1.78896032
 20
2.33096826
  0
VERTEX
  8
0
 10
1.83090650
 20
2.35882240
  0
VERTEX
  8
0
 10
1.87862146
 20
2.36810712
  0
VERTEX
  8
0
 10
1.92633642
 20
2.35882240
  0
VERTEX
  8
0
 10
1.96828260
 20
2.33096826
  0
VERTEX
  8
0
 10
1.99613675
 20
2.28902208
  0
VERTEX
  8
0
 10
2.00542146
 20
2.24130712
  0
VERTEX
  8
0
 10
1.99613675
 20
2.19359216
  0
VERTEX
  8
0
 10
1.96828260
 20
2.15164598
  0
SEQEND
  0
POLYLINE
  8
Default_Layer
 66
   1
 39
0.000000
 70
    1
  0
VERTEX
  8
0
 10
1.60528746
 20
2.51464112
  0
VERTEX
  8
0
 10
1.56334128
 20
2.48678697
  0
VERTEX
  8
0
 10
1.51562632
 20
2.47750226
  0
VERTEX
  8
0
 10
1.46791136
 20
2.48678697
  0
VERTEX
  8
0
 10
1.42596518
 20
2.51464112
  0
VERTEX
  8
0
 10
1.39811104
 20
2.55658730
  0
VERTEX
  8
0
 10
1.38882632
 20
2.60430226
  0
VERTEX
  8
0
 10
1.39811104
 20
2.65201722
  0
VERTEX
  8
0
 10
1.42596518
 20
2.69396340
  0
VERTEX
  8
0
 10
1.46791136
 20
2.72181754
  0
VERTEX
  8
0
 10
1.51562632
 20
2.73110226
  0
VERTEX
  8
0
 10
1.56334128
 20
2.72181754
  0
VERTEX
  8
0
 10
1.60528746
 20
2.69396340
  0
VERTEX
  8
0
 10
1.63314161
 20
2.65201722
  0
VERTEX
  8
0
 10
1.64242632
 20
2.60430226
  0
VERTEX
  8
0
 10
1.63314161
 20
2.55658730
  0
VERTEX
  8
0
 10
1.60528746
 20
2.51464112
  0
SEQEND
  0
POLYLINE
  8
Default_Layer
 66
   1
 39
0.000000
 70
    1
  0
VERTEX
  8
0
 10
2.51441855
 20
8.39448997
  0
VERTEX
  8
0
 10
2.48656441
 20
8.43643615
  0
VERTEX
  8
0
 10
2.47727969
 20
8.48415111
  0
VERTEX
  8
0
 10
2.48656441
 20
8.53186608
  0
VERTEX
  8
0
 10
2.51441855
 20
8.57381225
  0
VERTEX
  8
0
 10
2.55636473
 20
8.60166640
  0
VERTEX
  8
0
 10
2.60407969
 20
8.61095111
  0
VERTEX
  8
0
 10
2.65179465
 20
8.60166640
  0
VERTEX
  8
0
 10
2.69374083
 20
8.57381225
  0
VERTEX
  8
0
 10
2.72159498
 20
8.53186608
  0
VERTEX
  8
0
 10
2.73087969
 20
8.48415111
  0
VERTEX
  8
0
 10
2.72159498
 20
8.43643615
  0
VERTEX
  8
0
 10
2.69374083
 20
8.39448997
  0
VERTEX
  8
0
 10
2.65179465
 20
8.36663583
  0
VERTEX
  8
0
 10
2.60407969
 20
8.35735111
  0
VERTEX
  8
0
 10
2.55636473
 20
8.36663583
  0
VERTEX
  8
0
 10
2.51441855
 20
8.39448997
  0
SEQEND
  0
POLYLINE
  8
Default_Layer
 66
   1
 39
0.000000
 70
    1
  0
VERTEX
  8
0
 10
2.33116887
 20
8.21124029
  0
VERTEX
  8
0
 10
2.28922269
 20
8.23909443
  0
VERTEX
  8
0
 10
2.24150773
 20
8.24837915
  0
VERTEX
  8
0
 10
2.19379277
 20
8.23909443
  0
VERTEX
  8
0
 10
2.15184659
 20
8.21124029
  0
VERTEX
  8
0
 10
2.12399244
 20
8.16929411
  0
VERTEX
  8
0
 10
2.11470773
 20
8.12157915
  0
VERTEX
  8
0
 10
2.12399244
 20
8.07386419
  0
VERTEX
  8
0
 10
2.15184659
 20
8.03191801
  0
VERTEX
  8
0
 10
2.19379277
 20
8.00406386
  0
VERTEX
  8
0
 10
2.24150773
 20
7.99477915
  0
VERTEX
  8
0
 10
2.28922269
 20
8.00406386
  0
VERTEX
  8
0
 10
2.33116887
 20
8.03191801
  0
VERTEX
  8
0
 10
2.35902301
 20
8.07386419
  0
VERTEX
  8
0
 10
2.36830773
 20
8.12157915
  0
VERTEX
  8
0
 10
2.35902301
 20
8.16929411
  0
VERTEX
  8
0
 10
2.33116887
 20
8.21124029
  0
SEQEND
  0
POLYLINE
  8
Default_Layer
 66
   1
 39
0.000000
 70
    1
  0
VERTEX
  8
0
 10
1.96828260
 20
7.84835402
  0
VERTEX
  8
0
 10
1.92633642
 20
7.87620817
  0
VERTEX
  8
0
 10
1.87862146
 20
7.88549288
  0
VERTEX
  8
0
 10
1.83090650
 20
7.87620817
  0
VERTEX
  8
0
 10
1.78896032
 20
7.84835402
  0
VERTEX
  8
0
 10
1.76110618
 20
7.80640784
  0
VERTEX
  8
0
 10
1.75182146
 20
7.75869288
  0
VERTEX
  8
0
 10
1.76110618
 20
7.71097792
  0
VERTEX
  8
0
 10
1.78896032
 20
7.66903174
  0
VERTEX
  8
0
 10
1.83090650
 20
7.64117760
  0
VERTEX
  8
0
 10
1.87862146
 20
7.63189288
  0
VERTEX
  8
0
 10
1.92633642
 20
7.64117760
  0
VERTEX
  8
0
 10
1.96828260
 20
7.66903174
  0
VERTEX
  8
0
 10
1.99613675
 20
7.71097792
  0
VERTEX
  8
0
 10
2.00542146
 20
7.75869288
  0
VERTEX
  8
0
 10
1.99613675
 20
7.80640784
  0
VERTEX
  8
0
 10
1.96828260
 20
7.84835402
  0
SEQEND
  0
POLYLINE
  8
Default_Layer
 66
   1
 39
0.000000
 70
    1
  0
VERTEX
  8
0
 10
1.60528746
 20
7.48535888
  0
VERTEX
  8
0
 10
1.56334128
 20
7.51321303
  0
VERTEX
  8
0
 10
1.51562632
 20
7.52249774
  0
VERTEX
  8
0
 10
1.46791136
 20
7.51321303
  0
VERTEX
  8
0
 10
1.42596518
 20
7.48535888
  0
VERTEX
  8
0
 10
1.39811104
 20
7.44341270
  0
VERTEX
  8
0
 10
1.38882632
 20
7.39569774
  0
VERTEX
  8
0
 10
1.39811104
 20
7.34798278
  0
VERTEX
  8
0
 10
1.42596518
 20
7.30603660
  0
VERTEX
  8
0
 10
1.46791136
 20
7.27818246
  0
VERTEX
  8
0
 10
1.51562632
 20
7.26889774
  0
VERTEX
  8
0
 10
1.56334128
 20
7.27818246
  0
VERTEX
  8
0
 10
1.60528746
 20
7.30603660
  0
VERTEX
  8
0
 10
1.63314161
 20
7.34798278
  0
VERTEX
  8
0
 10
1.64242632
 20
7.39569774
  0
VERTEX
  8
0
 10
1.63314161
 20
7.44341270
  0
VERTEX
  8
0
 10
1.60528746
 20
7.48535888
  0
SEQEND
  0
POLYLINE
  8
Default_Layer
 66
   1
 39
0.000000
 70
    1
  0
VERTEX
  8
0
 10
7.48558145
 20
8.39448997
  0
VERTEX
  8
0
 10
7.51343559
 20
8.43643615
  0
VERTEX
  8
0
 10
7.52272031
 20
8.48415111
  0
VERTEX
  8
0
 10
7.51343559
 20
8.53186608
  0
VERTEX
  8
0
 10
7.48558145
 20
8.57381225
  0
VERTEX
  8
0
 10
7.44363527
 20
8.60166640
  0
VERTEX
  8
0
 10
7.39592031
 20
8.61095111
  0
VERTEX
  8
0
 10
7.34820535
 20
8.60166640
  0
VERTEX
  8
0
 10
7.30625917
 20
8.57381225
  0
VERTEX
  8
0
 10
7.27840502
 20
8.53186608
  0
VERTEX
  8
0
 10
7.26912031
 20
8.48415111
  0
VERTEX
  8
0
 10
7.27840502
 20
8.43643615
  0
VERTEX
  8
0
 10
7.30625917
 20
8.39448997
  0
VERTEX
  8
0
 10
7.34820535
 20
8.36663583
  0
VERTEX
  8
0
 10
7.39592031
 20
8.35735111
  0
VERTEX
  8
0
 10
7.44363527
 20
8.36663583
  0
VERTEX
  8
0
 10
7.48558145
 20
8.39448997
  0
SEQEND
  0
POLYLINE
  8
Default_Layer
 66
   1
 39
0.000000
 70
    1
  0
VERTEX
  8
0
 10
7.66883113
 20
8.21124029
  0
VERTEX
  8
0
 10
7.71077731
 20
8.23909443
  0
VERTEX
  8
0
 10
7.75849227
 20
8.24837915
  0
VERTEX
  8
0
 10
7.80620723
 20
8.23909443
  0
VERTEX
  8
0
 10
7.84815341
 20
8.21124029
  0
VERTEX
  8
0
 10
7.87600756
 20
8.16929411
  0
VERTEX
  8
0
 10
7.88529227
 20
8.12157915
  0
VERTEX
  8
0
 10
7.87600756
 20
8.07386419
  0
VERTEX
  8
0
 10
7.84815341
 20
8.03191801
  0
VERTEX
  8
0
 10
7.80620723
 20
8.00406386
  0
VERTEX
  8
0
 10
7.75849227
 20
7.99477915
  0
VERTEX
  8
0
 10
7.71077731
 20
8.00406386
  0
VERTEX
  8
0
 10
7.66883113
 20
8.03191801
  0
VERTEX
  8
0
 10
7.64097699
 20
8.07386419
  0
VERTEX
  8
0
 10
7.63169227
 20
8.12157915
  0
VERTEX
  8
0
 10
7.64097699
 20
8.16929411
  0
VERTEX
  8
0
 10
7.66883113
 20
8.21124029
  0
SEQEND
  0
POLYLINE
  8
Default_Layer
 66
   1
 39
0.000000
 70
    1
  0
VERTEX
  8
0
 10
8.03171740
 20
7.84835402
  0
VERTEX
  8
0
 10
8.07366358
 20
7.87620817
  0
VERTEX
  8
0
 10
8.12137854
 20
7.88549288
  0
VERTEX
  8
0
 10
8.16909350
 20
7.87620817
  0
VERTEX
  8
0
 10
8.21103968
 20
7.84835402
  0
VERTEX
  8
0
 10
8.23889382
 20
7.80640784
  0
VERTEX
  8
0
 10
8.24817854
 20
7.75869288
  0
VERTEX
  8
0
 10
8.23889382
 20
7.71097792
  0
VERTEX
  8
0
 10
8.21103968
 20
7.66903174
  0
VERTEX
  8
0
 10
8.16909350
 20
7.64117760
  0
VERTEX
  8
0
 10
8.12137854
 20
7.63189288
  0
VERTEX
  8
0
 10
8.07366358
 20
7.64117760
  0
VERTEX
  8
0
 10
8.03171740
 20
7.66903174
  0
VERTEX
  8
0
 10
8.00386325
 20
7.71097792
  0
VERTEX
  8
0
 10
7.99457854
 20
7.75869288
  0
VERTEX
  8
0
 10
8.00386325
 20
7.80640784
  0
VERTEX
  8
0
 10
8.03171740
 20
7.84835402
  0
SEQEND
  0
POLYLINE
  8
Default_Layer
 66
   1
 39
0.000000
 70
    1
  0
VERTEX
  8
0
 10
8.39471254
 20
7.48535888
  0
VERTEX
  8
0
 10
8.43665872
 20
7.51321303
  0
VERTEX
  8
0
 10
8.48437368
 20
7.52249774
  0
VERTEX
  8
0
 10
8.53208864
 20
7.51321303
  0
VERTEX
  8
0
 10
8.57403482
 20
7.48535888
  0
VERTEX
  8
0
 10
8.60188896
 20
7.44341270
  0
VERTEX
  8
0
 10
8.61117368
 20
7.39569774
  0
VERTEX
  8
0
 10
8.60188896
 20
7.34798278
  0
VERTEX
  8
0
 10
8.57403482
 20
7.30603660
  0
VERTEX
  8
0
 10
8.53208864
 20
7.27818246
  0
VERTEX
  8
0
 10
8.48437368
 20
7.26889774
  0
VERTEX
  8
0
 10
8.43665872
 20
7.27818246
  0
VERTEX
  8
0
 10
8.39471254
 20
7.30603660
  0
VERTEX
  8
0
 10
8.36685839
 20
7.34798278
  0
VERTEX
  8
0
 10
8.35757368
 20
7.39569774
  0
VERTEX
  8
0
 10
8.36685839
 20
7.44341270
  0
VERTEX
  8
0
 10
8.39471254
 20
7.48535888
  0
SEQEND
  0
POLYLINE
  8
Default_Layer
 66
   1
 39
0.000000
 70
    1
  0
VERTEX
  8
0
 10
7.48558145
 20
1.60551003
  0
VERTEX
  8
0
 10
7.51343559
 20
1.56356385
  0
VERTEX
  8
0
 10
7.52272031
 20
1.51584889
  0
VERTEX
  8
0
 10
7.51343559
 20
1.46813392
  0
VERTEX
  8
0
 10
7.48558145
 20
1.42618775
  0
VERTEX
  8
0
 10
7.44363527
 20
1.39833360
  0
VERTEX
  8
0
 10
7.39592031
 20
1.38904889
  0
VERTEX
  8
0
 10
7.34820535
 20
1.39833360
  0
VERTEX
  8
0
 10
7.30625917
 20
1.42618775
  0
VERTEX
  8
0
 10
7.27840502
 20
1.46813392
  0
VERTEX
  8
0
 10
7.26912031
 20
1.51584889
  0
VERTEX
  8
0
 10
7.27840502
 20
1.56356385
  0
VERTEX
  8
0
 10
7.30625917
 20
1.60551003
  0
VERTEX
  8
0
 10
7.34820535
 20
1.63336417
  0
VERTEX
  8
0
 10
7.39592031
 20
1.64264889
  0
VERTEX
  8
0
 10
7.44363527
 20
1.63336417
  0
VERTEX
  8
0
 10
7.48558145
 20
1.60551003
  0
SEQEND
  0
POLYLINE
  8
Default_Layer
 66
   1
 39
0.000000
 70
    1
  0
VERTEX
  8
0
 10
7.66883113
 20
1.78875971
  0
VERTEX
  8
0
 10
7.71077731
 20
1.76090557
  0
VERTEX
  8
0
 10
7.75849227
 20
1.75162085
  0
VERTEX
  8
0
 10
7.80620723
 20
1.76090557
  0
VERTEX
  8
0
 10
7.84815341
 20
1.78875971
  0
VERTEX
  8
0
 10
7.87600756
 20
1.83070589
  0
VERTEX
  8
0
 10
7.88529227
 20
1.87842085
  0
VERTEX
  8
0
 10
7.87600756
 20
1.92613581
  0
VERTEX
  8
0
 10
7.84815341
 20
1.96808199
  0
VERTEX
  8
0
 10
7.80620723
 20
1.99593614
  0
VERTEX
  8
0
 10
7.75849227
 20
2.00522085
  0
VERTEX
  8
0
 10
7.71077731
 20
1.99593614
  0
VERTEX
  8
0
 10
7.66883113
 20
1.96808199
  0
VERTEX
  8
0
 10
7.64097699
 20
1.92613581
  0
VERTEX
  8
0
 10
7.63169227
 20
1.87842085
  0
VERTEX
  8
0
 10
7.64097699
 20
1.83070589
  0
VERTEX
  8
0
 10
7.66883113
 20
1.78875971
  0
SEQEND
  0
POLYLINE
  8
Default_Layer
 66
   1
 39
0.000000
 70
    1
  0
VERTEX
  8
0
 10
8.03171740
 20
2.15164598
  0
VERTEX
  8
0
 10
8.07366358
 20
2.12379183
  0
VERTEX
  8
0
 10
8.12137854
 20
2.11450712
  0
VERTEX
  8
0
 10
8.16909350
 20
2.12379183
  0
VERTEX
  8
0
 10
8.21103968
 20
2.15164598
  0
VERTEX
  8
0
 10
8.23889382
 20
2.19359216
  0
VERTEX
  8
0
 10
8.24817854
 20
2.24130712
  0
VERTEX
  8
0
 10
8.23889382
 20
2.28902208
  0
VERTEX
  8
0
 10
8.21103968
 20
2.33096826
  0
VERTEX
  8
0
 10
8.16909350
 20
2.35882240
  0
VERTEX
  8
0
 10
8.12137854
 20
2.36810712
  0
VERTEX
  8
0
 10
8.07366358
 20
2.35882240
  0
VERTEX
  8
0
 10
8.03171740
 20
2.33096826
  0
VERTEX
  8
0
 10
8.00386325
 20
2.28902208
  0
VERTEX
  8
0
 10
7.99457854
 20
2.24130712
  0
VERTEX
  8
0
 10
8.00386325
 20
2.19359216
  0
VERTEX
  8
0
 10
8.03171740
 20
2.15164598
  0
SEQEND
  0
POLYLINE
  8
Default_Layer
 66
   1
 39
0.000000
 70
    1
  0
VERTEX
  8
0
 10
8.39471254
 20
2.51464112
  0
VERTEX
  8
0
 10
8.43665872
 20
2.48678697
  0
VERTEX
  8
0
 10
8.48437368
 20
2.47750226
  0
VERTEX
  8
0
 10
8.53208864
 20
2.48678697
  0
VERTEX
  8
0
 10
8.57403482
 20
2.51464112
  0
VERTEX
  8
0
 10
8.60188896
 20
2.55658730
  0
VERTEX
  8
0
 10
8.61117368
 20
2.60430226
  0
VERTEX
  8
0
 10
8.60188896
 20
2.65201722
  0
VERTEX
  8
0
 10
8.57403482
 20
2.69396340
  0
VERTEX
  8
0
 10
8.53208864
 20
2.72181754
  0
VERTEX
  8
0
 10
8.48437368
 20
2.73110226
  0
VERTEX
  8
0
 10
8.43665872
 20
2.72181754
  0
VERTEX
  8
0
 10
8.39471254
 20
2.69396340
  0
VERTEX
  8
0
 10
8.36685839
 20
2.65201722
  0
VERTEX
  8
0
 10
8.35757368
 20
2.60430226
  0
VERTEX
  8
0
 10
8.36685839
 20
2.55658730
  0
VERTEX
  8
0
 10
8.39471254
 20
2.51464112
  0
SEQEND
  0
POLYLINE
  8
Default_Layer
 66
   1
 39
0.000000
 70
    1
  0
VERTEX
  8
0
 10
5.00000000
 20
1.72017189
  0
VERTEX
  8
0
 10
4.95064372
 20
1.73013646
  0
VERTEX
  8
0
 10
4.91033886
 20
1.75731075
  0
VERTEX
  8
0
 10
4.88316457
 20
1.79761561
  0
VERTEX
  8
0
 10
4.87320000
 20
1.84697189
  0
VERTEX
  8
0
 10
4.88316457
 20
1.89632817
  0
VERTEX
  8
0
 10
4.91033886
 20
1.93663303
  0
VERTEX
  8
0
 10
4.95064372
 20
1.96380732
  0
VERTEX
  8
0
 10
5.00000000
 20
1.97377189
  0
VERTEX
  8
0
 10
5.04935628
 20
1.96380732
  0
VERTEX
  8
0
 10
5.08966114
 20
1.93663303
  0
VERTEX
  8
0
 10
5.11683543
 20
1.89632817
  0
VERTEX
  8
0
 10
5.12680000
 20
1.84697189
  0
VERTEX
  8
0
 10
5.11683543
 20
1.79761561
  0
VERTEX
  8
0
 10
5.08966114
 20
1.75731075
  0
VERTEX
  8
0
 10
5.04935628
 20
1.73013646
  0
VERTEX
  8
0
 10
5.00000000
 20
1.72017189
  0
SEQEND
  0
POLYLINE
  8
Default_Layer
 66
   1
 39
0.000000
 70
    1
  0
VERTEX
  8
0
 10
5.00000000
 20
2.23337057
  0
VERTEX
  8
0
 10
4.95064372
 20
2.24333514
  0
VERTEX
  8
0
 10
4.91033886
 20
2.27050943
  0
VERTEX
  8
0
 10
4.88316457
 20
2.31081429
  0
VERTEX
  8
0
 10
4.87320000
 20
2.36017057
  0
VERTEX
  8
0
 10
4.88316457
 20
2.40952685
  0
VERTEX
  8
0
 10
4.91033886
 20
2.44983171
  0
VERTEX
  8
0
 10
4.95064372
 20
2.47700600
  0
VERTEX
  8
0
 10
5.00000000
 20
2.48697057
  0
VERTEX
  8
0
 10
5.04935628
 20
2.47700600
  0
VERTEX
  8
0
 10
5.08966114
 20
2.44983171
  0
VERTEX
  8
0
 10
5.11683543
 20
2.40952685
  0
VERTEX
  8
0
 10
5.12680000
 20
2.36017057
  0
VERTEX
  8
0
 10
5.11683543
 20
2.31081429
  0
VERTEX
  8
0
 10
5.08966114
 20
2.27050943
  0
VERTEX
  8
0
 10
5.04935628
 20
2.24333514
  0
VERTEX
  8
0
 10
5.00000000
 20
2.23337057
  0
SEQEND
  0
POLYLINE
  8
Default_Layer
 66
   1
 39
0.000000
 70
    1
  0
VERTEX
  8
0
 10
5.00000000
 20
2.74672322
  0
VERTEX
  8
0
 10
4.95064372
 20
2.75668779
  0
VERTEX
  8
0
 10
4.91033886
 20
2.78386208
  0
VERTEX
  8
0
 10
4.88316457
 20
2.82416694
  0
VERTEX
  8
0
 10
4.87320000
 20
2.87352322
  0
VERTEX
  8
0
 10
4.88316457
 20
2.92287950
  0
VERTEX
  8
0
 10
4.91033886
 20
2.96318436
  0
VERTEX
  8
0
 10
4.95064372
 20
2.99035865
  0
VERTEX
  8
0
 10
5.00000000
 20
3.00032322
  0
VERTEX
  8
0
 10
5.04935628
 20
2.99035865
  0
VERTEX
  8
0
 10
5.08966114
 20
2.96318436
  0
VERTEX
  8
0
 10
5.11683543
 20
2.92287950
  0
VERTEX
  8
0
 10
5.12680000
 20
2.87352322
  0
VERTEX
  8
0
 10
5.11683543
 20
2.82416694
  0
VERTEX
  8
0
 10
5.08966114
 20
2.78386208
  0
VERTEX
  8
0
 10
5.04935628
 20
2.75668779
  0
VERTEX
  8
0
 10
5.00000000
 20
2.74672322
  0
SEQEND
  0
POLYLINE
  8
Default_Layer
 66
   1
 39
0.000000
 70
    1
  0
VERTEX
  8
0
 10
5.00000000
 20
1.45722599
  0
VERTEX
  8
0
 10
4.95064372
 20
1.44726142
  0
VERTEX
  8
0
 10
4.91033886
 20
1.42008713
  0
VERTEX
  8
0
 10
4.88316457
 20
1.37978227
  0
VERTEX
  8
0
 10
4.87320000
 20
1.33042599
  0
VERTEX
  8
0
 10
4.88316457
 20
1.28106971
  0
VERTEX
  8
0
 10
4.91033886
 20
1.24076485
  0
VERTEX
  8
0
 10
4.95064372
 20
1.21359056
  0
VERTEX
  8
0
 10
5.00000000
 20
1.20362599
  0
VERTEX
  8
0
 10
5.04935628
 20
1.21359056
  0
VERTEX
  8
0
 10
5.08966114
 20
1.24076485
  0
VERTEX
  8
0
 10
5.11683543
 20
1.28106971
  0
VERTEX
  8
0
 10
5.12680000
 20
1.33042599
  0
VERTEX
  8
0
 10
5.11683543
 20
1.37978227
  0
VERTEX
  8
0
 10
5.08966114
 20
1.42008713
  0
VERTEX
  8
0
 10
5.04935628
 20
1.44726142
  0
VERTEX
  8
0
 10
5.00000000
 20
1.45722599
  0
SEQEND
  0
POLYLINE
  8
Default_Layer
 66
   1
 39
0.000000
 70
    1
  0
VERTEX
  8
0
 10
1.72017189
 20
5.00000000
  0
VERTEX
  8
0
 10
1.73013646
 20
5.04935628
  0
VERTEX
  8
0
 10
1.75731075
 20
5.08966114
  0
VERTEX
  8
0
 10
1.79761561
 20
5.11683543
  0
VERTEX
  8
0
 10
1.84697189
 20
5.12680000
  0
VERTEX
  8
0
 10
1.89632817
 20
5.11683543
  0
VERTEX
  8
0
 10
1.93663303
 20
5.08966114
  0
VERTEX
  8
0
 10
1.96380732
 20
5.04935628
  0
VERTEX
  8
0
 10
1.97377189
 20
5.00000000
  0
VERTEX
  8
0
 10
1.96380732
 20
4.95064372
  0
VERTEX
  8
0
 10
1.93663303
 20
4.91033886
  0
VERTEX
  8
0
 10
1.89632817
 20
4.88316457
  0
VERTEX
  8
0
 10
1.84697189
 20
4.87320000
  0
VERTEX
  8
0
 10
1.79761561
 20
4.88316457
  0
VERTEX
  8
0
 10
1.75731075
 20
4.91033886
  0
VERTEX
  8
0
 10
1.73013646
 20
4.95064372
  0
VERTEX
  8
0
 10
1.72017189
 20
5.00000000
  0
SEQEND
  0
POLYLINE
  8
Default_Layer
 66
   1
 39
0.000000
 70
    1
  0
VERTEX
  8
0
 10
2.23337057
 20
5.00000000
  0
VERTEX
  8
0
 10
2.24333514
 20
5.04935628
  0
VERTEX
  8
0
 10
2.27050943
 20
5.08966114
  0
VERTEX
  8
0
 10
2.31081429
 20
5.11683543
  0
VERTEX
  8
0
 10
2.36017057
 20
5.12680000
  0
VERTEX
  8
0
 10
2.40952685
 20
5.11683543
  0
VERTEX
  8
0
 10
2.44983171
 20
5.08966114
  0
VERTEX
  8
0
 10
2.47700600
 20
5.04935628
  0
VERTEX
  8
0
 10
2.48697057
 20
5.00000000
  0
VERTEX
  8
0
 10
2.47700600
 20
4.95064372
  0
VERTEX
  8
0
 10
2.44983171
 20
4.91033886
  0
VERTEX
  8
0
 10
2.40952685
 20
4.88316457
  0
VERTEX
  8
0
 10
2.36017057
 20
4.87320000
  0
VERTEX
  8
0
 10
2.31081429
 20
4.88316457
  0
VERTEX
  8
0
 10
2.27050943
 20
4.91033886
  0
VERTEX
  8
0
 10
2.24333514
 20
4.95064372
  0
VERTEX
  8
0
 10
2.23337057
 20
5.00000000
  0
SEQEND
  0
POLYLINE
  8
Default_Layer
 66
   1
 39
0.000000
 70
    1
  0
VERTEX
  8
0
 10
2.74672322
 20
5.00000000
  0
VERTEX
  8
0
 10
2.75668779
 20
5.04935628
  0
VERTEX
  8
0
 10
2.78386208
 20
5.08966114
  0
VERTEX
  8
0
 10
2.82416694
 20
5.11683543
  0
VERTEX
  8
0
 10
2.87352322
 20
5.12680000
  0
VERTEX
  8
0
 10
2.92287950
 20
5.11683543
  0
VERTEX
  8
0
 10
2.96318436
 20
5.08966114
  0
VERTEX
  8
0
 10
2.99035865
 20
5.04935628
  0
VERTEX
  8
0
 10
3.00032322
 20
5.00000000
  0
VERTEX
  8
0
 10
2.99035865
 20
4.95064372
  0
VERTEX
  8
0
 10
2.96318436
 20
4.91033886
  0
VERTEX
  8
0
 10
2.92287950
 20
4.88316457
  0
VERTEX
  8
0
 10
2.87352322
 20
4.87320000
  0
VERTEX
  8
0
 10
2.82416694
 20
4.88316457
  0
VERTEX
  8
0
 10
2.78386208
 20
4.91033886
  0
VERTEX
  8
0
 10
2.75668779
 20
4.95064372
  0
VERTEX
  8
0
 10
2.74672322
 20
5.00000000
  0
SEQEND
  0
POLYLINE
  8
Default_Layer
 66
   1
 39
0.000000
 70
    1
  0
VERTEX
  8
0
 10
1.45722599
 20
5.00000000
  0
VERTEX
  8
0
 10
1.44726142
 20
5.04935628
  0
VERTEX
  8
0
 10
1.42008713
 20
5.08966114
  0
VERTEX
  8
0
 10
1.37978227
 20
5.11683543
  0
VERTEX
  8
0
 10
1.33042599
 20
5.12680000
  0
VERTEX
  8
0
 10
1.28106971
 20
5.11683543
  0
VERTEX
  8
0
 10
1.24076485
 20
5.08966114
  0
VERTEX
  8
0
 10
1.21359056
 20
5.04935628
  0
VERTEX
  8
0
 10
1.20362599
 20
5.00000000
  0
VERTEX
  8
0
 10
1.21359056
 20
4.95064372
  0
VERTEX
  8
0
 10
1.24076485
 20
4.91033886
  0
VERTEX
  8
0
 10
1.28106971
 20
4.88316457
  0
VERTEX
  8
0
 10
1.33042599
 20
4.87320000
  0
VERTEX
  8
0
 10
1.37978227
 20
4.88316457
  0
VERTEX
  8
0
 10
1.42008713
 20
4.91033886
  0
VERTEX
  8
0
 10
1.44726142
 20
4.95064372
  0
VERTEX
  8
0
 10
1.45722599
 20
5.00000000
  0
SEQEND
  0
POLYLINE
  8
Default_Layer
 66
   1
 39
0.000000
 70
    1
  0
VERTEX
  8
0
 10
5.00000000
 20
8.27982811
  0
VERTEX
  8
0
 10
4.95064372
 20
8.26986354
  0
VERTEX
  8
0
 10
4.91033886
 20
8.24268925
  0
VERTEX
  8
0
 10
4.88316457
 20
8.20238439
  0
VERTEX
  8
0
 10
4.87320000
 20
8.15302811
  0
VERTEX
  8
0
 10
4.88316457
 20
8.10367183
  0
VERTEX
  8
0
 10
4.91033886
 20
8.06336697
  0
VERTEX
  8
0
 10
4.95064372
 20
8.03619268
  0
VERTEX
  8
0
 10
5.00000000
 20
8.02622811
  0
VERTEX
  8
0
 10
5.04935628
 20
8.03619268
  0
VERTEX
  8
0
 10
5.08966114
 20
8.06336697
  0
VERTEX
  8
0
 10
5.11683543
 20
8.10367183
  0
VERTEX
  8
0
 10
5.12680000
 20
8.15302811
  0
VERTEX
  8
0
 10
5.11683543
 20
8.20238439
  0
VERTEX
  8
0
 10
5.08966114
 20
8.24268925
  0
VERTEX
  8
0
 10
5.04935628
 20
8.26986354
  0
VERTEX
  8
0
 10
5.00000000
 20
8.27982811
  0
SEQEND
  0
POLYLINE
  8
Default_Layer
 66
   1
 39
0.000000
 70
    1
  0
VERTEX
  8
0
 10
5.00000000
 20
7.76662943
  0
VERTEX
  8
0
 10
4.95064372
 20
7.75666486
  0
VERTEX
  8
0
 10
4.91033886
 20
7.72949057
  0
VERTEX
  8
0
 10
4.88316457
 20
7.68918571
  0
VERTEX
  8
0
 10
4.87320000
 20
7.63982943
  0
VERTEX
  8
0
 10
4.88316457
 20
7.59047315
  0
VERTEX
  8
0
 10
4.91033886
 20
7.55016829
  0
VERTEX
  8
0
 10
4.95064372
 20
7.52299400
  0
VERTEX
  8
0
 10
5.00000000
 20
7.51302943
  0
VERTEX
  8
0
 10
5.04935628
 20
7.52299400
  0
VERTEX
  8
0
 10
5.08966114
 20
7.55016829
  0
VERTEX
  8
0
 10
5.11683543
 20
7.59047315
  0
VERTEX
  8
0
 10
5.12680000
 20
7.63982943
  0
VERTEX
  8
0
 10
5.11683543
 20
7.68918571
  0
VERTEX
  8
0
 10
5.08966114
 20
7.72949057
  0
VERTEX
  8
0
 10
5.04935628
 20
7.75666486
  0
VERTEX
  8
0
 10
5.00000000
 20
7.76662943
  0
SEQEND
  0
POLYLINE
  8
Default_Layer
 66
   1
 39
0.000000
 70
    1
  0
VERTEX
  8
0
 10
5.00000000
 20
7.25327678
  0
VERTEX
  8
0
 10
4.95064372
 20
7.24331221
  0
VERTEX
  8
0
 10
4.91033886
 20
7.21613792
  0
VERTEX
  8
0
 10
4.88316457
 20
7.17583306
  0
VERTEX
  8
0
 10
4.87320000
 20
7.12647678
  0
VERTEX
  8
0
 10
4.88316457
 20
7.07712050
  0
VERTEX
  8
0
 10
4.91033886
 20
7.03681564
  0
VERTEX
  8
0
 10
4.95064372
 20
7.00964135
  0
VERTEX
  8
0
 10
5.00000000
 20
6.99967678
  0
VERTEX
  8
0
 10
5.04935628
 20
7.00964135
  0
VERTEX
  8
0
 10
5.08966114
 20
7.03681564
  0
VERTEX
  8
0
 10
5.11683543
 20
7.07712050
  0
VERTEX
  8
0
 10
5.12680000
 20
7.12647678
  0
VERTEX
  8
0
 10
5.11683543
 20
7.17583306
  0
VERTEX
  8
0
 10
5.08966114
 20
7.21613792
  0
VERTEX
  8
0
 10
5.04935628
 20
7.24331221
  0
VERTEX
  8
0
 10
5.00000000
 20
7.25327678
  0
SEQEND
  0
POLYLINE
  8
Default_Layer
 66
   1
 39
0.000000
 70
    1
  0
VERTEX
  8
0
 10
5.00000000
 20
8.54277401
  0
VERTEX
  8
0
 10
4.95064372
 20
8.55273858
  0
VERTEX
  8
0
 10
4.91033886
 20
8.57991287
  0
VERTEX
  8
0
 10
4.88316457
 20
8.62021773
  0
VERTEX
  8
0
 10
4.87320000
 20
8.66957401
  0
VERTEX
  8
0
 10
4.88316457
 20
8.71893029
  0
VERTEX
  8
0
 10
4.91033886
 20
8.75923515
  0
VERTEX
  8
0
 10
4.95064372
 20
8.78640944
  0
VERTEX
  8
0
 10
5.00000000
 20
8.79637401
  0
VERTEX
  8
0
 10
5.04935628
 20
8.78640944
  0
VERTEX
  8
0
 10
5.08966114
 20
8.75923515
  0
VERTEX
  8
0
 10
5.11683543
 20
8.71893029
  0
VERTEX
  8
0
 10
5.12680000
 20
8.66957401
  0
VERTEX
  8
0
 10
5.11683543
 20
8.62021773
  0
VERTEX
  8
0
 10
5.08966114
 20
8.57991287
  0
VERTEX
  8
0
 10
5.04935628
 20
8.55273858
  0
VERTEX
  8
0
 10
5.00000000
 20
8.54277401
  0
SEQEND
  0
POLYLINE
  8
Default_Layer
 66
   1
 39
0.000000
 70
    1
  0
VERTEX
  8
0
 10
8.27982811
 20
5.00000000
  0
VERTEX
  8
0
 10
8.26986354
 20
5.04935628
  0
VERTEX
  8
0
 10
8.24268925
 20
5.08966114
  0
VERTEX
  8
0
 10
8.20238439
 20
5.11683543
  0
VERTEX
  8
0
 10
8.15302811
 20
5.12680000
  0
VERTEX
  8
0
 10
8.10367183
 20
5.11683543
  0
VERTEX
  8
0
 10
8.06336697
 20
5.08966114
  0
VERTEX
  8
0
 10
8.03619268
 20
5.04935628
  0
VERTEX
  8
0
 10
8.02622811
 20
5.00000000
  0
VERTEX
  8
0
 10
8.03619268
 20
4.95064372
  0
VERTEX
  8
0
 10
8.06336697
 20
4.91033886
  0
VERTEX
  8
0
 10
8.10367183
 20
4.88316457
  0
VERTEX
  8
0
 10
8.15302811
 20
4.87320000
  0
VERTEX
  8
0
 10
8.20238439
 20
4.88316457
  0
VERTEX
  8
0
 10
8.24268925
 20
4.91033886
  0
VERTEX
  8
0
 10
8.26986354
 20
4.95064372
  0
VERTEX
  8
0
 10
8.27982811
 20
5.00000000
  0
SEQEND
  0
POLYLINE
  8
Default_Layer
 66
   1
 39
0.000000
 70
    1
  0
VERTEX
  8
0
 10
7.76662943
 20
5.00000000
  0
VERTEX
  8
0
 10
7.75666486
 20
5.04935628
  0
VERTEX
  8
0
 10
7.72949057
 20
5.08966114
  0
VERTEX
  8
0
 10
7.68918571
 20
5.11683543
  0
VERTEX
  8
0
 10
7.63982943
 20
5.12680000
  0
VERTEX
  8
0
 10
7.59047315
 20
5.11683543
  0
VERTEX
  8
0
 10
7.55016829
 20
5.08966114
  0
VERTEX
  8
0
 10
7.52299400
 20
5.04935628
  0
VERTEX
  8
0
 10
7.51302943
 20
5.00000000
  0
VERTEX
  8
0
 10
7.52299400
 20
4.95064372
  0
VERTEX
  8
0
 10
7.55016829
 20
4.91033886
  0
VERTEX
  8
0
 10
7.59047315
 20
4.88316457
  0
VERTEX
  8
0
 10
7.63982943
 20
4.87320000
  0
VERTEX
  8
0
 10
7.68918571
 20
4.88316457
  0
VERTEX
  8
0
 10
7.72949057
 20
4.91033886
  0
VERTEX
  8
0
 10
7.75666486
 20
4.95064372
  0
VERTEX
  8
0
 10
7.76662943
 20
5.00000000
  0
SEQEND
  0
POLYLINE
  8
Default_Layer
 66
   1
 39
0.000000
 70
    1
  0
VERTEX
  8
0
 10
7.25327678
 20
5.00000000
  0
VERTEX
  8
0
 10
7.24331221
 20
5.04935628
  0
VERTEX
  8
0
 10
7.21613792
 20
5.08966114
  0
VERTEX
  8
0
 10
7.17583306
 20
5.11683543
  0
VERTEX
  8
0
 10
7.12647678
 20
5.12680000
  0
VERTEX
  8
0
 10
7.07712050
 20
5.11683543
  0
VERTEX
  8
0
 10
7.03681564
 20
5.08966114
  0
VERTEX
  8
0
 10
7.00964135
 20
5.04935628
  0
VERTEX
  8
0
 10
6.99967678
 20
5.00000000
  0
VERTEX
  8
0
 10
7.00964135
 20
4.95064372
  0
VERTEX
  8
0
 10
7.03681564
 20
4.91033886
  0
VERTEX
  8
0
 10
7.07712050
 20
4.88316457
  0
VERTEX
  8
0
 10
7.12647678
 20
4.87320000
  0
VERTEX
  8
0
 10
7.17583306
 20
4.88316457
  0
VERTEX
  8
0
 10
7.21613792
 20
4.91033886
  0
VERTEX
  8
0
 10
7.24331221
 20
4.95064372
  0
VERTEX
  8
0
 10
7.25327678
 20
5.00000000
  0
SEQEND
  0
POLYLINE
  8
Default_Layer
 66
   1
 39
0.000000
 70
    1
  0
VERTEX
  8
0
 10
8.54277401
 20
5.00000000
  0
VERTEX
  8
0
 10
8.55273858
 20
5.04935628
  0
VERTEX
  8
0
 10
8.57991287
 20
5.08966114
  0
VERTEX
  8
0
 10
8.62021773
 20
5.11683543
  0
VERTEX
  8
0
 10
8.66957401
 20
5.12680000
  0
VERTEX
  8
0
 10
8.71893029
 20
5.11683543
  0
VERTEX
  8
0
 10
8.75923515
 20
5.08966114
  0
VERTEX
  8
0
 10
8.78640944
 20
5.04935628
  0
VERTEX
  8
0
 10
8.79637401
 20
5.00000000
  0
VERTEX
  8
0
 10
8.78640944
 20
4.95064372
  0
VERTEX
  8
0
 10
8.75923515
 20
4.91033886
  0
VERTEX
  8
0
 10
8.71893029
 20
4.88316457
  0
VERTEX
  8
0
 10
8.66957401
 20
4.87320000
  0
VERTEX
  8
0
 10
8.62021773
 20
4.88316457
  0
VERTEX
  8
0
 10
8.57991287
 20
4.91033886
  0
VERTEX
  8
0
 10
8.55273858
 20
4.95064372
  0
VERTEX
  8
0
 10
8.54277401
 20
5.00000000
  0
SEQEND
  0
ENDSEC
  0
EOF
