  0
SECTION
  2
HEADER
  9
$ACADVER
  1
AC1009
  9
$EXTMIN
 10
0.52158150
 20
0.52158150
 30
0.0
  9
$EXTMAX
 10
9.47841850
 20
9.47841850
 30
0.0
  0
ENDSEC
  0
SECTION
  2
TABLES
  0
TABLE
  2
LAYER
 70
1
 0
LAYER
 2
Default_Layer
 70
0
 62
1
 6
CONTINUOUS
 0
ENDTAB
 0
ENDSEC
  0
SECTION
  2
ENTITIES
  0
POLYLINE
  8
Default_Layer
 66
   1
 39
0.000000
 70
    1
  0
VERTEX
  8
0
 10
6.19998862
 20
9.47841850
  0
VERTEX
  8
0
 10
8.27842988
 20
8.27842988
  0
VERTEX
  8
0
 10
9.47841850
 20
6.19998862
  0
VERTEX
  8
0
 10
9.47841850
 20
3.80001138
  0
VERTEX
  8
0
 10
8.27842988
 20
1.72157012
  0
VERTEX
  8
0
 10
6.19998862
 20
0.52158150
  0
VERTEX
  8
0
 10
3.80001138
 20
0.52158150
  0
VERTEX
  8
0
 10
1.72157012
 20
1.72157012
  0
VERTEX
  8
0
 10
0.52158150
 20
3.80001138
  0
VERTEX
  8
0
 10
0.52158150
 20
6.19998862
  0
VERTEX
  8
0
 10
1.72157012
 20
8.27842988
  0
VERTEX
  8
0
 10
3.80001138
 20
9.47841850
  0
VERTEX
  8
0
 10
6.19998862
 20
9.47841850
  0
SEQEND
  0
POLYLINE
  8
Default_Layer
 66
   1
 39
0.000000
 70
    1
  0
VERTEX
  8
0
 10
5.04885000
 20
7.18033613
  0
VERTEX
  8
0
 10
5.01207683
 20
7.16797064
  0
VERTEX
  8
0
 10
4.97471338
 20
7.17057586
  0
VERTEX
  8
0
 10
4.94105307
 20
7.18700139
  0
VERTEX
  8
0
 10
4.91538932
 20
7.21609681
  0
VERTEX
  8
0
 10
4.90302382
 20
7.25286999
  0
VERTEX
  8
0
 10
4.90562905
 20
7.29023344
  0
VERTEX
  8
0
 10
4.92205458
 20
7.32389375
  0
VERTEX
  8
0
 10
4.95115000
 20
7.34955750
  0
VERTEX
  8
0
 10
4.98792317
 20
7.36192299
  0
VERTEX
  8
0
 10
5.02528662
 20
7.35931777
  0
VERTEX
  8
0
 10
5.05894693
 20
7.34289224
  0
VERTEX
  8
0
 10
5.08461068
 20
7.31379681
  0
VERTEX
  8
0
 10
5.09697618
 20
7.27702364
  0
VERTEX
  8
0
 10
5.09437095
 20
7.23966019
  0
VERTEX
  8
0
 10
5.07794542
 20
7.20599988
  0
VERTEX
  8
0
 10
5.04885000
 20
7.18033613
  0
SEQEND
  0
POLYLINE
  8
Default_Layer
 66
   1
 39
0.000000
 70
    1
  0
VERTEX
  8
0
 10
4.90804359
 20
7.42421998
  0
VERTEX
  8
0
 10
4.87127042
 20
7.41185448
  0
VERTEX
  8
0
 10
4.83390697
 20
7.41445971
  0
VERTEX
  8
0
 10
4.80024666
 20
7.43088524
  0
VERTEX
  8
0
 10
4.77458291
 20
7.45998066
  0
VERTEX
  8
0
 10
4.76221741
 20
7.49675383
  0
VERTEX
  8
0
 10
4.76482264
 20
7.53411728
  0
VERTEX
  8
0
 10
4.78124817
 20
7.56777759
  0
VERTEX
  8
0
 10
4.81034359
 20
7.59344135
  0
VERTEX
  8
0
 10
4.84711677
 20
7.60580684
  0
VERTEX
  8
0
 10
4.88448022
 20
7.60320162
  0
VERTEX
  8
0
 10
4.91814053
 20
7.58677608
  0
VERTEX
  8
0
 10
4.94380428
 20
7.55768066
  0
VERTEX
  8
0
 10
4.95616977
 20
7.52090749
  0
VERTEX
  8
0
 10
4.95356455
 20
7.48354404
  0
VERTEX
  8
0
 10
4.93713902
 20
7.44988373
  0
VERTEX
  8
0
 10
4.90804359
 20
7.42421998
  0
SEQEND
  0
POLYLINE
  8
Default_Layer
 66
   1
 39
0.000000
 70
    1
  0
VERTEX
  8
0
 10
4.76723719
 20
7.66810383
  0
VERTEX
  8
0
 10
4.73046402
 20
7.65573833
  0
VERTEX
  8
0
 10
4.69310057
 20
7.65834356
  0
VERTEX
  8
0
 10
4.65944026
 20
7.67476909
  0
VERTEX
  8
0
 10
4.63377651
 20
7.70386451
  0
VERTEX
  8
0
 10
4.62141101
 20
7.74063768
  0
VERTEX
  8
0
 10
4.62401624
 20
7.77800113
  0
VERTEX
  8
0
 10
4.64044177
 20
7.81166144
  0
VERTEX
  8
0
 10
4.66953719
 20
7.83732519
  0
VERTEX
  8
0
 10
4.70631036
 20
7.84969069
  0
VERTEX
  8
0
 10
4.74367381
 20
7.84708546
  0
VERTEX
  8
0
 10
4.77733412
 20
7.83065993
  0
VERTEX
  8
0
 10
4.80299787
 20
7.80156451
  0
VERTEX
  8
0
 10
4.81536337
 20
7.76479134
  0
VERTEX
  8
0
 10
4.81275814
 20
7.72742789
  0
VERTEX
  8
0
 10
4.79633261
 20
7.69376758
  0
VERTEX
  8
0
 10
4.76723719
 20
7.66810383
  0
SEQEND
  0
POLYLINE
  8
Default_Layer
 66
   1
 39
0.000000
 70
    1
  0
VERTEX
  8
0
 10
4.62643078
 20
7.91198768
  0
VERTEX
  8
0
 10
4.58965761
 20
7.89962218
  0
VERTEX
  8
0
 10
4.55229416
 20
7.90222741
  0
VERTEX
  8
0
 10
4.51863385
 20
7.91865294
  0
VERTEX
  8
0
 10
4.49297010
 20
7.94774836
  0
VERTEX
  8
0
 10
4.48060460
 20
7.98452153
  0
VERTEX
  8
0
 10
4.48320983
 20
8.02188498
  0
VERTEX
  8
0
 10
4.49963536
 20
8.05554529
  0
VERTEX
  8
0
 10
4.52873078
 20
8.08120904
  0
VERTEX
  8
0
 10
4.56550395
 20
8.09357454
  0
VERTEX
  8
0
 10
4.60286740
 20
8.09096931
  0
VERTEX
  8
0
 10
4.63652771
 20
8.07454378
  0
VERTEX
  8
0
 10
4.66219147
 20
8.04544836
  0
VERTEX
  8
0
 10
4.67455696
 20
8.00867519
  0
VERTEX
  8
0
 10
4.67195174
 20
7.97131174
  0
VERTEX
  8
0
 10
4.65552620
 20
7.93765143
  0
VERTEX
  8
0
 10
4.62643078
 20
7.91198768
  0
SEQEND
  0
POLYLINE
  8
Default_Layer
 66
   1
 39
0.000000
 70
    1
  0
VERTEX
  8
0
 10
4.48562438
 20
8.15587153
  0
VERTEX
  8
0
 10
4.44885121
 20
8.14350603
  0
VERTEX
  8
0
 10
4.41148776
 20
8.14611125
  0
VERTEX
  8
0
 10
4.37782745
 20
8.16253679
  0
VERTEX
  8
0
 10
4.35216370
 20
8.19163221
  0
VERTEX
  8
0
 10
4.33979820
 20
8.22840538
  0
VERTEX
  8
0
 10
4.34240343
 20
8.26576883
  0
VERTEX
  8
0
 10
4.35882896
 20
8.29942914
  0
VERTEX
  8
0
 10
4.38792438
 20
8.32509289
  0
VERTEX
  8
0
 10
4.42469755
 20
8.33745839
  0
VERTEX
  8
0
 10
4.46206100
 20
8.33485316
  0
VERTEX
  8
0
 10
4.49572131
 20
8.31842763
  0
VERTEX
  8
0
 10
4.52138506
 20
8.28933221
  0
VERTEX
  8
0
 10
4.53375056
 20
8.25255904
  0
VERTEX
  8
0
 10
4.53114533
 20
8.21519559
  0
VERTEX
  8
0
 10
4.51471980
 20
8.18153528
  0
VERTEX
  8
0
 10
4.48562438
 20
8.15587153
  0
SEQEND
  0
POLYLINE
  8
Default_Layer
 66
   1
 39
0.000000
 70
    1
  0
VERTEX
  8
0
 10
4.34481797
 20
8.39975537
  0
VERTEX
  8
0
 10
4.30804480
 20
8.38738988
  0
VERTEX
  8
0
 10
4.27068135
 20
8.38999510
  0
VERTEX
  8
0
 10
4.23702104
 20
8.40642063
  0
VERTEX
  8
0
 10
4.21135729
 20
8.43551606
  0
VERTEX
  8
0
 10
4.19899179
 20
8.47228923
  0
VERTEX
  8
0
 10
4.20159702
 20
8.50965268
  0
VERTEX
  8
0
 10
4.21802255
 20
8.54331299
  0
VERTEX
  8
0
 10
4.24711797
 20
8.56897674
  0
VERTEX
  8
0
 10
4.28389114
 20
8.58134224
  0
VERTEX
  8
0
 10
4.32125459
 20
8.57873701
  0
VERTEX
  8
0
 10
4.35491490
 20
8.56231148
  0
VERTEX
  8
0
 10
4.38057866
 20
8.53321606
  0
VERTEX
  8
0
 10
4.39294415
 20
8.49644288
  0
VERTEX
  8
0
 10
4.39033893
 20
8.45907943
  0
VERTEX
  8
0
 10
4.37391339
 20
8.42541912
  0
VERTEX
  8
0
 10
4.34481797
 20
8.39975537
  0
SEQEND
  0
POLYLINE
  8
Default_Layer
 66
   1
 39
0.000000
 70
    1
  0
VERTEX
  8
0
 10
4.20401157
 20
8.64363922
  0
VERTEX
  8
0
 10
4.16723840
 20
8.63127372
  0
VERTEX
  8
0
 10
4.12987495
 20
8.63387895
  0
VERTEX
  8
0
 10
4.09621464
 20
8.65030448
  0
VERTEX
  8
0
 10
4.07055089
 20
8.67939990
  0
VERTEX
  8
0
 10
4.05818539
 20
8.71617307
  0
VERTEX
  8
0
 10
4.06079061
 20
8.75353652
  0
VERTEX
  8
0
 10
4.07721615
 20
8.78719683
  0
VERTEX
  8
0
 10
4.10631157
 20
8.81286059
  0
VERTEX
  8
0
 10
4.14308474
 20
8.82522608
  0
VERTEX
  8
0
 10
4.18044819
 20
8.82262086
  0
VERTEX
  8
0
 10
4.21410850
 20
8.80619532
  0
VERTEX
  8
0
 10
4.23977225
 20
8.77709990
  0
VERTEX
  8
0
 10
4.25213775
 20
8.74032673
  0
VERTEX
  8
0
 10
4.24953252
 20
8.70296328
  0
VERTEX
  8
0
 10
4.23310699
 20
8.66930297
  0
VERTEX
  8
0
 10
4.20401157
 20
8.64363922
  0
SEQEND
  0
POLYLINE
  8
Default_Layer
 66
   1
 39
0.000000
 70
    1
  0
VERTEX
  8
0
 10
4.06320516
 20
8.88752307
  0
VERTEX
  8
0
 10
4.02643199
 20
8.87515757
  0
VERTEX
  8
0
 10
3.98906854
 20
8.87776280
  0
VERTEX
  8
0
 10
3.95540823
 20
8.89418833
  0
VERTEX
  8
0
 10
3.92974448
 20
8.92328375
  0
VERTEX
  8
0
 10
3.91737898
 20
8.96005692
  0
VERTEX
  8
0
 10
3.91998421
 20
8.99742037
  0
VERTEX
  8
0
 10
3.93640974
 20
9.03108068
  0
VERTEX
  8
0
 10
3.96550516
 20
9.05674443
  0
VERTEX
  8
0
 10
4.00227833
 20
9.06910993
  0
VERTEX
  8
0
 10
4.03964178
 20
9.06650471
  0
VERTEX
  8
0
 10
4.07330209
 20
9.05007917
  0
VERTEX
  8
0
 10
4.09896584
 20
9.02098375
  0
VERTEX
  8
0
 10
4.11133134
 20
8.98421058
  0
VERTEX
  8
0
 10
4.10872612
 20
8.94684713
  0
VERTEX
  8
0
 10
4.09230058
 20
8.91318682
  0
VERTEX
  8
0
 10
4.06320516
 20
8.88752307
  0
SEQEND
  0
POLYLINE
  8
Default_Layer
 66
   1
 39
0.000000
 70
    1
  0
VERTEX
  8
0
 10
3.95519353
 20
9.25379758
  0
VERTEX
  8
0
 10
3.96755903
 20
9.21702441
  0
VERTEX
  8
0
 10
3.96495380
 20
9.17966096
  0
VERTEX
  8
0
 10
3.94852827
 20
9.14600065
  0
VERTEX
  8
0
 10
3.91943285
 20
9.12033689
  0
VERTEX
  8
0
 10
3.88265967
 20
9.10797140
  0
VERTEX
  8
0
 10
3.84529622
 20
9.11057662
  0
VERTEX
  8
0
 10
3.81163592
 20
9.12700216
  0
VERTEX
  8
0
 10
3.78597216
 20
9.15609758
  0
VERTEX
  8
0
 10
3.77360667
 20
9.19287075
  0
VERTEX
  8
0
 10
3.77621189
 20
9.23023420
  0
VERTEX
  8
0
 10
3.79263742
 20
9.26389451
  0
VERTEX
  8
0
 10
3.82173285
 20
9.28955826
  0
VERTEX
  8
0
 10
3.85850602
 20
9.30192376
  0
VERTEX
  8
0
 10
3.89586947
 20
9.29931853
  0
VERTEX
  8
0
 10
3.92952978
 20
9.28289300
  0
VERTEX
  8
0
 10
3.95519353
 20
9.25379758
  0
SEQEND
  0
POLYLINE
  8
Default_Layer
 66
   1
 39
0.000000
 70
    1
  0
VERTEX
  8
0
 10
3.71132170
 20
9.11299811
  0
VERTEX
  8
0
 10
3.72368720
 20
9.07622494
  0
VERTEX
  8
0
 10
3.72108197
 20
9.03886149
  0
VERTEX
  8
0
 10
3.70465644
 20
9.00520118
  0
VERTEX
  8
0
 10
3.67556102
 20
8.97953743
  0
VERTEX
  8
0
 10
3.63878784
 20
8.96717193
  0
VERTEX
  8
0
 10
3.60142440
 20
8.96977716
  0
VERTEX
  8
0
 10
3.56776409
 20
8.98620269
  0
VERTEX
  8
0
 10
3.54210033
 20
9.01529811
  0
VERTEX
  8
0
 10
3.52973484
 20
9.05207128
  0
VERTEX
  8
0
 10
3.53234006
 20
9.08943473
  0
VERTEX
  8
0
 10
3.54876560
 20
9.12309504
  0
VERTEX
  8
0
 10
3.57786102
 20
9.14875879
  0
VERTEX
  8
0
 10
3.61463419
 20
9.16112429
  0
VERTEX
  8
0
 10
3.65199764
 20
9.15851906
  0
VERTEX
  8
0
 10
3.68565795
 20
9.14209353
  0
VERTEX
  8
0
 10
3.71132170
 20
9.11299811
  0
SEQEND
  0
POLYLINE
  8
Default_Layer
 66
   1
 39
0.000000
 70
    1
  0
VERTEX
  8
0
 10
3.46744987
 20
8.97219864
  0
VERTEX
  8
0
 10
3.47981537
 20
8.93542547
  0
VERTEX
  8
0
 10
3.47721014
 20
8.89806202
  0
VERTEX
  8
0
 10
3.46078461
 20
8.86440171
  0
VERTEX
  8
0
 10
3.43168919
 20
8.83873796
  0
VERTEX
  8
0
 10
3.39491602
 20
8.82637246
  0
VERTEX
  8
0
 10
3.35755257
 20
8.82897769
  0
VERTEX
  8
0
 10
3.32389226
 20
8.84540322
  0
VERTEX
  8
0
 10
3.29822850
 20
8.87449864
  0
VERTEX
  8
0
 10
3.28586301
 20
8.91127181
  0
VERTEX
  8
0
 10
3.28846823
 20
8.94863526
  0
VERTEX
  8
0
 10
3.30489377
 20
8.98229557
  0
VERTEX
  8
0
 10
3.33398919
 20
9.00795933
  0
VERTEX
  8
0
 10
3.37076236
 20
9.02032482
  0
VERTEX
  8
0
 10
3.40812581
 20
9.01771960
  0
VERTEX
  8
0
 10
3.44178612
 20
9.00129406
  0
VERTEX
  8
0
 10
3.46744987
 20
8.97219864
  0
SEQEND
  0
POLYLINE
  8
Default_Layer
 66
   1
 39
0.000000
 70
    1
  0
VERTEX
  8
0
 10
3.22357804
 20
8.83139918
  0
VERTEX
  8
0
 10
3.23594354
 20
8.79462601
  0
VERTEX
  8
0
 10
3.23333831
 20
8.75726256
  0
VERTEX
  8
0
 10
3.21691278
 20
8.72360225
  0
VERTEX
  8
0
 10
3.18781736
 20
8.69793849
  0
VERTEX
  8
0
 10
3.15104419
 20
8.68557300
  0
VERTEX
  8
0
 10
3.11368074
 20
8.68817822
  0
VERTEX
  8
0
 10
3.08002043
 20
8.70460376
  0
VERTEX
  8
0
 10
3.05435667
 20
8.73369918
  0
VERTEX
  8
0
 10
3.04199118
 20
8.77047235
  0
VERTEX
  8
0
 10
3.04459640
 20
8.80783580
  0
VERTEX
  8
0
 10
3.06102194
 20
8.84149611
  0
VERTEX
  8
0
 10
3.09011736
 20
8.86715986
  0
VERTEX
  8
0
 10
3.12689053
 20
8.87952536
  0
VERTEX
  8
0
 10
3.16425398
 20
8.87692013
  0
VERTEX
  8
0
 10
3.19791429
 20
8.86049460
  0
VERTEX
  8
0
 10
3.22357804
 20
8.83139918
  0
SEQEND
  0
POLYLINE
  8
Default_Layer
 66
   1
 39
0.000000
 70
    1
  0
VERTEX
  8
0
 10
2.98146068
 20
8.69161266
  0
VERTEX
  8
0
 10
2.99382618
 20
8.65483948
  0
VERTEX
  8
0
 10
2.99122095
 20
8.61747604
  0
VERTEX
  8
0
 10
2.97479542
 20
8.58381573
  0
VERTEX
  8
0
 10
2.94570000
 20
8.55815197
  0
VERTEX
  8
0
 10
2.90892683
 20
8.54578648
  0
VERTEX
  8
0
 10
2.87156338
 20
8.54839170
  0
VERTEX
  8
0
 10
2.83790307
 20
8.56481724
  0
VERTEX
  8
0
 10
2.81223932
 20
8.59391266
  0
VERTEX
  8
0
 10
2.79987382
 20
8.63068583
  0
VERTEX
  8
0
 10
2.80247905
 20
8.66804928
  0
VERTEX
  8
0
 10
2.81890458
 20
8.70170959
  0
VERTEX
  8
0
 10
2.84800000
 20
8.72737334
  0
VERTEX
  8
0
 10
2.88477317
 20
8.73973884
  0
VERTEX
  8
0
 10
2.92213662
 20
8.73713361
  0
VERTEX
  8
0
 10
2.95579693
 20
8.72070808
  0
VERTEX
  8
0
 10
2.98146068
 20
8.69161266
  0
SEQEND
  0
POLYLINE
  8
Default_Layer
 66
   1
 39
0.000000
 70
    1
  0
VERTEX
  8
0
 10
2.73758885
 20
8.55081319
  0
VERTEX
  8
0
 10
2.74995435
 20
8.51404002
  0
VERTEX
  8
0
 10
2.74734912
 20
8.47667657
  0
VERTEX
  8
0
 10
2.73092359
 20
8.44301626
  0
VERTEX
  8
0
 10
2.70182817
 20
8.41735251
  0
VERTEX
  8
0
 10
2.66505500
 20
8.40498701
  0
VERTEX
  8
0
 10
2.62769155
 20
8.40759224
  0
VERTEX
  8
0
 10
2.59403124
 20
8.42401777
  0
VERTEX
  8
0
 10
2.56836749
 20
8.45311319
  0
VERTEX
  8
0
 10
2.55600199
 20
8.48988636
  0
VERTEX
  8
0
 10
2.55860722
 20
8.52724981
  0
VERTEX
  8
0
 10
2.57503275
 20
8.56091012
  0
VERTEX
  8
0
 10
2.60412817
 20
8.58657387
  0
VERTEX
  8
0
 10
2.64090134
 20
8.59893937
  0
VERTEX
  8
0
 10
2.67826479
 20
8.59633414
  0
VERTEX
  8
0
 10
2.71192510
 20
8.57990861
  0
VERTEX
  8
0
 10
2.73758885
 20
8.55081319
  0
SEQEND
  0
POLYLINE
  8
Default_Layer
 66
   1
 39
0.000000
 70
    1
  0
VERTEX
  8
0
 10
2.49371702
 20
8.41001372
  0
VERTEX
  8
0
 10
2.50608252
 20
8.37324055
  0
VERTEX
  8
0
 10
2.50347729
 20
8.33587710
  0
VERTEX
  8
0
 10
2.48705176
 20
8.30221679
  0
VERTEX
  8
0
 10
2.45795634
 20
8.27655304
  0
VERTEX
  8
0
 10
2.42118317
 20
8.26418754
  0
VERTEX
  8
0
 10
2.38381972
 20
8.26679277
  0
VERTEX
  8
0
 10
2.35015941
 20
8.28321830
  0
VERTEX
  8
0
 10
2.32449566
 20
8.31231372
  0
VERTEX
  8
0
 10
2.31213016
 20
8.34908689
  0
VERTEX
  8
0
 10
2.31473539
 20
8.38645034
  0
VERTEX
  8
0
 10
2.33116092
 20
8.42011065
  0
VERTEX
  8
0
 10
2.36025634
 20
8.44577440
  0
VERTEX
  8
0
 10
2.39702951
 20
8.45813990
  0
VERTEX
  8
0
 10
2.43439296
 20
8.45553468
  0
VERTEX
  8
0
 10
2.46805327
 20
8.43910914
  0
VERTEX
  8
0
 10
2.49371702
 20
8.41001372
  0
SEQEND
  0
POLYLINE
  8
Default_Layer
 66
   1
 39
0.000000
 70
    1
  0
VERTEX
  8
0
 10
2.24984519
 20
8.26921426
  0
VERTEX
  8
0
 10
2.26221069
 20
8.23244109
  0
VERTEX
  8
0
 10
2.25960546
 20
8.19507764
  0
VERTEX
  8
0
 10
2.24317993
 20
8.16141733
  0
VERTEX
  8
0
 10
2.21408451
 20
8.13575357
  0
VERTEX
  8
0
 10
2.17731134
 20
8.12338808
  0
VERTEX
  8
0
 10
2.13994789
 20
8.12599330
  0
VERTEX
  8
0
 10
2.10628758
 20
8.14241884
  0
VERTEX
  8
0
 10
2.08062383
 20
8.17151426
  0
VERTEX
  8
0
 10
2.06825833
 20
8.20828743
  0
VERTEX
  8
0
 10
2.07086356
 20
8.24565088
  0
VERTEX
  8
0
 10
2.08728909
 20
8.27931119
  0
VERTEX
  8
0
 10
2.11638451
 20
8.30497494
  0
VERTEX
  8
0
 10
2.15315768
 20
8.31734044
  0
VERTEX
  8
0
 10
2.19052113
 20
8.31473521
  0
VERTEX
  8
0
 10
2.22418144
 20
8.29830968
  0
VERTEX
  8
0
 10
2.24984519
 20
8.26921426
  0
SEQEND
  0
POLYLINE
  8
Default_Layer
 66
   1
 39
0.000000
 70
    1
  0
VERTEX
  8
0
 10
2.00597336
 20
8.12841479
  0
VERTEX
  8
0
 10
2.01833886
 20
8.09164162
  0
VERTEX
  8
0
 10
2.01573363
 20
8.05427817
  0
VERTEX
  8
0
 10
1.99930810
 20
8.02061786
  0
VERTEX
  8
0
 10
1.97021268
 20
7.99495411
  0
VERTEX
  8
0
 10
1.93343951
 20
7.98258861
  0
VERTEX
  8
0
 10
1.89607606
 20
7.98519384
  0
VERTEX
  8
0
 10
1.86241575
 20
8.00161937
  0
VERTEX
  8
0
 10
1.83675200
 20
8.03071479
  0
VERTEX
  8
0
 10
1.82438650
 20
8.06748796
  0
VERTEX
  8
0
 10
1.82699173
 20
8.10485141
  0
VERTEX
  8
0
 10
1.84341726
 20
8.13851172
  0
VERTEX
  8
0
 10
1.87251268
 20
8.16417547
  0
VERTEX
  8
0
 10
1.90928585
 20
8.17654097
  0
VERTEX
  8
0
 10
1.94664930
 20
8.17393574
  0
VERTEX
  8
0
 10
1.98030961
 20
8.15751021
  0
VERTEX
  8
0
 10
2.00597336
 20
8.12841479
  0
SEQEND
  0
POLYLINE
  8
Default_Layer
 66
   1
 39
0.000000
 70
    1
  0
VERTEX
  8
0
 10
2.00501668
 20
7.92251647
  0
VERTEX
  8
0
 10
2.04178985
 20
7.93488196
  0
VERTEX
  8
0
 10
2.07915330
 20
7.93227674
  0
VERTEX
  8
0
 10
2.11281361
 20
7.91585120
  0
VERTEX
  8
0
 10
2.13847736
 20
7.88675578
  0
VERTEX
  8
0
 10
2.15084286
 20
7.84998261
  0
VERTEX
  8
0
 10
2.14823763
 20
7.81261916
  0
VERTEX
  8
0
 10
2.13181210
 20
7.77895885
  0
VERTEX
  8
0
 10
2.10271668
 20
7.75329510
  0
VERTEX
  8
0
 10
2.06594351
 20
7.74092960
  0
VERTEX
  8
0
 10
2.02858006
 20
7.74353483
  0
VERTEX
  8
0
 10
1.99491975
 20
7.75996036
  0
VERTEX
  8
0
 10
1.96925600
 20
7.78905578
  0
VERTEX
  8
0
 10
1.95689050
 20
7.82582896
  0
VERTEX
  8
0
 10
1.95949572
 20
7.86319240
  0
VERTEX
  8
0
 10
1.97592126
 20
7.89685271
  0
VERTEX
  8
0
 10
2.00501668
 20
7.92251647
  0
SEQEND
  0
POLYLINE
  8
Default_Layer
 66
   1
 39
0.000000
 70
    1
  0
VERTEX
  8
0
 10
2.14582308
 20
7.67863262
  0
VERTEX
  8
0
 10
2.18259625
 20
7.69099812
  0
VERTEX
  8
0
 10
2.21995970
 20
7.68839289
  0
VERTEX
  8
0
 10
2.25362001
 20
7.67196736
  0
VERTEX
  8
0
 10
2.27928377
 20
7.64287194
  0
VERTEX
  8
0
 10
2.29164926
 20
7.60609877
  0
VERTEX
  8
0
 10
2.28904404
 20
7.56873532
  0
VERTEX
  8
0
 10
2.27261850
 20
7.53507501
  0
VERTEX
  8
0
 10
2.24352308
 20
7.50941125
  0
VERTEX
  8
0
 10
2.20674991
 20
7.49704576
  0
VERTEX
  8
0
 10
2.16938646
 20
7.49965098
  0
VERTEX
  8
0
 10
2.13572615
 20
7.51607652
  0
VERTEX
  8
0
 10
2.11006240
 20
7.54517194
  0
VERTEX
  8
0
 10
2.09769690
 20
7.58194511
  0
VERTEX
  8
0
 10
2.10030213
 20
7.61930856
  0
VERTEX
  8
0
 10
2.11672766
 20
7.65296887
  0
VERTEX
  8
0
 10
2.14582308
 20
7.67863262
  0
SEQEND
  0
POLYLINE
  8
Default_Layer
 66
   1
 39
0.000000
 70
    1
  0
VERTEX
  8
0
 10
2.28662949
 20
7.43474877
  0
VERTEX
  8
0
 10
2.32340266
 20
7.44711427
  0
VERTEX
  8
0
 10
2.36076611
 20
7.44450904
  0
VERTEX
  8
0
 10
2.39442642
 20
7.42808351
  0
VERTEX
  8
0
 10
2.42009017
 20
7.39898809
  0
VERTEX
  8
0
 10
2.43245567
 20
7.36221492
  0
VERTEX
  8
0
 10
2.42985044
 20
7.32485147
  0
VERTEX
  8
0
 10
2.41342491
 20
7.29119116
  0
VERTEX
  8
0
 10
2.38432949
 20
7.26552741
  0
VERTEX
  8
0
 10
2.34755632
 20
7.25316191
  0
VERTEX
  8
0
 10
2.31019287
 20
7.25576713
  0
VERTEX
  8
0
 10
2.27653256
 20
7.27219267
  0
VERTEX
  8
0
 10
2.25086881
 20
7.30128809
  0
VERTEX
  8
0
 10
2.23850331
 20
7.33806126
  0
VERTEX
  8
0
 10
2.24110854
 20
7.37542471
  0
VERTEX
  8
0
 10
2.25753407
 20
7.40908502
  0
VERTEX
  8
0
 10
2.28662949
 20
7.43474877
  0
SEQEND
  0
POLYLINE
  8
Default_Layer
 66
   1
 39
0.000000
 70
    1
  0
VERTEX
  8
0
 10
2.42743589
 20
7.19086492
  0
VERTEX
  8
0
 10
2.46420907
 20
7.20323042
  0
VERTEX
  8
0
 10
2.50157251
 20
7.20062519
  0
VERTEX
  8
0
 10
2.53523282
 20
7.18419966
  0
VERTEX
  8
0
 10
2.56089658
 20
7.15510424
  0
VERTEX
  8
0
 10
2.57326207
 20
7.11833107
  0
VERTEX
  8
0
 10
2.57065685
 20
7.08096762
  0
VERTEX
  8
0
 10
2.55423131
 20
7.04730731
  0
VERTEX
  8
0
 10
2.52513589
 20
7.02164356
  0
VERTEX
  8
0
 10
2.48836272
 20
7.00927806
  0
VERTEX
  8
0
 10
2.45099927
 20
7.01188329
  0
VERTEX
  8
0
 10
2.41733896
 20
7.02830882
  0
VERTEX
  8
0
 10
2.39167521
 20
7.05740424
  0
VERTEX
  8
0
 10
2.37930971
 20
7.09417741
  0
VERTEX
  8
0
 10
2.38191494
 20
7.13154086
  0
VERTEX
  8
0
 10
2.39834047
 20
7.16520117
  0
VERTEX
  8
0
 10
2.42743589
 20
7.19086492
  0
SEQEND
  0
POLYLINE
  8
Default_Layer
 66
   1
 39
0.000000
 70
    1
  0
VERTEX
  8
0
 10
2.56824230
 20
6.94698107
  0
VERTEX
  8
0
 10
2.60501547
 20
6.95934657
  0
VERTEX
  8
0
 10
2.64237892
 20
6.95674135
  0
VERTEX
  8
0
 10
2.67603923
 20
6.94031581
  0
VERTEX
  8
0
 10
2.70170298
 20
6.91122039
  0
VERTEX
  8
0
 10
2.71406848
 20
6.87444722
  0
VERTEX
  8
0
 10
2.71146325
 20
6.83708377
  0
VERTEX
  8
0
 10
2.69503772
 20
6.80342346
  0
VERTEX
  8
0
 10
2.66594230
 20
6.77775971
  0
VERTEX
  8
0
 10
2.62916913
 20
6.76539421
  0
VERTEX
  8
0
 10
2.59180568
 20
6.76799944
  0
VERTEX
  8
0
 10
2.55814537
 20
6.78442497
  0
VERTEX
  8
0
 10
2.53248162
 20
6.81352039
  0
VERTEX
  8
0
 10
2.52011612
 20
6.85029356
  0
VERTEX
  8
0
 10
2.52272135
 20
6.88765701
  0
VERTEX
  8
0
 10
2.53914688
 20
6.92131732
  0
VERTEX
  8
0
 10
2.56824230
 20
6.94698107
  0
SEQEND
  0
POLYLINE
  8
Default_Layer
 66
   1
 39
0.000000
 70
    1
  0
VERTEX
  8
0
 10
2.70904871
 20
6.70309723
  0
VERTEX
  8
0
 10
2.74582188
 20
6.71546272
  0
VERTEX
  8
0
 10
2.78318533
 20
6.71285750
  0
VERTEX
  8
0
 10
2.81684564
 20
6.69643196
  0
VERTEX
  8
0
 10
2.84250939
 20
6.66733654
  0
VERTEX
  8
0
 10
2.85487488
 20
6.63056337
  0
VERTEX
  8
0
 10
2.85226966
 20
6.59319992
  0
VERTEX
  8
0
 10
2.83584413
 20
6.55953961
  0
VERTEX
  8
0
 10
2.80674871
 20
6.53387586
  0
VERTEX
  8
0
 10
2.76997553
 20
6.52151036
  0
VERTEX
  8
0
 10
2.73261208
 20
6.52411559
  0
VERTEX
  8
0
 10
2.69895177
 20
6.54054112
  0
VERTEX
  8
0
 10
2.67328802
 20
6.56963654
  0
VERTEX
  8
0
 10
2.66092253
 20
6.60640971
  0
VERTEX
  8
0
 10
2.66352775
 20
6.64377316
  0
VERTEX
  8
0
 10
2.67995328
 20
6.67743347
  0
VERTEX
  8
0
 10
2.70904871
 20
6.70309723
  0
SEQEND
  0
POLYLINE
  8
Default_Layer
 66
   1
 39
0.000000
 70
    1
  0
VERTEX
  8
0
 10
2.84985511
 20
6.45921338
  0
VERTEX
  8
0
 10
2.88662828
 20
6.47157888
  0
VERTEX
  8
0
 10
2.92399173
 20
6.46897365
  0
VERTEX
  8
0
 10
2.95765204
 20
6.45254812
  0
VERTEX
  8
0
 10
2.98331579
 20
6.42345270
  0
VERTEX
  8
0
 10
2.99568129
 20
6.38667952
  0
VERTEX
  8
0
 10
2.99307606
 20
6.34931607
  0
VERTEX
  8
0
 10
2.97665053
 20
6.31565576
  0
VERTEX
  8
0
 10
2.94755511
 20
6.28999201
  0
VERTEX
  8
0
 10
2.91078194
 20
6.27762652
  0
VERTEX
  8
0
 10
2.87341849
 20
6.28023174
  0
VERTEX
  8
0
 10
2.83975818
 20
6.29665727
  0
VERTEX
  8
0
 10
2.81409443
 20
6.32575270
  0
VERTEX
  8
0
 10
2.80172893
 20
6.36252587
  0
VERTEX
  8
0
 10
2.80433416
 20
6.39988932
  0
VERTEX
  8
0
 10
2.82075969
 20
6.43354963
  0
VERTEX
  8
0
 10
2.84985511
 20
6.45921338
  0
SEQEND
  0
POLYLINE
  8
Default_Layer
 66
   1
 39
0.000000
 70
    1
  0
VERTEX
  8
0
 10
3.13619852
 20
6.13247341
  0
VERTEX
  8
0
 10
3.12852077
 20
6.09444416
  0
VERTEX
  8
0
 10
3.10758285
 20
6.06338907
  0
VERTEX
  8
0
 10
3.07652777
 20
6.04245116
  0
VERTEX
  8
0
 10
3.03849852
 20
6.03477341
  0
VERTEX
  8
0
 10
3.00046927
 20
6.04245116
  0
VERTEX
  8
0
 10
2.96941419
 20
6.06338907
  0
VERTEX
  8
0
 10
2.94847627
 20
6.09444416
  0
VERTEX
  8
0
 10
2.94079852
 20
6.13247341
  0
VERTEX
  8
0
 10
2.94847627
 20
6.17050266
  0
VERTEX
  8
0
 10
2.96941419
 20
6.20155774
  0
VERTEX
  8
0
 10
3.00046927
 20
6.22249566
  0
VERTEX
  8
0
 10
3.03849852
 20
6.23017341
  0
VERTEX
  8
0
 10
3.07652777
 20
6.22249566
  0
VERTEX
  8
0
 10
3.10758285
 20
6.20155774
  0
VERTEX
  8
0
 10
3.12852077
 20
6.17050266
  0
VERTEX
  8
0
 10
3.13619852
 20
6.13247341
  0
SEQEND
  0
POLYLINE
  8
Default_Layer
 66
   1
 39
0.000000
 70
    1
  0
VERTEX
  8
0
 10
2.85458571
 20
6.13247341
  0
VERTEX
  8
0
 10
2.84690796
 20
6.09444416
  0
VERTEX
  8
0
 10
2.82597004
 20
6.06338907
  0
VERTEX
  8
0
 10
2.79491496
 20
6.04245116
  0
VERTEX
  8
0
 10
2.75688571
 20
6.03477341
  0
VERTEX
  8
0
 10
2.71885646
 20
6.04245116
  0
VERTEX
  8
0
 10
2.68780138
 20
6.06338907
  0
VERTEX
  8
0
 10
2.66686346
 20
6.09444416
  0
VERTEX
  8
0
 10
2.65918571
 20
6.13247341
  0
VERTEX
  8
0
 10
2.66686346
 20
6.17050266
  0
VERTEX
  8
0
 10
2.68780138
 20
6.20155774
  0
VERTEX
  8
0
 10
2.71885646
 20
6.22249566
  0
VERTEX
  8
0
 10
2.75688571
 20
6.23017341
  0
VERTEX
  8
0
 10
2.79491496
 20
6.22249566
  0
VERTEX
  8
0
 10
2.82597004
 20
6.20155774
  0
VERTEX
  8
0
 10
2.84690796
 20
6.17050266
  0
VERTEX
  8
0
 10
2.85458571
 20
6.13247341
  0
SEQEND
  0
POLYLINE
  8
Default_Layer
 66
   1
 39
0.000000
 70
    1
  0
VERTEX
  8
0
 10
2.57297290
 20
6.13247341
  0
VERTEX
  8
0
 10
2.56529515
 20
6.09444416
  0
VERTEX
  8
0
 10
2.54435723
 20
6.06338907
  0
VERTEX
  8
0
 10
2.51330215
 20
6.04245116
  0
VERTEX
  8
0
 10
2.47527290
 20
6.03477341
  0
VERTEX
  8
0
 10
2.43724365
 20
6.04245116
  0
VERTEX
  8
0
 10
2.40618857
 20
6.06338907
  0
VERTEX
  8
0
 10
2.38525065
 20
6.09444416
  0
VERTEX
  8
0
 10
2.37757290
 20
6.13247341
  0
VERTEX
  8
0
 10
2.38525065
 20
6.17050266
  0
VERTEX
  8
0
 10
2.40618857
 20
6.20155774
  0
VERTEX
  8
0
 10
2.43724365
 20
6.22249566
  0
VERTEX
  8
0
 10
2.47527290
 20
6.23017341
  0
VERTEX
  8
0
 10
2.51330215
 20
6.22249566
  0
VERTEX
  8
0
 10
2.54435723
 20
6.20155774
  0
VERTEX
  8
0
 10
2.56529515
 20
6.17050266
  0
VERTEX
  8
0
 10
2.57297290
 20
6.13247341
  0
SEQEND
  0
POLYLINE
  8
Default_Layer
 66
   1
 39
0.000000
 70
    1
  0
VERTEX
  8
0
 10
2.29136009
 20
6.13247341
  0
VERTEX
  8
0
 10
2.28368234
 20
6.09444416
  0
VERTEX
  8
0
 10
2.26274442
 20
6.06338907
  0
VERTEX
  8
0
 10
2.23168934
 20
6.04245116
  0
VERTEX
  8
0
 10
2.19366009
 20
6.03477341
  0
VERTEX
  8
0
 10
2.15563084
 20
6.04245116
  0
VERTEX
  8
0
 10
2.12457576
 20
6.06338907
  0
VERTEX
  8
0
 10
2.10363784
 20
6.09444416
  0
VERTEX
  8
0
 10
2.09596009
 20
6.13247341
  0
VERTEX
  8
0
 10
2.10363784
 20
6.17050266
  0
VERTEX
  8
0
 10
2.12457576
 20
6.20155774
  0
VERTEX
  8
0
 10
2.15563084
 20
6.22249566
  0
VERTEX
  8
0
 10
2.19366009
 20
6.23017341
  0
VERTEX
  8
0
 10
2.23168934
 20
6.22249566
  0
VERTEX
  8
0
 10
2.26274442
 20
6.20155774
  0
VERTEX
  8
0
 10
2.28368234
 20
6.17050266
  0
VERTEX
  8
0
 10
2.29136009
 20
6.13247341
  0
SEQEND
  0
POLYLINE
  8
Default_Layer
 66
   1
 39
0.000000
 70
    1
  0
VERTEX
  8
0
 10
2.00974728
 20
6.13247341
  0
VERTEX
  8
0
 10
2.00206953
 20
6.09444416
  0
VERTEX
  8
0
 10
1.98113161
 20
6.06338907
  0
VERTEX
  8
0
 10
1.95007653
 20
6.04245116
  0
VERTEX
  8
0
 10
1.91204728
 20
6.03477341
  0
VERTEX
  8
0
 10
1.87401803
 20
6.04245116
  0
VERTEX
  8
0
 10
1.84296294
 20
6.06338907
  0
VERTEX
  8
0
 10
1.82202503
 20
6.09444416
  0
VERTEX
  8
0
 10
1.81434728
 20
6.13247341
  0
VERTEX
  8
0
 10
1.82202503
 20
6.17050266
  0
VERTEX
  8
0
 10
1.84296294
 20
6.20155774
  0
VERTEX
  8
0
 10
1.87401803
 20
6.22249566
  0
VERTEX
  8
0
 10
1.91204728
 20
6.23017341
  0
VERTEX
  8
0
 10
1.95007653
 20
6.22249566
  0
VERTEX
  8
0
 10
1.98113161
 20
6.20155774
  0
VERTEX
  8
0
 10
2.00206953
 20
6.17050266
  0
VERTEX
  8
0
 10
2.00974728
 20
6.13247341
  0
SEQEND
  0
POLYLINE
  8
Default_Layer
 66
   1
 39
0.000000
 70
    1
  0
VERTEX
  8
0
 10
1.72813447
 20
6.13247341
  0
VERTEX
  8
0
 10
1.72045672
 20
6.09444416
  0
VERTEX
  8
0
 10
1.69951880
 20
6.06338907
  0
VERTEX
  8
0
 10
1.66846372
 20
6.04245116
  0
VERTEX
  8
0
 10
1.63043447
 20
6.03477341
  0
VERTEX
  8
0
 10
1.59240522
 20
6.04245116
  0
VERTEX
  8
0
 10
1.56135013
 20
6.06338907
  0
VERTEX
  8
0
 10
1.54041222
 20
6.09444416
  0
VERTEX
  8
0
 10
1.53273447
 20
6.13247341
  0
VERTEX
  8
0
 10
1.54041222
 20
6.17050266
  0
VERTEX
  8
0
 10
1.56135013
 20
6.20155774
  0
VERTEX
  8
0
 10
1.59240522
 20
6.22249566
  0
VERTEX
  8
0
 10
1.63043447
 20
6.23017341
  0
VERTEX
  8
0
 10
1.66846372
 20
6.22249566
  0
VERTEX
  8
0
 10
1.69951880
 20
6.20155774
  0
VERTEX
  8
0
 10
1.72045672
 20
6.17050266
  0
VERTEX
  8
0
 10
1.72813447
 20
6.13247341
  0
SEQEND
  0
POLYLINE
  8
Default_Layer
 66
   1
 39
0.000000
 70
    1
  0
VERTEX
  8
0
 10
1.44652166
 20
6.13247341
  0
VERTEX
  8
0
 10
1.43884391
 20
6.09444416
  0
VERTEX
  8
0
 10
1.41790599
 20
6.06338907
  0
VERTEX
  8
0
 10
1.38685090
 20
6.04245116
  0
VERTEX
  8
0
 10
1.34882166
 20
6.03477341
  0
VERTEX
  8
0
 10
1.31079241
 20
6.04245116
  0
VERTEX
  8
0
 10
1.27973732
 20
6.06338907
  0
VERTEX
  8
0
 10
1.25879941
 20
6.09444416
  0
VERTEX
  8
0
 10
1.25112166
 20
6.13247341
  0
VERTEX
  8
0
 10
1.25879941
 20
6.17050266
  0
VERTEX
  8
0
 10
1.27973732
 20
6.20155774
  0
VERTEX
  8
0
 10
1.31079241
 20
6.22249566
  0
VERTEX
  8
0
 10
1.34882166
 20
6.23017341
  0
VERTEX
  8
0
 10
1.38685090
 20
6.22249566
  0
VERTEX
  8
0
 10
1.41790599
 20
6.20155774
  0
VERTEX
  8
0
 10
1.43884391
 20
6.17050266
  0
VERTEX
  8
0
 10
1.44652166
 20
6.13247341
  0
SEQEND
  0
POLYLINE
  8
Default_Layer
 66
   1
 39
0.000000
 70
    1
  0
VERTEX
  8
0
 10
1.16490884
 20
6.13247341
  0
VERTEX
  8
0
 10
1.15723109
 20
6.09444416
  0
VERTEX
  8
0
 10
1.13629318
 20
6.06338907
  0
VERTEX
  8
0
 10
1.10523809
 20
6.04245116
  0
VERTEX
  8
0
 10
1.06720884
 20
6.03477341
  0
VERTEX
  8
0
 10
1.02917960
 20
6.04245116
  0
VERTEX
  8
0
 10
0.99812451
 20
6.06338907
  0
VERTEX
  8
0
 10
0.97718660
 20
6.09444416
  0
VERTEX
  8
0
 10
0.96950884
 20
6.13247341
  0
VERTEX
  8
0
 10
0.97718660
 20
6.17050266
  0
VERTEX
  8
0
 10
0.99812451
 20
6.20155774
  0
VERTEX
  8
0
 10
1.02917960
 20
6.22249566
  0
VERTEX
  8
0
 10
1.06720884
 20
6.23017341
  0
VERTEX
  8
0
 10
1.10523809
 20
6.22249566
  0
VERTEX
  8
0
 10
1.13629318
 20
6.20155774
  0
VERTEX
  8
0
 10
1.15723109
 20
6.17050266
  0
VERTEX
  8
0
 10
1.16490884
 20
6.13247341
  0
SEQEND
  0
POLYLINE
  8
Default_Layer
 66
   1
 39
0.000000
 70
    1
  0
VERTEX
  8
0
 10
0.79370000
 20
6.22206984
  0
VERTEX
  8
0
 10
0.83172925
 20
6.21439209
  0
VERTEX
  8
0
 10
0.86278433
 20
6.19345417
  0
VERTEX
  8
0
 10
0.88372225
 20
6.16239909
  0
VERTEX
  8
0
 10
0.89140000
 20
6.12436984
  0
VERTEX
  8
0
 10
0.88372225
 20
6.08634059
  0
VERTEX
  8
0
 10
0.86278433
 20
6.05528551
  0
VERTEX
  8
0
 10
0.83172925
 20
6.03434759
  0
VERTEX
  8
0
 10
0.79370000
 20
6.02666984
  0
VERTEX
  8
0
 10
0.75567075
 20
6.03434759
  0
VERTEX
  8
0
 10
0.72461567
 20
6.05528551
  0
VERTEX
  8
0
 10
0.70367775
 20
6.08634059
  0
VERTEX
  8
0
 10
0.69600000
 20
6.12436984
  0
VERTEX
  8
0
 10
0.70367775
 20
6.16239909
  0
VERTEX
  8
0
 10
0.72461567
 20
6.19345417
  0
VERTEX
  8
0
 10
0.75567075
 20
6.21439209
  0
VERTEX
  8
0
 10
0.79370000
 20
6.22206984
  0
SEQEND
  0
POLYLINE
  8
Default_Layer
 66
   1
 39
0.000000
 70
    1
  0
VERTEX
  8
0
 10
0.79370000
 20
5.94047091
  0
VERTEX
  8
0
 10
0.83172925
 20
5.93279316
  0
VERTEX
  8
0
 10
0.86278433
 20
5.91185524
  0
VERTEX
  8
0
 10
0.88372225
 20
5.88080016
  0
VERTEX
  8
0
 10
0.89140000
 20
5.84277091
  0
VERTEX
  8
0
 10
0.88372225
 20
5.80474166
  0
VERTEX
  8
0
 10
0.86278433
 20
5.77368658
  0
VERTEX
  8
0
 10
0.83172925
 20
5.75274866
  0
VERTEX
  8
0
 10
0.79370000
 20
5.74507091
  0
VERTEX
  8
0
 10
0.75567075
 20
5.75274866
  0
VERTEX
  8
0
 10
0.72461567
 20
5.77368658
  0
VERTEX
  8
0
 10
0.70367775
 20
5.80474166
  0
VERTEX
  8
0
 10
0.69600000
 20
5.84277091
  0
VERTEX
  8
0
 10
0.70367775
 20
5.88080016
  0
VERTEX
  8
0
 10
0.72461567
 20
5.91185524
  0
VERTEX
  8
0
 10
0.75567075
 20
5.93279316
  0
VERTEX
  8
0
 10
0.79370000
 20
5.94047091
  0
SEQEND
  0
POLYLINE
  8
Default_Layer
 66
   1
 39
0.000000
 70
    1
  0
VERTEX
  8
0
 10
0.79370000
 20
5.65887197
  0
VERTEX
  8
0
 10
0.83172925
 20
5.65119422
  0
VERTEX
  8
0
 10
0.86278433
 20
5.63025631
  0
VERTEX
  8
0
 10
0.88372225
 20
5.59920122
  0
VERTEX
  8
0
 10
0.89140000
 20
5.56117197
  0
VERTEX
  8
0
 10
0.88372225
 20
5.52314273
  0
VERTEX
  8
0
 10
0.86278433
 20
5.49208764
  0
VERTEX
  8
0
 10
0.83172925
 20
5.47114973
  0
VERTEX
  8
0
 10
0.79370000
 20
5.46347197
  0
VERTEX
  8
0
 10
0.75567075
 20
5.47114973
  0
VERTEX
  8
0
 10
0.72461567
 20
5.49208764
  0
VERTEX
  8
0
 10
0.70367775
 20
5.52314273
  0
VERTEX
  8
0
 10
0.69600000
 20
5.56117197
  0
VERTEX
  8
0
 10
0.70367775
 20
5.59920122
  0
VERTEX
  8
0
 10
0.72461567
 20
5.63025631
  0
VERTEX
  8
0
 10
0.75567075
 20
5.65119422
  0
VERTEX
  8
0
 10
0.79370000
 20
5.65887197
  0
SEQEND
  0
POLYLINE
  8
Default_Layer
 66
   1
 39
0.000000
 70
    1
  0
VERTEX
  8
0
 10
0.79370000
 20
5.37727304
  0
VERTEX
  8
0
 10
0.83172925
 20
5.36959529
  0
VERTEX
  8
0
 10
0.86278433
 20
5.34865737
  0
VERTEX
  8
0
 10
0.88372225
 20
5.31760229
  0
VERTEX
  8
0
 10
0.89140000
 20
5.27957304
  0
VERTEX
  8
0
 10
0.88372225
 20
5.24154379
  0
VERTEX
  8
0
 10
0.86278433
 20
5.21048871
  0
VERTEX
  8
0
 10
0.83172925
 20
5.18955079
  0
VERTEX
  8
0
 10
0.79370000
 20
5.18187304
  0
VERTEX
  8
0
 10
0.75567075
 20
5.18955079
  0
VERTEX
  8
0
 10
0.72461567
 20
5.21048871
  0
VERTEX
  8
0
 10
0.70367775
 20
5.24154379
  0
VERTEX
  8
0
 10
0.69600000
 20
5.27957304
  0
VERTEX
  8
0
 10
0.70367775
 20
5.31760229
  0
VERTEX
  8
0
 10
0.72461567
 20
5.34865737
  0
VERTEX
  8
0
 10
0.75567075
 20
5.36959529
  0
VERTEX
  8
0
 10
0.79370000
 20
5.37727304
  0
SEQEND
  0
POLYLINE
  8
Default_Layer
 66
   1
 39
0.000000
 70
    1
  0
VERTEX
  8
0
 10
0.79370000
 20
5.09770000
  0
VERTEX
  8
0
 10
0.83172925
 20
5.09002225
  0
VERTEX
  8
0
 10
0.86278433
 20
5.06908433
  0
VERTEX
  8
0
 10
0.88372225
 20
5.03802925
  0
VERTEX
  8
0
 10
0.89140000
 20
5.00000000
  0
VERTEX
  8
0
 10
0.88372225
 20
4.96197075
  0
VERTEX
  8
0
 10
0.86278433
 20
4.93091567
  0
VERTEX
  8
0
 10
0.83172925
 20
4.90997775
  0
VERTEX
  8
0
 10
0.79370000
 20
4.90230000
  0
VERTEX
  8
0
 10
0.75567075
 20
4.90997775
  0
VERTEX
  8
0
 10
0.72461567
 20
4.93091567
  0
VERTEX
  8
0
 10
0.70367775
 20
4.96197075
  0
VERTEX
  8
0
 10
0.69600000
 20
5.00000000
  0
VERTEX
  8
0
 10
0.70367775
 20
5.03802925
  0
VERTEX
  8
0
 10
0.72461567
 20
5.06908433
  0
VERTEX
  8
0
 10
0.75567075
 20
5.09002225
  0
VERTEX
  8
0
 10
0.79370000
 20
5.09770000
  0
SEQEND
  0
POLYLINE
  8
Default_Layer
 66
   1
 39
0.000000
 70
    1
  0
VERTEX
  8
0
 10
0.79370000
 20
4.81610107
  0
VERTEX
  8
0
 10
0.83172925
 20
4.80842332
  0
VERTEX
  8
0
 10
0.86278433
 20
4.78748540
  0
VERTEX
  8
0
 10
0.88372225
 20
4.75643032
  0
VERTEX
  8
0
 10
0.89140000
 20
4.71840107
  0
VERTEX
  8
0
 10
0.88372225
 20
4.68037182
  0
VERTEX
  8
0
 10
0.86278433
 20
4.64931673
  0
VERTEX
  8
0
 10
0.83172925
 20
4.62837882
  0
VERTEX
  8
0
 10
0.79370000
 20
4.62070107
  0
VERTEX
  8
0
 10
0.75567075
 20
4.62837882
  0
VERTEX
  8
0
 10
0.72461567
 20
4.64931673
  0
VERTEX
  8
0
 10
0.70367775
 20
4.68037182
  0
VERTEX
  8
0
 10
0.69600000
 20
4.71840107
  0
VERTEX
  8
0
 10
0.70367775
 20
4.75643032
  0
VERTEX
  8
0
 10
0.72461567
 20
4.78748540
  0
VERTEX
  8
0
 10
0.75567075
 20
4.80842332
  0
VERTEX
  8
0
 10
0.79370000
 20
4.81610107
  0
SEQEND
  0
POLYLINE
  8
Default_Layer
 66
   1
 39
0.000000
 70
    1
  0
VERTEX
  8
0
 10
0.79370000
 20
4.53450213
  0
VERTEX
  8
0
 10
0.83172925
 20
4.52682438
  0
VERTEX
  8
0
 10
0.86278433
 20
4.50588647
  0
VERTEX
  8
0
 10
0.88372225
 20
4.47483138
  0
VERTEX
  8
0
 10
0.89140000
 20
4.43680213
  0
VERTEX
  8
0
 10
0.88372225
 20
4.39877288
  0
VERTEX
  8
0
 10
0.86278433
 20
4.36771780
  0
VERTEX
  8
0
 10
0.83172925
 20
4.34677988
  0
VERTEX
  8
0
 10
0.79370000
 20
4.33910213
  0
VERTEX
  8
0
 10
0.75567075
 20
4.34677988
  0
VERTEX
  8
0
 10
0.72461567
 20
4.36771780
  0
VERTEX
  8
0
 10
0.70367775
 20
4.39877288
  0
VERTEX
  8
0
 10
0.69600000
 20
4.43680213
  0
VERTEX
  8
0
 10
0.70367775
 20
4.47483138
  0
VERTEX
  8
0
 10
0.72461567
 20
4.50588647
  0
VERTEX
  8
0
 10
0.75567075
 20
4.52682438
  0
VERTEX
  8
0
 10
0.79370000
 20
4.53450213
  0
SEQEND
  0
POLYLINE
  8
Default_Layer
 66
   1
 39
0.000000
 70
    1
  0
VERTEX
  8
0
 10
0.79370000
 20
4.25290320
  0
VERTEX
  8
0
 10
0.83172925
 20
4.24522545
  0
VERTEX
  8
0
 10
0.86278433
 20
4.22428753
  0
VERTEX
  8
0
 10
0.88372225
 20
4.19323245
  0
VERTEX
  8
0
 10
0.89140000
 20
4.15520320
  0
VERTEX
  8
0
 10
0.88372225
 20
4.11717395
  0
VERTEX
  8
0
 10
0.86278433
 20
4.08611887
  0
VERTEX
  8
0
 10
0.83172925
 20
4.06518095
  0
VERTEX
  8
0
 10
0.79370000
 20
4.05750320
  0
VERTEX
  8
0
 10
0.75567075
 20
4.06518095
  0
VERTEX
  8
0
 10
0.72461567
 20
4.08611887
  0
VERTEX
  8
0
 10
0.70367775
 20
4.11717395
  0
VERTEX
  8
0
 10
0.69600000
 20
4.15520320
  0
VERTEX
  8
0
 10
0.70367775
 20
4.19323245
  0
VERTEX
  8
0
 10
0.72461567
 20
4.22428753
  0
VERTEX
  8
0
 10
0.75567075
 20
4.24522545
  0
VERTEX
  8
0
 10
0.79370000
 20
4.25290320
  0
SEQEND
  0
POLYLINE
  8
Default_Layer
 66
   1
 39
0.000000
 70
    1
  0
VERTEX
  8
0
 10
0.79370000
 20
3.97130427
  0
VERTEX
  8
0
 10
0.83172925
 20
3.96362652
  0
VERTEX
  8
0
 10
0.86278433
 20
3.94268860
  0
VERTEX
  8
0
 10
0.88372225
 20
3.91163352
  0
VERTEX
  8
0
 10
0.89140000
 20
3.87360427
  0
VERTEX
  8
0
 10
0.88372225
 20
3.83557502
  0
VERTEX
  8
0
 10
0.86278433
 20
3.80451993
  0
VERTEX
  8
0
 10
0.83172925
 20
3.78358202
  0
VERTEX
  8
0
 10
0.79370000
 20
3.77590427
  0
VERTEX
  8
0
 10
0.75567075
 20
3.78358202
  0
VERTEX
  8
0
 10
0.72461567
 20
3.80451993
  0
VERTEX
  8
0
 10
0.70367775
 20
3.83557502
  0
VERTEX
  8
0
 10
0.69600000
 20
3.87360427
  0
VERTEX
  8
0
 10
0.70367775
 20
3.91163352
  0
VERTEX
  8
0
 10
0.72461567
 20
3.94268860
  0
VERTEX
  8
0
 10
0.75567075
 20
3.96362652
  0
VERTEX
  8
0
 10
0.79370000
 20
3.97130427
  0
SEQEND
  0
POLYLINE
  8
Default_Layer
 66
   1
 39
0.000000
 70
    1
  0
VERTEX
  8
0
 10
0.97153484
 20
3.86752659
  0
VERTEX
  8
0
 10
0.97921259
 20
3.90555584
  0
VERTEX
  8
0
 10
1.00015050
 20
3.93661093
  0
VERTEX
  8
0
 10
1.03120559
 20
3.95754884
  0
VERTEX
  8
0
 10
1.06923484
 20
3.96522659
  0
VERTEX
  8
0
 10
1.10726409
 20
3.95754884
  0
VERTEX
  8
0
 10
1.13831917
 20
3.93661093
  0
VERTEX
  8
0
 10
1.15925709
 20
3.90555584
  0
VERTEX
  8
0
 10
1.16693484
 20
3.86752659
  0
VERTEX
  8
0
 10
1.15925709
 20
3.82949734
  0
VERTEX
  8
0
 10
1.13831917
 20
3.79844226
  0
VERTEX
  8
0
 10
1.10726409
 20
3.77750434
  0
VERTEX
  8
0
 10
1.06923484
 20
3.76982659
  0
VERTEX
  8
0
 10
1.03120559
 20
3.77750434
  0
VERTEX
  8
0
 10
1.00015050
 20
3.79844226
  0
VERTEX
  8
0
 10
0.97921259
 20
3.82949734
  0
VERTEX
  8
0
 10
0.97153484
 20
3.86752659
  0
SEQEND
  0
POLYLINE
  8
Default_Layer
 66
   1
 39
0.000000
 70
    1
  0
VERTEX
  8
0
 10
1.25314765
 20
3.86752659
  0
VERTEX
  8
0
 10
1.26082540
 20
3.90555584
  0
VERTEX
  8
0
 10
1.28176331
 20
3.93661093
  0
VERTEX
  8
0
 10
1.31281840
 20
3.95754884
  0
VERTEX
  8
0
 10
1.35084765
 20
3.96522659
  0
VERTEX
  8
0
 10
1.38887690
 20
3.95754884
  0
VERTEX
  8
0
 10
1.41993198
 20
3.93661093
  0
VERTEX
  8
0
 10
1.44086990
 20
3.90555584
  0
VERTEX
  8
0
 10
1.44854765
 20
3.86752659
  0
VERTEX
  8
0
 10
1.44086990
 20
3.82949734
  0
VERTEX
  8
0
 10
1.41993198
 20
3.79844226
  0
VERTEX
  8
0
 10
1.38887690
 20
3.77750434
  0
VERTEX
  8
0
 10
1.35084765
 20
3.76982659
  0
VERTEX
  8
0
 10
1.31281840
 20
3.77750434
  0
VERTEX
  8
0
 10
1.28176331
 20
3.79844226
  0
VERTEX
  8
0
 10
1.26082540
 20
3.82949734
  0
VERTEX
  8
0
 10
1.25314765
 20
3.86752659
  0
SEQEND
  0
POLYLINE
  8
Default_Layer
 66
   1
 39
0.000000
 70
    1
  0
VERTEX
  8
0
 10
1.53476046
 20
3.86752659
  0
VERTEX
  8
0
 10
1.54243821
 20
3.90555584
  0
VERTEX
  8
0
 10
1.56337613
 20
3.93661093
  0
VERTEX
  8
0
 10
1.59443121
 20
3.95754884
  0
VERTEX
  8
0
 10
1.63246046
 20
3.96522659
  0
VERTEX
  8
0
 10
1.67048971
 20
3.95754884
  0
VERTEX
  8
0
 10
1.70154479
 20
3.93661093
  0
VERTEX
  8
0
 10
1.72248271
 20
3.90555584
  0
VERTEX
  8
0
 10
1.73016046
 20
3.86752659
  0
VERTEX
  8
0
 10
1.72248271
 20
3.82949734
  0
VERTEX
  8
0
 10
1.70154479
 20
3.79844226
  0
VERTEX
  8
0
 10
1.67048971
 20
3.77750434
  0
VERTEX
  8
0
 10
1.63246046
 20
3.76982659
  0
VERTEX
  8
0
 10
1.59443121
 20
3.77750434
  0
VERTEX
  8
0
 10
1.56337613
 20
3.79844226
  0
VERTEX
  8
0
 10
1.54243821
 20
3.82949734
  0
VERTEX
  8
0
 10
1.53476046
 20
3.86752659
  0
SEQEND
  0
POLYLINE
  8
Default_Layer
 66
   1
 39
0.000000
 70
    1
  0
VERTEX
  8
0
 10
1.81637327
 20
3.86752659
  0
VERTEX
  8
0
 10
1.82405102
 20
3.90555584
  0
VERTEX
  8
0
 10
1.84498894
 20
3.93661093
  0
VERTEX
  8
0
 10
1.87604402
 20
3.95754884
  0
VERTEX
  8
0
 10
1.91407327
 20
3.96522659
  0
VERTEX
  8
0
 10
1.95210252
 20
3.95754884
  0
VERTEX
  8
0
 10
1.98315760
 20
3.93661093
  0
VERTEX
  8
0
 10
2.00409552
 20
3.90555584
  0
VERTEX
  8
0
 10
2.01177327
 20
3.86752659
  0
VERTEX
  8
0
 10
2.00409552
 20
3.82949734
  0
VERTEX
  8
0
 10
1.98315760
 20
3.79844226
  0
VERTEX
  8
0
 10
1.95210252
 20
3.77750434
  0
VERTEX
  8
0
 10
1.91407327
 20
3.76982659
  0
VERTEX
  8
0
 10
1.87604402
 20
3.77750434
  0
VERTEX
  8
0
 10
1.84498894
 20
3.79844226
  0
VERTEX
  8
0
 10
1.82405102
 20
3.82949734
  0
VERTEX
  8
0
 10
1.81637327
 20
3.86752659
  0
SEQEND
  0
POLYLINE
  8
Default_Layer
 66
   1
 39
0.000000
 70
    1
  0
VERTEX
  8
0
 10
2.09798608
 20
3.86752659
  0
VERTEX
  8
0
 10
2.10566383
 20
3.90555584
  0
VERTEX
  8
0
 10
2.12660175
 20
3.93661093
  0
VERTEX
  8
0
 10
2.15765683
 20
3.95754884
  0
VERTEX
  8
0
 10
2.19568608
 20
3.96522659
  0
VERTEX
  8
0
 10
2.23371533
 20
3.95754884
  0
VERTEX
  8
0
 10
2.26477041
 20
3.93661093
  0
VERTEX
  8
0
 10
2.28570833
 20
3.90555584
  0
VERTEX
  8
0
 10
2.29338608
 20
3.86752659
  0
VERTEX
  8
0
 10
2.28570833
 20
3.82949734
  0
VERTEX
  8
0
 10
2.26477041
 20
3.79844226
  0
VERTEX
  8
0
 10
2.23371533
 20
3.77750434
  0
VERTEX
  8
0
 10
2.19568608
 20
3.76982659
  0
VERTEX
  8
0
 10
2.15765683
 20
3.77750434
  0
VERTEX
  8
0
 10
2.12660175
 20
3.79844226
  0
VERTEX
  8
0
 10
2.10566383
 20
3.82949734
  0
VERTEX
  8
0
 10
2.09798608
 20
3.86752659
  0
SEQEND
  0
POLYLINE
  8
Default_Layer
 66
   1
 39
0.000000
 70
    1
  0
VERTEX
  8
0
 10
2.37959889
 20
3.86752659
  0
VERTEX
  8
0
 10
2.38727664
 20
3.90555584
  0
VERTEX
  8
0
 10
2.40821456
 20
3.93661093
  0
VERTEX
  8
0
 10
2.43926964
 20
3.95754884
  0
VERTEX
  8
0
 10
2.47729889
 20
3.96522659
  0
VERTEX
  8
0
 10
2.51532814
 20
3.95754884
  0
VERTEX
  8
0
 10
2.54638322
 20
3.93661093
  0
VERTEX
  8
0
 10
2.56732114
 20
3.90555584
  0
VERTEX
  8
0
 10
2.57499889
 20
3.86752659
  0
VERTEX
  8
0
 10
2.56732114
 20
3.82949734
  0
VERTEX
  8
0
 10
2.54638322
 20
3.79844226
  0
VERTEX
  8
0
 10
2.51532814
 20
3.77750434
  0
VERTEX
  8
0
 10
2.47729889
 20
3.76982659
  0
VERTEX
  8
0
 10
2.43926964
 20
3.77750434
  0
VERTEX
  8
0
 10
2.40821456
 20
3.79844226
  0
VERTEX
  8
0
 10
2.38727664
 20
3.82949734
  0
VERTEX
  8
0
 10
2.37959889
 20
3.86752659
  0
SEQEND
  0
POLYLINE
  8
Default_Layer
 66
   1
 39
0.000000
 70
    1
  0
VERTEX
  8
0
 10
2.66121170
 20
3.86752659
  0
VERTEX
  8
0
 10
2.66888945
 20
3.90555584
  0
VERTEX
  8
0
 10
2.68982737
 20
3.93661093
  0
VERTEX
  8
0
 10
2.72088245
 20
3.95754884
  0
VERTEX
  8
0
 10
2.75891170
 20
3.96522659
  0
VERTEX
  8
0
 10
2.79694095
 20
3.95754884
  0
VERTEX
  8
0
 10
2.82799603
 20
3.93661093
  0
VERTEX
  8
0
 10
2.84893395
 20
3.90555584
  0
VERTEX
  8
0
 10
2.85661170
 20
3.86752659
  0
VERTEX
  8
0
 10
2.84893395
 20
3.82949734
  0
VERTEX
  8
0
 10
2.82799603
 20
3.79844226
  0
VERTEX
  8
0
 10
2.79694095
 20
3.77750434
  0
VERTEX
  8
0
 10
2.75891170
 20
3.76982659
  0
VERTEX
  8
0
 10
2.72088245
 20
3.77750434
  0
VERTEX
  8
0
 10
2.68982737
 20
3.79844226
  0
VERTEX
  8
0
 10
2.66888945
 20
3.82949734
  0
VERTEX
  8
0
 10
2.66121170
 20
3.86752659
  0
SEQEND
  0
POLYLINE
  8
Default_Layer
 66
   1
 39
0.000000
 70
    1
  0
VERTEX
  8
0
 10
3.08633552
 20
3.95038271
  0
VERTEX
  8
0
 10
3.11543094
 20
3.92471896
  0
VERTEX
  8
0
 10
3.13185648
 20
3.89105865
  0
VERTEX
  8
0
 10
3.13446170
 20
3.85369520
  0
VERTEX
  8
0
 10
3.12209621
 20
3.81692203
  0
VERTEX
  8
0
 10
3.09643245
 20
3.78782661
  0
VERTEX
  8
0
 10
3.06277215
 20
3.77140108
  0
VERTEX
  8
0
 10
3.02540870
 20
3.76879585
  0
VERTEX
  8
0
 10
2.98863552
 20
3.78116135
  0
VERTEX
  8
0
 10
2.95954010
 20
3.80682510
  0
VERTEX
  8
0
 10
2.94311457
 20
3.84048541
  0
VERTEX
  8
0
 10
2.94050934
 20
3.87784886
  0
VERTEX
  8
0
 10
2.95287484
 20
3.91462203
  0
VERTEX
  8
0
 10
2.97853859
 20
3.94371745
  0
VERTEX
  8
0
 10
3.01219890
 20
3.96014299
  0
VERTEX
  8
0
 10
3.04956235
 20
3.96274821
  0
VERTEX
  8
0
 10
3.08633552
 20
3.95038271
  0
SEQEND
  0
POLYLINE
  8
Default_Layer
 66
   1
 39
0.000000
 70
    1
  0
VERTEX
  8
0
 10
2.94654211
 20
3.70825343
  0
VERTEX
  8
0
 10
2.97563754
 20
3.68258967
  0
VERTEX
  8
0
 10
2.99206307
 20
3.64892937
  0
VERTEX
  8
0
 10
2.99466829
 20
3.61156592
  0
VERTEX
  8
0
 10
2.98230280
 20
3.57479274
  0
VERTEX
  8
0
 10
2.95663905
 20
3.54569732
  0
VERTEX
  8
0
 10
2.92297874
 20
3.52927179
  0
VERTEX
  8
0
 10
2.88561529
 20
3.52666656
  0
VERTEX
  8
0
 10
2.84884211
 20
3.53903206
  0
VERTEX
  8
0
 10
2.81974669
 20
3.56469581
  0
VERTEX
  8
0
 10
2.80332116
 20
3.59835612
  0
VERTEX
  8
0
 10
2.80071593
 20
3.63571957
  0
VERTEX
  8
0
 10
2.81308143
 20
3.67249274
  0
VERTEX
  8
0
 10
2.83874518
 20
3.70158817
  0
VERTEX
  8
0
 10
2.87240549
 20
3.71801370
  0
VERTEX
  8
0
 10
2.90976894
 20
3.72061892
  0
VERTEX
  8
0
 10
2.94654211
 20
3.70825343
  0
SEQEND
  0
POLYLINE
  8
Default_Layer
 66
   1
 39
0.000000
 70
    1
  0
VERTEX
  8
0
 10
2.80573571
 20
3.46436958
  0
VERTEX
  8
0
 10
2.83483113
 20
3.43870583
  0
VERTEX
  8
0
 10
2.85125666
 20
3.40504552
  0
VERTEX
  8
0
 10
2.85386189
 20
3.36768207
  0
VERTEX
  8
0
 10
2.84149639
 20
3.33090890
  0
VERTEX
  8
0
 10
2.81583264
 20
3.30181348
  0
VERTEX
  8
0
 10
2.78217233
 20
3.28538794
  0
VERTEX
  8
0
 10
2.74480888
 20
3.28278272
  0
VERTEX
  8
0
 10
2.70803571
 20
3.29514821
  0
VERTEX
  8
0
 10
2.67894029
 20
3.32081197
  0
VERTEX
  8
0
 10
2.66251476
 20
3.35447228
  0
VERTEX
  8
0
 10
2.65990953
 20
3.39183573
  0
VERTEX
  8
0
 10
2.67227503
 20
3.42860890
  0
VERTEX
  8
0
 10
2.69793878
 20
3.45770432
  0
VERTEX
  8
0
 10
2.73159909
 20
3.47412985
  0
VERTEX
  8
0
 10
2.76896254
 20
3.47673508
  0
VERTEX
  8
0
 10
2.80573571
 20
3.46436958
  0
SEQEND
  0
POLYLINE
  8
Default_Layer
 66
   1
 39
0.000000
 70
    1
  0
VERTEX
  8
0
 10
2.66492930
 20
3.22048573
  0
VERTEX
  8
0
 10
2.69402472
 20
3.19482198
  0
VERTEX
  8
0
 10
2.71045026
 20
3.16116167
  0
VERTEX
  8
0
 10
2.71305548
 20
3.12379822
  0
VERTEX
  8
0
 10
2.70068999
 20
3.08702505
  0
VERTEX
  8
0
 10
2.67502623
 20
3.05792963
  0
VERTEX
  8
0
 10
2.64136592
 20
3.04150409
  0
VERTEX
  8
0
 10
2.60400247
 20
3.03889887
  0
VERTEX
  8
0
 10
2.56722930
 20
3.05126437
  0
VERTEX
  8
0
 10
2.53813388
 20
3.07692812
  0
VERTEX
  8
0
 10
2.52170835
 20
3.11058843
  0
VERTEX
  8
0
 10
2.51910312
 20
3.14795188
  0
VERTEX
  8
0
 10
2.53146862
 20
3.18472505
  0
VERTEX
  8
0
 10
2.55713237
 20
3.21382047
  0
VERTEX
  8
0
 10
2.59079268
 20
3.23024600
  0
VERTEX
  8
0
 10
2.62815613
 20
3.23285123
  0
VERTEX
  8
0
 10
2.66492930
 20
3.22048573
  0
SEQEND
  0
POLYLINE
  8
Default_Layer
 66
   1
 39
0.000000
 70
    1
  0
VERTEX
  8
0
 10
2.52412290
 20
2.97660188
  0
VERTEX
  8
0
 10
2.55321832
 20
2.95093813
  0
VERTEX
  8
0
 10
2.56964385
 20
2.91727782
  0
VERTEX
  8
0
 10
2.57224908
 20
2.87991437
  0
VERTEX
  8
0
 10
2.55988358
 20
2.84314120
  0
VERTEX
  8
0
 10
2.53421983
 20
2.81404578
  0
VERTEX
  8
0
 10
2.50055952
 20
2.79762025
  0
VERTEX
  8
0
 10
2.46319607
 20
2.79501502
  0
VERTEX
  8
0
 10
2.42642290
 20
2.80738052
  0
VERTEX
  8
0
 10
2.39732748
 20
2.83304427
  0
VERTEX
  8
0
 10
2.38090195
 20
2.86670458
  0
VERTEX
  8
0
 10
2.37829672
 20
2.90406803
  0
VERTEX
  8
0
 10
2.39066222
 20
2.94084120
  0
VERTEX
  8
0
 10
2.41632597
 20
2.96993662
  0
VERTEX
  8
0
 10
2.44998628
 20
2.98636215
  0
VERTEX
  8
0
 10
2.48734973
 20
2.98896738
  0
VERTEX
  8
0
 10
2.52412290
 20
2.97660188
  0
SEQEND
  0
POLYLINE
  8
Default_Layer
 66
   1
 39
0.000000
 70
    1
  0
VERTEX
  8
0
 10
2.38331649
 20
2.73271803
  0
VERTEX
  8
0
 10
2.41241191
 20
2.70705428
  0
VERTEX
  8
0
 10
2.42883745
 20
2.67339397
  0
VERTEX
  8
0
 10
2.43144267
 20
2.63603052
  0
VERTEX
  8
0
 10
2.41907718
 20
2.59925735
  0
VERTEX
  8
0
 10
2.39341342
 20
2.57016193
  0
VERTEX
  8
0
 10
2.35975311
 20
2.55373640
  0
VERTEX
  8
0
 10
2.32238966
 20
2.55113117
  0
VERTEX
  8
0
 10
2.28561649
 20
2.56349667
  0
VERTEX
  8
0
 10
2.25652107
 20
2.58916042
  0
VERTEX
  8
0
 10
2.24009554
 20
2.62282073
  0
VERTEX
  8
0
 10
2.23749031
 20
2.66018418
  0
VERTEX
  8
0
 10
2.24985581
 20
2.69695735
  0
VERTEX
  8
0
 10
2.27551956
 20
2.72605277
  0
VERTEX
  8
0
 10
2.30917987
 20
2.74247831
  0
VERTEX
  8
0
 10
2.34654332
 20
2.74508353
  0
VERTEX
  8
0
 10
2.38331649
 20
2.73271803
  0
SEQEND
  0
POLYLINE
  8
Default_Layer
 66
   1
 39
0.000000
 70
    1
  0
VERTEX
  8
0
 10
2.24251009
 20
2.48883419
  0
VERTEX
  8
0
 10
2.27160551
 20
2.46317043
  0
VERTEX
  8
0
 10
2.28803104
 20
2.42951012
  0
VERTEX
  8
0
 10
2.29063627
 20
2.39214667
  0
VERTEX
  8
0
 10
2.27827077
 20
2.35537350
  0
VERTEX
  8
0
 10
2.25260702
 20
2.32627808
  0
VERTEX
  8
0
 10
2.21894671
 20
2.30985255
  0
VERTEX
  8
0
 10
2.18158326
 20
2.30724732
  0
VERTEX
  8
0
 10
2.14481009
 20
2.31961282
  0
VERTEX
  8
0
 10
2.11571467
 20
2.34527657
  0
VERTEX
  8
0
 10
2.09928913
 20
2.37893688
  0
VERTEX
  8
0
 10
2.09668391
 20
2.41630033
  0
VERTEX
  8
0
 10
2.10904941
 20
2.45307350
  0
VERTEX
  8
0
 10
2.13471316
 20
2.48216892
  0
VERTEX
  8
0
 10
2.16837347
 20
2.49859446
  0
VERTEX
  8
0
 10
2.20573692
 20
2.50119968
  0
VERTEX
  8
0
 10
2.24251009
 20
2.48883419
  0
SEQEND
  0
POLYLINE
  8
Default_Layer
 66
   1
 39
0.000000
 70
    1
  0
VERTEX
  8
0
 10
2.10170368
 20
2.24495034
  0
VERTEX
  8
0
 10
2.13079910
 20
2.21928659
  0
VERTEX
  8
0
 10
2.14722464
 20
2.18562628
  0
VERTEX
  8
0
 10
2.14982986
 20
2.14826283
  0
VERTEX
  8
0
 10
2.13746436
 20
2.11148966
  0
VERTEX
  8
0
 10
2.11180061
 20
2.08239424
  0
VERTEX
  8
0
 10
2.07814030
 20
2.06596870
  0
VERTEX
  8
0
 10
2.04077685
 20
2.06336348
  0
VERTEX
  8
0
 10
2.00400368
 20
2.07572897
  0
VERTEX
  8
0
 10
1.97490826
 20
2.10139273
  0
VERTEX
  8
0
 10
1.95848273
 20
2.13505303
  0
VERTEX
  8
0
 10
1.95587750
 20
2.17241648
  0
VERTEX
  8
0
 10
1.96824300
 20
2.20918966
  0
VERTEX
  8
0
 10
1.99390675
 20
2.23828508
  0
VERTEX
  8
0
 10
2.02756706
 20
2.25471061
  0
VERTEX
  8
0
 10
2.06493051
 20
2.25731584
  0
VERTEX
  8
0
 10
2.10170368
 20
2.24495034
  0
SEQEND
  0
POLYLINE
  8
Default_Layer
 66
   1
 39
0.000000
 70
    1
  0
VERTEX
  8
0
 10
1.83850647
 20
1.96827226
  0
VERTEX
  8
0
 10
1.86417022
 20
1.99736769
  0
VERTEX
  8
0
 10
1.89783053
 20
2.01379322
  0
VERTEX
  8
0
 10
1.93519398
 20
2.01639844
  0
VERTEX
  8
0
 10
1.97196715
 20
2.00403295
  0
VERTEX
  8
0
 10
2.00106258
 20
1.97836920
  0
VERTEX
  8
0
 10
2.01748811
 20
1.94470889
  0
VERTEX
  8
0
 10
2.02009333
 20
1.90734544
  0
VERTEX
  8
0
 10
2.00772784
 20
1.87057226
  0
VERTEX
  8
0
 10
1.98206408
 20
1.84147684
  0
VERTEX
  8
0
 10
1.94840378
 20
1.82505131
  0
VERTEX
  8
0
 10
1.91104033
 20
1.82244608
  0
VERTEX
  8
0
 10
1.87426715
 20
1.83481158
  0
VERTEX
  8
0
 10
1.84517173
 20
1.86047533
  0
VERTEX
  8
0
 10
1.82874620
 20
1.89413564
  0
VERTEX
  8
0
 10
1.82614097
 20
1.93149909
  0
VERTEX
  8
0
 10
1.83850647
 20
1.96827226
  0
SEQEND
  0
POLYLINE
  8
Default_Layer
 66
   1
 39
0.000000
 70
    1
  0
VERTEX
  8
0
 10
2.08237830
 20
1.82747280
  0
VERTEX
  8
0
 10
2.10804205
 20
1.85656822
  0
VERTEX
  8
0
 10
2.14170236
 20
1.87299375
  0
VERTEX
  8
0
 10
2.17906581
 20
1.87559898
  0
VERTEX
  8
0
 10
2.21583898
 20
1.86323348
  0
VERTEX
  8
0
 10
2.24493440
 20
1.83756973
  0
VERTEX
  8
0
 10
2.26135994
 20
1.80390942
  0
VERTEX
  8
0
 10
2.26396516
 20
1.76654597
  0
VERTEX
  8
0
 10
2.25159967
 20
1.72977280
  0
VERTEX
  8
0
 10
2.22593591
 20
1.70067738
  0
VERTEX
  8
0
 10
2.19227560
 20
1.68425184
  0
VERTEX
  8
0
 10
2.15491216
 20
1.68164662
  0
VERTEX
  8
0
 10
2.11813898
 20
1.69401212
  0
VERTEX
  8
0
 10
2.08904356
 20
1.71967587
  0
VERTEX
  8
0
 10
2.07261803
 20
1.75333618
  0
VERTEX
  8
0
 10
2.07001280
 20
1.79069963
  0
VERTEX
  8
0
 10
2.08237830
 20
1.82747280
  0
SEQEND
  0
POLYLINE
  8
Default_Layer
 66
   1
 39
0.000000
 70
    1
  0
VERTEX
  8
0
 10
2.32625013
 20
1.68667333
  0
VERTEX
  8
0
 10
2.35191388
 20
1.71576875
  0
VERTEX
  8
0
 10
2.38557419
 20
1.73219428
  0
VERTEX
  8
0
 10
2.42293764
 20
1.73479951
  0
VERTEX
  8
0
 10
2.45971081
 20
1.72243401
  0
VERTEX
  8
0
 10
2.48880623
 20
1.69677026
  0
VERTEX
  8
0
 10
2.50523177
 20
1.66310995
  0
VERTEX
  8
0
 10
2.50783699
 20
1.62574650
  0
VERTEX
  8
0
 10
2.49547150
 20
1.58897333
  0
VERTEX
  8
0
 10
2.46980774
 20
1.55987791
  0
VERTEX
  8
0
 10
2.43614743
 20
1.54345238
  0
VERTEX
  8
0
 10
2.39878398
 20
1.54084715
  0
VERTEX
  8
0
 10
2.36201081
 20
1.55321265
  0
VERTEX
  8
0
 10
2.33291539
 20
1.57887640
  0
VERTEX
  8
0
 10
2.31648986
 20
1.61253671
  0
VERTEX
  8
0
 10
2.31388463
 20
1.64990016
  0
VERTEX
  8
0
 10
2.32625013
 20
1.68667333
  0
SEQEND
  0
POLYLINE
  8
Default_Layer
 66
   1
 39
0.000000
 70
    1
  0
VERTEX
  8
0
 10
2.57012196
 20
1.54587386
  0
VERTEX
  8
0
 10
2.59578571
 20
1.57496929
  0
VERTEX
  8
0
 10
2.62944602
 20
1.59139482
  0
VERTEX
  8
0
 10
2.66680947
 20
1.59400004
  0
VERTEX
  8
0
 10
2.70358264
 20
1.58163455
  0
VERTEX
  8
0
 10
2.73267806
 20
1.55597080
  0
VERTEX
  8
0
 10
2.74910360
 20
1.52231049
  0
VERTEX
  8
0
 10
2.75170882
 20
1.48494704
  0
VERTEX
  8
0
 10
2.73934333
 20
1.44817386
  0
VERTEX
  8
0
 10
2.71367957
 20
1.41907844
  0
VERTEX
  8
0
 10
2.68001926
 20
1.40265291
  0
VERTEX
  8
0
 10
2.64265581
 20
1.40004769
  0
VERTEX
  8
0
 10
2.60588264
 20
1.41241318
  0
VERTEX
  8
0
 10
2.57678722
 20
1.43807693
  0
VERTEX
  8
0
 10
2.56036169
 20
1.47173724
  0
VERTEX
  8
0
 10
2.55775646
 20
1.50910069
  0
VERTEX
  8
0
 10
2.57012196
 20
1.54587386
  0
SEQEND
  0
POLYLINE
  8
Default_Layer
 66
   1
 39
0.000000
 70
    1
  0
VERTEX
  8
0
 10
2.81399379
 20
1.40507440
  0
VERTEX
  8
0
 10
2.83965754
 20
1.43416982
  0
VERTEX
  8
0
 10
2.87331785
 20
1.45059535
  0
VERTEX
  8
0
 10
2.91068130
 20
1.45320058
  0
VERTEX
  8
0
 10
2.94745447
 20
1.44083508
  0
VERTEX
  8
0
 10
2.97654989
 20
1.41517133
  0
VERTEX
  8
0
 10
2.99297543
 20
1.38151102
  0
VERTEX
  8
0
 10
2.99558065
 20
1.34414757
  0
VERTEX
  8
0
 10
2.98321516
 20
1.30737440
  0
VERTEX
  8
0
 10
2.95755140
 20
1.27827898
  0
VERTEX
  8
0
 10
2.92389109
 20
1.26185345
  0
VERTEX
  8
0
 10
2.88652764
 20
1.25924822
  0
VERTEX
  8
0
 10
2.84975447
 20
1.27161372
  0
VERTEX
  8
0
 10
2.82065905
 20
1.29727747
  0
VERTEX
  8
0
 10
2.80423352
 20
1.33093778
  0
VERTEX
  8
0
 10
2.80162829
 20
1.36830123
  0
VERTEX
  8
0
 10
2.81399379
 20
1.40507440
  0
SEQEND
  0
POLYLINE
  8
Default_Layer
 66
   1
 39
0.000000
 70
    1
  0
VERTEX
  8
0
 10
3.05611115
 20
1.26528788
  0
VERTEX
  8
0
 10
3.08177490
 20
1.29438330
  0
VERTEX
  8
0
 10
3.11543521
 20
1.31080883
  0
VERTEX
  8
0
 10
3.15279866
 20
1.31341406
  0
VERTEX
  8
0
 10
3.18957183
 20
1.30104856
  0
VERTEX
  8
0
 10
3.21866725
 20
1.27538481
  0
VERTEX
  8
0
 10
3.23509278
 20
1.24172450
  0
VERTEX
  8
0
 10
3.23769801
 20
1.20436105
  0
VERTEX
  8
0
 10
3.22533251
 20
1.16758788
  0
VERTEX
  8
0
 10
3.19966876
 20
1.13849246
  0
VERTEX
  8
0
 10
3.16600845
 20
1.12206692
  0
VERTEX
  8
0
 10
3.12864500
 20
1.11946170
  0
VERTEX
  8
0
 10
3.09187183
 20
1.13182720
  0
VERTEX
  8
0
 10
3.06277641
 20
1.15749095
  0
VERTEX
  8
0
 10
3.04635088
 20
1.19115126
  0
VERTEX
  8
0
 10
3.04374565
 20
1.22851471
  0
VERTEX
  8
0
 10
3.05611115
 20
1.26528788
  0
SEQEND
  0
POLYLINE
  8
Default_Layer
 66
   1
 39
0.000000
 70
    1
  0
VERTEX
  8
0
 10
3.29998298
 20
1.12448841
  0
VERTEX
  8
0
 10
3.32564673
 20
1.15358383
  0
VERTEX
  8
0
 10
3.35930704
 20
1.17000936
  0
VERTEX
  8
0
 10
3.39667049
 20
1.17261459
  0
VERTEX
  8
0
 10
3.43344366
 20
1.16024909
  0
VERTEX
  8
0
 10
3.46253908
 20
1.13458534
  0
VERTEX
  8
0
 10
3.47896461
 20
1.10092503
  0
VERTEX
  8
0
 10
3.48156984
 20
1.06356158
  0
VERTEX
  8
0
 10
3.46920434
 20
1.02678841
  0
VERTEX
  8
0
 10
3.44354059
 20
0.99769299
  0
VERTEX
  8
0
 10
3.40988028
 20
0.98126746
  0
VERTEX
  8
0
 10
3.37251683
 20
0.97866223
  0
VERTEX
  8
0
 10
3.33574366
 20
0.99102773
  0
VERTEX
  8
0
 10
3.30664824
 20
1.01669148
  0
VERTEX
  8
0
 10
3.29022271
 20
1.05035179
  0
VERTEX
  8
0
 10
3.28761748
 20
1.08771524
  0
VERTEX
  8
0
 10
3.29998298
 20
1.12448841
  0
SEQEND
  0
POLYLINE
  8
Default_Layer
 66
   1
 39
0.000000
 70
    1
  0
VERTEX
  8
0
 10
3.54385481
 20
0.98368894
  0
VERTEX
  8
0
 10
3.56951856
 20
1.01278436
  0
VERTEX
  8
0
 10
3.60317887
 20
1.02920990
  0
VERTEX
  8
0
 10
3.64054232
 20
1.03181512
  0
VERTEX
  8
0
 10
3.67731549
 20
1.01944963
  0
VERTEX
  8
0
 10
3.70641091
 20
0.99378587
  0
VERTEX
  8
0
 10
3.72283644
 20
0.96012557
  0
VERTEX
  8
0
 10
3.72544167
 20
0.92276212
  0
VERTEX
  8
0
 10
3.71307617
 20
0.88598894
  0
VERTEX
  8
0
 10
3.68741242
 20
0.85689352
  0
VERTEX
  8
0
 10
3.65375211
 20
0.84046799
  0
VERTEX
  8
0
 10
3.61638866
 20
0.83786276
  0
VERTEX
  8
0
 10
3.57961549
 20
0.85022826
  0
VERTEX
  8
0
 10
3.55052007
 20
0.87589201
  0
VERTEX
  8
0
 10
3.53409454
 20
0.90955232
  0
VERTEX
  8
0
 10
3.53148931
 20
0.94691577
  0
VERTEX
  8
0
 10
3.54385481
 20
0.98368894
  0
SEQEND
  0
POLYLINE
  8
Default_Layer
 66
   1
 39
0.000000
 70
    1
  0
VERTEX
  8
0
 10
3.78772664
 20
0.84288948
  0
VERTEX
  8
0
 10
3.81339039
 20
0.87198490
  0
VERTEX
  8
0
 10
3.84705070
 20
0.88841043
  0
VERTEX
  8
0
 10
3.88441415
 20
0.89101566
  0
VERTEX
  8
0
 10
3.92118732
 20
0.87865016
  0
VERTEX
  8
0
 10
3.95028274
 20
0.85298641
  0
VERTEX
  8
0
 10
3.96670827
 20
0.81932610
  0
VERTEX
  8
0
 10
3.96931350
 20
0.78196265
  0
VERTEX
  8
0
 10
3.95694800
 20
0.74518948
  0
VERTEX
  8
0
 10
3.93128425
 20
0.71609406
  0
VERTEX
  8
0
 10
3.89762394
 20
0.69966852
  0
VERTEX
  8
0
 10
3.86026049
 20
0.69706330
  0
VERTEX
  8
0
 10
3.82348732
 20
0.70942880
  0
VERTEX
  8
0
 10
3.79439190
 20
0.73509255
  0
VERTEX
  8
0
 10
3.77796637
 20
0.76875286
  0
VERTEX
  8
0
 10
3.77536114
 20
0.80611631
  0
VERTEX
  8
0
 10
3.78772664
 20
0.84288948
  0
SEQEND
  0
POLYLINE
  8
Default_Layer
 66
   1
 39
0.000000
 70
    1
  0
VERTEX
  8
0
 10
3.96651816
 20
0.94501013
  0
VERTEX
  8
0
 10
3.93742274
 20
0.97067388
  0
VERTEX
  8
0
 10
3.92099720
 20
1.00433419
  0
VERTEX
  8
0
 10
3.91839198
 20
1.04169764
  0
VERTEX
  8
0
 10
3.93075748
 20
1.07847081
  0
VERTEX
  8
0
 10
3.95642123
 20
1.10756623
  0
VERTEX
  8
0
 10
3.99008154
 20
1.12399176
  0
VERTEX
  8
0
 10
4.02744499
 20
1.12659699
  0
VERTEX
  8
0
 10
4.06421816
 20
1.11423149
  0
VERTEX
  8
0
 10
4.09331358
 20
1.08856774
  0
VERTEX
  8
0
 10
4.10973911
 20
1.05490743
  0
VERTEX
  8
0
 10
4.11234434
 20
1.01754398
  0
VERTEX
  8
0
 10
4.09997884
 20
0.98077081
  0
VERTEX
  8
0
 10
4.07431509
 20
0.95167539
  0
VERTEX
  8
0
 10
4.04065478
 20
0.93524986
  0
VERTEX
  8
0
 10
4.00329133
 20
0.93264463
  0
VERTEX
  8
0
 10
3.96651816
 20
0.94501013
  0
SEQEND
  0
POLYLINE
  8
Default_Layer
 66
   1
 39
0.000000
 70
    1
  0
VERTEX
  8
0
 10
4.10732456
 20
1.18889397
  0
VERTEX
  8
0
 10
4.07822914
 20
1.21455773
  0
VERTEX
  8
0
 10
4.06180361
 20
1.24821804
  0
VERTEX
  8
0
 10
4.05919838
 20
1.28558149
  0
VERTEX
  8
0
 10
4.07156388
 20
1.32235466
  0
VERTEX
  8
0
 10
4.09722763
 20
1.35145008
  0
VERTEX
  8
0
 10
4.13088794
 20
1.36787561
  0
VERTEX
  8
0
 10
4.16825139
 20
1.37048084
  0
VERTEX
  8
0
 10
4.20502456
 20
1.35811534
  0
VERTEX
  8
0
 10
4.23411998
 20
1.33245159
  0
VERTEX
  8
0
 10
4.25054552
 20
1.29879128
  0
VERTEX
  8
0
 10
4.25315074
 20
1.26142783
  0
VERTEX
  8
0
 10
4.24078525
 20
1.22465466
  0
VERTEX
  8
0
 10
4.21512149
 20
1.19555924
  0
VERTEX
  8
0
 10
4.18146118
 20
1.17913370
  0
VERTEX
  8
0
 10
4.14409773
 20
1.17652848
  0
VERTEX
  8
0
 10
4.10732456
 20
1.18889397
  0
SEQEND
  0
POLYLINE
  8
Default_Layer
 66
   1
 39
0.000000
 70
    1
  0
VERTEX
  8
0
 10
4.24813097
 20
1.43277782
  0
VERTEX
  8
0
 10
4.21903555
 20
1.45844157
  0
VERTEX
  8
0
 10
4.20261002
 20
1.49210188
  0
VERTEX
  8
0
 10
4.20000479
 20
1.52946533
  0
VERTEX
  8
0
 10
4.21237029
 20
1.56623850
  0
VERTEX
  8
0
 10
4.23803404
 20
1.59533393
  0
VERTEX
  8
0
 10
4.27169435
 20
1.61175946
  0
VERTEX
  8
0
 10
4.30905780
 20
1.61436468
  0
VERTEX
  8
0
 10
4.34583097
 20
1.60199919
  0
VERTEX
  8
0
 10
4.37492639
 20
1.57633544
  0
VERTEX
  8
0
 10
4.39135192
 20
1.54267513
  0
VERTEX
  8
0
 10
4.39395715
 20
1.50531168
  0
VERTEX
  8
0
 10
4.38159165
 20
1.46853850
  0
VERTEX
  8
0
 10
4.35592790
 20
1.43944308
  0
VERTEX
  8
0
 10
4.32226759
 20
1.42301755
  0
VERTEX
  8
0
 10
4.28490414
 20
1.42041232
  0
VERTEX
  8
0
 10
4.24813097
 20
1.43277782
  0
SEQEND
  0
POLYLINE
  8
Default_Layer
 66
   1
 39
0.000000
 70
    1
  0
VERTEX
  8
0
 10
4.38893737
 20
1.67666167
  0
VERTEX
  8
0
 10
4.35984195
 20
1.70232542
  0
VERTEX
  8
0
 10
4.34341642
 20
1.73598573
  0
VERTEX
  8
0
 10
4.34081119
 20
1.77334918
  0
VERTEX
  8
0
 10
4.35317669
 20
1.81012235
  0
VERTEX
  8
0
 10
4.37884044
 20
1.83921777
  0
VERTEX
  8
0
 10
4.41250075
 20
1.85564331
  0
VERTEX
  8
0
 10
4.44986420
 20
1.85824853
  0
VERTEX
  8
0
 10
4.48663737
 20
1.84588303
  0
VERTEX
  8
0
 10
4.51573279
 20
1.82021928
  0
VERTEX
  8
0
 10
4.53215833
 20
1.78655897
  0
VERTEX
  8
0
 10
4.53476355
 20
1.74919552
  0
VERTEX
  8
0
 10
4.52239806
 20
1.71242235
  0
VERTEX
  8
0
 10
4.49673430
 20
1.68332693
  0
VERTEX
  8
0
 10
4.46307399
 20
1.66690140
  0
VERTEX
  8
0
 10
4.42571055
 20
1.66429617
  0
VERTEX
  8
0
 10
4.38893737
 20
1.67666167
  0
SEQEND
  0
POLYLINE
  8
Default_Layer
 66
   1
 39
0.000000
 70
    1
  0
VERTEX
  8
0
 10
4.52974378
 20
1.92054552
  0
VERTEX
  8
0
 10
4.50064836
 20
1.94620927
  0
VERTEX
  8
0
 10
4.48422283
 20
1.97986958
  0
VERTEX
  8
0
 10
4.48161760
 20
2.01723303
  0
VERTEX
  8
0
 10
4.49398310
 20
2.05400620
  0
VERTEX
  8
0
 10
4.51964685
 20
2.08310162
  0
VERTEX
  8
0
 10
4.55330716
 20
2.09952715
  0
VERTEX
  8
0
 10
4.59067061
 20
2.10213238
  0
VERTEX
  8
0
 10
4.62744378
 20
2.08976688
  0
VERTEX
  8
0
 10
4.65653920
 20
2.06410313
  0
VERTEX
  8
0
 10
4.67296473
 20
2.03044282
  0
VERTEX
  8
0
 10
4.67556996
 20
1.99307937
  0
VERTEX
  8
0
 10
4.66320446
 20
1.95630620
  0
VERTEX
  8
0
 10
4.63754071
 20
1.92721078
  0
VERTEX
  8
0
 10
4.60388040
 20
1.91078525
  0
VERTEX
  8
0
 10
4.56651695
 20
1.90818002
  0
VERTEX
  8
0
 10
4.52974378
 20
1.92054552
  0
SEQEND
  0
POLYLINE
  8
Default_Layer
 66
   1
 39
0.000000
 70
    1
  0
VERTEX
  8
0
 10
4.67055018
 20
2.16442937
  0
VERTEX
  8
0
 10
4.64145476
 20
2.19009312
  0
VERTEX
  8
0
 10
4.62502923
 20
2.22375343
  0
VERTEX
  8
0
 10
4.62242401
 20
2.26111688
  0
VERTEX
  8
0
 10
4.63478950
 20
2.29789005
  0
VERTEX
  8
0
 10
4.66045325
 20
2.32698547
  0
VERTEX
  8
0
 10
4.69411356
 20
2.34341100
  0
VERTEX
  8
0
 10
4.73147701
 20
2.34601623
  0
VERTEX
  8
0
 10
4.76825018
 20
2.33365073
  0
VERTEX
  8
0
 10
4.79734561
 20
2.30798698
  0
VERTEX
  8
0
 10
4.81377114
 20
2.27432667
  0
VERTEX
  8
0
 10
4.81637636
 20
2.23696322
  0
VERTEX
  8
0
 10
4.80401087
 20
2.20019005
  0
VERTEX
  8
0
 10
4.77834712
 20
2.17109463
  0
VERTEX
  8
0
 10
4.74468681
 20
2.15466910
  0
VERTEX
  8
0
 10
4.70732336
 20
2.15206387
  0
VERTEX
  8
0
 10
4.67055018
 20
2.16442937
  0
SEQEND
  0
POLYLINE
  8
Default_Layer
 66
   1
 39
0.000000
 70
    1
  0
VERTEX
  8
0
 10
4.81135659
 20
2.40831322
  0
VERTEX
  8
0
 10
4.78226117
 20
2.43397697
  0
VERTEX
  8
0
 10
4.76583564
 20
2.46763728
  0
VERTEX
  8
0
 10
4.76323041
 20
2.50500073
  0
VERTEX
  8
0
 10
4.77559591
 20
2.54177390
  0
VERTEX
  8
0
 10
4.80125966
 20
2.57086932
  0
VERTEX
  8
0
 10
4.83491997
 20
2.58729485
  0
VERTEX
  8
0
 10
4.87228342
 20
2.58990008
  0
VERTEX
  8
0
 10
4.90905659
 20
2.57753458
  0
VERTEX
  8
0
 10
4.93815201
 20
2.55187083
  0
VERTEX
  8
0
 10
4.95457754
 20
2.51821052
  0
VERTEX
  8
0
 10
4.95718277
 20
2.48084707
  0
VERTEX
  8
0
 10
4.94481727
 20
2.44407390
  0
VERTEX
  8
0
 10
4.91915352
 20
2.41497848
  0
VERTEX
  8
0
 10
4.88549321
 20
2.39855294
  0
VERTEX
  8
0
 10
4.84812976
 20
2.39594772
  0
VERTEX
  8
0
 10
4.81135659
 20
2.40831322
  0
SEQEND
  0
POLYLINE
  8
Default_Layer
 66
   1
 39
0.000000
 70
    1
  0
VERTEX
  8
0
 10
4.95115000
 20
2.81966387
  0
VERTEX
  8
0
 10
4.98792317
 20
2.83202936
  0
VERTEX
  8
0
 10
5.02528662
 20
2.82942414
  0
VERTEX
  8
0
 10
5.05894693
 20
2.81299861
  0
VERTEX
  8
0
 10
5.08461068
 20
2.78390319
  0
VERTEX
  8
0
 10
5.09697618
 20
2.74713001
  0
VERTEX
  8
0
 10
5.09437095
 20
2.70976656
  0
VERTEX
  8
0
 10
5.07794542
 20
2.67610625
  0
VERTEX
  8
0
 10
5.04885000
 20
2.65044250
  0
VERTEX
  8
0
 10
5.01207683
 20
2.63807701
  0
VERTEX
  8
0
 10
4.97471338
 20
2.64068223
  0
VERTEX
  8
0
 10
4.94105307
 20
2.65710776
  0
VERTEX
  8
0
 10
4.91538932
 20
2.68620319
  0
VERTEX
  8
0
 10
4.90302382
 20
2.72297636
  0
VERTEX
  8
0
 10
4.90562905
 20
2.76033981
  0
VERTEX
  8
0
 10
4.92205458
 20
2.79400012
  0
VERTEX
  8
0
 10
4.95115000
 20
2.81966387
  0
SEQEND
  0
POLYLINE
  8
Default_Layer
 66
   1
 39
0.000000
 70
    1
  0
VERTEX
  8
0
 10
5.09195641
 20
2.57578002
  0
VERTEX
  8
0
 10
5.12872958
 20
2.58814552
  0
VERTEX
  8
0
 10
5.16609303
 20
2.58554029
  0
VERTEX
  8
0
 10
5.19975334
 20
2.56911476
  0
VERTEX
  8
0
 10
5.22541709
 20
2.54001934
  0
VERTEX
  8
0
 10
5.23778259
 20
2.50324617
  0
VERTEX
  8
0
 10
5.23517736
 20
2.46588272
  0
VERTEX
  8
0
 10
5.21875183
 20
2.43222241
  0
VERTEX
  8
0
 10
5.18965641
 20
2.40655865
  0
VERTEX
  8
0
 10
5.15288323
 20
2.39419316
  0
VERTEX
  8
0
 10
5.11551978
 20
2.39679838
  0
VERTEX
  8
0
 10
5.08185947
 20
2.41322392
  0
VERTEX
  8
0
 10
5.05619572
 20
2.44231934
  0
VERTEX
  8
0
 10
5.04383023
 20
2.47909251
  0
VERTEX
  8
0
 10
5.04643545
 20
2.51645596
  0
VERTEX
  8
0
 10
5.06286098
 20
2.55011627
  0
VERTEX
  8
0
 10
5.09195641
 20
2.57578002
  0
SEQEND
  0
POLYLINE
  8
Default_Layer
 66
   1
 39
0.000000
 70
    1
  0
VERTEX
  8
0
 10
5.23276281
 20
2.33189617
  0
VERTEX
  8
0
 10
5.26953598
 20
2.34426167
  0
VERTEX
  8
0
 10
5.30689943
 20
2.34165644
  0
VERTEX
  8
0
 10
5.34055974
 20
2.32523091
  0
VERTEX
  8
0
 10
5.36622349
 20
2.29613549
  0
VERTEX
  8
0
 10
5.37858899
 20
2.25936232
  0
VERTEX
  8
0
 10
5.37598376
 20
2.22199887
  0
VERTEX
  8
0
 10
5.35955823
 20
2.18833856
  0
VERTEX
  8
0
 10
5.33046281
 20
2.16267481
  0
VERTEX
  8
0
 10
5.29368964
 20
2.15030931
  0
VERTEX
  8
0
 10
5.25632619
 20
2.15291454
  0
VERTEX
  8
0
 10
5.22266588
 20
2.16934007
  0
VERTEX
  8
0
 10
5.19700213
 20
2.19843549
  0
VERTEX
  8
0
 10
5.18463663
 20
2.23520866
  0
VERTEX
  8
0
 10
5.18724186
 20
2.27257211
  0
VERTEX
  8
0
 10
5.20366739
 20
2.30623242
  0
VERTEX
  8
0
 10
5.23276281
 20
2.33189617
  0
SEQEND
  0
POLYLINE
  8
Default_Layer
 66
   1
 39
0.000000
 70
    1
  0
VERTEX
  8
0
 10
5.37356922
 20
2.08801232
  0
VERTEX
  8
0
 10
5.41034239
 20
2.10037782
  0
VERTEX
  8
0
 10
5.44770584
 20
2.09777259
  0
VERTEX
  8
0
 10
5.48136615
 20
2.08134706
  0
VERTEX
  8
0
 10
5.50702990
 20
2.05225164
  0
VERTEX
  8
0
 10
5.51939540
 20
2.01547847
  0
VERTEX
  8
0
 10
5.51679017
 20
1.97811502
  0
VERTEX
  8
0
 10
5.50036464
 20
1.94445471
  0
VERTEX
  8
0
 10
5.47126922
 20
1.91879096
  0
VERTEX
  8
0
 10
5.43449605
 20
1.90642546
  0
VERTEX
  8
0
 10
5.39713260
 20
1.90903069
  0
VERTEX
  8
0
 10
5.36347229
 20
1.92545622
  0
VERTEX
  8
0
 10
5.33780853
 20
1.95455164
  0
VERTEX
  8
0
 10
5.32544304
 20
1.99132481
  0
VERTEX
  8
0
 10
5.32804826
 20
2.02868826
  0
VERTEX
  8
0
 10
5.34447380
 20
2.06234857
  0
VERTEX
  8
0
 10
5.37356922
 20
2.08801232
  0
SEQEND
  0
POLYLINE
  8
Default_Layer
 66
   1
 39
0.000000
 70
    1
  0
VERTEX
  8
0
 10
5.51437562
 20
1.84412847
  0
VERTEX
  8
0
 10
5.55114879
 20
1.85649397
  0
VERTEX
  8
0
 10
5.58851224
 20
1.85388875
  0
VERTEX
  8
0
 10
5.62217255
 20
1.83746321
  0
VERTEX
  8
0
 10
5.64783630
 20
1.80836779
  0
VERTEX
  8
0
 10
5.66020180
 20
1.77159462
  0
VERTEX
  8
0
 10
5.65759657
 20
1.73423117
  0
VERTEX
  8
0
 10
5.64117104
 20
1.70057086
  0
VERTEX
  8
0
 10
5.61207562
 20
1.67490711
  0
VERTEX
  8
0
 10
5.57530245
 20
1.66254161
  0
VERTEX
  8
0
 10
5.53793900
 20
1.66514684
  0
VERTEX
  8
0
 10
5.50427869
 20
1.68157237
  0
VERTEX
  8
0
 10
5.47861494
 20
1.71066779
  0
VERTEX
  8
0
 10
5.46624944
 20
1.74744096
  0
VERTEX
  8
0
 10
5.46885467
 20
1.78480441
  0
VERTEX
  8
0
 10
5.48528020
 20
1.81846472
  0
VERTEX
  8
0
 10
5.51437562
 20
1.84412847
  0
SEQEND
  0
POLYLINE
  8
Default_Layer
 66
   1
 39
0.000000
 70
    1
  0
VERTEX
  8
0
 10
5.65518203
 20
1.60024463
  0
VERTEX
  8
0
 10
5.69195520
 20
1.61261012
  0
VERTEX
  8
0
 10
5.72931865
 20
1.61000490
  0
VERTEX
  8
0
 10
5.76297896
 20
1.59357937
  0
VERTEX
  8
0
 10
5.78864271
 20
1.56448394
  0
VERTEX
  8
0
 10
5.80100821
 20
1.52771077
  0
VERTEX
  8
0
 10
5.79840298
 20
1.49034732
  0
VERTEX
  8
0
 10
5.78197745
 20
1.45668701
  0
VERTEX
  8
0
 10
5.75288203
 20
1.43102326
  0
VERTEX
  8
0
 10
5.71610886
 20
1.41865776
  0
VERTEX
  8
0
 10
5.67874541
 20
1.42126299
  0
VERTEX
  8
0
 10
5.64508510
 20
1.43768852
  0
VERTEX
  8
0
 10
5.61942134
 20
1.46678394
  0
VERTEX
  8
0
 10
5.60705585
 20
1.50355712
  0
VERTEX
  8
0
 10
5.60966107
 20
1.54092057
  0
VERTEX
  8
0
 10
5.62608661
 20
1.57458088
  0
VERTEX
  8
0
 10
5.65518203
 20
1.60024463
  0
SEQEND
  0
POLYLINE
  8
Default_Layer
 66
   1
 39
0.000000
 70
    1
  0
VERTEX
  8
0
 10
5.79598843
 20
1.35636078
  0
VERTEX
  8
0
 10
5.83276160
 20
1.36872628
  0
VERTEX
  8
0
 10
5.87012505
 20
1.36612105
  0
VERTEX
  8
0
 10
5.90378536
 20
1.34969552
  0
VERTEX
  8
0
 10
5.92944911
 20
1.32060010
  0
VERTEX
  8
0
 10
5.94181461
 20
1.28382693
  0
VERTEX
  8
0
 10
5.93920939
 20
1.24646348
  0
VERTEX
  8
0
 10
5.92278385
 20
1.21280317
  0
VERTEX
  8
0
 10
5.89368843
 20
1.18713941
  0
VERTEX
  8
0
 10
5.85691526
 20
1.17477392
  0
VERTEX
  8
0
 10
5.81955181
 20
1.17737914
  0
VERTEX
  8
0
 10
5.78589150
 20
1.19380468
  0
VERTEX
  8
0
 10
5.76022775
 20
1.22290010
  0
VERTEX
  8
0
 10
5.74786225
 20
1.25967327
  0
VERTEX
  8
0
 10
5.75046748
 20
1.29703672
  0
VERTEX
  8
0
 10
5.76689301
 20
1.33069703
  0
VERTEX
  8
0
 10
5.79598843
 20
1.35636078
  0
SEQEND
  0
POLYLINE
  8
Default_Layer
 66
   1
 39
0.000000
 70
    1
  0
VERTEX
  8
0
 10
5.93679484
 20
1.11247693
  0
VERTEX
  8
0
 10
5.97356801
 20
1.12484243
  0
VERTEX
  8
0
 10
6.01093146
 20
1.12223720
  0
VERTEX
  8
0
 10
6.04459177
 20
1.10581167
  0
VERTEX
  8
0
 10
6.07025552
 20
1.07671625
  0
VERTEX
  8
0
 10
6.08262102
 20
1.03994308
  0
VERTEX
  8
0
 10
6.08001579
 20
1.00257963
  0
VERTEX
  8
0
 10
6.06359026
 20
0.96891932
  0
VERTEX
  8
0
 10
6.03449484
 20
0.94325557
  0
VERTEX
  8
0
 10
5.99772167
 20
0.93089007
  0
VERTEX
  8
0
 10
5.96035822
 20
0.93349529
  0
VERTEX
  8
0
 10
5.92669791
 20
0.94992083
  0
VERTEX
  8
0
 10
5.90103416
 20
0.97901625
  0
VERTEX
  8
0
 10
5.88866866
 20
1.01578942
  0
VERTEX
  8
0
 10
5.89127388
 20
1.05315287
  0
VERTEX
  8
0
 10
5.90769942
 20
1.08681318
  0
VERTEX
  8
0
 10
5.93679484
 20
1.11247693
  0
SEQEND
  0
POLYLINE
  8
Default_Layer
 66
   1
 39
0.000000
 70
    1
  0
VERTEX
  8
0
 10
6.04480647
 20
0.74620242
  0
VERTEX
  8
0
 10
6.03244097
 20
0.78297559
  0
VERTEX
  8
0
 10
6.03504620
 20
0.82033904
  0
VERTEX
  8
0
 10
6.05147173
 20
0.85399935
  0
VERTEX
  8
0
 10
6.08056715
 20
0.87966311
  0
VERTEX
  8
0
 10
6.11734033
 20
0.89202860
  0
VERTEX
  8
0
 10
6.15470378
 20
0.88942338
  0
VERTEX
  8
0
 10
6.18836408
 20
0.87299784
  0
VERTEX
  8
0
 10
6.21402784
 20
0.84390242
  0
VERTEX
  8
0
 10
6.22639333
 20
0.80712925
  0
VERTEX
  8
0
 10
6.22378811
 20
0.76976580
  0
VERTEX
  8
0
 10
6.20736258
 20
0.73610549
  0
VERTEX
  8
0
 10
6.17826715
 20
0.71044174
  0
VERTEX
  8
0
 10
6.14149398
 20
0.69807624
  0
VERTEX
  8
0
 10
6.10413053
 20
0.70068147
  0
VERTEX
  8
0
 10
6.07047022
 20
0.71710700
  0
VERTEX
  8
0
 10
6.04480647
 20
0.74620242
  0
SEQEND
  0
POLYLINE
  8
Default_Layer
 66
   1
 39
0.000000
 70
    1
  0
VERTEX
  8
0
 10
6.28867830
 20
0.88700189
  0
VERTEX
  8
0
 10
6.27631280
 20
0.92377506
  0
VERTEX
  8
0
 10
6.27891803
 20
0.96113851
  0
VERTEX
  8
0
 10
6.29534356
 20
0.99479882
  0
VERTEX
  8
0
 10
6.32443898
 20
1.02046257
  0
VERTEX
  8
0
 10
6.36121216
 20
1.03282807
  0
VERTEX
  8
0
 10
6.39857560
 20
1.03022284
  0
VERTEX
  8
0
 10
6.43223591
 20
1.01379731
  0
VERTEX
  8
0
 10
6.45789967
 20
0.98470189
  0
VERTEX
  8
0
 10
6.47026516
 20
0.94792872
  0
VERTEX
  8
0
 10
6.46765994
 20
0.91056527
  0
VERTEX
  8
0
 10
6.45123440
 20
0.87690496
  0
VERTEX
  8
0
 10
6.42213898
 20
0.85124121
  0
VERTEX
  8
0
 10
6.38536581
 20
0.83887571
  0
VERTEX
  8
0
 10
6.34800236
 20
0.84148094
  0
VERTEX
  8
0
 10
6.31434205
 20
0.85790647
  0
VERTEX
  8
0
 10
6.28867830
 20
0.88700189
  0
SEQEND
  0
POLYLINE
  8
Default_Layer
 66
   1
 39
0.000000
 70
    1
  0
VERTEX
  8
0
 10
6.53255013
 20
1.02780136
  0
VERTEX
  8
0
 10
6.52018463
 20
1.06457453
  0
VERTEX
  8
0
 10
6.52278986
 20
1.10193798
  0
VERTEX
  8
0
 10
6.53921539
 20
1.13559829
  0
VERTEX
  8
0
 10
6.56831081
 20
1.16126204
  0
VERTEX
  8
0
 10
6.60508398
 20
1.17362754
  0
VERTEX
  8
0
 10
6.64244743
 20
1.17102231
  0
VERTEX
  8
0
 10
6.67610774
 20
1.15459678
  0
VERTEX
  8
0
 10
6.70177150
 20
1.12550136
  0
VERTEX
  8
0
 10
6.71413699
 20
1.08872819
  0
VERTEX
  8
0
 10
6.71153177
 20
1.05136474
  0
VERTEX
  8
0
 10
6.69510623
 20
1.01770443
  0
VERTEX
  8
0
 10
6.66601081
 20
0.99204067
  0
VERTEX
  8
0
 10
6.62923764
 20
0.97967518
  0
VERTEX
  8
0
 10
6.59187419
 20
0.98228040
  0
VERTEX
  8
0
 10
6.55821388
 20
0.99870594
  0
VERTEX
  8
0
 10
6.53255013
 20
1.02780136
  0
SEQEND
  0
POLYLINE
  8
Default_Layer
 66
   1
 39
0.000000
 70
    1
  0
VERTEX
  8
0
 10
6.77642196
 20
1.16860082
  0
VERTEX
  8
0
 10
6.76405646
 20
1.20537399
  0
VERTEX
  8
0
 10
6.76666169
 20
1.24273744
  0
VERTEX
  8
0
 10
6.78308722
 20
1.27639775
  0
VERTEX
  8
0
 10
6.81218264
 20
1.30206151
  0
VERTEX
  8
0
 10
6.84895581
 20
1.31442700
  0
VERTEX
  8
0
 10
6.88631926
 20
1.31182178
  0
VERTEX
  8
0
 10
6.91997957
 20
1.29539624
  0
VERTEX
  8
0
 10
6.94564333
 20
1.26630082
  0
VERTEX
  8
0
 10
6.95800882
 20
1.22952765
  0
VERTEX
  8
0
 10
6.95540360
 20
1.19216420
  0
VERTEX
  8
0
 10
6.93897806
 20
1.15850389
  0
VERTEX
  8
0
 10
6.90988264
 20
1.13284014
  0
VERTEX
  8
0
 10
6.87310947
 20
1.12047464
  0
VERTEX
  8
0
 10
6.83574602
 20
1.12307987
  0
VERTEX
  8
0
 10
6.80208571
 20
1.13950540
  0
VERTEX
  8
0
 10
6.77642196
 20
1.16860082
  0
SEQEND
  0
POLYLINE
  8
Default_Layer
 66
   1
 39
0.000000
 70
    1
  0
VERTEX
  8
0
 10
7.01853932
 20
1.30838734
  0
VERTEX
  8
0
 10
7.00617382
 20
1.34516052
  0
VERTEX
  8
0
 10
7.00877905
 20
1.38252396
  0
VERTEX
  8
0
 10
7.02520458
 20
1.41618427
  0
VERTEX
  8
0
 10
7.05430000
 20
1.44184803
  0
VERTEX
  8
0
 10
7.09107317
 20
1.45421352
  0
VERTEX
  8
0
 10
7.12843662
 20
1.45160830
  0
VERTEX
  8
0
 10
7.16209693
 20
1.43518276
  0
VERTEX
  8
0
 10
7.18776068
 20
1.40608734
  0
VERTEX
  8
0
 10
7.20012618
 20
1.36931417
  0
VERTEX
  8
0
 10
7.19752095
 20
1.33195072
  0
VERTEX
  8
0
 10
7.18109542
 20
1.29829041
  0
VERTEX
  8
0
 10
7.15200000
 20
1.27262666
  0
VERTEX
  8
0
 10
7.11522683
 20
1.26026116
  0
VERTEX
  8
0
 10
7.07786338
 20
1.26286639
  0
VERTEX
  8
0
 10
7.04420307
 20
1.27929192
  0
VERTEX
  8
0
 10
7.01853932
 20
1.30838734
  0
SEQEND
  0
POLYLINE
  8
Default_Layer
 66
   1
 39
0.000000
 70
    1
  0
VERTEX
  8
0
 10
7.26241115
 20
1.44918681
  0
VERTEX
  8
0
 10
7.25004565
 20
1.48595998
  0
VERTEX
  8
0
 10
7.25265088
 20
1.52332343
  0
VERTEX
  8
0
 10
7.26907641
 20
1.55698374
  0
VERTEX
  8
0
 10
7.29817183
 20
1.58264749
  0
VERTEX
  8
0
 10
7.33494500
 20
1.59501299
  0
VERTEX
  8
0
 10
7.37230845
 20
1.59240776
  0
VERTEX
  8
0
 10
7.40596876
 20
1.57598223
  0
VERTEX
  8
0
 10
7.43163251
 20
1.54688681
  0
VERTEX
  8
0
 10
7.44399801
 20
1.51011364
  0
VERTEX
  8
0
 10
7.44139278
 20
1.47275019
  0
VERTEX
  8
0
 10
7.42496725
 20
1.43908988
  0
VERTEX
  8
0
 10
7.39587183
 20
1.41342613
  0
VERTEX
  8
0
 10
7.35909866
 20
1.40106063
  0
VERTEX
  8
0
 10
7.32173521
 20
1.40366586
  0
VERTEX
  8
0
 10
7.28807490
 20
1.42009139
  0
VERTEX
  8
0
 10
7.26241115
 20
1.44918681
  0
SEQEND
  0
POLYLINE
  8
Default_Layer
 66
   1
 39
0.000000
 70
    1
  0
VERTEX
  8
0
 10
7.50628298
 20
1.58998628
  0
VERTEX
  8
0
 10
7.49391748
 20
1.62675945
  0
VERTEX
  8
0
 10
7.49652271
 20
1.66412290
  0
VERTEX
  8
0
 10
7.51294824
 20
1.69778321
  0
VERTEX
  8
0
 10
7.54204366
 20
1.72344696
  0
VERTEX
  8
0
 10
7.57881683
 20
1.73581246
  0
VERTEX
  8
0
 10
7.61618028
 20
1.73320723
  0
VERTEX
  8
0
 10
7.64984059
 20
1.71678170
  0
VERTEX
  8
0
 10
7.67550434
 20
1.68768628
  0
VERTEX
  8
0
 10
7.68786984
 20
1.65091311
  0
VERTEX
  8
0
 10
7.68526461
 20
1.61354966
  0
VERTEX
  8
0
 10
7.66883908
 20
1.57988935
  0
VERTEX
  8
0
 10
7.63974366
 20
1.55422560
  0
VERTEX
  8
0
 10
7.60297049
 20
1.54186010
  0
VERTEX
  8
0
 10
7.56560704
 20
1.54446532
  0
VERTEX
  8
0
 10
7.53194673
 20
1.56089086
  0
VERTEX
  8
0
 10
7.50628298
 20
1.58998628
  0
SEQEND
  0
POLYLINE
  8
Default_Layer
 66
   1
 39
0.000000
 70
    1
  0
VERTEX
  8
0
 10
7.75015481
 20
1.73078574
  0
VERTEX
  8
0
 10
7.73778931
 20
1.76755891
  0
VERTEX
  8
0
 10
7.74039454
 20
1.80492236
  0
VERTEX
  8
0
 10
7.75682007
 20
1.83858267
  0
VERTEX
  8
0
 10
7.78591549
 20
1.86424643
  0
VERTEX
  8
0
 10
7.82268866
 20
1.87661192
  0
VERTEX
  8
0
 10
7.86005211
 20
1.87400670
  0
VERTEX
  8
0
 10
7.89371242
 20
1.85758116
  0
VERTEX
  8
0
 10
7.91937617
 20
1.82848574
  0
VERTEX
  8
0
 10
7.93174167
 20
1.79171257
  0
VERTEX
  8
0
 10
7.92913644
 20
1.75434912
  0
VERTEX
  8
0
 10
7.91271091
 20
1.72068881
  0
VERTEX
  8
0
 10
7.88361549
 20
1.69502506
  0
VERTEX
  8
0
 10
7.84684232
 20
1.68265956
  0
VERTEX
  8
0
 10
7.80947887
 20
1.68526479
  0
VERTEX
  8
0
 10
7.77581856
 20
1.70169032
  0
VERTEX
  8
0
 10
7.75015481
 20
1.73078574
  0
SEQEND
  0
POLYLINE
  8
Default_Layer
 66
   1
 39
0.000000
 70
    1
  0
VERTEX
  8
0
 10
7.99402664
 20
1.87158521
  0
VERTEX
  8
0
 10
7.98166114
 20
1.90835838
  0
VERTEX
  8
0
 10
7.98426637
 20
1.94572183
  0
VERTEX
  8
0
 10
8.00069190
 20
1.97938214
  0
VERTEX
  8
0
 10
8.02978732
 20
2.00504589
  0
VERTEX
  8
0
 10
8.06656049
 20
2.01741139
  0
VERTEX
  8
0
 10
8.10392394
 20
2.01480616
  0
VERTEX
  8
0
 10
8.13758425
 20
1.99838063
  0
VERTEX
  8
0
 10
8.16324800
 20
1.96928521
  0
VERTEX
  8
0
 10
8.17561350
 20
1.93251204
  0
VERTEX
  8
0
 10
8.17300827
 20
1.89514859
  0
VERTEX
  8
0
 10
8.15658274
 20
1.86148828
  0
VERTEX
  8
0
 10
8.12748732
 20
1.83582453
  0
VERTEX
  8
0
 10
8.09071415
 20
1.82345903
  0
VERTEX
  8
0
 10
8.05335070
 20
1.82606426
  0
VERTEX
  8
0
 10
8.01969039
 20
1.84248979
  0
VERTEX
  8
0
 10
7.99402664
 20
1.87158521
  0
SEQEND
  0
POLYLINE
  8
Default_Layer
 66
   1
 39
0.000000
 70
    1
  0
VERTEX
  8
0
 10
7.99498332
 20
2.07748353
  0
VERTEX
  8
0
 10
7.95821015
 20
2.06511804
  0
VERTEX
  8
0
 10
7.92084670
 20
2.06772326
  0
VERTEX
  8
0
 10
7.88718639
 20
2.08414880
  0
VERTEX
  8
0
 10
7.86152264
 20
2.11324422
  0
VERTEX
  8
0
 10
7.84915714
 20
2.15001739
  0
VERTEX
  8
0
 10
7.85176237
 20
2.18738084
  0
VERTEX
  8
0
 10
7.86818790
 20
2.22104115
  0
VERTEX
  8
0
 10
7.89728332
 20
2.24670490
  0
VERTEX
  8
0
 10
7.93405649
 20
2.25907040
  0
VERTEX
  8
0
 10
7.97141994
 20
2.25646517
  0
VERTEX
  8
0
 10
8.00508025
 20
2.24003964
  0
VERTEX
  8
0
 10
8.03074400
 20
2.21094422
  0
VERTEX
  8
0
 10
8.04310950
 20
2.17417104
  0
VERTEX
  8
0
 10
8.04050428
 20
2.13680760
  0
VERTEX
  8
0
 10
8.02407874
 20
2.10314729
  0
VERTEX
  8
0
 10
7.99498332
 20
2.07748353
  0
SEQEND
  0
POLYLINE
  8
Default_Layer
 66
   1
 39
0.000000
 70
    1
  0
VERTEX
  8
0
 10
7.85417692
 20
2.32136738
  0
VERTEX
  8
0
 10
7.81740375
 20
2.30900188
  0
VERTEX
  8
0
 10
7.78004030
 20
2.31160711
  0
VERTEX
  8
0
 10
7.74637999
 20
2.32803264
  0
VERTEX
  8
0
 10
7.72071623
 20
2.35712806
  0
VERTEX
  8
0
 10
7.70835074
 20
2.39390123
  0
VERTEX
  8
0
 10
7.71095596
 20
2.43126468
  0
VERTEX
  8
0
 10
7.72738150
 20
2.46492499
  0
VERTEX
  8
0
 10
7.75647692
 20
2.49058875
  0
VERTEX
  8
0
 10
7.79325009
 20
2.50295424
  0
VERTEX
  8
0
 10
7.83061354
 20
2.50034902
  0
VERTEX
  8
0
 10
7.86427385
 20
2.48392348
  0
VERTEX
  8
0
 10
7.88993760
 20
2.45482806
  0
VERTEX
  8
0
 10
7.90230310
 20
2.41805489
  0
VERTEX
  8
0
 10
7.89969787
 20
2.38069144
  0
VERTEX
  8
0
 10
7.88327234
 20
2.34703113
  0
VERTEX
  8
0
 10
7.85417692
 20
2.32136738
  0
SEQEND
  0
POLYLINE
  8
Default_Layer
 66
   1
 39
0.000000
 70
    1
  0
VERTEX
  8
0
 10
7.71337051
 20
2.56525123
  0
VERTEX
  8
0
 10
7.67659734
 20
2.55288573
  0
VERTEX
  8
0
 10
7.63923389
 20
2.55549096
  0
VERTEX
  8
0
 10
7.60557358
 20
2.57191649
  0
VERTEX
  8
0
 10
7.57990983
 20
2.60101191
  0
VERTEX
  8
0
 10
7.56754433
 20
2.63778508
  0
VERTEX
  8
0
 10
7.57014956
 20
2.67514853
  0
VERTEX
  8
0
 10
7.58657509
 20
2.70880884
  0
VERTEX
  8
0
 10
7.61567051
 20
2.73447259
  0
VERTEX
  8
0
 10
7.65244368
 20
2.74683809
  0
VERTEX
  8
0
 10
7.68980713
 20
2.74423287
  0
VERTEX
  8
0
 10
7.72346744
 20
2.72780733
  0
VERTEX
  8
0
 10
7.74913119
 20
2.69871191
  0
VERTEX
  8
0
 10
7.76149669
 20
2.66193874
  0
VERTEX
  8
0
 10
7.75889146
 20
2.62457529
  0
VERTEX
  8
0
 10
7.74246593
 20
2.59091498
  0
VERTEX
  8
0
 10
7.71337051
 20
2.56525123
  0
SEQEND
  0
POLYLINE
  8
Default_Layer
 66
   1
 39
0.000000
 70
    1
  0
VERTEX
  8
0
 10
7.57256411
 20
2.80913508
  0
VERTEX
  8
0
 10
7.53579093
 20
2.79676958
  0
VERTEX
  8
0
 10
7.49842749
 20
2.79937481
  0
VERTEX
  8
0
 10
7.46476718
 20
2.81580034
  0
VERTEX
  8
0
 10
7.43910342
 20
2.84489576
  0
VERTEX
  8
0
 10
7.42673793
 20
2.88166893
  0
VERTEX
  8
0
 10
7.42934315
 20
2.91903238
  0
VERTEX
  8
0
 10
7.44576869
 20
2.95269269
  0
VERTEX
  8
0
 10
7.47486411
 20
2.97835644
  0
VERTEX
  8
0
 10
7.51163728
 20
2.99072194
  0
VERTEX
  8
0
 10
7.54900073
 20
2.98811671
  0
VERTEX
  8
0
 10
7.58266104
 20
2.97169118
  0
VERTEX
  8
0
 10
7.60832479
 20
2.94259576
  0
VERTEX
  8
0
 10
7.62069029
 20
2.90582259
  0
VERTEX
  8
0
 10
7.61808506
 20
2.86845914
  0
VERTEX
  8
0
 10
7.60165953
 20
2.83479883
  0
VERTEX
  8
0
 10
7.57256411
 20
2.80913508
  0
SEQEND
  0
POLYLINE
  8
Default_Layer
 66
   1
 39
0.000000
 70
    1
  0
VERTEX
  8
0
 10
7.43175770
 20
3.05301893
  0
VERTEX
  8
0
 10
7.39498453
 20
3.04065343
  0
VERTEX
  8
0
 10
7.35762108
 20
3.04325865
  0
VERTEX
  8
0
 10
7.32396077
 20
3.05968419
  0
VERTEX
  8
0
 10
7.29829702
 20
3.08877961
  0
VERTEX
  8
0
 10
7.28593152
 20
3.12555278
  0
VERTEX
  8
0
 10
7.28853675
 20
3.16291623
  0
VERTEX
  8
0
 10
7.30496228
 20
3.19657654
  0
VERTEX
  8
0
 10
7.33405770
 20
3.22224029
  0
VERTEX
  8
0
 10
7.37083087
 20
3.23460579
  0
VERTEX
  8
0
 10
7.40819432
 20
3.23200056
  0
VERTEX
  8
0
 10
7.44185463
 20
3.21557503
  0
VERTEX
  8
0
 10
7.46751838
 20
3.18647961
  0
VERTEX
  8
0
 10
7.47988388
 20
3.14970644
  0
VERTEX
  8
0
 10
7.47727865
 20
3.11234299
  0
VERTEX
  8
0
 10
7.46085312
 20
3.07868268
  0
VERTEX
  8
0
 10
7.43175770
 20
3.05301893
  0
SEQEND
  0
POLYLINE
  8
Default_Layer
 66
   1
 39
0.000000
 70
    1
  0
VERTEX
  8
0
 10
7.29095129
 20
3.29690277
  0
VERTEX
  8
0
 10
7.25417812
 20
3.28453728
  0
VERTEX
  8
0
 10
7.21681467
 20
3.28714250
  0
VERTEX
  8
0
 10
7.18315436
 20
3.30356804
  0
VERTEX
  8
0
 10
7.15749061
 20
3.33266346
  0
VERTEX
  8
0
 10
7.14512512
 20
3.36943663
  0
VERTEX
  8
0
 10
7.14773034
 20
3.40680008
  0
VERTEX
  8
0
 10
7.16415587
 20
3.44046039
  0
VERTEX
  8
0
 10
7.19325129
 20
3.46612414
  0
VERTEX
  8
0
 10
7.23002447
 20
3.47848964
  0
VERTEX
  8
0
 10
7.26738792
 20
3.47588441
  0
VERTEX
  8
0
 10
7.30104823
 20
3.45945888
  0
VERTEX
  8
0
 10
7.32671198
 20
3.43036346
  0
VERTEX
  8
0
 10
7.33907747
 20
3.39359029
  0
VERTEX
  8
0
 10
7.33647225
 20
3.35622684
  0
VERTEX
  8
0
 10
7.32004672
 20
3.32256653
  0
VERTEX
  8
0
 10
7.29095129
 20
3.29690277
  0
SEQEND
  0
POLYLINE
  8
Default_Layer
 66
   1
 39
0.000000
 70
    1
  0
VERTEX
  8
0
 10
7.15014489
 20
3.54078662
  0
VERTEX
  8
0
 10
7.11337172
 20
3.52842112
  0
VERTEX
  8
0
 10
7.07600827
 20
3.53102635
  0
VERTEX
  8
0
 10
7.04234796
 20
3.54745188
  0
VERTEX
  8
0
 10
7.01668421
 20
3.57654730
  0
VERTEX
  8
0
 10
7.00431871
 20
3.61332048
  0
VERTEX
  8
0
 10
7.00692394
 20
3.65068393
  0
VERTEX
  8
0
 10
7.02334947
 20
3.68434424
  0
VERTEX
  8
0
 10
7.05244489
 20
3.71000799
  0
VERTEX
  8
0
 10
7.08921806
 20
3.72237348
  0
VERTEX
  8
0
 10
7.12658151
 20
3.71976826
  0
VERTEX
  8
0
 10
7.16024182
 20
3.70334273
  0
VERTEX
  8
0
 10
7.18590557
 20
3.67424730
  0
VERTEX
  8
0
 10
7.19827107
 20
3.63747413
  0
VERTEX
  8
0
 10
7.19566584
 20
3.60011068
  0
VERTEX
  8
0
 10
7.17924031
 20
3.56645037
  0
VERTEX
  8
0
 10
7.15014489
 20
3.54078662
  0
SEQEND
  0
POLYLINE
  8
Default_Layer
 66
   1
 39
0.000000
 70
    1
  0
VERTEX
  8
0
 10
6.86380148
 20
3.86752659
  0
VERTEX
  8
0
 10
6.87147923
 20
3.90555584
  0
VERTEX
  8
0
 10
6.89241715
 20
3.93661093
  0
VERTEX
  8
0
 10
6.92347223
 20
3.95754884
  0
VERTEX
  8
0
 10
6.96150148
 20
3.96522659
  0
VERTEX
  8
0
 10
6.99953073
 20
3.95754884
  0
VERTEX
  8
0
 10
7.03058581
 20
3.93661093
  0
VERTEX
  8
0
 10
7.05152373
 20
3.90555584
  0
VERTEX
  8
0
 10
7.05920148
 20
3.86752659
  0
VERTEX
  8
0
 10
7.05152373
 20
3.82949734
  0
VERTEX
  8
0
 10
7.03058581
 20
3.79844226
  0
VERTEX
  8
0
 10
6.99953073
 20
3.77750434
  0
VERTEX
  8
0
 10
6.96150148
 20
3.76982659
  0
VERTEX
  8
0
 10
6.92347223
 20
3.77750434
  0
VERTEX
  8
0
 10
6.89241715
 20
3.79844226
  0
VERTEX
  8
0
 10
6.87147923
 20
3.82949734
  0
VERTEX
  8
0
 10
6.86380148
 20
3.86752659
  0
SEQEND
  0
POLYLINE
  8
Default_Layer
 66
   1
 39
0.000000
 70
    1
  0
VERTEX
  8
0
 10
7.14541429
 20
3.86752659
  0
VERTEX
  8
0
 10
7.15309204
 20
3.90555584
  0
VERTEX
  8
0
 10
7.17402996
 20
3.93661093
  0
VERTEX
  8
0
 10
7.20508504
 20
3.95754884
  0
VERTEX
  8
0
 10
7.24311429
 20
3.96522659
  0
VERTEX
  8
0
 10
7.28114354
 20
3.95754884
  0
VERTEX
  8
0
 10
7.31219862
 20
3.93661093
  0
VERTEX
  8
0
 10
7.33313654
 20
3.90555584
  0
VERTEX
  8
0
 10
7.34081429
 20
3.86752659
  0
VERTEX
  8
0
 10
7.33313654
 20
3.82949734
  0
VERTEX
  8
0
 10
7.31219862
 20
3.79844226
  0
VERTEX
  8
0
 10
7.28114354
 20
3.77750434
  0
VERTEX
  8
0
 10
7.24311429
 20
3.76982659
  0
VERTEX
  8
0
 10
7.20508504
 20
3.77750434
  0
VERTEX
  8
0
 10
7.17402996
 20
3.79844226
  0
VERTEX
  8
0
 10
7.15309204
 20
3.82949734
  0
VERTEX
  8
0
 10
7.14541429
 20
3.86752659
  0
SEQEND
  0
POLYLINE
  8
Default_Layer
 66
   1
 39
0.000000
 70
    1
  0
VERTEX
  8
0
 10
7.42702710
 20
3.86752659
  0
VERTEX
  8
0
 10
7.43470485
 20
3.90555584
  0
VERTEX
  8
0
 10
7.45564277
 20
3.93661093
  0
VERTEX
  8
0
 10
7.48669785
 20
3.95754884
  0
VERTEX
  8
0
 10
7.52472710
 20
3.96522659
  0
VERTEX
  8
0
 10
7.56275635
 20
3.95754884
  0
VERTEX
  8
0
 10
7.59381143
 20
3.93661093
  0
VERTEX
  8
0
 10
7.61474935
 20
3.90555584
  0
VERTEX
  8
0
 10
7.62242710
 20
3.86752659
  0
VERTEX
  8
0
 10
7.61474935
 20
3.82949734
  0
VERTEX
  8
0
 10
7.59381143
 20
3.79844226
  0
VERTEX
  8
0
 10
7.56275635
 20
3.77750434
  0
VERTEX
  8
0
 10
7.52472710
 20
3.76982659
  0
VERTEX
  8
0
 10
7.48669785
 20
3.77750434
  0
VERTEX
  8
0
 10
7.45564277
 20
3.79844226
  0
VERTEX
  8
0
 10
7.43470485
 20
3.82949734
  0
VERTEX
  8
0
 10
7.42702710
 20
3.86752659
  0
SEQEND
  0
POLYLINE
  8
Default_Layer
 66
   1
 39
0.000000
 70
    1
  0
VERTEX
  8
0
 10
7.70863991
 20
3.86752659
  0
VERTEX
  8
0
 10
7.71631766
 20
3.90555584
  0
VERTEX
  8
0
 10
7.73725558
 20
3.93661093
  0
VERTEX
  8
0
 10
7.76831066
 20
3.95754884
  0
VERTEX
  8
0
 10
7.80633991
 20
3.96522659
  0
VERTEX
  8
0
 10
7.84436916
 20
3.95754884
  0
VERTEX
  8
0
 10
7.87542424
 20
3.93661093
  0
VERTEX
  8
0
 10
7.89636216
 20
3.90555584
  0
VERTEX
  8
0
 10
7.90403991
 20
3.86752659
  0
VERTEX
  8
0
 10
7.89636216
 20
3.82949734
  0
VERTEX
  8
0
 10
7.87542424
 20
3.79844226
  0
VERTEX
  8
0
 10
7.84436916
 20
3.77750434
  0
VERTEX
  8
0
 10
7.80633991
 20
3.76982659
  0
VERTEX
  8
0
 10
7.76831066
 20
3.77750434
  0
VERTEX
  8
0
 10
7.73725558
 20
3.79844226
  0
VERTEX
  8
0
 10
7.71631766
 20
3.82949734
  0
VERTEX
  8
0
 10
7.70863991
 20
3.86752659
  0
SEQEND
  0
POLYLINE
  8
Default_Layer
 66
   1
 39
0.000000
 70
    1
  0
VERTEX
  8
0
 10
7.99025272
 20
3.86752659
  0
VERTEX
  8
0
 10
7.99793047
 20
3.90555584
  0
VERTEX
  8
0
 10
8.01886839
 20
3.93661093
  0
VERTEX
  8
0
 10
8.04992347
 20
3.95754884
  0
VERTEX
  8
0
 10
8.08795272
 20
3.96522659
  0
VERTEX
  8
0
 10
8.12598197
 20
3.95754884
  0
VERTEX
  8
0
 10
8.15703706
 20
3.93661093
  0
VERTEX
  8
0
 10
8.17797497
 20
3.90555584
  0
VERTEX
  8
0
 10
8.18565272
 20
3.86752659
  0
VERTEX
  8
0
 10
8.17797497
 20
3.82949734
  0
VERTEX
  8
0
 10
8.15703706
 20
3.79844226
  0
VERTEX
  8
0
 10
8.12598197
 20
3.77750434
  0
VERTEX
  8
0
 10
8.08795272
 20
3.76982659
  0
VERTEX
  8
0
 10
8.04992347
 20
3.77750434
  0
VERTEX
  8
0
 10
8.01886839
 20
3.79844226
  0
VERTEX
  8
0
 10
7.99793047
 20
3.82949734
  0
VERTEX
  8
0
 10
7.99025272
 20
3.86752659
  0
SEQEND
  0
POLYLINE
  8
Default_Layer
 66
   1
 39
0.000000
 70
    1
  0
VERTEX
  8
0
 10
8.27186553
 20
3.86752659
  0
VERTEX
  8
0
 10
8.27954328
 20
3.90555584
  0
VERTEX
  8
0
 10
8.30048120
 20
3.93661093
  0
VERTEX
  8
0
 10
8.33153628
 20
3.95754884
  0
VERTEX
  8
0
 10
8.36956553
 20
3.96522659
  0
VERTEX
  8
0
 10
8.40759478
 20
3.95754884
  0
VERTEX
  8
0
 10
8.43864987
 20
3.93661093
  0
VERTEX
  8
0
 10
8.45958778
 20
3.90555584
  0
VERTEX
  8
0
 10
8.46726553
 20
3.86752659
  0
VERTEX
  8
0
 10
8.45958778
 20
3.82949734
  0
VERTEX
  8
0
 10
8.43864987
 20
3.79844226
  0
VERTEX
  8
0
 10
8.40759478
 20
3.77750434
  0
VERTEX
  8
0
 10
8.36956553
 20
3.76982659
  0
VERTEX
  8
0
 10
8.33153628
 20
3.77750434
  0
VERTEX
  8
0
 10
8.30048120
 20
3.79844226
  0
VERTEX
  8
0
 10
8.27954328
 20
3.82949734
  0
VERTEX
  8
0
 10
8.27186553
 20
3.86752659
  0
SEQEND
  0
POLYLINE
  8
Default_Layer
 66
   1
 39
0.000000
 70
    1
  0
VERTEX
  8
0
 10
8.55347834
 20
3.86752659
  0
VERTEX
  8
0
 10
8.56115609
 20
3.90555584
  0
VERTEX
  8
0
 10
8.58209401
 20
3.93661093
  0
VERTEX
  8
0
 10
8.61314910
 20
3.95754884
  0
VERTEX
  8
0
 10
8.65117834
 20
3.96522659
  0
VERTEX
  8
0
 10
8.68920759
 20
3.95754884
  0
VERTEX
  8
0
 10
8.72026268
 20
3.93661093
  0
VERTEX
  8
0
 10
8.74120059
 20
3.90555584
  0
VERTEX
  8
0
 10
8.74887834
 20
3.86752659
  0
VERTEX
  8
0
 10
8.74120059
 20
3.82949734
  0
VERTEX
  8
0
 10
8.72026268
 20
3.79844226
  0
VERTEX
  8
0
 10
8.68920759
 20
3.77750434
  0
VERTEX
  8
0
 10
8.65117834
 20
3.76982659
  0
VERTEX
  8
0
 10
8.61314910
 20
3.77750434
  0
VERTEX
  8
0
 10
8.58209401
 20
3.79844226
  0
VERTEX
  8
0
 10
8.56115609
 20
3.82949734
  0
VERTEX
  8
0
 10
8.55347834
 20
3.86752659
  0
SEQEND
  0
POLYLINE
  8
Default_Layer
 66
   1
 39
0.000000
 70
    1
  0
VERTEX
  8
0
 10
8.83509116
 20
3.86752659
  0
VERTEX
  8
0
 10
8.84276891
 20
3.90555584
  0
VERTEX
  8
0
 10
8.86370682
 20
3.93661093
  0
VERTEX
  8
0
 10
8.89476191
 20
3.95754884
  0
VERTEX
  8
0
 10
8.93279116
 20
3.96522659
  0
VERTEX
  8
0
 10
8.97082040
 20
3.95754884
  0
VERTEX
  8
0
 10
9.00187549
 20
3.93661093
  0
VERTEX
  8
0
 10
9.02281340
 20
3.90555584
  0
VERTEX
  8
0
 10
9.03049116
 20
3.86752659
  0
VERTEX
  8
0
 10
9.02281340
 20
3.82949734
  0
VERTEX
  8
0
 10
9.00187549
 20
3.79844226
  0
VERTEX
  8
0
 10
8.97082040
 20
3.77750434
  0
VERTEX
  8
0
 10
8.93279116
 20
3.76982659
  0
VERTEX
  8
0
 10
8.89476191
 20
3.77750434
  0
VERTEX
  8
0
 10
8.86370682
 20
3.79844226
  0
VERTEX
  8
0
 10
8.84276891
 20
3.82949734
  0
VERTEX
  8
0
 10
8.83509116
 20
3.86752659
  0
SEQEND
  0
POLYLINE
  8
Default_Layer
 66
   1
 39
0.000000
 70
    1
  0
VERTEX
  8
0
 10
9.20630000
 20
3.77793016
  0
VERTEX
  8
0
 10
9.16827075
 20
3.78560791
  0
VERTEX
  8
0
 10
9.13721567
 20
3.80654583
  0
VERTEX
  8
0
 10
9.11627775
 20
3.83760091
  0
VERTEX
  8
0
 10
9.10860000
 20
3.87563016
  0
VERTEX
  8
0
 10
9.11627775
 20
3.91365941
  0
VERTEX
  8
0
 10
9.13721567
 20
3.94471449
  0
VERTEX
  8
0
 10
9.16827075
 20
3.96565241
  0
VERTEX
  8
0
 10
9.20630000
 20
3.97333016
  0
VERTEX
  8
0
 10
9.24432925
 20
3.96565241
  0
VERTEX
  8
0
 10
9.27538433
 20
3.94471449
  0
VERTEX
  8
0
 10
9.29632225
 20
3.91365941
  0
VERTEX
  8
0
 10
9.30400000
 20
3.87563016
  0
VERTEX
  8
0
 10
9.29632225
 20
3.83760091
  0
VERTEX
  8
0
 10
9.27538433
 20
3.80654583
  0
VERTEX
  8
0
 10
9.24432925
 20
3.78560791
  0
VERTEX
  8
0
 10
9.20630000
 20
3.77793016
  0
SEQEND
  0
POLYLINE
  8
Default_Layer
 66
   1
 39
0.000000
 70
    1
  0
VERTEX
  8
0
 10
9.20630000
 20
4.05952909
  0
VERTEX
  8
0
 10
9.16827075
 20
4.06720684
  0
VERTEX
  8
0
 10
9.13721567
 20
4.08814476
  0
VERTEX
  8
0
 10
9.11627775
 20
4.11919984
  0
VERTEX
  8
0
 10
9.10860000
 20
4.15722909
  0
VERTEX
  8
0
 10
9.11627775
 20
4.19525834
  0
VERTEX
  8
0
 10
9.13721567
 20
4.22631342
  0
VERTEX
  8
0
 10
9.16827075
 20
4.24725134
  0
VERTEX
  8
0
 10
9.20630000
 20
4.25492909
  0
VERTEX
  8
0
 10
9.24432925
 20
4.24725134
  0
VERTEX
  8
0
 10
9.27538433
 20
4.22631342
  0
VERTEX
  8
0
 10
9.29632225
 20
4.19525834
  0
VERTEX
  8
0
 10
9.30400000
 20
4.15722909
  0
VERTEX
  8
0
 10
9.29632225
 20
4.11919984
  0
VERTEX
  8
0
 10
9.27538433
 20
4.08814476
  0
VERTEX
  8
0
 10
9.24432925
 20
4.06720684
  0
VERTEX
  8
0
 10
9.20630000
 20
4.05952909
  0
SEQEND
  0
POLYLINE
  8
Default_Layer
 66
   1
 39
0.000000
 70
    1
  0
VERTEX
  8
0
 10
9.20630000
 20
4.34112803
  0
VERTEX
  8
0
 10
9.16827075
 20
4.34880578
  0
VERTEX
  8
0
 10
9.13721567
 20
4.36974369
  0
VERTEX
  8
0
 10
9.11627775
 20
4.40079878
  0
VERTEX
  8
0
 10
9.10860000
 20
4.43882803
  0
VERTEX
  8
0
 10
9.11627775
 20
4.47685727
  0
VERTEX
  8
0
 10
9.13721567
 20
4.50791236
  0
VERTEX
  8
0
 10
9.16827075
 20
4.52885027
  0
VERTEX
  8
0
 10
9.20630000
 20
4.53652803
  0
VERTEX
  8
0
 10
9.24432925
 20
4.52885027
  0
VERTEX
  8
0
 10
9.27538433
 20
4.50791236
  0
VERTEX
  8
0
 10
9.29632225
 20
4.47685727
  0
VERTEX
  8
0
 10
9.30400000
 20
4.43882803
  0
VERTEX
  8
0
 10
9.29632225
 20
4.40079878
  0
VERTEX
  8
0
 10
9.27538433
 20
4.36974369
  0
VERTEX
  8
0
 10
9.24432925
 20
4.34880578
  0
VERTEX
  8
0
 10
9.20630000
 20
4.34112803
  0
SEQEND
  0
POLYLINE
  8
Default_Layer
 66
   1
 39
0.000000
 70
    1
  0
VERTEX
  8
0
 10
9.20630000
 20
4.62272696
  0
VERTEX
  8
0
 10
9.16827075
 20
4.63040471
  0
VERTEX
  8
0
 10
9.13721567
 20
4.65134263
  0
VERTEX
  8
0
 10
9.11627775
 20
4.68239771
  0
VERTEX
  8
0
 10
9.10860000
 20
4.72042696
  0
VERTEX
  8
0
 10
9.11627775
 20
4.75845621
  0
VERTEX
  8
0
 10
9.13721567
 20
4.78951129
  0
VERTEX
  8
0
 10
9.16827075
 20
4.81044921
  0
VERTEX
  8
0
 10
9.20630000
 20
4.81812696
  0
VERTEX
  8
0
 10
9.24432925
 20
4.81044921
  0
VERTEX
  8
0
 10
9.27538433
 20
4.78951129
  0
VERTEX
  8
0
 10
9.29632225
 20
4.75845621
  0
VERTEX
  8
0
 10
9.30400000
 20
4.72042696
  0
VERTEX
  8
0
 10
9.29632225
 20
4.68239771
  0
VERTEX
  8
0
 10
9.27538433
 20
4.65134263
  0
VERTEX
  8
0
 10
9.24432925
 20
4.63040471
  0
VERTEX
  8
0
 10
9.20630000
 20
4.62272696
  0
SEQEND
  0
POLYLINE
  8
Default_Layer
 66
   1
 39
0.000000
 70
    1
  0
VERTEX
  8
0
 10
9.20630000
 20
4.90230000
  0
VERTEX
  8
0
 10
9.16827075
 20
4.90997775
  0
VERTEX
  8
0
 10
9.13721567
 20
4.93091567
  0
VERTEX
  8
0
 10
9.11627775
 20
4.96197075
  0
VERTEX
  8
0
 10
9.10860000
 20
5.00000000
  0
VERTEX
  8
0
 10
9.11627775
 20
5.03802925
  0
VERTEX
  8
0
 10
9.13721567
 20
5.06908433
  0
VERTEX
  8
0
 10
9.16827075
 20
5.09002225
  0
VERTEX
  8
0
 10
9.20630000
 20
5.09770000
  0
VERTEX
  8
0
 10
9.24432925
 20
5.09002225
  0
VERTEX
  8
0
 10
9.27538433
 20
5.06908433
  0
VERTEX
  8
0
 10
9.29632225
 20
5.03802925
  0
VERTEX
  8
0
 10
9.30400000
 20
5.00000000
  0
VERTEX
  8
0
 10
9.29632225
 20
4.96197075
  0
VERTEX
  8
0
 10
9.27538433
 20
4.93091567
  0
VERTEX
  8
0
 10
9.24432925
 20
4.90997775
  0
VERTEX
  8
0
 10
9.20630000
 20
4.90230000
  0
SEQEND
  0
POLYLINE
  8
Default_Layer
 66
   1
 39
0.000000
 70
    1
  0
VERTEX
  8
0
 10
9.20630000
 20
5.18389893
  0
VERTEX
  8
0
 10
9.16827075
 20
5.19157668
  0
VERTEX
  8
0
 10
9.13721567
 20
5.21251460
  0
VERTEX
  8
0
 10
9.11627775
 20
5.24356968
  0
VERTEX
  8
0
 10
9.10860000
 20
5.28159893
  0
VERTEX
  8
0
 10
9.11627775
 20
5.31962818
  0
VERTEX
  8
0
 10
9.13721567
 20
5.35068327
  0
VERTEX
  8
0
 10
9.16827075
 20
5.37162118
  0
VERTEX
  8
0
 10
9.20630000
 20
5.37929893
  0
VERTEX
  8
0
 10
9.24432925
 20
5.37162118
  0
VERTEX
  8
0
 10
9.27538433
 20
5.35068327
  0
VERTEX
  8
0
 10
9.29632225
 20
5.31962818
  0
VERTEX
  8
0
 10
9.30400000
 20
5.28159893
  0
VERTEX
  8
0
 10
9.29632225
 20
5.24356968
  0
VERTEX
  8
0
 10
9.27538433
 20
5.21251460
  0
VERTEX
  8
0
 10
9.24432925
 20
5.19157668
  0
VERTEX
  8
0
 10
9.20630000
 20
5.18389893
  0
SEQEND
  0
POLYLINE
  8
Default_Layer
 66
   1
 39
0.000000
 70
    1
  0
VERTEX
  8
0
 10
9.20630000
 20
5.46549787
  0
VERTEX
  8
0
 10
9.16827075
 20
5.47317562
  0
VERTEX
  8
0
 10
9.13721567
 20
5.49411353
  0
VERTEX
  8
0
 10
9.11627775
 20
5.52516862
  0
VERTEX
  8
0
 10
9.10860000
 20
5.56319787
  0
VERTEX
  8
0
 10
9.11627775
 20
5.60122712
  0
VERTEX
  8
0
 10
9.13721567
 20
5.63228220
  0
VERTEX
  8
0
 10
9.16827075
 20
5.65322012
  0
VERTEX
  8
0
 10
9.20630000
 20
5.66089787
  0
VERTEX
  8
0
 10
9.24432925
 20
5.65322012
  0
VERTEX
  8
0
 10
9.27538433
 20
5.63228220
  0
VERTEX
  8
0
 10
9.29632225
 20
5.60122712
  0
VERTEX
  8
0
 10
9.30400000
 20
5.56319787
  0
VERTEX
  8
0
 10
9.29632225
 20
5.52516862
  0
VERTEX
  8
0
 10
9.27538433
 20
5.49411353
  0
VERTEX
  8
0
 10
9.24432925
 20
5.47317562
  0
VERTEX
  8
0
 10
9.20630000
 20
5.46549787
  0
SEQEND
  0
POLYLINE
  8
Default_Layer
 66
   1
 39
0.000000
 70
    1
  0
VERTEX
  8
0
 10
9.20630000
 20
5.74709680
  0
VERTEX
  8
0
 10
9.16827075
 20
5.75477455
  0
VERTEX
  8
0
 10
9.13721567
 20
5.77571247
  0
VERTEX
  8
0
 10
9.11627775
 20
5.80676755
  0
VERTEX
  8
0
 10
9.10860000
 20
5.84479680
  0
VERTEX
  8
0
 10
9.11627775
 20
5.88282605
  0
VERTEX
  8
0
 10
9.13721567
 20
5.91388113
  0
VERTEX
  8
0
 10
9.16827075
 20
5.93481905
  0
VERTEX
  8
0
 10
9.20630000
 20
5.94249680
  0
VERTEX
  8
0
 10
9.24432925
 20
5.93481905
  0
VERTEX
  8
0
 10
9.27538433
 20
5.91388113
  0
VERTEX
  8
0
 10
9.29632225
 20
5.88282605
  0
VERTEX
  8
0
 10
9.30400000
 20
5.84479680
  0
VERTEX
  8
0
 10
9.29632225
 20
5.80676755
  0
VERTEX
  8
0
 10
9.27538433
 20
5.77571247
  0
VERTEX
  8
0
 10
9.24432925
 20
5.75477455
  0
VERTEX
  8
0
 10
9.20630000
 20
5.74709680
  0
SEQEND
  0
POLYLINE
  8
Default_Layer
 66
   1
 39
0.000000
 70
    1
  0
VERTEX
  8
0
 10
9.20630000
 20
6.02869573
  0
VERTEX
  8
0
 10
9.16827075
 20
6.03637348
  0
VERTEX
  8
0
 10
9.13721567
 20
6.05731140
  0
VERTEX
  8
0
 10
9.11627775
 20
6.08836648
  0
VERTEX
  8
0
 10
9.10860000
 20
6.12639573
  0
VERTEX
  8
0
 10
9.11627775
 20
6.16442498
  0
VERTEX
  8
0
 10
9.13721567
 20
6.19548007
  0
VERTEX
  8
0
 10
9.16827075
 20
6.21641798
  0
VERTEX
  8
0
 10
9.20630000
 20
6.22409573
  0
VERTEX
  8
0
 10
9.24432925
 20
6.21641798
  0
VERTEX
  8
0
 10
9.27538433
 20
6.19548007
  0
VERTEX
  8
0
 10
9.29632225
 20
6.16442498
  0
VERTEX
  8
0
 10
9.30400000
 20
6.12639573
  0
VERTEX
  8
0
 10
9.29632225
 20
6.08836648
  0
VERTEX
  8
0
 10
9.27538433
 20
6.05731140
  0
VERTEX
  8
0
 10
9.24432925
 20
6.03637348
  0
VERTEX
  8
0
 10
9.20630000
 20
6.02869573
  0
SEQEND
  0
POLYLINE
  8
Default_Layer
 66
   1
 39
0.000000
 70
    1
  0
VERTEX
  8
0
 10
9.02846516
 20
6.13247341
  0
VERTEX
  8
0
 10
9.02078741
 20
6.09444416
  0
VERTEX
  8
0
 10
8.99984950
 20
6.06338907
  0
VERTEX
  8
0
 10
8.96879441
 20
6.04245116
  0
VERTEX
  8
0
 10
8.93076516
 20
6.03477341
  0
VERTEX
  8
0
 10
8.89273591
 20
6.04245116
  0
VERTEX
  8
0
 10
8.86168083
 20
6.06338907
  0
VERTEX
  8
0
 10
8.84074291
 20
6.09444416
  0
VERTEX
  8
0
 10
8.83306516
 20
6.13247341
  0
VERTEX
  8
0
 10
8.84074291
 20
6.17050266
  0
VERTEX
  8
0
 10
8.86168083
 20
6.20155774
  0
VERTEX
  8
0
 10
8.89273591
 20
6.22249566
  0
VERTEX
  8
0
 10
8.93076516
 20
6.23017341
  0
VERTEX
  8
0
 10
8.96879441
 20
6.22249566
  0
VERTEX
  8
0
 10
8.99984950
 20
6.20155774
  0
VERTEX
  8
0
 10
9.02078741
 20
6.17050266
  0
VERTEX
  8
0
 10
9.02846516
 20
6.13247341
  0
SEQEND
  0
POLYLINE
  8
Default_Layer
 66
   1
 39
0.000000
 70
    1
  0
VERTEX
  8
0
 10
8.74685235
 20
6.13247341
  0
VERTEX
  8
0
 10
8.73917460
 20
6.09444416
  0
VERTEX
  8
0
 10
8.71823669
 20
6.06338907
  0
VERTEX
  8
0
 10
8.68718160
 20
6.04245116
  0
VERTEX
  8
0
 10
8.64915235
 20
6.03477341
  0
VERTEX
  8
0
 10
8.61112310
 20
6.04245116
  0
VERTEX
  8
0
 10
8.58006802
 20
6.06338907
  0
VERTEX
  8
0
 10
8.55913010
 20
6.09444416
  0
VERTEX
  8
0
 10
8.55145235
 20
6.13247341
  0
VERTEX
  8
0
 10
8.55913010
 20
6.17050266
  0
VERTEX
  8
0
 10
8.58006802
 20
6.20155774
  0
VERTEX
  8
0
 10
8.61112310
 20
6.22249566
  0
VERTEX
  8
0
 10
8.64915235
 20
6.23017341
  0
VERTEX
  8
0
 10
8.68718160
 20
6.22249566
  0
VERTEX
  8
0
 10
8.71823669
 20
6.20155774
  0
VERTEX
  8
0
 10
8.73917460
 20
6.17050266
  0
VERTEX
  8
0
 10
8.74685235
 20
6.13247341
  0
SEQEND
  0
POLYLINE
  8
Default_Layer
 66
   1
 39
0.000000
 70
    1
  0
VERTEX
  8
0
 10
8.46523954
 20
6.13247341
  0
VERTEX
  8
0
 10
8.45756179
 20
6.09444416
  0
VERTEX
  8
0
 10
8.43662387
 20
6.06338907
  0
VERTEX
  8
0
 10
8.40556879
 20
6.04245116
  0
VERTEX
  8
0
 10
8.36753954
 20
6.03477341
  0
VERTEX
  8
0
 10
8.32951029
 20
6.04245116
  0
VERTEX
  8
0
 10
8.29845521
 20
6.06338907
  0
VERTEX
  8
0
 10
8.27751729
 20
6.09444416
  0
VERTEX
  8
0
 10
8.26983954
 20
6.13247341
  0
VERTEX
  8
0
 10
8.27751729
 20
6.17050266
  0
VERTEX
  8
0
 10
8.29845521
 20
6.20155774
  0
VERTEX
  8
0
 10
8.32951029
 20
6.22249566
  0
VERTEX
  8
0
 10
8.36753954
 20
6.23017341
  0
VERTEX
  8
0
 10
8.40556879
 20
6.22249566
  0
VERTEX
  8
0
 10
8.43662387
 20
6.20155774
  0
VERTEX
  8
0
 10
8.45756179
 20
6.17050266
  0
VERTEX
  8
0
 10
8.46523954
 20
6.13247341
  0
SEQEND
  0
POLYLINE
  8
Default_Layer
 66
   1
 39
0.000000
 70
    1
  0
VERTEX
  8
0
 10
8.18362673
 20
6.13247341
  0
VERTEX
  8
0
 10
8.17594898
 20
6.09444416
  0
VERTEX
  8
0
 10
8.15501106
 20
6.06338907
  0
VERTEX
  8
0
 10
8.12395598
 20
6.04245116
  0
VERTEX
  8
0
 10
8.08592673
 20
6.03477341
  0
VERTEX
  8
0
 10
8.04789748
 20
6.04245116
  0
VERTEX
  8
0
 10
8.01684240
 20
6.06338907
  0
VERTEX
  8
0
 10
7.99590448
 20
6.09444416
  0
VERTEX
  8
0
 10
7.98822673
 20
6.13247341
  0
VERTEX
  8
0
 10
7.99590448
 20
6.17050266
  0
VERTEX
  8
0
 10
8.01684240
 20
6.20155774
  0
VERTEX
  8
0
 10
8.04789748
 20
6.22249566
  0
VERTEX
  8
0
 10
8.08592673
 20
6.23017341
  0
VERTEX
  8
0
 10
8.12395598
 20
6.22249566
  0
VERTEX
  8
0
 10
8.15501106
 20
6.20155774
  0
VERTEX
  8
0
 10
8.17594898
 20
6.17050266
  0
VERTEX
  8
0
 10
8.18362673
 20
6.13247341
  0
SEQEND
  0
POLYLINE
  8
Default_Layer
 66
   1
 39
0.000000
 70
    1
  0
VERTEX
  8
0
 10
7.90201392
 20
6.13247341
  0
VERTEX
  8
0
 10
7.89433617
 20
6.09444416
  0
VERTEX
  8
0
 10
7.87339825
 20
6.06338907
  0
VERTEX
  8
0
 10
7.84234317
 20
6.04245116
  0
VERTEX
  8
0
 10
7.80431392
 20
6.03477341
  0
VERTEX
  8
0
 10
7.76628467
 20
6.04245116
  0
VERTEX
  8
0
 10
7.73522959
 20
6.06338907
  0
VERTEX
  8
0
 10
7.71429167
 20
6.09444416
  0
VERTEX
  8
0
 10
7.70661392
 20
6.13247341
  0
VERTEX
  8
0
 10
7.71429167
 20
6.17050266
  0
VERTEX
  8
0
 10
7.73522959
 20
6.20155774
  0
VERTEX
  8
0
 10
7.76628467
 20
6.22249566
  0
VERTEX
  8
0
 10
7.80431392
 20
6.23017341
  0
VERTEX
  8
0
 10
7.84234317
 20
6.22249566
  0
VERTEX
  8
0
 10
7.87339825
 20
6.20155774
  0
VERTEX
  8
0
 10
7.89433617
 20
6.17050266
  0
VERTEX
  8
0
 10
7.90201392
 20
6.13247341
  0
SEQEND
  0
POLYLINE
  8
Default_Layer
 66
   1
 39
0.000000
 70
    1
  0
VERTEX
  8
0
 10
7.62040111
 20
6.13247341
  0
VERTEX
  8
0
 10
7.61272336
 20
6.09444416
  0
VERTEX
  8
0
 10
7.59178544
 20
6.06338907
  0
VERTEX
  8
0
 10
7.56073036
 20
6.04245116
  0
VERTEX
  8
0
 10
7.52270111
 20
6.03477341
  0
VERTEX
  8
0
 10
7.48467186
 20
6.04245116
  0
VERTEX
  8
0
 10
7.45361678
 20
6.06338907
  0
VERTEX
  8
0
 10
7.43267886
 20
6.09444416
  0
VERTEX
  8
0
 10
7.42500111
 20
6.13247341
  0
VERTEX
  8
0
 10
7.43267886
 20
6.17050266
  0
VERTEX
  8
0
 10
7.45361678
 20
6.20155774
  0
VERTEX
  8
0
 10
7.48467186
 20
6.22249566
  0
VERTEX
  8
0
 10
7.52270111
 20
6.23017341
  0
VERTEX
  8
0
 10
7.56073036
 20
6.22249566
  0
VERTEX
  8
0
 10
7.59178544
 20
6.20155774
  0
VERTEX
  8
0
 10
7.61272336
 20
6.17050266
  0
VERTEX
  8
0
 10
7.62040111
 20
6.13247341
  0
SEQEND
  0
POLYLINE
  8
Default_Layer
 66
   1
 39
0.000000
 70
    1
  0
VERTEX
  8
0
 10
7.33878830
 20
6.13247341
  0
VERTEX
  8
0
 10
7.33111055
 20
6.09444416
  0
VERTEX
  8
0
 10
7.31017263
 20
6.06338907
  0
VERTEX
  8
0
 10
7.27911755
 20
6.04245116
  0
VERTEX
  8
0
 10
7.24108830
 20
6.03477341
  0
VERTEX
  8
0
 10
7.20305905
 20
6.04245116
  0
VERTEX
  8
0
 10
7.17200397
 20
6.06338907
  0
VERTEX
  8
0
 10
7.15106605
 20
6.09444416
  0
VERTEX
  8
0
 10
7.14338830
 20
6.13247341
  0
VERTEX
  8
0
 10
7.15106605
 20
6.17050266
  0
VERTEX
  8
0
 10
7.17200397
 20
6.20155774
  0
VERTEX
  8
0
 10
7.20305905
 20
6.22249566
  0
VERTEX
  8
0
 10
7.24108830
 20
6.23017341
  0
VERTEX
  8
0
 10
7.27911755
 20
6.22249566
  0
VERTEX
  8
0
 10
7.31017263
 20
6.20155774
  0
VERTEX
  8
0
 10
7.33111055
 20
6.17050266
  0
VERTEX
  8
0
 10
7.33878830
 20
6.13247341
  0
SEQEND
  0
POLYLINE
  8
Default_Layer
 66
   1
 39
0.000000
 70
    1
  0
VERTEX
  8
0
 10
6.91366448
 20
6.04961729
  0
VERTEX
  8
0
 10
6.88456906
 20
6.07528104
  0
VERTEX
  8
0
 10
6.86814352
 20
6.10894135
  0
VERTEX
  8
0
 10
6.86553830
 20
6.14630480
  0
VERTEX
  8
0
 10
6.87790379
 20
6.18307797
  0
VERTEX
  8
0
 10
6.90356755
 20
6.21217339
  0
VERTEX
  8
0
 10
6.93722785
 20
6.22859892
  0
VERTEX
  8
0
 10
6.97459130
 20
6.23120415
  0
VERTEX
  8
0
 10
7.01136448
 20
6.21883865
  0
VERTEX
  8
0
 10
7.04045990
 20
6.19317490
  0
VERTEX
  8
0
 10
7.05688543
 20
6.15951459
  0
VERTEX
  8
0
 10
7.05949066
 20
6.12215114
  0
VERTEX
  8
0
 10
7.04712516
 20
6.08537797
  0
VERTEX
  8
0
 10
7.02146141
 20
6.05628255
  0
VERTEX
  8
0
 10
6.98780110
 20
6.03985701
  0
VERTEX
  8
0
 10
6.95043765
 20
6.03725179
  0
VERTEX
  8
0
 10
6.91366448
 20
6.04961729
  0
SEQEND
  0
POLYLINE
  8
Default_Layer
 66
   1
 39
0.000000
 70
    1
  0
VERTEX
  8
0
 10
7.05345789
 20
6.29174657
  0
VERTEX
  8
0
 10
7.02436246
 20
6.31741033
  0
VERTEX
  8
0
 10
7.00793693
 20
6.35107063
  0
VERTEX
  8
0
 10
7.00533171
 20
6.38843408
  0
VERTEX
  8
0
 10
7.01769720
 20
6.42520726
  0
VERTEX
  8
0
 10
7.04336095
 20
6.45430268
  0
VERTEX
  8
0
 10
7.07702126
 20
6.47072821
  0
VERTEX
  8
0
 10
7.11438471
 20
6.47333344
  0
VERTEX
  8
0
 10
7.15115789
 20
6.46096794
  0
VERTEX
  8
0
 10
7.18025331
 20
6.43530419
  0
VERTEX
  8
0
 10
7.19667884
 20
6.40164388
  0
VERTEX
  8
0
 10
7.19928407
 20
6.36428043
  0
VERTEX
  8
0
 10
7.18691857
 20
6.32750726
  0
VERTEX
  8
0
 10
7.16125482
 20
6.29841183
  0
VERTEX
  8
0
 10
7.12759451
 20
6.28198630
  0
VERTEX
  8
0
 10
7.09023106
 20
6.27938108
  0
VERTEX
  8
0
 10
7.05345789
 20
6.29174657
  0
SEQEND
  0
POLYLINE
  8
Default_Layer
 66
   1
 39
0.000000
 70
    1
  0
VERTEX
  8
0
 10
7.19426429
 20
6.53563042
  0
VERTEX
  8
0
 10
7.16516887
 20
6.56129417
  0
VERTEX
  8
0
 10
7.14874334
 20
6.59495448
  0
VERTEX
  8
0
 10
7.14613811
 20
6.63231793
  0
VERTEX
  8
0
 10
7.15850361
 20
6.66909110
  0
VERTEX
  8
0
 10
7.18416736
 20
6.69818652
  0
VERTEX
  8
0
 10
7.21782767
 20
6.71461206
  0
VERTEX
  8
0
 10
7.25519112
 20
6.71721728
  0
VERTEX
  8
0
 10
7.29196429
 20
6.70485179
  0
VERTEX
  8
0
 10
7.32105971
 20
6.67918803
  0
VERTEX
  8
0
 10
7.33748524
 20
6.64552772
  0
VERTEX
  8
0
 10
7.34009047
 20
6.60816427
  0
VERTEX
  8
0
 10
7.32772497
 20
6.57139110
  0
VERTEX
  8
0
 10
7.30206122
 20
6.54229568
  0
VERTEX
  8
0
 10
7.26840091
 20
6.52587015
  0
VERTEX
  8
0
 10
7.23103746
 20
6.52326492
  0
VERTEX
  8
0
 10
7.19426429
 20
6.53563042
  0
SEQEND
  0
POLYLINE
  8
Default_Layer
 66
   1
 39
0.000000
 70
    1
  0
VERTEX
  8
0
 10
7.33507070
 20
6.77951427
  0
VERTEX
  8
0
 10
7.30597528
 20
6.80517802
  0
VERTEX
  8
0
 10
7.28954974
 20
6.83883833
  0
VERTEX
  8
0
 10
7.28694452
 20
6.87620178
  0
VERTEX
  8
0
 10
7.29931001
 20
6.91297495
  0
VERTEX
  8
0
 10
7.32497377
 20
6.94207037
  0
VERTEX
  8
0
 10
7.35863408
 20
6.95849591
  0
VERTEX
  8
0
 10
7.39599753
 20
6.96110113
  0
VERTEX
  8
0
 10
7.43277070
 20
6.94873563
  0
VERTEX
  8
0
 10
7.46186612
 20
6.92307188
  0
VERTEX
  8
0
 10
7.47829165
 20
6.88941157
  0
VERTEX
  8
0
 10
7.48089688
 20
6.85204812
  0
VERTEX
  8
0
 10
7.46853138
 20
6.81527495
  0
VERTEX
  8
0
 10
7.44286763
 20
6.78617953
  0
VERTEX
  8
0
 10
7.40920732
 20
6.76975400
  0
VERTEX
  8
0
 10
7.37184387
 20
6.76714877
  0
VERTEX
  8
0
 10
7.33507070
 20
6.77951427
  0
SEQEND
  0
POLYLINE
  8
Default_Layer
 66
   1
 39
0.000000
 70
    1
  0
VERTEX
  8
0
 10
7.47587710
 20
7.02339812
  0
VERTEX
  8
0
 10
7.44678168
 20
7.04906187
  0
VERTEX
  8
0
 10
7.43035615
 20
7.08272218
  0
VERTEX
  8
0
 10
7.42775092
 20
7.12008563
  0
VERTEX
  8
0
 10
7.44011642
 20
7.15685880
  0
VERTEX
  8
0
 10
7.46578017
 20
7.18595422
  0
VERTEX
  8
0
 10
7.49944048
 20
7.20237975
  0
VERTEX
  8
0
 10
7.53680393
 20
7.20498498
  0
VERTEX
  8
0
 10
7.57357710
 20
7.19261948
  0
VERTEX
  8
0
 10
7.60267252
 20
7.16695573
  0
VERTEX
  8
0
 10
7.61909805
 20
7.13329542
  0
VERTEX
  8
0
 10
7.62170328
 20
7.09593197
  0
VERTEX
  8
0
 10
7.60933778
 20
7.05915880
  0
VERTEX
  8
0
 10
7.58367403
 20
7.03006338
  0
VERTEX
  8
0
 10
7.55001372
 20
7.01363785
  0
VERTEX
  8
0
 10
7.51265027
 20
7.01103262
  0
VERTEX
  8
0
 10
7.47587710
 20
7.02339812
  0
SEQEND
  0
POLYLINE
  8
Default_Layer
 66
   1
 39
0.000000
 70
    1
  0
VERTEX
  8
0
 10
7.61668351
 20
7.26728197
  0
VERTEX
  8
0
 10
7.58758809
 20
7.29294572
  0
VERTEX
  8
0
 10
7.57116255
 20
7.32660603
  0
VERTEX
  8
0
 10
7.56855733
 20
7.36396948
  0
VERTEX
  8
0
 10
7.58092282
 20
7.40074265
  0
VERTEX
  8
0
 10
7.60658658
 20
7.42983807
  0
VERTEX
  8
0
 10
7.64024689
 20
7.44626360
  0
VERTEX
  8
0
 10
7.67761034
 20
7.44886883
  0
VERTEX
  8
0
 10
7.71438351
 20
7.43650333
  0
VERTEX
  8
0
 10
7.74347893
 20
7.41083958
  0
VERTEX
  8
0
 10
7.75990446
 20
7.37717927
  0
VERTEX
  8
0
 10
7.76250969
 20
7.33981582
  0
VERTEX
  8
0
 10
7.75014419
 20
7.30304265
  0
VERTEX
  8
0
 10
7.72448044
 20
7.27394723
  0
VERTEX
  8
0
 10
7.69082013
 20
7.25752169
  0
VERTEX
  8
0
 10
7.65345668
 20
7.25491647
  0
VERTEX
  8
0
 10
7.61668351
 20
7.26728197
  0
SEQEND
  0
POLYLINE
  8
Default_Layer
 66
   1
 39
0.000000
 70
    1
  0
VERTEX
  8
0
 10
7.75748991
 20
7.51116581
  0
VERTEX
  8
0
 10
7.72839449
 20
7.53682957
  0
VERTEX
  8
0
 10
7.71196896
 20
7.57048988
  0
VERTEX
  8
0
 10
7.70936373
 20
7.60785333
  0
VERTEX
  8
0
 10
7.72172923
 20
7.64462650
  0
VERTEX
  8
0
 10
7.74739298
 20
7.67372192
  0
VERTEX
  8
0
 10
7.78105329
 20
7.69014745
  0
VERTEX
  8
0
 10
7.81841674
 20
7.69275268
  0
VERTEX
  8
0
 10
7.85518991
 20
7.68038718
  0
VERTEX
  8
0
 10
7.88428533
 20
7.65472343
  0
VERTEX
  8
0
 10
7.90071087
 20
7.62106312
  0
VERTEX
  8
0
 10
7.90331609
 20
7.58369967
  0
VERTEX
  8
0
 10
7.89095059
 20
7.54692650
  0
VERTEX
  8
0
 10
7.86528684
 20
7.51783108
  0
VERTEX
  8
0
 10
7.83162653
 20
7.50140554
  0
VERTEX
  8
0
 10
7.79426308
 20
7.49880032
  0
VERTEX
  8
0
 10
7.75748991
 20
7.51116581
  0
SEQEND
  0
POLYLINE
  8
Default_Layer
 66
   1
 39
0.000000
 70
    1
  0
VERTEX
  8
0
 10
7.89829632
 20
7.75504966
  0
VERTEX
  8
0
 10
7.86920090
 20
7.78071341
  0
VERTEX
  8
0
 10
7.85277536
 20
7.81437372
  0
VERTEX
  8
0
 10
7.85017014
 20
7.85173717
  0
VERTEX
  8
0
 10
7.86253564
 20
7.88851034
  0
VERTEX
  8
0
 10
7.88819939
 20
7.91760576
  0
VERTEX
  8
0
 10
7.92185970
 20
7.93403130
  0
VERTEX
  8
0
 10
7.95922315
 20
7.93663652
  0
VERTEX
  8
0
 10
7.99599632
 20
7.92427103
  0
VERTEX
  8
0
 10
8.02509174
 20
7.89860727
  0
VERTEX
  8
0
 10
8.04151727
 20
7.86494697
  0
VERTEX
  8
0
 10
8.04412250
 20
7.82758352
  0
VERTEX
  8
0
 10
8.03175700
 20
7.79081034
  0
VERTEX
  8
0
 10
8.00609325
 20
7.76171492
  0
VERTEX
  8
0
 10
7.97243294
 20
7.74528939
  0
VERTEX
  8
0
 10
7.93506949
 20
7.74268416
  0
VERTEX
  8
0
 10
7.89829632
 20
7.75504966
  0
SEQEND
  0
POLYLINE
  8
Default_Layer
 66
   1
 39
0.000000
 70
    1
  0
VERTEX
  8
0
 10
8.16149353
 20
8.03172774
  0
VERTEX
  8
0
 10
8.13582978
 20
8.00263231
  0
VERTEX
  8
0
 10
8.10216947
 20
7.98620678
  0
VERTEX
  8
0
 10
8.06480602
 20
7.98360156
  0
VERTEX
  8
0
 10
8.02803285
 20
7.99596705
  0
VERTEX
  8
0
 10
7.99893742
 20
8.02163080
  0
VERTEX
  8
0
 10
7.98251189
 20
8.05529111
  0
VERTEX
  8
0
 10
7.97990667
 20
8.09265456
  0
VERTEX
  8
0
 10
7.99227216
 20
8.12942774
  0
VERTEX
  8
0
 10
8.01793592
 20
8.15852316
  0
VERTEX
  8
0
 10
8.05159622
 20
8.17494869
  0
VERTEX
  8
0
 10
8.08895967
 20
8.17755392
  0
VERTEX
  8
0
 10
8.12573285
 20
8.16518842
  0
VERTEX
  8
0
 10
8.15482827
 20
8.13952467
  0
VERTEX
  8
0
 10
8.17125380
 20
8.10586436
  0
VERTEX
  8
0
 10
8.17385903
 20
8.06850091
  0
VERTEX
  8
0
 10
8.16149353
 20
8.03172774
  0
SEQEND
  0
POLYLINE
  8
Default_Layer
 66
   1
 39
0.000000
 70
    1
  0
VERTEX
  8
0
 10
7.91762170
 20
8.17252720
  0
VERTEX
  8
0
 10
7.89195795
 20
8.14343178
  0
VERTEX
  8
0
 10
7.85829764
 20
8.12700625
  0
VERTEX
  8
0
 10
7.82093419
 20
8.12440102
  0
VERTEX
  8
0
 10
7.78416102
 20
8.13676652
  0
VERTEX
  8
0
 10
7.75506560
 20
8.16243027
  0
VERTEX
  8
0
 10
7.73864006
 20
8.19609058
  0
VERTEX
  8
0
 10
7.73603484
 20
8.23345403
  0
VERTEX
  8
0
 10
7.74840033
 20
8.27022720
  0
VERTEX
  8
0
 10
7.77406409
 20
8.29932262
  0
VERTEX
  8
0
 10
7.80772440
 20
8.31574816
  0
VERTEX
  8
0
 10
7.84508784
 20
8.31835338
  0
VERTEX
  8
0
 10
7.88186102
 20
8.30598788
  0
VERTEX
  8
0
 10
7.91095644
 20
8.28032413
  0
VERTEX
  8
0
 10
7.92738197
 20
8.24666382
  0
VERTEX
  8
0
 10
7.92998720
 20
8.20930037
  0
VERTEX
  8
0
 10
7.91762170
 20
8.17252720
  0
SEQEND
  0
POLYLINE
  8
Default_Layer
 66
   1
 39
0.000000
 70
    1
  0
VERTEX
  8
0
 10
7.67374987
 20
8.31332667
  0
VERTEX
  8
0
 10
7.64808612
 20
8.28423125
  0
VERTEX
  8
0
 10
7.61442581
 20
8.26780572
  0
VERTEX
  8
0
 10
7.57706236
 20
8.26520049
  0
VERTEX
  8
0
 10
7.54028919
 20
8.27756599
  0
VERTEX
  8
0
 10
7.51119377
 20
8.30322974
  0
VERTEX
  8
0
 10
7.49476823
 20
8.33689005
  0
VERTEX
  8
0
 10
7.49216301
 20
8.37425350
  0
VERTEX
  8
0
 10
7.50452850
 20
8.41102667
  0
VERTEX
  8
0
 10
7.53019226
 20
8.44012209
  0
VERTEX
  8
0
 10
7.56385257
 20
8.45654762
  0
VERTEX
  8
0
 10
7.60121602
 20
8.45915285
  0
VERTEX
  8
0
 10
7.63798919
 20
8.44678735
  0
VERTEX
  8
0
 10
7.66708461
 20
8.42112360
  0
VERTEX
  8
0
 10
7.68351014
 20
8.38746329
  0
VERTEX
  8
0
 10
7.68611537
 20
8.35009984
  0
VERTEX
  8
0
 10
7.67374987
 20
8.31332667
  0
SEQEND
  0
POLYLINE
  8
Default_Layer
 66
   1
 39
0.000000
 70
    1
  0
VERTEX
  8
0
 10
7.42987804
 20
8.45412614
  0
VERTEX
  8
0
 10
7.40421429
 20
8.42503071
  0
VERTEX
  8
0
 10
7.37055398
 20
8.40860518
  0
VERTEX
  8
0
 10
7.33319053
 20
8.40599996
  0
VERTEX
  8
0
 10
7.29641736
 20
8.41836545
  0
VERTEX
  8
0
 10
7.26732194
 20
8.44402920
  0
VERTEX
  8
0
 10
7.25089640
 20
8.47768951
  0
VERTEX
  8
0
 10
7.24829118
 20
8.51505296
  0
VERTEX
  8
0
 10
7.26065667
 20
8.55182614
  0
VERTEX
  8
0
 10
7.28632043
 20
8.58092156
  0
VERTEX
  8
0
 10
7.31998074
 20
8.59734709
  0
VERTEX
  8
0
 10
7.35734419
 20
8.59995231
  0
VERTEX
  8
0
 10
7.39411736
 20
8.58758682
  0
VERTEX
  8
0
 10
7.42321278
 20
8.56192307
  0
VERTEX
  8
0
 10
7.43963831
 20
8.52826276
  0
VERTEX
  8
0
 10
7.44224354
 20
8.49089931
  0
VERTEX
  8
0
 10
7.42987804
 20
8.45412614
  0
SEQEND
  0
POLYLINE
  8
Default_Layer
 66
   1
 39
0.000000
 70
    1
  0
VERTEX
  8
0
 10
7.18600621
 20
8.59492560
  0
VERTEX
  8
0
 10
7.16034246
 20
8.56583018
  0
VERTEX
  8
0
 10
7.12668215
 20
8.54940465
  0
VERTEX
  8
0
 10
7.08931870
 20
8.54679942
  0
VERTEX
  8
0
 10
7.05254553
 20
8.55916492
  0
VERTEX
  8
0
 10
7.02345011
 20
8.58482867
  0
VERTEX
  8
0
 10
7.00702457
 20
8.61848898
  0
VERTEX
  8
0
 10
7.00441935
 20
8.65585243
  0
VERTEX
  8
0
 10
7.01678484
 20
8.69262560
  0
VERTEX
  8
0
 10
7.04244860
 20
8.72172102
  0
VERTEX
  8
0
 10
7.07610891
 20
8.73814655
  0
VERTEX
  8
0
 10
7.11347236
 20
8.74075178
  0
VERTEX
  8
0
 10
7.15024553
 20
8.72838628
  0
VERTEX
  8
0
 10
7.17934095
 20
8.70272253
  0
VERTEX
  8
0
 10
7.19576648
 20
8.66906222
  0
VERTEX
  8
0
 10
7.19837171
 20
8.63169877
  0
VERTEX
  8
0
 10
7.18600621
 20
8.59492560
  0
SEQEND
  0
POLYLINE
  8
Default_Layer
 66
   1
 39
0.000000
 70
    1
  0
VERTEX
  8
0
 10
6.94388885
 20
8.73471212
  0
VERTEX
  8
0
 10
6.91822510
 20
8.70561670
  0
VERTEX
  8
0
 10
6.88456479
 20
8.68919117
  0
VERTEX
  8
0
 10
6.84720134
 20
8.68658594
  0
VERTEX
  8
0
 10
6.81042817
 20
8.69895144
  0
VERTEX
  8
0
 10
6.78133275
 20
8.72461519
  0
VERTEX
  8
0
 10
6.76490722
 20
8.75827550
  0
VERTEX
  8
0
 10
6.76230199
 20
8.79563895
  0
VERTEX
  8
0
 10
6.77466749
 20
8.83241212
  0
VERTEX
  8
0
 10
6.80033124
 20
8.86150754
  0
VERTEX
  8
0
 10
6.83399155
 20
8.87793308
  0
VERTEX
  8
0
 10
6.87135500
 20
8.88053830
  0
VERTEX
  8
0
 10
6.90812817
 20
8.86817280
  0
VERTEX
  8
0
 10
6.93722359
 20
8.84250905
  0
VERTEX
  8
0
 10
6.95364912
 20
8.80884874
  0
VERTEX
  8
0
 10
6.95625435
 20
8.77148529
  0
VERTEX
  8
0
 10
6.94388885
 20
8.73471212
  0
SEQEND
  0
POLYLINE
  8
Default_Layer
 66
   1
 39
0.000000
 70
    1
  0
VERTEX
  8
0
 10
6.70001702
 20
8.87551159
  0
VERTEX
  8
0
 10
6.67435327
 20
8.84641617
  0
VERTEX
  8
0
 10
6.64069296
 20
8.82999064
  0
VERTEX
  8
0
 10
6.60332951
 20
8.82738541
  0
VERTEX
  8
0
 10
6.56655634
 20
8.83975091
  0
VERTEX
  8
0
 10
6.53746092
 20
8.86541466
  0
VERTEX
  8
0
 10
6.52103539
 20
8.89907497
  0
VERTEX
  8
0
 10
6.51843016
 20
8.93643842
  0
VERTEX
  8
0
 10
6.53079566
 20
8.97321159
  0
VERTEX
  8
0
 10
6.55645941
 20
9.00230701
  0
VERTEX
  8
0
 10
6.59011972
 20
9.01873254
  0
VERTEX
  8
0
 10
6.62748317
 20
9.02133777
  0
VERTEX
  8
0
 10
6.66425634
 20
9.00897227
  0
VERTEX
  8
0
 10
6.69335176
 20
8.98330852
  0
VERTEX
  8
0
 10
6.70977729
 20
8.94964821
  0
VERTEX
  8
0
 10
6.71238252
 20
8.91228476
  0
VERTEX
  8
0
 10
6.70001702
 20
8.87551159
  0
SEQEND
  0
POLYLINE
  8
Default_Layer
 66
   1
 39
0.000000
 70
    1
  0
VERTEX
  8
0
 10
6.45614519
 20
9.01631106
  0
VERTEX
  8
0
 10
6.43048144
 20
8.98721564
  0
VERTEX
  8
0
 10
6.39682113
 20
8.97079010
  0
VERTEX
  8
0
 10
6.35945768
 20
8.96818488
  0
VERTEX
  8
0
 10
6.32268451
 20
8.98055037
  0
VERTEX
  8
0
 10
6.29358909
 20
9.00621413
  0
VERTEX
  8
0
 10
6.27716356
 20
9.03987443
  0
VERTEX
  8
0
 10
6.27455833
 20
9.07723788
  0
VERTEX
  8
0
 10
6.28692383
 20
9.11401106
  0
VERTEX
  8
0
 10
6.31258758
 20
9.14310648
  0
VERTEX
  8
0
 10
6.34624789
 20
9.15953201
  0
VERTEX
  8
0
 10
6.38361134
 20
9.16213724
  0
VERTEX
  8
0
 10
6.42038451
 20
9.14977174
  0
VERTEX
  8
0
 10
6.44947993
 20
9.12410799
  0
VERTEX
  8
0
 10
6.46590546
 20
9.09044768
  0
VERTEX
  8
0
 10
6.46851069
 20
9.05308423
  0
VERTEX
  8
0
 10
6.45614519
 20
9.01631106
  0
SEQEND
  0
POLYLINE
  8
Default_Layer
 66
   1
 39
0.000000
 70
    1
  0
VERTEX
  8
0
 10
6.21227336
 20
9.15711052
  0
VERTEX
  8
0
 10
6.18660961
 20
9.12801510
  0
VERTEX
  8
0
 10
6.15294930
 20
9.11158957
  0
VERTEX
  8
0
 10
6.11558585
 20
9.10898434
  0
VERTEX
  8
0
 10
6.07881268
 20
9.12134984
  0
VERTEX
  8
0
 10
6.04971726
 20
9.14701359
  0
VERTEX
  8
0
 10
6.03329173
 20
9.18067390
  0
VERTEX
  8
0
 10
6.03068650
 20
9.21803735
  0
VERTEX
  8
0
 10
6.04305200
 20
9.25481052
  0
VERTEX
  8
0
 10
6.06871575
 20
9.28390594
  0
VERTEX
  8
0
 10
6.10237606
 20
9.30033148
  0
VERTEX
  8
0
 10
6.13973951
 20
9.30293670
  0
VERTEX
  8
0
 10
6.17651268
 20
9.29057120
  0
VERTEX
  8
0
 10
6.20560810
 20
9.26490745
  0
VERTEX
  8
0
 10
6.22203363
 20
9.23124714
  0
VERTEX
  8
0
 10
6.22463886
 20
9.19388369
  0
VERTEX
  8
0
 10
6.21227336
 20
9.15711052
  0
SEQEND
  0
POLYLINE
  8
Default_Layer
 66
   1
 39
0.000000
 70
    1
  0
VERTEX
  8
0
 10
6.03348184
 20
9.05498987
  0
VERTEX
  8
0
 10
6.06257726
 20
9.02932612
  0
VERTEX
  8
0
 10
6.07900280
 20
8.99566581
  0
VERTEX
  8
0
 10
6.08160802
 20
8.95830236
  0
VERTEX
  8
0
 10
6.06924252
 20
8.92152919
  0
VERTEX
  8
0
 10
6.04357877
 20
8.89243377
  0
VERTEX
  8
0
 10
6.00991846
 20
8.87600824
  0
VERTEX
  8
0
 10
5.97255501
 20
8.87340301
  0
VERTEX
  8
0
 10
5.93578184
 20
8.88576851
  0
VERTEX
  8
0
 10
5.90668642
 20
8.91143226
  0
VERTEX
  8
0
 10
5.89026089
 20
8.94509257
  0
VERTEX
  8
0
 10
5.88765566
 20
8.98245602
  0
VERTEX
  8
0
 10
5.90002116
 20
9.01922919
  0
VERTEX
  8
0
 10
5.92568491
 20
9.04832461
  0
VERTEX
  8
0
 10
5.95934522
 20
9.06475014
  0
VERTEX
  8
0
 10
5.99670867
 20
9.06735537
  0
VERTEX
  8
0
 10
6.03348184
 20
9.05498987
  0
SEQEND
  0
POLYLINE
  8
Default_Layer
 66
   1
 39
0.000000
 70
    1
  0
VERTEX
  8
0
 10
5.89267544
 20
8.81110603
  0
VERTEX
  8
0
 10
5.92177086
 20
8.78544227
  0
VERTEX
  8
0
 10
5.93819639
 20
8.75178196
  0
VERTEX
  8
0
 10
5.94080162
 20
8.71441851
  0
VERTEX
  8
0
 10
5.92843612
 20
8.67764534
  0
VERTEX
  8
0
 10
5.90277237
 20
8.64854992
  0
VERTEX
  8
0
 10
5.86911206
 20
8.63212439
  0
VERTEX
  8
0
 10
5.83174861
 20
8.62951916
  0
VERTEX
  8
0
 10
5.79497544
 20
8.64188466
  0
VERTEX
  8
0
 10
5.76588002
 20
8.66754841
  0
VERTEX
  8
0
 10
5.74945448
 20
8.70120872
  0
VERTEX
  8
0
 10
5.74684926
 20
8.73857217
  0
VERTEX
  8
0
 10
5.75921475
 20
8.77534534
  0
VERTEX
  8
0
 10
5.78487851
 20
8.80444076
  0
VERTEX
  8
0
 10
5.81853882
 20
8.82086630
  0
VERTEX
  8
0
 10
5.85590227
 20
8.82347152
  0
VERTEX
  8
0
 10
5.89267544
 20
8.81110603
  0
SEQEND
  0
POLYLINE
  8
Default_Layer
 66
   1
 39
0.000000
 70
    1
  0
VERTEX
  8
0
 10
5.75186903
 20
8.56722218
  0
VERTEX
  8
0
 10
5.78096445
 20
8.54155843
  0
VERTEX
  8
0
 10
5.79738998
 20
8.50789812
  0
VERTEX
  8
0
 10
5.79999521
 20
8.47053467
  0
VERTEX
  8
0
 10
5.78762971
 20
8.43376150
  0
VERTEX
  8
0
 10
5.76196596
 20
8.40466607
  0
VERTEX
  8
0
 10
5.72830565
 20
8.38824054
  0
VERTEX
  8
0
 10
5.69094220
 20
8.38563532
  0
VERTEX
  8
0
 10
5.65416903
 20
8.39800081
  0
VERTEX
  8
0
 10
5.62507361
 20
8.42366456
  0
VERTEX
  8
0
 10
5.60864808
 20
8.45732487
  0
VERTEX
  8
0
 10
5.60604285
 20
8.49468832
  0
VERTEX
  8
0
 10
5.61840835
 20
8.53146150
  0
VERTEX
  8
0
 10
5.64407210
 20
8.56055692
  0
VERTEX
  8
0
 10
5.67773241
 20
8.57698245
  0
VERTEX
  8
0
 10
5.71509586
 20
8.57958768
  0
VERTEX
  8
0
 10
5.75186903
 20
8.56722218
  0
SEQEND
  0
POLYLINE
  8
Default_Layer
 66
   1
 39
0.000000
 70
    1
  0
VERTEX
  8
0
 10
5.61106263
 20
8.32333833
  0
VERTEX
  8
0
 10
5.64015805
 20
8.29767458
  0
VERTEX
  8
0
 10
5.65658358
 20
8.26401427
  0
VERTEX
  8
0
 10
5.65918881
 20
8.22665082
  0
VERTEX
  8
0
 10
5.64682331
 20
8.18987765
  0
VERTEX
  8
0
 10
5.62115956
 20
8.16078223
  0
VERTEX
  8
0
 10
5.58749925
 20
8.14435669
  0
VERTEX
  8
0
 10
5.55013580
 20
8.14175147
  0
VERTEX
  8
0
 10
5.51336263
 20
8.15411697
  0
VERTEX
  8
0
 10
5.48426721
 20
8.17978072
  0
VERTEX
  8
0
 10
5.46784167
 20
8.21344103
  0
VERTEX
  8
0
 10
5.46523645
 20
8.25080448
  0
VERTEX
  8
0
 10
5.47760194
 20
8.28757765
  0
VERTEX
  8
0
 10
5.50326570
 20
8.31667307
  0
VERTEX
  8
0
 10
5.53692601
 20
8.33309860
  0
VERTEX
  8
0
 10
5.57428945
 20
8.33570383
  0
VERTEX
  8
0
 10
5.61106263
 20
8.32333833
  0
SEQEND
  0
POLYLINE
  8
Default_Layer
 66
   1
 39
0.000000
 70
    1
  0
VERTEX
  8
0
 10
5.47025622
 20
8.07945448
  0
VERTEX
  8
0
 10
5.49935164
 20
8.05379073
  0
VERTEX
  8
0
 10
5.51577717
 20
8.02013042
  0
VERTEX
  8
0
 10
5.51838240
 20
7.98276697
  0
VERTEX
  8
0
 10
5.50601690
 20
7.94599380
  0
VERTEX
  8
0
 10
5.48035315
 20
7.91689838
  0
VERTEX
  8
0
 10
5.44669284
 20
7.90047285
  0
VERTEX
  8
0
 10
5.40932939
 20
7.89786762
  0
VERTEX
  8
0
 10
5.37255622
 20
7.91023312
  0
VERTEX
  8
0
 10
5.34346080
 20
7.93589687
  0
VERTEX
  8
0
 10
5.32703527
 20
7.96955718
  0
VERTEX
  8
0
 10
5.32443004
 20
8.00692063
  0
VERTEX
  8
0
 10
5.33679554
 20
8.04369380
  0
VERTEX
  8
0
 10
5.36245929
 20
8.07278922
  0
VERTEX
  8
0
 10
5.39611960
 20
8.08921475
  0
VERTEX
  8
0
 10
5.43348305
 20
8.09181998
  0
VERTEX
  8
0
 10
5.47025622
 20
8.07945448
  0
SEQEND
  0
POLYLINE
  8
Default_Layer
 66
   1
 39
0.000000
 70
    1
  0
VERTEX
  8
0
 10
5.32944982
 20
7.83557063
  0
VERTEX
  8
0
 10
5.35854524
 20
7.80990688
  0
VERTEX
  8
0
 10
5.37497077
 20
7.77624657
  0
VERTEX
  8
0
 10
5.37757599
 20
7.73888312
  0
VERTEX
  8
0
 10
5.36521050
 20
7.70210995
  0
VERTEX
  8
0
 10
5.33954675
 20
7.67301453
  0
VERTEX
  8
0
 10
5.30588644
 20
7.65658900
  0
VERTEX
  8
0
 10
5.26852299
 20
7.65398377
  0
VERTEX
  8
0
 10
5.23174982
 20
7.66634927
  0
VERTEX
  8
0
 10
5.20265439
 20
7.69201302
  0
VERTEX
  8
0
 10
5.18622886
 20
7.72567333
  0
VERTEX
  8
0
 10
5.18362364
 20
7.76303678
  0
VERTEX
  8
0
 10
5.19598913
 20
7.79980995
  0
VERTEX
  8
0
 10
5.22165288
 20
7.82890537
  0
VERTEX
  8
0
 10
5.25531319
 20
7.84533090
  0
VERTEX
  8
0
 10
5.29267664
 20
7.84793613
  0
VERTEX
  8
0
 10
5.32944982
 20
7.83557063
  0
SEQEND
  0
POLYLINE
  8
Default_Layer
 66
   1
 39
0.000000
 70
    1
  0
VERTEX
  8
0
 10
5.18864341
 20
7.59168678
  0
VERTEX
  8
0
 10
5.21773883
 20
7.56602303
  0
VERTEX
  8
0
 10
5.23416436
 20
7.53236272
  0
VERTEX
  8
0
 10
5.23676959
 20
7.49499927
  0
VERTEX
  8
0
 10
5.22440409
 20
7.45822610
  0
VERTEX
  8
0
 10
5.19874034
 20
7.42913068
  0
VERTEX
  8
0
 10
5.16508003
 20
7.41270515
  0
VERTEX
  8
0
 10
5.12771658
 20
7.41009992
  0
VERTEX
  8
0
 10
5.09094341
 20
7.42246542
  0
VERTEX
  8
0
 10
5.06184799
 20
7.44812917
  0
VERTEX
  8
0
 10
5.04542246
 20
7.48178948
  0
VERTEX
  8
0
 10
5.04281723
 20
7.51915293
  0
VERTEX
  8
0
 10
5.05518273
 20
7.55592610
  0
VERTEX
  8
0
 10
5.08084648
 20
7.58502152
  0
VERTEX
  8
0
 10
5.11450679
 20
7.60144706
  0
VERTEX
  8
0
 10
5.15187024
 20
7.60405228
  0
VERTEX
  8
0
 10
5.18864341
 20
7.59168678
  0
SEQEND
  0
POLYLINE
  8
Default_Layer
 66
   1
 39
0.000000
 70
    1
  0
VERTEX
  8
0
 10
2.01709347
 20
5.00000000
  0
VERTEX
  8
0
 10
2.00941572
 20
5.03802925
  0
VERTEX
  8
0
 10
1.98847780
 20
5.06908433
  0
VERTEX
  8
0
 10
1.95742272
 20
5.09002225
  0
VERTEX
  8
0
 10
1.91939347
 20
5.09770000
  0
VERTEX
  8
0
 10
1.88136422
 20
5.09002225
  0
VERTEX
  8
0
 10
1.85030914
 20
5.06908433
  0
VERTEX
  8
0
 10
1.82937122
 20
5.03802925
  0
VERTEX
  8
0
 10
1.82169347
 20
5.00000000
  0
VERTEX
  8
0
 10
1.82937122
 20
4.96197075
  0
VERTEX
  8
0
 10
1.85030914
 20
4.93091567
  0
VERTEX
  8
0
 10
1.88136422
 20
4.90997775
  0
VERTEX
  8
0
 10
1.91939347
 20
4.90230000
  0
VERTEX
  8
0
 10
1.95742272
 20
4.90997775
  0
VERTEX
  8
0
 10
1.98847780
 20
4.93091567
  0
VERTEX
  8
0
 10
2.00941572
 20
4.96197075
  0
VERTEX
  8
0
 10
2.01709347
 20
5.00000000
  0
SEQEND
  0
POLYLINE
  8
Default_Layer
 66
   1
 39
0.000000
 70
    1
  0
VERTEX
  8
0
 10
1.73548066
 20
5.00000000
  0
VERTEX
  8
0
 10
1.72780291
 20
5.03802925
  0
VERTEX
  8
0
 10
1.70686499
 20
5.06908433
  0
VERTEX
  8
0
 10
1.67580991
 20
5.09002225
  0
VERTEX
  8
0
 10
1.63778066
 20
5.09770000
  0
VERTEX
  8
0
 10
1.59975141
 20
5.09002225
  0
VERTEX
  8
0
 10
1.56869632
 20
5.06908433
  0
VERTEX
  8
0
 10
1.54775841
 20
5.03802925
  0
VERTEX
  8
0
 10
1.54008066
 20
5.00000000
  0
VERTEX
  8
0
 10
1.54775841
 20
4.96197075
  0
VERTEX
  8
0
 10
1.56869632
 20
4.93091567
  0
VERTEX
  8
0
 10
1.59975141
 20
4.90997775
  0
VERTEX
  8
0
 10
1.63778066
 20
4.90230000
  0
VERTEX
  8
0
 10
1.67580991
 20
4.90997775
  0
VERTEX
  8
0
 10
1.70686499
 20
4.93091567
  0
VERTEX
  8
0
 10
1.72780291
 20
4.96197075
  0
VERTEX
  8
0
 10
1.73548066
 20
5.00000000
  0
SEQEND
  0
POLYLINE
  8
Default_Layer
 66
   1
 39
0.000000
 70
    1
  0
VERTEX
  8
0
 10
1.45386785
 20
5.00000000
  0
VERTEX
  8
0
 10
1.44619010
 20
5.03802925
  0
VERTEX
  8
0
 10
1.42525218
 20
5.06908433
  0
VERTEX
  8
0
 10
1.39419710
 20
5.09002225
  0
VERTEX
  8
0
 10
1.35616785
 20
5.09770000
  0
VERTEX
  8
0
 10
1.31813860
 20
5.09002225
  0
VERTEX
  8
0
 10
1.28708351
 20
5.06908433
  0
VERTEX
  8
0
 10
1.26614560
 20
5.03802925
  0
VERTEX
  8
0
 10
1.25846785
 20
5.00000000
  0
VERTEX
  8
0
 10
1.26614560
 20
4.96197075
  0
VERTEX
  8
0
 10
1.28708351
 20
4.93091567
  0
VERTEX
  8
0
 10
1.31813860
 20
4.90997775
  0
VERTEX
  8
0
 10
1.35616785
 20
4.90230000
  0
VERTEX
  8
0
 10
1.39419710
 20
4.90997775
  0
VERTEX
  8
0
 10
1.42525218
 20
4.93091567
  0
VERTEX
  8
0
 10
1.44619010
 20
4.96197075
  0
VERTEX
  8
0
 10
1.45386785
 20
5.00000000
  0
SEQEND
  0
POLYLINE
  8
Default_Layer
 66
   1
 39
0.000000
 70
    1
  0
VERTEX
  8
0
 10
1.17225504
 20
5.00000000
  0
VERTEX
  8
0
 10
1.16457729
 20
5.03802925
  0
VERTEX
  8
0
 10
1.14363937
 20
5.06908433
  0
VERTEX
  8
0
 10
1.11258428
 20
5.09002225
  0
VERTEX
  8
0
 10
1.07455504
 20
5.09770000
  0
VERTEX
  8
0
 10
1.03652579
 20
5.09002225
  0
VERTEX
  8
0
 10
1.00547070
 20
5.06908433
  0
VERTEX
  8
0
 10
0.98453279
 20
5.03802925
  0
VERTEX
  8
0
 10
0.97685504
 20
5.00000000
  0
VERTEX
  8
0
 10
0.98453279
 20
4.96197075
  0
VERTEX
  8
0
 10
1.00547070
 20
4.93091567
  0
VERTEX
  8
0
 10
1.03652579
 20
4.90997775
  0
VERTEX
  8
0
 10
1.07455504
 20
4.90230000
  0
VERTEX
  8
0
 10
1.11258428
 20
4.90997775
  0
VERTEX
  8
0
 10
1.14363937
 20
4.93091567
  0
VERTEX
  8
0
 10
1.16457729
 20
4.96197075
  0
VERTEX
  8
0
 10
1.17225504
 20
5.00000000
  0
SEQEND
  0
POLYLINE
  8
Default_Layer
 66
   1
 39
0.000000
 70
    1
  0
VERTEX
  8
0
 10
7.98290653
 20
5.00000000
  0
VERTEX
  8
0
 10
7.99058428
 20
5.03802925
  0
VERTEX
  8
0
 10
8.01152220
 20
5.06908433
  0
VERTEX
  8
0
 10
8.04257728
 20
5.09002225
  0
VERTEX
  8
0
 10
8.08060653
 20
5.09770000
  0
VERTEX
  8
0
 10
8.11863578
 20
5.09002225
  0
VERTEX
  8
0
 10
8.14969086
 20
5.06908433
  0
VERTEX
  8
0
 10
8.17062878
 20
5.03802925
  0
VERTEX
  8
0
 10
8.17830653
 20
5.00000000
  0
VERTEX
  8
0
 10
8.17062878
 20
4.96197075
  0
VERTEX
  8
0
 10
8.14969086
 20
4.93091567
  0
VERTEX
  8
0
 10
8.11863578
 20
4.90997775
  0
VERTEX
  8
0
 10
8.08060653
 20
4.90230000
  0
VERTEX
  8
0
 10
8.04257728
 20
4.90997775
  0
VERTEX
  8
0
 10
8.01152220
 20
4.93091567
  0
VERTEX
  8
0
 10
7.99058428
 20
4.96197075
  0
VERTEX
  8
0
 10
7.98290653
 20
5.00000000
  0
SEQEND
  0
POLYLINE
  8
Default_Layer
 66
   1
 39
0.000000
 70
    1
  0
VERTEX
  8
0
 10
8.26451934
 20
5.00000000
  0
VERTEX
  8
0
 10
8.27219709
 20
5.03802925
  0
VERTEX
  8
0
 10
8.29313501
 20
5.06908433
  0
VERTEX
  8
0
 10
8.32419009
 20
5.09002225
  0
VERTEX
  8
0
 10
8.36221934
 20
5.09770000
  0
VERTEX
  8
0
 10
8.40024859
 20
5.09002225
  0
VERTEX
  8
0
 10
8.43130368
 20
5.06908433
  0
VERTEX
  8
0
 10
8.45224159
 20
5.03802925
  0
VERTEX
  8
0
 10
8.45991934
 20
5.00000000
  0
VERTEX
  8
0
 10
8.45224159
 20
4.96197075
  0
VERTEX
  8
0
 10
8.43130368
 20
4.93091567
  0
VERTEX
  8
0
 10
8.40024859
 20
4.90997775
  0
VERTEX
  8
0
 10
8.36221934
 20
4.90230000
  0
VERTEX
  8
0
 10
8.32419009
 20
4.90997775
  0
VERTEX
  8
0
 10
8.29313501
 20
4.93091567
  0
VERTEX
  8
0
 10
8.27219709
 20
4.96197075
  0
VERTEX
  8
0
 10
8.26451934
 20
5.00000000
  0
SEQEND
  0
POLYLINE
  8
Default_Layer
 66
   1
 39
0.000000
 70
    1
  0
VERTEX
  8
0
 10
8.54613215
 20
5.00000000
  0
VERTEX
  8
0
 10
8.55380990
 20
5.03802925
  0
VERTEX
  8
0
 10
8.57474782
 20
5.06908433
  0
VERTEX
  8
0
 10
8.60580290
 20
5.09002225
  0
VERTEX
  8
0
 10
8.64383215
 20
5.09770000
  0
VERTEX
  8
0
 10
8.68186140
 20
5.09002225
  0
VERTEX
  8
0
 10
8.71291649
 20
5.06908433
  0
VERTEX
  8
0
 10
8.73385440
 20
5.03802925
  0
VERTEX
  8
0
 10
8.74153215
 20
5.00000000
  0
VERTEX
  8
0
 10
8.73385440
 20
4.96197075
  0
VERTEX
  8
0
 10
8.71291649
 20
4.93091567
  0
VERTEX
  8
0
 10
8.68186140
 20
4.90997775
  0
VERTEX
  8
0
 10
8.64383215
 20
4.90230000
  0
VERTEX
  8
0
 10
8.60580290
 20
4.90997775
  0
VERTEX
  8
0
 10
8.57474782
 20
4.93091567
  0
VERTEX
  8
0
 10
8.55380990
 20
4.96197075
  0
VERTEX
  8
0
 10
8.54613215
 20
5.00000000
  0
SEQEND
  0
POLYLINE
  8
Default_Layer
 66
   1
 39
0.000000
 70
    1
  0
VERTEX
  8
0
 10
8.82774496
 20
5.00000000
  0
VERTEX
  8
0
 10
8.83542271
 20
5.03802925
  0
VERTEX
  8
0
 10
8.85636063
 20
5.06908433
  0
VERTEX
  8
0
 10
8.88741572
 20
5.09002225
  0
VERTEX
  8
0
 10
8.92544496
 20
5.09770000
  0
VERTEX
  8
0
 10
8.96347421
 20
5.09002225
  0
VERTEX
  8
0
 10
8.99452930
 20
5.06908433
  0
VERTEX
  8
0
 10
9.01546721
 20
5.03802925
  0
VERTEX
  8
0
 10
9.02314496
 20
5.00000000
  0
VERTEX
  8
0
 10
9.01546721
 20
4.96197075
  0
VERTEX
  8
0
 10
8.99452930
 20
4.93091567
  0
VERTEX
  8
0
 10
8.96347421
 20
4.90997775
  0
VERTEX
  8
0
 10
8.92544496
 20
4.90230000
  0
VERTEX
  8
0
 10
8.88741572
 20
4.90997775
  0
VERTEX
  8
0
 10
8.85636063
 20
4.93091567
  0
VERTEX
  8
0
 10
8.83542271
 20
4.96197075
  0
VERTEX
  8
0
 10
8.82774496
 20
5.00000000
  0
SEQEND
  0
POLYLINE
  8
Default_Layer
 66
   1
 39
0.000000
 70
    1
  0
VERTEX
  8
0
 10
3.50854673
 20
7.58327283
  0
VERTEX
  8
0
 10
3.53764215
 20
7.60893659
  0
VERTEX
  8
0
 10
3.55406769
 20
7.64259690
  0
VERTEX
  8
0
 10
3.55667291
 20
7.67996035
  0
VERTEX
  8
0
 10
3.54430742
 20
7.71673352
  0
VERTEX
  8
0
 10
3.51864366
 20
7.74582894
  0
VERTEX
  8
0
 10
3.48498335
 20
7.76225447
  0
VERTEX
  8
0
 10
3.44761990
 20
7.76485970
  0
VERTEX
  8
0
 10
3.41084673
 20
7.75249420
  0
VERTEX
  8
0
 10
3.38175131
 20
7.72683045
  0
VERTEX
  8
0
 10
3.36532578
 20
7.69317014
  0
VERTEX
  8
0
 10
3.36272055
 20
7.65580669
  0
VERTEX
  8
0
 10
3.37508605
 20
7.61903352
  0
VERTEX
  8
0
 10
3.40074980
 20
7.58993810
  0
VERTEX
  8
0
 10
3.43441011
 20
7.57351256
  0
VERTEX
  8
0
 10
3.47177356
 20
7.57090734
  0
VERTEX
  8
0
 10
3.50854673
 20
7.58327283
  0
SEQEND
  0
POLYLINE
  8
Default_Layer
 66
   1
 39
0.000000
 70
    1
  0
VERTEX
  8
0
 10
3.36774033
 20
7.82715668
  0
VERTEX
  8
0
 10
3.39683575
 20
7.85282043
  0
VERTEX
  8
0
 10
3.41326128
 20
7.88648074
  0
VERTEX
  8
0
 10
3.41586651
 20
7.92384419
  0
VERTEX
  8
0
 10
3.40350101
 20
7.96061736
  0
VERTEX
  8
0
 10
3.37783726
 20
7.98971278
  0
VERTEX
  8
0
 10
3.34417695
 20
8.00613832
  0
VERTEX
  8
0
 10
3.30681350
 20
8.00874354
  0
VERTEX
  8
0
 10
3.27004033
 20
7.99637805
  0
VERTEX
  8
0
 10
3.24094491
 20
7.97071429
  0
VERTEX
  8
0
 10
3.22451938
 20
7.93705398
  0
VERTEX
  8
0
 10
3.22191415
 20
7.89969054
  0
VERTEX
  8
0
 10
3.23427965
 20
7.86291736
  0
VERTEX
  8
0
 10
3.25994340
 20
7.83382194
  0
VERTEX
  8
0
 10
3.29360371
 20
7.81739641
  0
VERTEX
  8
0
 10
3.33096716
 20
7.81479118
  0
VERTEX
  8
0
 10
3.36774033
 20
7.82715668
  0
SEQEND
  0
POLYLINE
  8
Default_Layer
 66
   1
 39
0.000000
 70
    1
  0
VERTEX
  8
0
 10
3.22693392
 20
8.07104053
  0
VERTEX
  8
0
 10
3.25602934
 20
8.09670428
  0
VERTEX
  8
0
 10
3.27245488
 20
8.13036459
  0
VERTEX
  8
0
 10
3.27506010
 20
8.16772804
  0
VERTEX
  8
0
 10
3.26269461
 20
8.20450121
  0
VERTEX
  8
0
 10
3.23703085
 20
8.23359663
  0
VERTEX
  8
0
 10
3.20337054
 20
8.25002217
  0
VERTEX
  8
0
 10
3.16600709
 20
8.25262739
  0
VERTEX
  8
0
 10
3.12923392
 20
8.24026189
  0
VERTEX
  8
0
 10
3.10013850
 20
8.21459814
  0
VERTEX
  8
0
 10
3.08371297
 20
8.18093783
  0
VERTEX
  8
0
 10
3.08110774
 20
8.14357438
  0
VERTEX
  8
0
 10
3.09347324
 20
8.10680121
  0
VERTEX
  8
0
 10
3.11913699
 20
8.07770579
  0
VERTEX
  8
0
 10
3.15279730
 20
8.06128026
  0
VERTEX
  8
0
 10
3.19016075
 20
8.05867503
  0
VERTEX
  8
0
 10
3.22693392
 20
8.07104053
  0
SEQEND
  0
POLYLINE
  8
Default_Layer
 66
   1
 39
0.000000
 70
    1
  0
VERTEX
  8
0
 10
3.08612752
 20
8.31492438
  0
VERTEX
  8
0
 10
3.11522294
 20
8.34058813
  0
VERTEX
  8
0
 10
3.13164847
 20
8.37424844
  0
VERTEX
  8
0
 10
3.13425370
 20
8.41161189
  0
VERTEX
  8
0
 10
3.12188820
 20
8.44838506
  0
VERTEX
  8
0
 10
3.09622445
 20
8.47748048
  0
VERTEX
  8
0
 10
3.06256414
 20
8.49390601
  0
VERTEX
  8
0
 10
3.02520069
 20
8.49651124
  0
VERTEX
  8
0
 10
2.98842752
 20
8.48414574
  0
VERTEX
  8
0
 10
2.95933210
 20
8.45848199
  0
VERTEX
  8
0
 10
2.94290656
 20
8.42482168
  0
VERTEX
  8
0
 10
2.94030134
 20
8.38745823
  0
VERTEX
  8
0
 10
2.95266684
 20
8.35068506
  0
VERTEX
  8
0
 10
2.97833059
 20
8.32158964
  0
VERTEX
  8
0
 10
3.01199090
 20
8.30516411
  0
VERTEX
  8
0
 10
3.04935435
 20
8.30255888
  0
VERTEX
  8
0
 10
3.08612752
 20
8.31492438
  0
SEQEND
  0
POLYLINE
  8
Default_Layer
 66
   1
 39
0.000000
 70
    1
  0
VERTEX
  8
0
 10
6.49145327
 20
2.41672717
  0
VERTEX
  8
0
 10
6.52822644
 20
2.42909266
  0
VERTEX
  8
0
 10
6.56558989
 20
2.42648744
  0
VERTEX
  8
0
 10
6.59925020
 20
2.41006190
  0
VERTEX
  8
0
 10
6.62491395
 20
2.38096648
  0
VERTEX
  8
0
 10
6.63727945
 20
2.34419331
  0
VERTEX
  8
0
 10
6.63467422
 20
2.30682986
  0
VERTEX
  8
0
 10
6.61824869
 20
2.27316955
  0
VERTEX
  8
0
 10
6.58915327
 20
2.24750580
  0
VERTEX
  8
0
 10
6.55238010
 20
2.23514030
  0
VERTEX
  8
0
 10
6.51501665
 20
2.23774553
  0
VERTEX
  8
0
 10
6.48135634
 20
2.25417106
  0
VERTEX
  8
0
 10
6.45569258
 20
2.28326648
  0
VERTEX
  8
0
 10
6.44332709
 20
2.32003965
  0
VERTEX
  8
0
 10
6.44593231
 20
2.35740310
  0
VERTEX
  8
0
 10
6.46235785
 20
2.39106341
  0
VERTEX
  8
0
 10
6.49145327
 20
2.41672717
  0
SEQEND
  0
POLYLINE
  8
Default_Layer
 66
   1
 39
0.000000
 70
    1
  0
VERTEX
  8
0
 10
6.63225967
 20
2.17284332
  0
VERTEX
  8
0
 10
6.66903284
 20
2.18520882
  0
VERTEX
  8
0
 10
6.70639629
 20
2.18260359
  0
VERTEX
  8
0
 10
6.74005660
 20
2.16617806
  0
VERTEX
  8
0
 10
6.76572035
 20
2.13708264
  0
VERTEX
  8
0
 10
6.77808585
 20
2.10030946
  0
VERTEX
  8
0
 10
6.77548062
 20
2.06294602
  0
VERTEX
  8
0
 10
6.75905509
 20
2.02928571
  0
VERTEX
  8
0
 10
6.72995967
 20
2.00362195
  0
VERTEX
  8
0
 10
6.69318650
 20
1.99125646
  0
VERTEX
  8
0
 10
6.65582305
 20
1.99386168
  0
VERTEX
  8
0
 10
6.62216274
 20
2.01028722
  0
VERTEX
  8
0
 10
6.59649899
 20
2.03938264
  0
VERTEX
  8
0
 10
6.58413349
 20
2.07615581
  0
VERTEX
  8
0
 10
6.58673872
 20
2.11351926
  0
VERTEX
  8
0
 10
6.60316425
 20
2.14717957
  0
VERTEX
  8
0
 10
6.63225967
 20
2.17284332
  0
SEQEND
  0
POLYLINE
  8
Default_Layer
 66
   1
 39
0.000000
 70
    1
  0
VERTEX
  8
0
 10
6.77306608
 20
1.92895947
  0
VERTEX
  8
0
 10
6.80983925
 20
1.94132497
  0
VERTEX
  8
0
 10
6.84720270
 20
1.93871974
  0
VERTEX
  8
0
 10
6.88086301
 20
1.92229421
  0
VERTEX
  8
0
 10
6.90652676
 20
1.89319879
  0
VERTEX
  8
0
 10
6.91889226
 20
1.85642562
  0
VERTEX
  8
0
 10
6.91628703
 20
1.81906217
  0
VERTEX
  8
0
 10
6.89986150
 20
1.78540186
  0
VERTEX
  8
0
 10
6.87076608
 20
1.75973811
  0
VERTEX
  8
0
 10
6.83399291
 20
1.74737261
  0
VERTEX
  8
0
 10
6.79662946
 20
1.74997783
  0
VERTEX
  8
0
 10
6.76296915
 20
1.76640337
  0
VERTEX
  8
0
 10
6.73730539
 20
1.79549879
  0
VERTEX
  8
0
 10
6.72493990
 20
1.83227196
  0
VERTEX
  8
0
 10
6.72754512
 20
1.86963541
  0
VERTEX
  8
0
 10
6.74397066
 20
1.90329572
  0
VERTEX
  8
0
 10
6.77306608
 20
1.92895947
  0
SEQEND
  0
POLYLINE
  8
Default_Layer
 66
   1
 39
0.000000
 70
    1
  0
VERTEX
  8
0
 10
6.91387248
 20
1.68507562
  0
VERTEX
  8
0
 10
6.95064565
 20
1.69744112
  0
VERTEX
  8
0
 10
6.98800910
 20
1.69483589
  0
VERTEX
  8
0
 10
7.02166941
 20
1.67841036
  0
VERTEX
  8
0
 10
7.04733316
 20
1.64931494
  0
VERTEX
  8
0
 10
7.05969866
 20
1.61254177
  0
VERTEX
  8
0
 10
7.05709344
 20
1.57517832
  0
VERTEX
  8
0
 10
7.04066790
 20
1.54151801
  0
VERTEX
  8
0
 10
7.01157248
 20
1.51585426
  0
VERTEX
  8
0
 10
6.97479931
 20
1.50348876
  0
VERTEX
  8
0
 10
6.93743586
 20
1.50609399
  0
VERTEX
  8
0
 10
6.90377555
 20
1.52251952
  0
VERTEX
  8
0
 10
6.87811180
 20
1.55161494
  0
VERTEX
  8
0
 10
6.86574630
 20
1.58838811
  0
VERTEX
  8
0
 10
6.86835153
 20
1.62575156
  0
VERTEX
  8
0
 10
6.88477706
 20
1.65941187
  0
VERTEX
  8
0
 10
6.91387248
 20
1.68507562
  0
SEQEND
  0
POLYLINE
  8
Default_Layer
 66
   1
 39
0.000000
 70
    1
  0
VERTEX
  8
0
 10
6.49145327
 20
7.58327283
  0
VERTEX
  8
0
 10
6.52822644
 20
7.57090734
  0
VERTEX
  8
0
 10
6.56558989
 20
7.57351256
  0
VERTEX
  8
0
 10
6.59925020
 20
7.58993810
  0
VERTEX
  8
0
 10
6.62491395
 20
7.61903352
  0
VERTEX
  8
0
 10
6.63727945
 20
7.65580669
  0
VERTEX
  8
0
 10
6.63467422
 20
7.69317014
  0
VERTEX
  8
0
 10
6.61824869
 20
7.72683045
  0
VERTEX
  8
0
 10
6.58915327
 20
7.75249420
  0
VERTEX
  8
0
 10
6.55238010
 20
7.76485970
  0
VERTEX
  8
0
 10
6.51501665
 20
7.76225447
  0
VERTEX
  8
0
 10
6.48135634
 20
7.74582894
  0
VERTEX
  8
0
 10
6.45569258
 20
7.71673352
  0
VERTEX
  8
0
 10
6.44332709
 20
7.67996035
  0
VERTEX
  8
0
 10
6.44593231
 20
7.64259690
  0
VERTEX
  8
0
 10
6.46235785
 20
7.60893659
  0
VERTEX
  8
0
 10
6.49145327
 20
7.58327283
  0
SEQEND
  0
POLYLINE
  8
Default_Layer
 66
   1
 39
0.000000
 70
    1
  0
VERTEX
  8
0
 10
6.63225967
 20
7.82715668
  0
VERTEX
  8
0
 10
6.66903284
 20
7.81479118
  0
VERTEX
  8
0
 10
6.70639629
 20
7.81739641
  0
VERTEX
  8
0
 10
6.74005660
 20
7.83382194
  0
VERTEX
  8
0
 10
6.76572035
 20
7.86291736
  0
VERTEX
  8
0
 10
6.77808585
 20
7.89969054
  0
VERTEX
  8
0
 10
6.77548062
 20
7.93705398
  0
VERTEX
  8
0
 10
6.75905509
 20
7.97071429
  0
VERTEX
  8
0
 10
6.72995967
 20
7.99637805
  0
VERTEX
  8
0
 10
6.69318650
 20
8.00874354
  0
VERTEX
  8
0
 10
6.65582305
 20
8.00613832
  0
VERTEX
  8
0
 10
6.62216274
 20
7.98971278
  0
VERTEX
  8
0
 10
6.59649899
 20
7.96061736
  0
VERTEX
  8
0
 10
6.58413349
 20
7.92384419
  0
VERTEX
  8
0
 10
6.58673872
 20
7.88648074
  0
VERTEX
  8
0
 10
6.60316425
 20
7.85282043
  0
VERTEX
  8
0
 10
6.63225967
 20
7.82715668
  0
SEQEND
  0
POLYLINE
  8
Default_Layer
 66
   1
 39
0.000000
 70
    1
  0
VERTEX
  8
0
 10
6.77306608
 20
8.07104053
  0
VERTEX
  8
0
 10
6.80983925
 20
8.05867503
  0
VERTEX
  8
0
 10
6.84720270
 20
8.06128026
  0
VERTEX
  8
0
 10
6.88086301
 20
8.07770579
  0
VERTEX
  8
0
 10
6.90652676
 20
8.10680121
  0
VERTEX
  8
0
 10
6.91889226
 20
8.14357438
  0
VERTEX
  8
0
 10
6.91628703
 20
8.18093783
  0
VERTEX
  8
0
 10
6.89986150
 20
8.21459814
  0
VERTEX
  8
0
 10
6.87076608
 20
8.24026189
  0
VERTEX
  8
0
 10
6.83399291
 20
8.25262739
  0
VERTEX
  8
0
 10
6.79662946
 20
8.25002217
  0
VERTEX
  8
0
 10
6.76296915
 20
8.23359663
  0
VERTEX
  8
0
 10
6.73730539
 20
8.20450121
  0
VERTEX
  8
0
 10
6.72493990
 20
8.16772804
  0
VERTEX
  8
0
 10
6.72754512
 20
8.13036459
  0
VERTEX
  8
0
 10
6.74397066
 20
8.09670428
  0
VERTEX
  8
0
 10
6.77306608
 20
8.07104053
  0
SEQEND
  0
POLYLINE
  8
Default_Layer
 66
   1
 39
0.000000
 70
    1
  0
VERTEX
  8
0
 10
6.91387248
 20
8.31492438
  0
VERTEX
  8
0
 10
6.95064565
 20
8.30255888
  0
VERTEX
  8
0
 10
6.98800910
 20
8.30516411
  0
VERTEX
  8
0
 10
7.02166941
 20
8.32158964
  0
VERTEX
  8
0
 10
7.04733316
 20
8.35068506
  0
VERTEX
  8
0
 10
7.05969866
 20
8.38745823
  0
VERTEX
  8
0
 10
7.05709344
 20
8.42482168
  0
VERTEX
  8
0
 10
7.04066790
 20
8.45848199
  0
VERTEX
  8
0
 10
7.01157248
 20
8.48414574
  0
VERTEX
  8
0
 10
6.97479931
 20
8.49651124
  0
VERTEX
  8
0
 10
6.93743586
 20
8.49390601
  0
VERTEX
  8
0
 10
6.90377555
 20
8.47748048
  0
VERTEX
  8
0
 10
6.87811180
 20
8.44838506
  0
VERTEX
  8
0
 10
6.86574630
 20
8.41161189
  0
VERTEX
  8
0
 10
6.86835153
 20
8.37424844
  0
VERTEX
  8
0
 10
6.88477706
 20
8.34058813
  0
VERTEX
  8
0
 10
6.91387248
 20
8.31492438
  0
SEQEND
  0
POLYLINE
  8
Default_Layer
 66
   1
 39
0.000000
 70
    1
  0
VERTEX
  8
0
 10
3.50854673
 20
2.41672717
  0
VERTEX
  8
0
 10
3.53764215
 20
2.39106341
  0
VERTEX
  8
0
 10
3.55406769
 20
2.35740310
  0
VERTEX
  8
0
 10
3.55667291
 20
2.32003965
  0
VERTEX
  8
0
 10
3.54430742
 20
2.28326648
  0
VERTEX
  8
0
 10
3.51864366
 20
2.25417106
  0
VERTEX
  8
0
 10
3.48498335
 20
2.23774553
  0
VERTEX
  8
0
 10
3.44761990
 20
2.23514030
  0
VERTEX
  8
0
 10
3.41084673
 20
2.24750580
  0
VERTEX
  8
0
 10
3.38175131
 20
2.27316955
  0
VERTEX
  8
0
 10
3.36532578
 20
2.30682986
  0
VERTEX
  8
0
 10
3.36272055
 20
2.34419331
  0
VERTEX
  8
0
 10
3.37508605
 20
2.38096648
  0
VERTEX
  8
0
 10
3.40074980
 20
2.41006190
  0
VERTEX
  8
0
 10
3.43441011
 20
2.42648744
  0
VERTEX
  8
0
 10
3.47177356
 20
2.42909266
  0
VERTEX
  8
0
 10
3.50854673
 20
2.41672717
  0
SEQEND
  0
POLYLINE
  8
Default_Layer
 66
   1
 39
0.000000
 70
    1
  0
VERTEX
  8
0
 10
3.36774033
 20
2.17284332
  0
VERTEX
  8
0
 10
3.39683575
 20
2.14717957
  0
VERTEX
  8
0
 10
3.41326128
 20
2.11351926
  0
VERTEX
  8
0
 10
3.41586651
 20
2.07615581
  0
VERTEX
  8
0
 10
3.40350101
 20
2.03938264
  0
VERTEX
  8
0
 10
3.37783726
 20
2.01028722
  0
VERTEX
  8
0
 10
3.34417695
 20
1.99386168
  0
VERTEX
  8
0
 10
3.30681350
 20
1.99125646
  0
VERTEX
  8
0
 10
3.27004033
 20
2.00362195
  0
VERTEX
  8
0
 10
3.24094491
 20
2.02928571
  0
VERTEX
  8
0
 10
3.22451938
 20
2.06294602
  0
VERTEX
  8
0
 10
3.22191415
 20
2.10030946
  0
VERTEX
  8
0
 10
3.23427965
 20
2.13708264
  0
VERTEX
  8
0
 10
3.25994340
 20
2.16617806
  0
VERTEX
  8
0
 10
3.29360371
 20
2.18260359
  0
VERTEX
  8
0
 10
3.33096716
 20
2.18520882
  0
VERTEX
  8
0
 10
3.36774033
 20
2.17284332
  0
SEQEND
  0
POLYLINE
  8
Default_Layer
 66
   1
 39
0.000000
 70
    1
  0
VERTEX
  8
0
 10
3.22693392
 20
1.92895947
  0
VERTEX
  8
0
 10
3.25602934
 20
1.90329572
  0
VERTEX
  8
0
 10
3.27245488
 20
1.86963541
  0
VERTEX
  8
0
 10
3.27506010
 20
1.83227196
  0
VERTEX
  8
0
 10
3.26269461
 20
1.79549879
  0
VERTEX
  8
0
 10
3.23703085
 20
1.76640337
  0
VERTEX
  8
0
 10
3.20337054
 20
1.74997783
  0
VERTEX
  8
0
 10
3.16600709
 20
1.74737261
  0
VERTEX
  8
0
 10
3.12923392
 20
1.75973811
  0
VERTEX
  8
0
 10
3.10013850
 20
1.78540186
  0
VERTEX
  8
0
 10
3.08371297
 20
1.81906217
  0
VERTEX
  8
0
 10
3.08110774
 20
1.85642562
  0
VERTEX
  8
0
 10
3.09347324
 20
1.89319879
  0
VERTEX
  8
0
 10
3.11913699
 20
1.92229421
  0
VERTEX
  8
0
 10
3.15279730
 20
1.93871974
  0
VERTEX
  8
0
 10
3.19016075
 20
1.94132497
  0
VERTEX
  8
0
 10
3.22693392
 20
1.92895947
  0
SEQEND
  0
POLYLINE
  8
Default_Layer
 66
   1
 39
0.000000
 70
    1
  0
VERTEX
  8
0
 10
3.08612752
 20
1.68507562
  0
VERTEX
  8
0
 10
3.11522294
 20
1.65941187
  0
VERTEX
  8
0
 10
3.13164847
 20
1.62575156
  0
VERTEX
  8
0
 10
3.13425370
 20
1.58838811
  0
VERTEX
  8
0
 10
3.12188820
 20
1.55161494
  0
VERTEX
  8
0
 10
3.09622445
 20
1.52251952
  0
VERTEX
  8
0
 10
3.06256414
 20
1.50609399
  0
VERTEX
  8
0
 10
3.02520069
 20
1.50348876
  0
VERTEX
  8
0
 10
2.98842752
 20
1.51585426
  0
VERTEX
  8
0
 10
2.95933210
 20
1.54151801
  0
VERTEX
  8
0
 10
2.94290656
 20
1.57517832
  0
VERTEX
  8
0
 10
2.94030134
 20
1.61254177
  0
VERTEX
  8
0
 10
2.95266684
 20
1.64931494
  0
VERTEX
  8
0
 10
2.97833059
 20
1.67841036
  0
VERTEX
  8
0
 10
3.01199090
 20
1.69483589
  0
VERTEX
  8
0
 10
3.04935435
 20
1.69744112
  0
VERTEX
  8
0
 10
3.08612752
 20
1.68507562
  0
SEQEND
  0
POLYLINE
  8
Default_Layer
 66
   1
 39
0.000000
 70
    1
  0
VERTEX
  8
0
 10
5.37931281
 20
0.76414809
  0
VERTEX
  8
0
 10
5.37163506
 20
0.72611885
  0
VERTEX
  8
0
 10
5.35069714
 20
0.69506376
  0
VERTEX
  8
0
 10
5.31964206
 20
0.67412584
  0
VERTEX
  8
0
 10
5.28161281
 20
0.66644809
  0
VERTEX
  8
0
 10
5.24358356
 20
0.67412584
  0
VERTEX
  8
0
 10
5.21252848
 20
0.69506376
  0
VERTEX
  8
0
 10
5.19159056
 20
0.72611885
  0
VERTEX
  8
0
 10
5.18391281
 20
0.76414809
  0
VERTEX
  8
0
 10
5.19159056
 20
0.80217734
  0
VERTEX
  8
0
 10
5.21252848
 20
0.83323243
  0
VERTEX
  8
0
 10
5.24358356
 20
0.85417034
  0
VERTEX
  8
0
 10
5.28161281
 20
0.86184809
  0
VERTEX
  8
0
 10
5.31964206
 20
0.85417034
  0
VERTEX
  8
0
 10
5.35069714
 20
0.83323243
  0
VERTEX
  8
0
 10
5.37163506
 20
0.80217734
  0
VERTEX
  8
0
 10
5.37931281
 20
0.76414809
  0
SEQEND
  0
POLYLINE
  8
Default_Layer
 66
   1
 39
0.000000
 70
    1
  0
VERTEX
  8
0
 10
5.09770000
 20
0.76414809
  0
VERTEX
  8
0
 10
5.09002225
 20
0.72611885
  0
VERTEX
  8
0
 10
5.06908433
 20
0.69506376
  0
VERTEX
  8
0
 10
5.03802925
 20
0.67412584
  0
VERTEX
  8
0
 10
5.00000000
 20
0.66644809
  0
VERTEX
  8
0
 10
4.96197075
 20
0.67412584
  0
VERTEX
  8
0
 10
4.93091567
 20
0.69506376
  0
VERTEX
  8
0
 10
4.90997775
 20
0.72611885
  0
VERTEX
  8
0
 10
4.90230000
 20
0.76414809
  0
VERTEX
  8
0
 10
4.90997775
 20
0.80217734
  0
VERTEX
  8
0
 10
4.93091567
 20
0.83323243
  0
VERTEX
  8
0
 10
4.96197075
 20
0.85417034
  0
VERTEX
  8
0
 10
5.00000000
 20
0.86184809
  0
VERTEX
  8
0
 10
5.03802925
 20
0.85417034
  0
VERTEX
  8
0
 10
5.06908433
 20
0.83323243
  0
VERTEX
  8
0
 10
5.09002225
 20
0.80217734
  0
VERTEX
  8
0
 10
5.09770000
 20
0.76414809
  0
SEQEND
  0
POLYLINE
  8
Default_Layer
 66
   1
 39
0.000000
 70
    1
  0
VERTEX
  8
0
 10
5.00000000
 20
0.66644809
  0
VERTEX
  8
0
 10
4.96197075
 20
0.67412584
  0
VERTEX
  8
0
 10
4.93091567
 20
0.69506376
  0
VERTEX
  8
0
 10
4.90997775
 20
0.72611885
  0
VERTEX
  8
0
 10
4.90230000
 20
0.76414809
  0
VERTEX
  8
0
 10
4.90997775
 20
0.80217734
  0
VERTEX
  8
0
 10
4.93091567
 20
0.83323243
  0
VERTEX
  8
0
 10
4.96197075
 20
0.85417034
  0
VERTEX
  8
0
 10
5.00000000
 20
0.86184809
  0
VERTEX
  8
0
 10
5.03802925
 20
0.85417034
  0
VERTEX
  8
0
 10
5.06908433
 20
0.83323243
  0
VERTEX
  8
0
 10
5.09002225
 20
0.80217734
  0
VERTEX
  8
0
 10
5.09770000
 20
0.76414809
  0
VERTEX
  8
0
 10
5.09002225
 20
0.72611885
  0
VERTEX
  8
0
 10
5.06908433
 20
0.69506376
  0
VERTEX
  8
0
 10
5.03802925
 20
0.67412584
  0
VERTEX
  8
0
 10
5.00000000
 20
0.66644809
  0
SEQEND
  0
POLYLINE
  8
Default_Layer
 66
   1
 39
0.000000
 70
    1
  0
VERTEX
  8
0
 10
5.00000000
 20
0.94806090
  0
VERTEX
  8
0
 10
4.96197075
 20
0.95573866
  0
VERTEX
  8
0
 10
4.93091567
 20
0.97667657
  0
VERTEX
  8
0
 10
4.90997775
 20
1.00773166
  0
VERTEX
  8
0
 10
4.90230000
 20
1.04576090
  0
VERTEX
  8
0
 10
4.90997775
 20
1.08379015
  0
VERTEX
  8
0
 10
4.93091567
 20
1.11484524
  0
VERTEX
  8
0
 10
4.96197075
 20
1.13578315
  0
VERTEX
  8
0
 10
5.00000000
 20
1.14346090
  0
VERTEX
  8
0
 10
5.03802925
 20
1.13578315
  0
VERTEX
  8
0
 10
5.06908433
 20
1.11484524
  0
VERTEX
  8
0
 10
5.09002225
 20
1.08379015
  0
VERTEX
  8
0
 10
5.09770000
 20
1.04576090
  0
VERTEX
  8
0
 10
5.09002225
 20
1.00773166
  0
VERTEX
  8
0
 10
5.06908433
 20
0.97667657
  0
VERTEX
  8
0
 10
5.03802925
 20
0.95573866
  0
VERTEX
  8
0
 10
5.00000000
 20
0.94806090
  0
SEQEND
  0
POLYLINE
  8
Default_Layer
 66
   1
 39
0.000000
 70
    1
  0
VERTEX
  8
0
 10
4.81608719
 20
0.76414809
  0
VERTEX
  8
0
 10
4.80840944
 20
0.72611885
  0
VERTEX
  8
0
 10
4.78747152
 20
0.69506376
  0
VERTEX
  8
0
 10
4.75641644
 20
0.67412584
  0
VERTEX
  8
0
 10
4.71838719
 20
0.66644809
  0
VERTEX
  8
0
 10
4.68035794
 20
0.67412584
  0
VERTEX
  8
0
 10
4.64930286
 20
0.69506376
  0
VERTEX
  8
0
 10
4.62836494
 20
0.72611885
  0
VERTEX
  8
0
 10
4.62068719
 20
0.76414809
  0
VERTEX
  8
0
 10
4.62836494
 20
0.80217734
  0
VERTEX
  8
0
 10
4.64930286
 20
0.83323243
  0
VERTEX
  8
0
 10
4.68035794
 20
0.85417034
  0
VERTEX
  8
0
 10
4.71838719
 20
0.86184809
  0
VERTEX
  8
0
 10
4.75641644
 20
0.85417034
  0
VERTEX
  8
0
 10
4.78747152
 20
0.83323243
  0
VERTEX
  8
0
 10
4.80840944
 20
0.80217734
  0
VERTEX
  8
0
 10
4.81608719
 20
0.76414809
  0
SEQEND
  0
POLYLINE
  8
Default_Layer
 66
   1
 39
0.000000
 70
    1
  0
VERTEX
  8
0
 10
5.37931281
 20
9.23585191
  0
VERTEX
  8
0
 10
5.37163506
 20
9.27388115
  0
VERTEX
  8
0
 10
5.35069714
 20
9.30493624
  0
VERTEX
  8
0
 10
5.31964206
 20
9.32587416
  0
VERTEX
  8
0
 10
5.28161281
 20
9.33355191
  0
VERTEX
  8
0
 10
5.24358356
 20
9.32587416
  0
VERTEX
  8
0
 10
5.21252848
 20
9.30493624
  0
VERTEX
  8
0
 10
5.19159056
 20
9.27388115
  0
VERTEX
  8
0
 10
5.18391281
 20
9.23585191
  0
VERTEX
  8
0
 10
5.19159056
 20
9.19782266
  0
VERTEX
  8
0
 10
5.21252848
 20
9.16676757
  0
VERTEX
  8
0
 10
5.24358356
 20
9.14582966
  0
VERTEX
  8
0
 10
5.28161281
 20
9.13815191
  0
VERTEX
  8
0
 10
5.31964206
 20
9.14582966
  0
VERTEX
  8
0
 10
5.35069714
 20
9.16676757
  0
VERTEX
  8
0
 10
5.37163506
 20
9.19782266
  0
VERTEX
  8
0
 10
5.37931281
 20
9.23585191
  0
SEQEND
  0
POLYLINE
  8
Default_Layer
 66
   1
 39
0.000000
 70
    1
  0
VERTEX
  8
0
 10
5.09770000
 20
9.23585191
  0
VERTEX
  8
0
 10
5.09002225
 20
9.27388115
  0
VERTEX
  8
0
 10
5.06908433
 20
9.30493624
  0
VERTEX
  8
0
 10
5.03802925
 20
9.32587416
  0
VERTEX
  8
0
 10
5.00000000
 20
9.33355191
  0
VERTEX
  8
0
 10
4.96197075
 20
9.32587416
  0
VERTEX
  8
0
 10
4.93091567
 20
9.30493624
  0
VERTEX
  8
0
 10
4.90997775
 20
9.27388115
  0
VERTEX
  8
0
 10
4.90230000
 20
9.23585191
  0
VERTEX
  8
0
 10
4.90997775
 20
9.19782266
  0
VERTEX
  8
0
 10
4.93091567
 20
9.16676757
  0
VERTEX
  8
0
 10
4.96197075
 20
9.14582966
  0
VERTEX
  8
0
 10
5.00000000
 20
9.13815191
  0
VERTEX
  8
0
 10
5.03802925
 20
9.14582966
  0
VERTEX
  8
0
 10
5.06908433
 20
9.16676757
  0
VERTEX
  8
0
 10
5.09002225
 20
9.19782266
  0
VERTEX
  8
0
 10
5.09770000
 20
9.23585191
  0
SEQEND
  0
POLYLINE
  8
Default_Layer
 66
   1
 39
0.000000
 70
    1
  0
VERTEX
  8
0
 10
5.00000000
 20
9.33355191
  0
VERTEX
  8
0
 10
4.96197075
 20
9.32587416
  0
VERTEX
  8
0
 10
4.93091567
 20
9.30493624
  0
VERTEX
  8
0
 10
4.90997775
 20
9.27388115
  0
VERTEX
  8
0
 10
4.90230000
 20
9.23585191
  0
VERTEX
  8
0
 10
4.90997775
 20
9.19782266
  0
VERTEX
  8
0
 10
4.93091567
 20
9.16676757
  0
VERTEX
  8
0
 10
4.96197075
 20
9.14582966
  0
VERTEX
  8
0
 10
5.00000000
 20
9.13815191
  0
VERTEX
  8
0
 10
5.03802925
 20
9.14582966
  0
VERTEX
  8
0
 10
5.06908433
 20
9.16676757
  0
VERTEX
  8
0
 10
5.09002225
 20
9.19782266
  0
VERTEX
  8
0
 10
5.09770000
 20
9.23585191
  0
VERTEX
  8
0
 10
5.09002225
 20
9.27388115
  0
VERTEX
  8
0
 10
5.06908433
 20
9.30493624
  0
VERTEX
  8
0
 10
5.03802925
 20
9.32587416
  0
VERTEX
  8
0
 10
5.00000000
 20
9.33355191
  0
SEQEND
  0
POLYLINE
  8
Default_Layer
 66
   1
 39
0.000000
 70
    1
  0
VERTEX
  8
0
 10
5.00000000
 20
9.05193910
  0
VERTEX
  8
0
 10
4.96197075
 20
9.04426134
  0
VERTEX
  8
0
 10
4.93091567
 20
9.02332343
  0
VERTEX
  8
0
 10
4.90997775
 20
8.99226834
  0
VERTEX
  8
0
 10
4.90230000
 20
8.95423910
  0
VERTEX
  8
0
 10
4.90997775
 20
8.91620985
  0
VERTEX
  8
0
 10
4.93091567
 20
8.88515476
  0
VERTEX
  8
0
 10
4.96197075
 20
8.86421685
  0
VERTEX
  8
0
 10
5.00000000
 20
8.85653910
  0
VERTEX
  8
0
 10
5.03802925
 20
8.86421685
  0
VERTEX
  8
0
 10
5.06908433
 20
8.88515476
  0
VERTEX
  8
0
 10
5.09002225
 20
8.91620985
  0
VERTEX
  8
0
 10
5.09770000
 20
8.95423910
  0
VERTEX
  8
0
 10
5.09002225
 20
8.99226834
  0
VERTEX
  8
0
 10
5.06908433
 20
9.02332343
  0
VERTEX
  8
0
 10
5.03802925
 20
9.04426134
  0
VERTEX
  8
0
 10
5.00000000
 20
9.05193910
  0
SEQEND
  0
POLYLINE
  8
Default_Layer
 66
   1
 39
0.000000
 70
    1
  0
VERTEX
  8
0
 10
4.81608719
 20
9.23585191
  0
VERTEX
  8
0
 10
4.80840944
 20
9.27388115
  0
VERTEX
  8
0
 10
4.78747152
 20
9.30493624
  0
VERTEX
  8
0
 10
4.75641644
 20
9.32587416
  0
VERTEX
  8
0
 10
4.71838719
 20
9.33355191
  0
VERTEX
  8
0
 10
4.68035794
 20
9.32587416
  0
VERTEX
  8
0
 10
4.64930286
 20
9.30493624
  0
VERTEX
  8
0
 10
4.62836494
 20
9.27388115
  0
VERTEX
  8
0
 10
4.62068719
 20
9.23585191
  0
VERTEX
  8
0
 10
4.62836494
 20
9.19782266
  0
VERTEX
  8
0
 10
4.64930286
 20
9.16676757
  0
VERTEX
  8
0
 10
4.68035794
 20
9.14582966
  0
VERTEX
  8
0
 10
4.71838719
 20
9.13815191
  0
VERTEX
  8
0
 10
4.75641644
 20
9.14582966
  0
VERTEX
  8
0
 10
4.78747152
 20
9.16676757
  0
VERTEX
  8
0
 10
4.80840944
 20
9.19782266
  0
VERTEX
  8
0
 10
4.81608719
 20
9.23585191
  0
SEQEND
  0
POLYLINE
  8
Default_Layer
 66
   1
 39
0.000000
 70
    1
  0
VERTEX
  8
0
 10
1.52130105
 20
2.55357952
  0
VERTEX
  8
0
 10
1.48452788
 20
2.54121402
  0
VERTEX
  8
0
 10
1.44716443
 20
2.54381925
  0
VERTEX
  8
0
 10
1.41350412
 20
2.56024478
  0
VERTEX
  8
0
 10
1.38784037
 20
2.58934020
  0
VERTEX
  8
0
 10
1.37547487
 20
2.62611337
  0
VERTEX
  8
0
 10
1.37808009
 20
2.66347682
  0
VERTEX
  8
0
 10
1.39450563
 20
2.69713713
  0
VERTEX
  8
0
 10
1.42360105
 20
2.72280088
  0
VERTEX
  8
0
 10
1.46037422
 20
2.73516638
  0
VERTEX
  8
0
 10
1.49773767
 20
2.73256115
  0
VERTEX
  8
0
 10
1.53139798
 20
2.71613562
  0
VERTEX
  8
0
 10
1.55706173
 20
2.68704020
  0
VERTEX
  8
0
 10
1.56942723
 20
2.65026703
  0
VERTEX
  8
0
 10
1.56682200
 20
2.61290358
  0
VERTEX
  8
0
 10
1.55039647
 20
2.57924327
  0
VERTEX
  8
0
 10
1.52130105
 20
2.55357952
  0
SEQEND
  0
POLYLINE
  8
Default_Layer
 66
   1
 39
0.000000
 70
    1
  0
VERTEX
  8
0
 10
1.38049464
 20
2.79746337
  0
VERTEX
  8
0
 10
1.34372147
 20
2.78509787
  0
VERTEX
  8
0
 10
1.30635802
 20
2.78770309
  0
VERTEX
  8
0
 10
1.27269771
 20
2.80412863
  0
VERTEX
  8
0
 10
1.24703396
 20
2.83322405
  0
VERTEX
  8
0
 10
1.23466846
 20
2.86999722
  0
VERTEX
  8
0
 10
1.23727369
 20
2.90736067
  0
VERTEX
  8
0
 10
1.25369922
 20
2.94102098
  0
VERTEX
  8
0
 10
1.28279464
 20
2.96668473
  0
VERTEX
  8
0
 10
1.31956781
 20
2.97905023
  0
VERTEX
  8
0
 10
1.35693126
 20
2.97644500
  0
VERTEX
  8
0
 10
1.39059157
 20
2.96001947
  0
VERTEX
  8
0
 10
1.41625532
 20
2.93092405
  0
VERTEX
  8
0
 10
1.42862082
 20
2.89415088
  0
VERTEX
  8
0
 10
1.42601560
 20
2.85678743
  0
VERTEX
  8
0
 10
1.40959006
 20
2.82312712
  0
VERTEX
  8
0
 10
1.38049464
 20
2.79746337
  0
SEQEND
  0
POLYLINE
  8
Default_Layer
 66
   1
 39
0.000000
 70
    1
  0
VERTEX
  8
0
 10
1.24703396
 20
2.83322405
  0
VERTEX
  8
0
 10
1.23466846
 20
2.86999722
  0
VERTEX
  8
0
 10
1.23727369
 20
2.90736067
  0
VERTEX
  8
0
 10
1.25369922
 20
2.94102098
  0
VERTEX
  8
0
 10
1.28279464
 20
2.96668473
  0
VERTEX
  8
0
 10
1.31956781
 20
2.97905023
  0
VERTEX
  8
0
 10
1.35693126
 20
2.97644500
  0
VERTEX
  8
0
 10
1.39059157
 20
2.96001947
  0
VERTEX
  8
0
 10
1.41625532
 20
2.93092405
  0
VERTEX
  8
0
 10
1.42862082
 20
2.89415088
  0
VERTEX
  8
0
 10
1.42601560
 20
2.85678743
  0
VERTEX
  8
0
 10
1.40959006
 20
2.82312712
  0
VERTEX
  8
0
 10
1.38049464
 20
2.79746337
  0
VERTEX
  8
0
 10
1.34372147
 20
2.78509787
  0
VERTEX
  8
0
 10
1.30635802
 20
2.78770309
  0
VERTEX
  8
0
 10
1.27269771
 20
2.80412863
  0
VERTEX
  8
0
 10
1.24703396
 20
2.83322405
  0
SEQEND
  0
POLYLINE
  8
Default_Layer
 66
   1
 39
0.000000
 70
    1
  0
VERTEX
  8
0
 10
1.49091781
 20
2.97403045
  0
VERTEX
  8
0
 10
1.47855231
 20
3.01080362
  0
VERTEX
  8
0
 10
1.48115754
 20
3.04816707
  0
VERTEX
  8
0
 10
1.49758307
 20
3.08182738
  0
VERTEX
  8
0
 10
1.52667849
 20
3.10749113
  0
VERTEX
  8
0
 10
1.56345166
 20
3.11985663
  0
VERTEX
  8
0
 10
1.60081511
 20
3.11725141
  0
VERTEX
  8
0
 10
1.63447542
 20
3.10082587
  0
VERTEX
  8
0
 10
1.66013917
 20
3.07173045
  0
VERTEX
  8
0
 10
1.67250467
 20
3.03495728
  0
VERTEX
  8
0
 10
1.66989944
 20
2.99759383
  0
VERTEX
  8
0
 10
1.65347391
 20
2.96393352
  0
VERTEX
  8
0
 10
1.62437849
 20
2.93826977
  0
VERTEX
  8
0
 10
1.58760532
 20
2.92590427
  0
VERTEX
  8
0
 10
1.55024187
 20
2.92850950
  0
VERTEX
  8
0
 10
1.51658156
 20
2.94493503
  0
VERTEX
  8
0
 10
1.49091781
 20
2.97403045
  0
SEQEND
  0
POLYLINE
  8
Default_Layer
 66
   1
 39
0.000000
 70
    1
  0
VERTEX
  8
0
 10
1.23968824
 20
3.04134721
  0
VERTEX
  8
0
 10
1.20291507
 20
3.02898172
  0
VERTEX
  8
0
 10
1.16555162
 20
3.03158694
  0
VERTEX
  8
0
 10
1.13189131
 20
3.04801247
  0
VERTEX
  8
0
 10
1.10622756
 20
3.07710790
  0
VERTEX
  8
0
 10
1.09386206
 20
3.11388107
  0
VERTEX
  8
0
 10
1.09646728
 20
3.15124452
  0
VERTEX
  8
0
 10
1.11289282
 20
3.18490483
  0
VERTEX
  8
0
 10
1.14198824
 20
3.21056858
  0
VERTEX
  8
0
 10
1.17876141
 20
3.22293407
  0
VERTEX
  8
0
 10
1.21612486
 20
3.22032885
  0
VERTEX
  8
0
 10
1.24978517
 20
3.20390332
  0
VERTEX
  8
0
 10
1.27544892
 20
3.17480790
  0
VERTEX
  8
0
 10
1.28781442
 20
3.13803472
  0
VERTEX
  8
0
 10
1.28520919
 20
3.10067127
  0
VERTEX
  8
0
 10
1.26878366
 20
3.06701096
  0
VERTEX
  8
0
 10
1.23968824
 20
3.04134721
  0
SEQEND
  0
POLYLINE
  8
Default_Layer
 66
   1
 39
0.000000
 70
    1
  0
VERTEX
  8
0
 10
8.85801176
 20
6.78943142
  0
VERTEX
  8
0
 10
8.88710718
 20
6.81509517
  0
VERTEX
  8
0
 10
8.90353272
 20
6.84875548
  0
VERTEX
  8
0
 10
8.90613794
 20
6.88611893
  0
VERTEX
  8
0
 10
8.89377244
 20
6.92289210
  0
VERTEX
  8
0
 10
8.86810869
 20
6.95198753
  0
VERTEX
  8
0
 10
8.83444838
 20
6.96841306
  0
VERTEX
  8
0
 10
8.79708493
 20
6.97101828
  0
VERTEX
  8
0
 10
8.76031176
 20
6.95865279
  0
VERTEX
  8
0
 10
8.73121634
 20
6.93298904
  0
VERTEX
  8
0
 10
8.71479081
 20
6.89932873
  0
VERTEX
  8
0
 10
8.71218558
 20
6.86196528
  0
VERTEX
  8
0
 10
8.72455108
 20
6.82519210
  0
VERTEX
  8
0
 10
8.75021483
 20
6.79609668
  0
VERTEX
  8
0
 10
8.78387514
 20
6.77967115
  0
VERTEX
  8
0
 10
8.82123859
 20
6.77706593
  0
VERTEX
  8
0
 10
8.85801176
 20
6.78943142
  0
SEQEND
  0
POLYLINE
  8
Default_Layer
 66
   1
 39
0.000000
 70
    1
  0
VERTEX
  8
0
 10
8.71720536
 20
7.03331527
  0
VERTEX
  8
0
 10
8.74630078
 20
7.05897902
  0
VERTEX
  8
0
 10
8.76272631
 20
7.09263933
  0
VERTEX
  8
0
 10
8.76533154
 20
7.13000278
  0
VERTEX
  8
0
 10
8.75296604
 20
7.16677595
  0
VERTEX
  8
0
 10
8.72730229
 20
7.19587137
  0
VERTEX
  8
0
 10
8.69364198
 20
7.21229691
  0
VERTEX
  8
0
 10
8.65627853
 20
7.21490213
  0
VERTEX
  8
0
 10
8.61950536
 20
7.20253663
  0
VERTEX
  8
0
 10
8.59040994
 20
7.17687288
  0
VERTEX
  8
0
 10
8.57398440
 20
7.14321257
  0
VERTEX
  8
0
 10
8.57137918
 20
7.10584912
  0
VERTEX
  8
0
 10
8.58374468
 20
7.06907595
  0
VERTEX
  8
0
 10
8.60940843
 20
7.03998053
  0
VERTEX
  8
0
 10
8.64306874
 20
7.02355500
  0
VERTEX
  8
0
 10
8.68043219
 20
7.02094977
  0
VERTEX
  8
0
 10
8.71720536
 20
7.03331527
  0
SEQEND
  0
POLYLINE
  8
Default_Layer
 66
   1
 39
0.000000
 70
    1
  0
VERTEX
  8
0
 10
8.75296604
 20
7.16677595
  0
VERTEX
  8
0
 10
8.72730229
 20
7.19587137
  0
VERTEX
  8
0
 10
8.69364198
 20
7.21229691
  0
VERTEX
  8
0
 10
8.65627853
 20
7.21490213
  0
VERTEX
  8
0
 10
8.61950536
 20
7.20253663
  0
VERTEX
  8
0
 10
8.59040994
 20
7.17687288
  0
VERTEX
  8
0
 10
8.57398440
 20
7.14321257
  0
VERTEX
  8
0
 10
8.57137918
 20
7.10584912
  0
VERTEX
  8
0
 10
8.58374468
 20
7.06907595
  0
VERTEX
  8
0
 10
8.60940843
 20
7.03998053
  0
VERTEX
  8
0
 10
8.64306874
 20
7.02355500
  0
VERTEX
  8
0
 10
8.68043219
 20
7.02094977
  0
VERTEX
  8
0
 10
8.71720536
 20
7.03331527
  0
VERTEX
  8
0
 10
8.74630078
 20
7.05897902
  0
VERTEX
  8
0
 10
8.76272631
 20
7.09263933
  0
VERTEX
  8
0
 10
8.76533154
 20
7.13000278
  0
VERTEX
  8
0
 10
8.75296604
 20
7.16677595
  0
SEQEND
  0
POLYLINE
  8
Default_Layer
 66
   1
 39
0.000000
 70
    1
  0
VERTEX
  8
0
 10
8.50908219
 20
7.02596955
  0
VERTEX
  8
0
 10
8.48341844
 20
7.05506497
  0
VERTEX
  8
0
 10
8.44975813
 20
7.07149050
  0
VERTEX
  8
0
 10
8.41239468
 20
7.07409573
  0
VERTEX
  8
0
 10
8.37562151
 20
7.06173023
  0
VERTEX
  8
0
 10
8.34652609
 20
7.03606648
  0
VERTEX
  8
0
 10
8.33010056
 20
7.00240617
  0
VERTEX
  8
0
 10
8.32749533
 20
6.96504272
  0
VERTEX
  8
0
 10
8.33986083
 20
6.92826955
  0
VERTEX
  8
0
 10
8.36552458
 20
6.89917413
  0
VERTEX
  8
0
 10
8.39918489
 20
6.88274859
  0
VERTEX
  8
0
 10
8.43654834
 20
6.88014337
  0
VERTEX
  8
0
 10
8.47332151
 20
6.89250887
  0
VERTEX
  8
0
 10
8.50241693
 20
6.91817262
  0
VERTEX
  8
0
 10
8.51884246
 20
6.95183293
  0
VERTEX
  8
0
 10
8.52144769
 20
6.98919638
  0
VERTEX
  8
0
 10
8.50908219
 20
7.02596955
  0
SEQEND
  0
POLYLINE
  8
Default_Layer
 66
   1
 39
0.000000
 70
    1
  0
VERTEX
  8
0
 10
8.57639895
 20
7.27719912
  0
VERTEX
  8
0
 10
8.60549437
 20
7.30286287
  0
VERTEX
  8
0
 10
8.62191991
 20
7.33652318
  0
VERTEX
  8
0
 10
8.62452513
 20
7.37388663
  0
VERTEX
  8
0
 10
8.61215963
 20
7.41065980
  0
VERTEX
  8
0
 10
8.58649588
 20
7.43975522
  0
VERTEX
  8
0
 10
8.55283557
 20
7.45618075
  0
VERTEX
  8
0
 10
8.51547212
 20
7.45878598
  0
VERTEX
  8
0
 10
8.47869895
 20
7.44642048
  0
VERTEX
  8
0
 10
8.44960353
 20
7.42075673
  0
VERTEX
  8
0
 10
8.43317800
 20
7.38709642
  0
VERTEX
  8
0
 10
8.43057277
 20
7.34973297
  0
VERTEX
  8
0
 10
8.44293827
 20
7.31295980
  0
VERTEX
  8
0
 10
8.46860202
 20
7.28386438
  0
VERTEX
  8
0
 10
8.50226233
 20
7.26743885
  0
VERTEX
  8
0
 10
8.53962578
 20
7.26483362
  0
VERTEX
  8
0
 10
8.57639895
 20
7.27719912
  0
SEQEND
  0
POLYLINE
  8
Default_Layer
 66
   1
 39
0.000000
 70
    1
  0
VERTEX
  8
0
 10
1.52130105
 20
7.44642048
  0
VERTEX
  8
0
 10
1.48452788
 20
7.45878598
  0
VERTEX
  8
0
 10
1.44716443
 20
7.45618075
  0
VERTEX
  8
0
 10
1.41350412
 20
7.43975522
  0
VERTEX
  8
0
 10
1.38784037
 20
7.41065980
  0
VERTEX
  8
0
 10
1.37547487
 20
7.37388663
  0
VERTEX
  8
0
 10
1.37808009
 20
7.33652318
  0
VERTEX
  8
0
 10
1.39450563
 20
7.30286287
  0
VERTEX
  8
0
 10
1.42360105
 20
7.27719912
  0
VERTEX
  8
0
 10
1.46037422
 20
7.26483362
  0
VERTEX
  8
0
 10
1.49773767
 20
7.26743885
  0
VERTEX
  8
0
 10
1.53139798
 20
7.28386438
  0
VERTEX
  8
0
 10
1.55706173
 20
7.31295980
  0
VERTEX
  8
0
 10
1.56942723
 20
7.34973297
  0
VERTEX
  8
0
 10
1.56682200
 20
7.38709642
  0
VERTEX
  8
0
 10
1.55039647
 20
7.42075673
  0
VERTEX
  8
0
 10
1.52130105
 20
7.44642048
  0
SEQEND
  0
POLYLINE
  8
Default_Layer
 66
   1
 39
0.000000
 70
    1
  0
VERTEX
  8
0
 10
1.38049464
 20
7.20253663
  0
VERTEX
  8
0
 10
1.34372147
 20
7.21490213
  0
VERTEX
  8
0
 10
1.30635802
 20
7.21229691
  0
VERTEX
  8
0
 10
1.27269771
 20
7.19587137
  0
VERTEX
  8
0
 10
1.24703396
 20
7.16677595
  0
VERTEX
  8
0
 10
1.23466846
 20
7.13000278
  0
VERTEX
  8
0
 10
1.23727369
 20
7.09263933
  0
VERTEX
  8
0
 10
1.25369922
 20
7.05897902
  0
VERTEX
  8
0
 10
1.28279464
 20
7.03331527
  0
VERTEX
  8
0
 10
1.31956781
 20
7.02094977
  0
VERTEX
  8
0
 10
1.35693126
 20
7.02355500
  0
VERTEX
  8
0
 10
1.39059157
 20
7.03998053
  0
VERTEX
  8
0
 10
1.41625532
 20
7.06907595
  0
VERTEX
  8
0
 10
1.42862082
 20
7.10584912
  0
VERTEX
  8
0
 10
1.42601560
 20
7.14321257
  0
VERTEX
  8
0
 10
1.40959006
 20
7.17687288
  0
VERTEX
  8
0
 10
1.38049464
 20
7.20253663
  0
SEQEND
  0
POLYLINE
  8
Default_Layer
 66
   1
 39
0.000000
 70
    1
  0
VERTEX
  8
0
 10
1.24703396
 20
7.16677595
  0
VERTEX
  8
0
 10
1.23466846
 20
7.13000278
  0
VERTEX
  8
0
 10
1.23727369
 20
7.09263933
  0
VERTEX
  8
0
 10
1.25369922
 20
7.05897902
  0
VERTEX
  8
0
 10
1.28279464
 20
7.03331527
  0
VERTEX
  8
0
 10
1.31956781
 20
7.02094977
  0
VERTEX
  8
0
 10
1.35693126
 20
7.02355500
  0
VERTEX
  8
0
 10
1.39059157
 20
7.03998053
  0
VERTEX
  8
0
 10
1.41625532
 20
7.06907595
  0
VERTEX
  8
0
 10
1.42862082
 20
7.10584912
  0
VERTEX
  8
0
 10
1.42601560
 20
7.14321257
  0
VERTEX
  8
0
 10
1.40959006
 20
7.17687288
  0
VERTEX
  8
0
 10
1.38049464
 20
7.20253663
  0
VERTEX
  8
0
 10
1.34372147
 20
7.21490213
  0
VERTEX
  8
0
 10
1.30635802
 20
7.21229691
  0
VERTEX
  8
0
 10
1.27269771
 20
7.19587137
  0
VERTEX
  8
0
 10
1.24703396
 20
7.16677595
  0
SEQEND
  0
POLYLINE
  8
Default_Layer
 66
   1
 39
0.000000
 70
    1
  0
VERTEX
  8
0
 10
1.49091781
 20
7.02596955
  0
VERTEX
  8
0
 10
1.47855231
 20
6.98919638
  0
VERTEX
  8
0
 10
1.48115754
 20
6.95183293
  0
VERTEX
  8
0
 10
1.49758307
 20
6.91817262
  0
VERTEX
  8
0
 10
1.52667849
 20
6.89250887
  0
VERTEX
  8
0
 10
1.56345166
 20
6.88014337
  0
VERTEX
  8
0
 10
1.60081511
 20
6.88274859
  0
VERTEX
  8
0
 10
1.63447542
 20
6.89917413
  0
VERTEX
  8
0
 10
1.66013917
 20
6.92826955
  0
VERTEX
  8
0
 10
1.67250467
 20
6.96504272
  0
VERTEX
  8
0
 10
1.66989944
 20
7.00240617
  0
VERTEX
  8
0
 10
1.65347391
 20
7.03606648
  0
VERTEX
  8
0
 10
1.62437849
 20
7.06173023
  0
VERTEX
  8
0
 10
1.58760532
 20
7.07409573
  0
VERTEX
  8
0
 10
1.55024187
 20
7.07149050
  0
VERTEX
  8
0
 10
1.51658156
 20
7.05506497
  0
VERTEX
  8
0
 10
1.49091781
 20
7.02596955
  0
SEQEND
  0
POLYLINE
  8
Default_Layer
 66
   1
 39
0.000000
 70
    1
  0
VERTEX
  8
0
 10
1.23968824
 20
6.95865279
  0
VERTEX
  8
0
 10
1.20291507
 20
6.97101828
  0
VERTEX
  8
0
 10
1.16555162
 20
6.96841306
  0
VERTEX
  8
0
 10
1.13189131
 20
6.95198753
  0
VERTEX
  8
0
 10
1.10622756
 20
6.92289210
  0
VERTEX
  8
0
 10
1.09386206
 20
6.88611893
  0
VERTEX
  8
0
 10
1.09646728
 20
6.84875548
  0
VERTEX
  8
0
 10
1.11289282
 20
6.81509517
  0
VERTEX
  8
0
 10
1.14198824
 20
6.78943142
  0
VERTEX
  8
0
 10
1.17876141
 20
6.77706593
  0
VERTEX
  8
0
 10
1.21612486
 20
6.77967115
  0
VERTEX
  8
0
 10
1.24978517
 20
6.79609668
  0
VERTEX
  8
0
 10
1.27544892
 20
6.82519210
  0
VERTEX
  8
0
 10
1.28781442
 20
6.86196528
  0
VERTEX
  8
0
 10
1.28520919
 20
6.89932873
  0
VERTEX
  8
0
 10
1.26878366
 20
6.93298904
  0
VERTEX
  8
0
 10
1.23968824
 20
6.95865279
  0
SEQEND
  0
POLYLINE
  8
Default_Layer
 66
   1
 39
0.000000
 70
    1
  0
VERTEX
  8
0
 10
8.85801176
 20
3.21056858
  0
VERTEX
  8
0
 10
8.88710718
 20
3.18490483
  0
VERTEX
  8
0
 10
8.90353272
 20
3.15124452
  0
VERTEX
  8
0
 10
8.90613794
 20
3.11388107
  0
VERTEX
  8
0
 10
8.89377244
 20
3.07710790
  0
VERTEX
  8
0
 10
8.86810869
 20
3.04801247
  0
VERTEX
  8
0
 10
8.83444838
 20
3.03158694
  0
VERTEX
  8
0
 10
8.79708493
 20
3.02898172
  0
VERTEX
  8
0
 10
8.76031176
 20
3.04134721
  0
VERTEX
  8
0
 10
8.73121634
 20
3.06701096
  0
VERTEX
  8
0
 10
8.71479081
 20
3.10067127
  0
VERTEX
  8
0
 10
8.71218558
 20
3.13803472
  0
VERTEX
  8
0
 10
8.72455108
 20
3.17480790
  0
VERTEX
  8
0
 10
8.75021483
 20
3.20390332
  0
VERTEX
  8
0
 10
8.78387514
 20
3.22032885
  0
VERTEX
  8
0
 10
8.82123859
 20
3.22293407
  0
VERTEX
  8
0
 10
8.85801176
 20
3.21056858
  0
SEQEND
  0
POLYLINE
  8
Default_Layer
 66
   1
 39
0.000000
 70
    1
  0
VERTEX
  8
0
 10
8.71720536
 20
2.96668473
  0
VERTEX
  8
0
 10
8.74630078
 20
2.94102098
  0
VERTEX
  8
0
 10
8.76272631
 20
2.90736067
  0
VERTEX
  8
0
 10
8.76533154
 20
2.86999722
  0
VERTEX
  8
0
 10
8.75296604
 20
2.83322405
  0
VERTEX
  8
0
 10
8.72730229
 20
2.80412863
  0
VERTEX
  8
0
 10
8.69364198
 20
2.78770309
  0
VERTEX
  8
0
 10
8.65627853
 20
2.78509787
  0
VERTEX
  8
0
 10
8.61950536
 20
2.79746337
  0
VERTEX
  8
0
 10
8.59040994
 20
2.82312712
  0
VERTEX
  8
0
 10
8.57398440
 20
2.85678743
  0
VERTEX
  8
0
 10
8.57137918
 20
2.89415088
  0
VERTEX
  8
0
 10
8.58374468
 20
2.93092405
  0
VERTEX
  8
0
 10
8.60940843
 20
2.96001947
  0
VERTEX
  8
0
 10
8.64306874
 20
2.97644500
  0
VERTEX
  8
0
 10
8.68043219
 20
2.97905023
  0
VERTEX
  8
0
 10
8.71720536
 20
2.96668473
  0
SEQEND
  0
POLYLINE
  8
Default_Layer
 66
   1
 39
0.000000
 70
    1
  0
VERTEX
  8
0
 10
8.75296604
 20
2.83322405
  0
VERTEX
  8
0
 10
8.72730229
 20
2.80412863
  0
VERTEX
  8
0
 10
8.69364198
 20
2.78770309
  0
VERTEX
  8
0
 10
8.65627853
 20
2.78509787
  0
VERTEX
  8
0
 10
8.61950536
 20
2.79746337
  0
VERTEX
  8
0
 10
8.59040994
 20
2.82312712
  0
VERTEX
  8
0
 10
8.57398440
 20
2.85678743
  0
VERTEX
  8
0
 10
8.57137918
 20
2.89415088
  0
VERTEX
  8
0
 10
8.58374468
 20
2.93092405
  0
VERTEX
  8
0
 10
8.60940843
 20
2.96001947
  0
VERTEX
  8
0
 10
8.64306874
 20
2.97644500
  0
VERTEX
  8
0
 10
8.68043219
 20
2.97905023
  0
VERTEX
  8
0
 10
8.71720536
 20
2.96668473
  0
VERTEX
  8
0
 10
8.74630078
 20
2.94102098
  0
VERTEX
  8
0
 10
8.76272631
 20
2.90736067
  0
VERTEX
  8
0
 10
8.76533154
 20
2.86999722
  0
VERTEX
  8
0
 10
8.75296604
 20
2.83322405
  0
SEQEND
  0
POLYLINE
  8
Default_Layer
 66
   1
 39
0.000000
 70
    1
  0
VERTEX
  8
0
 10
8.50908219
 20
2.97403045
  0
VERTEX
  8
0
 10
8.48341844
 20
2.94493503
  0
VERTEX
  8
0
 10
8.44975813
 20
2.92850950
  0
VERTEX
  8
0
 10
8.41239468
 20
2.92590427
  0
VERTEX
  8
0
 10
8.37562151
 20
2.93826977
  0
VERTEX
  8
0
 10
8.34652609
 20
2.96393352
  0
VERTEX
  8
0
 10
8.33010056
 20
2.99759383
  0
VERTEX
  8
0
 10
8.32749533
 20
3.03495728
  0
VERTEX
  8
0
 10
8.33986083
 20
3.07173045
  0
VERTEX
  8
0
 10
8.36552458
 20
3.10082587
  0
VERTEX
  8
0
 10
8.39918489
 20
3.11725141
  0
VERTEX
  8
0
 10
8.43654834
 20
3.11985663
  0
VERTEX
  8
0
 10
8.47332151
 20
3.10749113
  0
VERTEX
  8
0
 10
8.50241693
 20
3.08182738
  0
VERTEX
  8
0
 10
8.51884246
 20
3.04816707
  0
VERTEX
  8
0
 10
8.52144769
 20
3.01080362
  0
VERTEX
  8
0
 10
8.50908219
 20
2.97403045
  0
SEQEND
  0
POLYLINE
  8
Default_Layer
 66
   1
 39
0.000000
 70
    1
  0
VERTEX
  8
0
 10
8.57639895
 20
2.72280088
  0
VERTEX
  8
0
 10
8.60549437
 20
2.69713713
  0
VERTEX
  8
0
 10
8.62191991
 20
2.66347682
  0
VERTEX
  8
0
 10
8.62452513
 20
2.62611337
  0
VERTEX
  8
0
 10
8.61215963
 20
2.58934020
  0
VERTEX
  8
0
 10
8.58649588
 20
2.56024478
  0
VERTEX
  8
0
 10
8.55283557
 20
2.54381925
  0
VERTEX
  8
0
 10
8.51547212
 20
2.54121402
  0
VERTEX
  8
0
 10
8.47869895
 20
2.55357952
  0
VERTEX
  8
0
 10
8.44960353
 20
2.57924327
  0
VERTEX
  8
0
 10
8.43317800
 20
2.61290358
  0
VERTEX
  8
0
 10
8.43057277
 20
2.65026703
  0
VERTEX
  8
0
 10
8.44293827
 20
2.68704020
  0
VERTEX
  8
0
 10
8.46860202
 20
2.71613562
  0
VERTEX
  8
0
 10
8.50226233
 20
2.73256115
  0
VERTEX
  8
0
 10
8.53962578
 20
2.73516638
  0
VERTEX
  8
0
 10
8.57639895
 20
2.72280088
  0
SEQEND
  0
POLYLINE
  8
Default_Layer
 66
   1
 39
0.000000
 70
    1
  0
VERTEX
  8
0
 10
3.85636165
 20
5.96957313
  0
VERTEX
  8
0
 10
3.81717505
 20
5.97374875
  0
VERTEX
  8
0
 10
3.81460544
 20
5.80383310
  0
VERTEX
  8
0
 10
3.80625420
 20
5.78199139
  0
VERTEX
  8
0
 10
3.78537609
 20
5.77331894
  0
VERTEX
  8
0
 10
3.76417679
 20
5.78199139
  0
VERTEX
  8
0
 10
3.75582555
 20
5.80383310
  0
VERTEX
  8
0
 10
3.75582555
 20
5.89826637
  0
VERTEX
  8
0
 10
3.76160718
 20
6.03124384
  0
VERTEX
  8
0
 10
3.76867361
 20
6.16422131
  0
VERTEX
  8
0
 10
3.76867361
 20
6.20854713
  0
VERTEX
  8
0
 10
3.77252803
 20
6.25480016
  0
VERTEX
  8
0
 10
3.78409129
 20
6.27503586
  0
VERTEX
  8
0
 10
3.80400579
 20
6.27921148
  0
VERTEX
  8
0
 10
3.83323514
 20
6.28402951
  0
VERTEX
  8
0
 10
3.87980937
 20
6.28563552
  0
VERTEX
  8
0
 10
3.93674236
 20
6.27559797
  0
VERTEX
  8
0
 10
3.98998152
 20
6.24548532
  0
VERTEX
  8
0
 10
4.03238014
 20
6.19666267
  0
VERTEX
  8
0
 10
4.04651301
 20
6.13884638
  0
VERTEX
  8
0
 10
4.03141653
 20
6.06729872
  0
VERTEX
  8
0
 10
3.98612710
 20
6.01197174
  0
VERTEX
  8
0
 10
3.92670481
 20
5.98017278
  0
VERTEX
  8
0
 10
3.85636165
 20
5.96957313
  0
SEQEND
  0
POLYLINE
  8
Default_Layer
 66
   1
 39
0.000000
 70
    1
  0
VERTEX
  8
0
 10
3.87242173
 20
6.22460721
  0
VERTEX
  8
0
 10
3.84704680
 20
6.22396481
  0
VERTEX
  8
0
 10
3.82841711
 20
6.22203760
  0
VERTEX
  8
0
 10
3.82777471
 20
6.16293650
  0
VERTEX
  8
0
 10
3.82102947
 20
6.03509826
  0
VERTEX
  8
0
 10
3.85636165
 20
6.03092264
  0
VERTEX
  8
0
 10
3.90606760
 20
6.03774817
  0
VERTEX
  8
0
 10
3.94726171
 20
6.05822477
  0
VERTEX
  8
0
 10
3.97761526
 20
6.09331605
  0
VERTEX
  8
0
 10
3.98773311
 20
6.13884638
  0
VERTEX
  8
0
 10
3.97809706
 20
6.17233165
  0
VERTEX
  8
0
 10
3.94918892
 20
6.20083829
  0
VERTEX
  8
0
 10
3.87242173
 20
6.22460721
  0
SEQEND
  0
POLYLINE
  8
Default_Layer
 66
   1
 39
0.000000
 70
    1
  0
VERTEX
  8
0
 10
4.36161179
 20
5.75982847
  0
VERTEX
  8
0
 10
4.33944888
 20
5.77396135
  0
VERTEX
  8
0
 10
4.31792837
 20
5.79740906
  0
VERTEX
  8
0
 10
4.26364530
 20
5.77203414
  0
VERTEX
  8
0
 10
4.22445870
 20
5.76368289
  0
VERTEX
  8
0
 10
4.15949568
 20
5.77428255
  0
VERTEX
  8
0
 10
4.11492895
 20
5.80608151
  0
VERTEX
  8
0
 10
4.09059793
 20
5.85651016
  0
VERTEX
  8
0
 10
4.08248759
 20
5.92813812
  0
VERTEX
  8
0
 10
4.09581746
 20
6.00024788
  0
VERTEX
  8
0
 10
4.13580706
 20
6.06111559
  0
VERTEX
  8
0
 10
4.19458695
 20
6.10255060
  0
VERTEX
  8
0
 10
4.26364530
 20
6.11636227
  0
VERTEX
  8
0
 10
4.32627961
 20
6.10190819
  0
VERTEX
  8
0
 10
4.35904218
 20
6.08207399
  0
VERTEX
  8
0
 10
4.36996303
 20
6.05854598
  0
VERTEX
  8
0
 10
4.36353900
 20
6.04312830
  0
VERTEX
  8
0
 10
4.35839977
 20
6.00297810
  0
VERTEX
  8
0
 10
4.35647257
 20
5.93135014
  0
VERTEX
  8
0
 10
4.36193299
 20
5.86839462
  0
VERTEX
  8
0
 10
4.38216869
 20
5.81186314
  0
VERTEX
  8
0
 10
4.38955633
 20
5.79483945
  0
VERTEX
  8
0
 10
4.39148354
 20
5.78937902
  0
VERTEX
  8
0
 10
4.38248990
 20
5.76817972
  0
VERTEX
  8
0
 10
4.36161179
 20
5.75982847
  0
SEQEND
  0
POLYLINE
  8
Default_Layer
 66
   1
 39
0.000000
 70
    1
  0
VERTEX
  8
0
 10
4.29480186
 20
5.98306360
  0
VERTEX
  8
0
 10
4.29640786
 20
6.01293535
  0
VERTEX
  8
0
 10
4.30186829
 20
6.04762512
  0
VERTEX
  8
0
 10
4.28131139
 20
6.05661877
  0
VERTEX
  8
0
 10
4.26782092
 20
6.05950958
  0
VERTEX
  8
0
 10
4.22140729
 20
6.04931143
  0
VERTEX
  8
0
 10
4.18173889
 20
6.01871698
  0
VERTEX
  8
0
 10
4.15475795
 20
5.97511386
  0
VERTEX
  8
0
 10
4.14576431
 20
5.92524731
  0
VERTEX
  8
0
 10
4.16439400
 20
5.84623171
  0
VERTEX
  8
0
 10
4.18768112
 20
5.82647781
  0
VERTEX
  8
0
 10
4.22028308
 20
5.81989318
  0
VERTEX
  8
0
 10
4.27263894
 20
5.83113523
  0
VERTEX
  8
0
 10
4.30508031
 20
5.85554656
  0
VERTEX
  8
0
 10
4.29480186
 20
5.98306360
  0
SEQEND
  0
POLYLINE
  8
Default_Layer
 66
   1
 39
0.000000
 70
    1
  0
VERTEX
  8
0
 10
4.72746043
 20
6.06753962
  0
VERTEX
  8
0
 10
4.61632467
 20
5.82728081
  0
VERTEX
  8
0
 10
4.55336915
 20
5.68049168
  0
VERTEX
  8
0
 10
4.53216985
 20
5.61817856
  0
VERTEX
  8
0
 10
4.50326170
 20
5.59505205
  0
VERTEX
  8
0
 10
4.47981399
 20
5.60372449
  0
VERTEX
  8
0
 10
4.47017794
 20
5.62588740
  0
VERTEX
  8
0
 10
4.53955749
 20
5.81186314
  0
VERTEX
  8
0
 10
4.42456731
 20
6.03317105
  0
VERTEX
  8
0
 10
4.41011323
 20
6.05661877
  0
VERTEX
  8
0
 10
4.40144079
 20
6.08135129
  0
VERTEX
  8
0
 10
4.41139804
 20
6.10447781
  0
VERTEX
  8
0
 10
4.43420336
 20
6.11443506
  0
VERTEX
  8
0
 10
4.45700867
 20
6.10319300
  0
VERTEX
  8
0
 10
4.57424726
 20
5.88734552
  0
VERTEX
  8
0
 10
4.62178510
 20
5.99816007
  0
VERTEX
  8
0
 10
4.67125015
 20
6.09709017
  0
VERTEX
  8
0
 10
4.69823108
 20
6.11507746
  0
VERTEX
  8
0
 10
4.72135760
 20
6.10576261
  0
VERTEX
  8
0
 10
4.73163605
 20
6.08359970
  0
VERTEX
  8
0
 10
4.72746043
 20
6.06753962
  0
SEQEND
  0
POLYLINE
  8
Default_Layer
 66
   1
 39
0.000000
 70
    1
  0
VERTEX
  8
0
 10
5.43667359
 20
5.85233454
  0
VERTEX
  8
0
 10
5.43153437
 20
5.80094228
  0
VERTEX
  8
0
 10
5.42037261
 20
5.77661126
  0
VERTEX
  8
0
 10
5.39716580
 20
5.76850092
  0
VERTEX
  8
0
 10
5.35508838
 20
5.79162743
  0
VERTEX
  8
0
 10
5.21472328
 20
5.94267249
  0
VERTEX
  8
0
 10
5.05508608
 20
6.14848243
  0
VERTEX
  8
0
 10
5.05348007
 20
6.07556966
  0
VERTEX
  8
0
 10
5.05251646
 20
6.00233569
  0
VERTEX
  8
0
 10
5.05348007
 20
5.92235649
  0
VERTEX
  8
0
 10
5.05476488
 20
5.84205609
  0
VERTEX
  8
0
 10
5.04641363
 20
5.77725366
  0
VERTEX
  8
0
 10
5.02135991
 20
5.75565285
  0
VERTEX
  8
0
 10
4.99341537
 20
5.76689491
  0
VERTEX
  8
0
 10
4.98410052
 20
5.79066383
  0
VERTEX
  8
0
 10
4.98602773
 20
5.83145643
  0
VERTEX
  8
0
 10
4.98827614
 20
5.87224904
  0
VERTEX
  8
0
 10
4.98956095
 20
5.93167134
  0
VERTEX
  8
0
 10
4.99084575
 20
5.99141484
  0
VERTEX
  8
0
 10
4.98988215
 20
6.05533396
  0
VERTEX
  8
0
 10
4.98891854
 20
6.11957428
  0
VERTEX
  8
0
 10
4.98506412
 20
6.17963898
  0
VERTEX
  8
0
 10
4.98120971
 20
6.24002489
  0
VERTEX
  8
0
 10
4.99373657
 20
6.26700582
  0
VERTEX
  8
0
 10
5.02264471
 20
6.27921148
  0
VERTEX
  8
0
 10
5.06472213
 20
6.24195210
  0
VERTEX
  8
0
 10
5.20862045
 20
6.04280710
  0
VERTEX
  8
0
 10
5.37564529
 20
5.86293419
  0
VERTEX
  8
0
 10
5.37564529
 20
5.90372680
  0
VERTEX
  8
0
 10
5.37468168
 20
5.94419820
  0
VERTEX
  8
0
 10
5.36376083
 20
6.16871813
  0
VERTEX
  8
0
 10
5.35508838
 20
6.20244430
  0
VERTEX
  8
0
 10
5.34866435
 20
6.23649167
  0
VERTEX
  8
0
 10
5.35717620
 20
6.26443621
  0
VERTEX
  8
0
 10
5.38271172
 20
6.27375106
  0
VERTEX
  8
0
 10
5.40716320
 20
6.26072232
  0
VERTEX
  8
0
 10
5.42462853
 20
6.22163610
  0
VERTEX
  8
0
 10
5.43860080
 20
6.06529121
  0
VERTEX
  8
0
 10
5.43763720
 20
5.95865227
  0
VERTEX
  8
0
 10
5.43667359
 20
5.85233454
  0
SEQEND
  0
POLYLINE
  8
Default_Layer
 66
   1
 39
0.000000
 70
    1
  0
VERTEX
  8
0
 10
5.63100057
 20
5.76207689
  0
VERTEX
  8
0
 10
5.58081282
 20
5.77203414
  0
VERTEX
  8
0
 10
5.53817331
 20
5.80190589
  0
VERTEX
  8
0
 10
5.50508954
 20
5.85386025
  0
VERTEX
  8
0
 10
5.49256268
 20
5.92107168
  0
VERTEX
  8
0
 10
5.50075332
 20
5.98932703
  0
VERTEX
  8
0
 10
5.52917966
 20
6.04890993
  0
VERTEX
  8
0
 10
5.58298093
 20
6.09781287
  0
VERTEX
  8
0
 10
5.65444829
 20
6.11411386
  0
VERTEX
  8
0
 10
5.71089947
 20
6.09941888
  0
VERTEX
  8
0
 10
5.75177238
 20
6.05533396
  0
VERTEX
  8
0
 10
5.77128538
 20
6.00297810
  0
VERTEX
  8
0
 10
5.77714731
 20
5.94098618
  0
VERTEX
  8
0
 10
5.76735066
 20
5.87489895
  0
VERTEX
  8
0
 10
5.73988792
 20
5.81925077
  0
VERTEX
  8
0
 10
5.69210918
 20
5.77637036
  0
VERTEX
  8
0
 10
5.63100057
 20
5.76207689
  0
SEQEND
  0
POLYLINE
  8
Default_Layer
 66
   1
 39
0.000000
 70
    1
  0
VERTEX
  8
0
 10
5.65027267
 20
6.04890993
  0
VERTEX
  8
0
 10
5.60827556
 20
6.03782847
  0
VERTEX
  8
0
 10
5.57671750
 20
6.00394170
  0
VERTEX
  8
0
 10
5.55583939
 20
5.92107168
  0
VERTEX
  8
0
 10
5.56218313
 20
5.87963668
  0
VERTEX
  8
0
 10
5.58121432
 20
5.84848012
  0
VERTEX
  8
0
 10
5.63100057
 20
5.82695961
  0
VERTEX
  8
0
 10
5.68849566
 20
5.85137093
  0
VERTEX
  8
0
 10
5.70937377
 20
5.88308959
  0
VERTEX
  8
0
 10
5.71740381
 20
5.92428370
  0
VERTEX
  8
0
 10
5.70286943
 20
6.01759277
  0
VERTEX
  8
0
 10
5.68132885
 20
6.04100034
  0
VERTEX
  8
0
 10
5.65027267
 20
6.04890993
  0
SEQEND
  0
POLYLINE
  8
Default_Layer
 66
   1
 39
0.000000
 70
    1
  0
VERTEX
  8
0
 10
6.24096244
 20
6.06850323
  0
VERTEX
  8
0
 10
6.17543731
 20
5.83177764
  0
VERTEX
  8
0
 10
6.14556556
 20
5.77171293
  0
VERTEX
  8
0
 10
6.11505140
 20
5.75501045
  0
VERTEX
  8
0
 10
6.08389485
 20
5.77709306
  0
VERTEX
  8
0
 10
6.06044713
 20
5.84205609
  0
VERTEX
  8
0
 10
6.04727786
 20
5.91721727
  0
VERTEX
  8
0
 10
6.03667821
 20
5.98884523
  0
VERTEX
  8
0
 10
6.01033968
 20
5.92749572
  0
VERTEX
  8
0
 10
5.96151703
 20
5.79483945
  0
VERTEX
  8
0
 10
5.94931137
 20
5.77620976
  0
VERTEX
  8
0
 10
5.91847602
 20
5.75693766
  0
VERTEX
  8
0
 10
5.89446620
 20
5.78038538
  0
VERTEX
  8
0
 10
5.87125938
 20
5.85265574
  0
VERTEX
  8
0
 10
5.84813286
 20
5.98756042
  0
VERTEX
  8
0
 10
5.84042402
 20
6.03574066
  0
VERTEX
  8
0
 10
5.83624840
 20
6.08424210
  0
VERTEX
  8
0
 10
5.84556325
 20
6.10640502
  0
VERTEX
  8
0
 10
5.86868977
 20
6.11539866
  0
VERTEX
  8
0
 10
5.88844367
 20
6.10873373
  0
VERTEX
  8
0
 10
5.89888272
 20
6.08873893
  0
VERTEX
  8
0
 10
5.90562795
 20
6.04184349
  0
VERTEX
  8
0
 10
5.91044598
 20
5.99462685
  0
VERTEX
  8
0
 10
5.92939687
 20
5.85040733
  0
VERTEX
  8
0
 10
6.00327324
 20
6.07846048
  0
VERTEX
  8
0
 10
6.01780762
 20
6.10520051
  0
VERTEX
  8
0
 10
6.04021143
 20
6.11411386
  0
VERTEX
  8
0
 10
6.06149104
 20
6.10415661
  0
VERTEX
  8
0
 10
6.07458000
 20
6.07428485
  0
VERTEX
  8
0
 10
6.09545811
 20
5.95865227
  0
VERTEX
  8
0
 10
6.11826342
 20
5.83242004
  0
VERTEX
  8
0
 10
6.14171114
 20
5.91978688
  0
VERTEX
  8
0
 10
6.18314615
 20
6.09484176
  0
VERTEX
  8
0
 10
6.21076949
 20
6.11443506
  0
VERTEX
  8
0
 10
6.23421720
 20
6.10512021
  0
VERTEX
  8
0
 10
6.24417445
 20
6.08327850
  0
VERTEX
  8
0
 10
6.24096244
 20
6.06850323
  0
SEQEND
  0
POLYLINE
  8
Default_Layer
 66
   1
 39
0.000000
 70
    1
  0
VERTEX
  8
0
 10
4.82896014
 20
4.74785673
  0
VERTEX
  8
0
 10
4.74528712
 20
4.76142750
  0
VERTEX
  8
0
 10
4.67542577
 20
4.80213981
  0
VERTEX
  8
0
 10
4.62531832
 20
4.86830734
  0
VERTEX
  8
0
 10
4.60861583
 20
4.95117735
  0
VERTEX
  8
0
 10
4.62507742
 20
5.05725419
  0
VERTEX
  8
0
 10
4.67446216
 20
5.15321317
  0
VERTEX
  8
0
 10
4.75709128
 20
5.22885615
  0
VERTEX
  8
0
 10
4.85786829
 20
5.25407048
  0
VERTEX
  8
0
 10
4.94997285
 20
5.24218602
  0
VERTEX
  8
0
 10
5.01493588
 20
5.20653264
  0
VERTEX
  8
0
 10
5.05516638
 20
5.14277412
  0
VERTEX
  8
0
 10
5.06857654
 20
5.05042865
  0
VERTEX
  8
0
 10
5.05348007
 20
4.94475332
  0
VERTEX
  8
0
 10
5.00819064
 20
4.84999885
  0
VERTEX
  8
0
 10
4.92869324
 20
4.77339226
  0
VERTEX
  8
0
 10
4.82896014
 20
4.74785673
  0
SEQEND
  0
POLYLINE
  8
Default_Layer
 66
   1
 39
0.000000
 70
    1
  0
VERTEX
  8
0
 10
4.85786829
 20
5.18822415
  0
VERTEX
  8
0
 10
4.78519642
 20
5.16863085
  0
VERTEX
  8
0
 10
4.72456962
 20
5.10985095
  0
VERTEX
  8
0
 10
4.68674813
 20
5.03420797
  0
VERTEX
  8
0
 10
4.67414096
 20
4.95117735
  0
VERTEX
  8
0
 10
4.68562392
 20
4.89496707
  0
VERTEX
  8
0
 10
4.72007279
 20
4.85032005
  0
VERTEX
  8
0
 10
4.76929694
 20
4.82285731
  0
VERTEX
  8
0
 10
4.82896014
 20
4.81370306
  0
VERTEX
  8
0
 10
4.90018660
 20
4.83337666
  0
VERTEX
  8
0
 10
4.95776199
 20
4.89239746
  0
VERTEX
  8
0
 10
4.99172906
 20
4.96707683
  0
VERTEX
  8
0
 10
5.00305142
 20
5.05042865
  0
VERTEX
  8
0
 10
4.99445927
 20
5.11579318
  0
VERTEX
  8
0
 10
4.96868284
 20
5.15835240
  0
VERTEX
  8
0
 10
4.92459792
 20
5.18075621
  0
VERTEX
  8
0
 10
4.85786829
 20
5.18822415
  0
SEQEND
  0
POLYLINE
  8
Default_Layer
 66
   1
 39
0.000000
 70
    1
  0
VERTEX
  8
0
 10
5.39106297
 20
5.00481802
  0
VERTEX
  8
0
 10
5.38190872
 20
4.97470537
  0
VERTEX
  8
0
 10
5.35894280
 20
4.96466782
  0
VERTEX
  8
0
 10
5.33822530
 20
4.97261756
  0
VERTEX
  8
0
 10
5.33131947
 20
4.99646678
  0
VERTEX
  8
0
 10
5.33035586
 20
5.01895090
  0
VERTEX
  8
0
 10
5.32939226
 20
5.04593183
  0
VERTEX
  8
0
 10
5.24812825
 20
5.01734489
  0
VERTEX
  8
0
 10
5.20059041
 20
4.95438937
  0
VERTEX
  8
0
 10
5.20123281
 20
4.77837089
  0
VERTEX
  8
0
 10
5.19328307
 20
4.75403986
  0
VERTEX
  8
0
 10
5.16943385
 20
4.74592952
  0
VERTEX
  8
0
 10
5.14823455
 20
4.75403986
  0
VERTEX
  8
0
 10
5.14116811
 20
4.77837089
  0
VERTEX
  8
0
 10
5.14116811
 20
5.00385442
  0
VERTEX
  8
0
 10
5.14181051
 20
5.03565338
  0
VERTEX
  8
0
 10
5.14277412
 20
5.06745234
  0
VERTEX
  8
0
 10
5.14984055
 20
5.09178336
  0
VERTEX
  8
0
 10
5.17103986
 20
5.09989370
  0
VERTEX
  8
0
 10
5.19472848
 20
5.08656384
  0
VERTEX
  8
0
 10
5.20283882
 20
5.04657423
  0
VERTEX
  8
0
 10
5.26788215
 20
5.09114096
  0
VERTEX
  8
0
 10
5.33967071
 20
5.10599653
  0
VERTEX
  8
0
 10
5.37853610
 20
5.08640323
  0
VERTEX
  8
0
 10
5.39138417
 20
5.02730214
  0
VERTEX
  8
0
 10
5.39106297
 20
5.00481802
  0
SEQEND
  0
POLYLINE
  8
Default_Layer
 66
   1
 39
0.000000
 70
    1
  0
VERTEX
  8
0
 10
3.67552514
 20
3.96755088
  0
VERTEX
  8
0
 10
3.63633855
 20
3.97172650
  0
VERTEX
  8
0
 10
3.63376893
 20
3.80181085
  0
VERTEX
  8
0
 10
3.62541769
 20
3.77996914
  0
VERTEX
  8
0
 10
3.60453959
 20
3.77129670
  0
VERTEX
  8
0
 10
3.58334028
 20
3.77996914
  0
VERTEX
  8
0
 10
3.57498904
 20
3.80181085
  0
VERTEX
  8
0
 10
3.57498904
 20
3.89624413
  0
VERTEX
  8
0
 10
3.58077067
 20
4.02922159
  0
VERTEX
  8
0
 10
3.58783710
 20
4.16219906
  0
VERTEX
  8
0
 10
3.58783710
 20
4.20652489
  0
VERTEX
  8
0
 10
3.59169152
 20
4.25277792
  0
VERTEX
  8
0
 10
3.60325478
 20
4.27301362
  0
VERTEX
  8
0
 10
3.62316928
 20
4.27718924
  0
VERTEX
  8
0
 10
3.65239863
 20
4.28200726
  0
VERTEX
  8
0
 10
3.69897286
 20
4.28361327
  0
VERTEX
  8
0
 10
3.75590585
 20
4.27357572
  0
VERTEX
  8
0
 10
3.80914501
 20
4.24346307
  0
VERTEX
  8
0
 10
3.85154363
 20
4.19464043
  0
VERTEX
  8
0
 10
3.86567650
 20
4.13682413
  0
VERTEX
  8
0
 10
3.85058002
 20
4.06527648
  0
VERTEX
  8
0
 10
3.80529059
 20
4.00994950
  0
VERTEX
  8
0
 10
3.74586830
 20
3.97815054
  0
VERTEX
  8
0
 10
3.67552514
 20
3.96755088
  0
SEQEND
  0
POLYLINE
  8
Default_Layer
 66
   1
 39
0.000000
 70
    1
  0
VERTEX
  8
0
 10
3.69158522
 20
4.22258497
  0
VERTEX
  8
0
 10
3.66621030
 20
4.22194256
  0
VERTEX
  8
0
 10
3.64758060
 20
4.22001535
  0
VERTEX
  8
0
 10
3.64693820
 20
4.16091426
  0
VERTEX
  8
0
 10
3.64019296
 20
4.03307601
  0
VERTEX
  8
0
 10
3.67552514
 20
4.02890039
  0
VERTEX
  8
0
 10
3.72523109
 20
4.03572593
  0
VERTEX
  8
0
 10
3.76642520
 20
4.05620253
  0
VERTEX
  8
0
 10
3.79677875
 20
4.09129381
  0
VERTEX
  8
0
 10
3.80689660
 20
4.13682413
  0
VERTEX
  8
0
 10
3.79726055
 20
4.17030940
  0
VERTEX
  8
0
 10
3.76835241
 20
4.19881605
  0
VERTEX
  8
0
 10
3.69158522
 20
4.22258497
  0
SEQEND
  0
POLYLINE
  8
Default_Layer
 66
   1
 39
0.000000
 70
    1
  0
VERTEX
  8
0
 10
4.18077528
 20
3.75780623
  0
VERTEX
  8
0
 10
4.15861237
 20
3.77193910
  0
VERTEX
  8
0
 10
4.13709186
 20
3.79538682
  0
VERTEX
  8
0
 10
4.08280879
 20
3.77001189
  0
VERTEX
  8
0
 10
4.04362219
 20
3.76166065
  0
VERTEX
  8
0
 10
3.97865917
 20
3.77226030
  0
VERTEX
  8
0
 10
3.93409244
 20
3.80405926
  0
VERTEX
  8
0
 10
3.90976142
 20
3.85448792
  0
VERTEX
  8
0
 10
3.90165108
 20
3.92611588
  0
VERTEX
  8
0
 10
3.91498095
 20
3.99822564
  0
VERTEX
  8
0
 10
3.95497055
 20
4.05909334
  0
VERTEX
  8
0
 10
4.01375044
 20
4.10052835
  0
VERTEX
  8
0
 10
4.08280879
 20
4.11434002
  0
VERTEX
  8
0
 10
4.14544310
 20
4.09988595
  0
VERTEX
  8
0
 10
4.17820567
 20
4.08005175
  0
VERTEX
  8
0
 10
4.18912652
 20
4.05652373
  0
VERTEX
  8
0
 10
4.18270249
 20
4.04110605
  0
VERTEX
  8
0
 10
4.17756327
 20
4.00095585
  0
VERTEX
  8
0
 10
4.17563606
 20
3.92932789
  0
VERTEX
  8
0
 10
4.18109648
 20
3.86637238
  0
VERTEX
  8
0
 10
4.20133219
 20
3.80984089
  0
VERTEX
  8
0
 10
4.20871982
 20
3.79281721
  0
VERTEX
  8
0
 10
4.21064703
 20
3.78735678
  0
VERTEX
  8
0
 10
4.20165339
 20
3.76615747
  0
VERTEX
  8
0
 10
4.18077528
 20
3.75780623
  0
SEQEND
  0
POLYLINE
  8
Default_Layer
 66
   1
 39
0.000000
 70
    1
  0
VERTEX
  8
0
 10
4.11396535
 20
3.98104135
  0
VERTEX
  8
0
 10
4.11557135
 20
4.01091310
  0
VERTEX
  8
0
 10
4.12103178
 20
4.04560288
  0
VERTEX
  8
0
 10
4.10047488
 20
4.05459652
  0
VERTEX
  8
0
 10
4.08698441
 20
4.05748734
  0
VERTEX
  8
0
 10
4.04057078
 20
4.04728918
  0
VERTEX
  8
0
 10
4.00090238
 20
4.01669473
  0
VERTEX
  8
0
 10
3.97392144
 20
3.97309161
  0
VERTEX
  8
0
 10
3.96492780
 20
3.92322506
  0
VERTEX
  8
0
 10
3.98355749
 20
3.84420946
  0
VERTEX
  8
0
 10
4.00684461
 20
3.82445556
  0
VERTEX
  8
0
 10
4.03944657
 20
3.81787093
  0
VERTEX
  8
0
 10
4.09180243
 20
3.82911299
  0
VERTEX
  8
0
 10
4.12424380
 20
3.85352431
  0
VERTEX
  8
0
 10
4.11396535
 20
3.98104135
  0
SEQEND
  0
POLYLINE
  8
Default_Layer
 66
   1
 39
0.000000
 70
    1
  0
VERTEX
  8
0
 10
4.54662392
 20
4.06551738
  0
VERTEX
  8
0
 10
4.43548816
 20
3.82525857
  0
VERTEX
  8
0
 10
4.37253265
 20
3.67846943
  0
VERTEX
  8
0
 10
4.35133334
 20
3.61615632
  0
VERTEX
  8
0
 10
4.32242519
 20
3.59302980
  0
VERTEX
  8
0
 10
4.29897748
 20
3.60170224
  0
VERTEX
  8
0
 10
4.28934143
 20
3.62386516
  0
VERTEX
  8
0
 10
4.35872098
 20
3.80984089
  0
VERTEX
  8
0
 10
4.24373080
 20
4.03114880
  0
VERTEX
  8
0
 10
4.22927673
 20
4.05459652
  0
VERTEX
  8
0
 10
4.22060428
 20
4.07932905
  0
VERTEX
  8
0
 10
4.23056153
 20
4.10245556
  0
VERTEX
  8
0
 10
4.25336685
 20
4.11241281
  0
VERTEX
  8
0
 10
4.27617216
 20
4.10117076
  0
VERTEX
  8
0
 10
4.39341075
 20
3.88532327
  0
VERTEX
  8
0
 10
4.44094859
 20
3.99613783
  0
VERTEX
  8
0
 10
4.49041364
 20
4.09506792
  0
VERTEX
  8
0
 10
4.51739457
 20
4.11305522
  0
VERTEX
  8
0
 10
4.54052109
 20
4.10374037
  0
VERTEX
  8
0
 10
4.55079954
 20
4.08157746
  0
VERTEX
  8
0
 10
4.54662392
 20
4.06551738
  0
SEQEND
  0
POLYLINE
  8
Default_Layer
 66
   1
 39
0.000000
 70
    1
  0
VERTEX
  8
0
 10
5.09009705
 20
3.79217480
  0
VERTEX
  8
0
 10
4.97607048
 20
3.76166065
  0
VERTEX
  8
0
 10
4.85915309
 20
3.74913379
  0
VERTEX
  8
0
 10
4.81257886
 20
3.75909104
  0
VERTEX
  8
0
 10
4.79330676
 20
3.80855608
  0
VERTEX
  8
0
 10
4.79973079
 20
3.91487382
  0
VERTEX
  8
0
 10
4.80808204
 20
4.24121466
  0
VERTEX
  8
0
 10
4.81707568
 20
4.26466238
  0
VERTEX
  8
0
 10
4.83988100
 20
4.27429843
  0
VERTEX
  8
0
 10
4.86268631
 20
4.26466238
  0
VERTEX
  8
0
 10
4.87200116
 20
4.24121466
  0
VERTEX
  8
0
 10
4.86332871
 20
3.91101940
  0
VERTEX
  8
0
 10
4.85915309
 20
3.86219675
  0
VERTEX
  8
0
 10
4.85722588
 20
3.81498012
  0
VERTEX
  8
0
 10
4.95214096
 20
3.82437526
  0
VERTEX
  8
0
 10
5.06921895
 20
3.85448792
  0
VERTEX
  8
0
 10
5.07949740
 20
3.85609392
  0
VERTEX
  8
0
 10
5.10262392
 20
3.84517307
  0
VERTEX
  8
0
 10
5.11065396
 20
3.82236775
  0
VERTEX
  8
0
 10
5.09009705
 20
3.79217480
  0
SEQEND
  0
POLYLINE
  8
Default_Layer
 66
   1
 39
0.000000
 70
    1
  0
VERTEX
  8
0
 10
5.41868630
 20
3.75780623
  0
VERTEX
  8
0
 10
5.39652339
 20
3.77193910
  0
VERTEX
  8
0
 10
5.37500288
 20
3.79538682
  0
VERTEX
  8
0
 10
5.32071981
 20
3.77001189
  0
VERTEX
  8
0
 10
5.28153322
 20
3.76166065
  0
VERTEX
  8
0
 10
5.21657019
 20
3.77226030
  0
VERTEX
  8
0
 10
5.17200346
 20
3.80405926
  0
VERTEX
  8
0
 10
5.14767244
 20
3.85448792
  0
VERTEX
  8
0
 10
5.13956210
 20
3.92611588
  0
VERTEX
  8
0
 10
5.15289197
 20
3.99822564
  0
VERTEX
  8
0
 10
5.19288157
 20
4.05909334
  0
VERTEX
  8
0
 10
5.25166146
 20
4.10052835
  0
VERTEX
  8
0
 10
5.32071981
 20
4.11434002
  0
VERTEX
  8
0
 10
5.38335413
 20
4.09988595
  0
VERTEX
  8
0
 10
5.41611669
 20
4.08005175
  0
VERTEX
  8
0
 10
5.42703755
 20
4.05652373
  0
VERTEX
  8
0
 10
5.42061351
 20
4.04110605
  0
VERTEX
  8
0
 10
5.41547429
 20
4.00095585
  0
VERTEX
  8
0
 10
5.41354708
 20
3.92932789
  0
VERTEX
  8
0
 10
5.41900751
 20
3.86637238
  0
VERTEX
  8
0
 10
5.43924321
 20
3.80984089
  0
VERTEX
  8
0
 10
5.44663085
 20
3.79281721
  0
VERTEX
  8
0
 10
5.44855805
 20
3.78735678
  0
VERTEX
  8
0
 10
5.43956441
 20
3.76615747
  0
VERTEX
  8
0
 10
5.41868630
 20
3.75780623
  0
SEQEND
  0
POLYLINE
  8
Default_Layer
 66
   1
 39
0.000000
 70
    1
  0
VERTEX
  8
0
 10
5.35187637
 20
3.98104135
  0
VERTEX
  8
0
 10
5.35348238
 20
4.01091310
  0
VERTEX
  8
0
 10
5.35894280
 20
4.04560288
  0
VERTEX
  8
0
 10
5.33838590
 20
4.05459652
  0
VERTEX
  8
0
 10
5.32489543
 20
4.05748734
  0
VERTEX
  8
0
 10
5.27848180
 20
4.04728918
  0
VERTEX
  8
0
 10
5.23881340
 20
4.01669473
  0
VERTEX
  8
0
 10
5.21183246
 20
3.97309161
  0
VERTEX
  8
0
 10
5.20283882
 20
3.92322506
  0
VERTEX
  8
0
 10
5.22146851
 20
3.84420946
  0
VERTEX
  8
0
 10
5.24475563
 20
3.82445556
  0
VERTEX
  8
0
 10
5.27735759
 20
3.81787093
  0
VERTEX
  8
0
 10
5.32971346
 20
3.82911299
  0
VERTEX
  8
0
 10
5.36215482
 20
3.85352431
  0
VERTEX
  8
0
 10
5.35187637
 20
3.98104135
  0
SEQEND
  0
POLYLINE
  8
Default_Layer
 66
   1
 39
0.000000
 70
    1
  0
VERTEX
  8
0
 10
5.71933102
 20
4.05266931
  0
VERTEX
  8
0
 10
5.70327094
 20
4.05331171
  0
VERTEX
  8
0
 10
5.68753206
 20
4.05395412
  0
VERTEX
  8
0
 10
5.64384864
 20
4.04913609
  0
VERTEX
  8
0
 10
5.64995147
 20
3.85930594
  0
VERTEX
  8
0
 10
5.65027267
 20
3.84517307
  0
VERTEX
  8
0
 10
5.65059387
 20
3.82879179
  0
VERTEX
  8
0
 10
5.64280473
 20
3.77603442
  0
VERTEX
  8
0
 10
5.61686770
 20
3.75844863
  0
VERTEX
  8
0
 10
5.59438359
 20
3.76679987
  0
VERTEX
  8
0
 10
5.58506874
 20
3.78767798
  0
VERTEX
  8
0
 10
5.58603235
 20
3.82429496
  0
VERTEX
  8
0
 10
5.58699595
 20
3.86091195
  0
VERTEX
  8
0
 10
5.58057192
 20
4.04849369
  0
VERTEX
  8
0
 10
5.50926516
 20
4.05395412
  0
VERTEX
  8
0
 10
5.48782495
 20
4.06383107
  0
VERTEX
  8
0
 10
5.48067822
 20
4.08575308
  0
VERTEX
  8
0
 10
5.48935066
 20
4.10920080
  0
VERTEX
  8
0
 10
5.51151357
 20
4.11851564
  0
VERTEX
  8
0
 10
5.57896591
 20
4.11305522
  0
VERTEX
  8
0
 10
5.57735990
 20
4.15673863
  0
VERTEX
  8
0
 10
5.57607510
 20
4.19656763
  0
VERTEX
  8
0
 10
5.58538994
 20
4.21873055
  0
VERTEX
  8
0
 10
5.60819526
 20
4.22772419
  0
VERTEX
  8
0
 10
5.63108087
 20
4.21592003
  0
VERTEX
  8
0
 10
5.64192143
 20
4.18050755
  0
VERTEX
  8
0
 10
5.64288503
 20
4.15192061
  0
VERTEX
  8
0
 10
5.64224263
 20
4.13329092
  0
VERTEX
  8
0
 10
5.64192143
 20
4.11337642
  0
VERTEX
  8
0
 10
5.68753206
 20
4.11851564
  0
VERTEX
  8
0
 10
5.73121548
 20
4.11530363
  0
VERTEX
  8
0
 10
5.75080877
 20
4.08511067
  0
VERTEX
  8
0
 10
5.74181513
 20
4.06166296
  0
VERTEX
  8
0
 10
5.71933102
 20
4.05266931
  0
SEQEND
  0
POLYLINE
  8
Default_Layer
 66
   1
 39
0.000000
 70
    1
  0
VERTEX
  8
0
 10
5.96440785
 20
3.76423026
  0
VERTEX
  8
0
 10
5.89872212
 20
3.77330421
  0
VERTEX
  8
0
 10
5.84684806
 20
3.80052604
  0
VERTEX
  8
0
 10
5.80999017
 20
3.84870629
  0
VERTEX
  8
0
 10
5.79770421
 20
3.91294661
  0
VERTEX
  8
0
 10
5.80782206
 20
3.98971380
  0
VERTEX
  8
0
 10
5.83817561
 20
4.05299051
  0
VERTEX
  8
0
 10
5.88956787
 20
4.09924355
  0
VERTEX
  8
0
 10
5.95573540
 20
4.11466122
  0
VERTEX
  8
0
 10
6.04278104
 20
4.09667393
  0
VERTEX
  8
0
 10
6.07385730
 20
4.06856879
  0
VERTEX
  8
0
 10
6.08421605
 20
4.02857919
  0
VERTEX
  8
0
 10
6.07514210
 20
3.99790444
  0
VERTEX
  8
0
 10
6.04792027
 20
3.97012050
  0
VERTEX
  8
0
 10
5.97982553
 20
3.93414592
  0
VERTEX
  8
0
 10
5.85712651
 20
3.87600842
  0
VERTEX
  8
0
 10
5.90177353
 20
3.83585822
  0
VERTEX
  8
0
 10
5.96440785
 20
3.82236775
  0
VERTEX
  8
0
 10
6.01644251
 20
3.83071900
  0
VERTEX
  8
0
 10
6.06526515
 20
3.85834233
  0
VERTEX
  8
0
 10
6.08871287
 20
3.87568722
  0
VERTEX
  8
0
 10
6.10862737
 20
3.86701478
  0
VERTEX
  8
0
 10
6.11762102
 20
3.84742148
  0
VERTEX
  8
0
 10
6.10324725
 20
3.81425741
  0
VERTEX
  8
0
 10
6.06012593
 20
3.78607197
  0
VERTEX
  8
0
 10
5.96440785
 20
3.76423026
  0
SEQEND
  0
POLYLINE
  8
Default_Layer
 66
   1
 39
0.000000
 70
    1
  0
VERTEX
  8
0
 10
5.95573540
 20
4.05684493
  0
VERTEX
  8
0
 10
5.91984112
 20
4.04921639
  0
VERTEX
  8
0
 10
5.89053148
 20
4.02633078
  0
VERTEX
  8
0
 10
5.85166608
 20
3.93510952
  0
VERTEX
  8
0
 10
5.95027498
 20
3.98200496
  0
VERTEX
  8
0
 10
6.03314499
 20
4.03114880
  0
VERTEX
  8
0
 10
5.99998093
 20
4.05042090
  0
VERTEX
  8
0
 10
5.95573540
 20
4.05684493
  0
SEQEND
  0
POLYLINE
  8
Default_Layer
 66
   1
 39
0.000000
 70
    1
  0
VERTEX
  8
0
 10
6.42468976
 20
4.01637353
  0
VERTEX
  8
0
 10
6.41553552
 20
3.98626088
  0
VERTEX
  8
0
 10
6.39256960
 20
3.97622333
  0
VERTEX
  8
0
 10
6.37185210
 20
3.98417307
  0
VERTEX
  8
0
 10
6.36494626
 20
4.00802229
  0
VERTEX
  8
0
 10
6.36398266
 20
4.03050640
  0
VERTEX
  8
0
 10
6.36301905
 20
4.05748734
  0
VERTEX
  8
0
 10
6.28175504
 20
4.02890039
  0
VERTEX
  8
0
 10
6.23421720
 20
3.96594488
  0
VERTEX
  8
0
 10
6.23485961
 20
3.78992639
  0
VERTEX
  8
0
 10
6.22690987
 20
3.76559537
  0
VERTEX
  8
0
 10
6.20306065
 20
3.75748503
  0
VERTEX
  8
0
 10
6.18186134
 20
3.76559537
  0
VERTEX
  8
0
 10
6.17479491
 20
3.78992639
  0
VERTEX
  8
0
 10
6.17479491
 20
4.01540992
  0
VERTEX
  8
0
 10
6.17543731
 20
4.04720888
  0
VERTEX
  8
0
 10
6.17640091
 20
4.07900784
  0
VERTEX
  8
0
 10
6.18346735
 20
4.10333887
  0
VERTEX
  8
0
 10
6.20466666
 20
4.11144921
  0
VERTEX
  8
0
 10
6.22835527
 20
4.09811934
  0
VERTEX
  8
0
 10
6.23646562
 20
4.05812974
  0
VERTEX
  8
0
 10
6.30150894
 20
4.10269646
  0
VERTEX
  8
0
 10
6.37329750
 20
4.11755204
  0
VERTEX
  8
0
 10
6.41216290
 20
4.09795874
  0
VERTEX
  8
0
 10
6.42501096
 20
4.03885764
  0
VERTEX
  8
0
 10
6.42468976
 20
4.01637353
  0
SEQEND
  0
ENDSEC
  0
EOF
