  0
SECTION
  2
HEADER
  9
$ACADVER
  1
AC1009
  9
$DWGCODEPAGE
  3
ansi_1252
  9
$INSBASE
 10
0.0
 20
0.0
 30
0.0
  9
$EXTMIN
 10
-4.424325432865559
 20
-4.057440084002833
 30
0.0
  9
$EXTMAX
 10
4.812997082347423
 20
5.048284635328887
 30
0.5
  9
$LIMMIN
 10
0.0
 20
0.0
  9
$LIMMAX
 10
12.0
 20
9.0
  9
$ORTHOMODE
 70
     0
  9
$REGENMODE
 70
     1
  9
$FILLMODE
 70
     1
  9
$QTEXTMODE
 70
     0
  9
$MIRRTEXT
 70
     1
  9
$DRAGMODE
 70
     2
  9
$LTSCALE
 40
1.0
  9
$OSMODE
 70
    37
  9
$ATTMODE
 70
     1
  9
$TEXTSIZE
 40
0.2
  9
$TRACEWID
 40
0.05
  9
$TEXTSTYLE
  7
STANDARD
  9
$CLAYER
  8
0
  9
$CELTYPE
  6
BYBLOCK
  9
$CECOLOR
 62
   256
  9
$DIMSCALE
 40
1.0
  9
$DIMASZ
 40
0.18
  9
$DIMEXO
 40
0.0625
  9
$DIMDLI
 40
0.38
  9
$DIMRND
 40
0.0
  9
$DIMDLE
 40
0.0
  9
$DIMEXE
 40
0.18
  9
$DIMTP
 40
0.0
  9
$DIMTM
 40
0.0
  9
$DIMTXT
 40
0.18
  9
$DIMCEN
 40
0.09
  9
$DIMTSZ
 40
0.0
  9
$DIMTOL
 70
     0
  9
$DIMLIM
 70
     0
  9
$DIMTIH
 70
     1
  9
$DIMTOH
 70
     1
  9
$DIMSE1
 70
     0
  9
$DIMSE2
 70
     0
  9
$DIMTAD
 70
     0
  9
$DIMZIN
 70
     0
  9
$DIMBLK
  1

  9
$DIMASO
 70
     1
  9
$DIMSHO
 70
     1
  9
$DIMPOST
  1

  9
$DIMAPOST
  1

  9
$DIMALT
 70
     0
  9
$DIMALTD
 70
     2
  9
$DIMALTF
 40
25.4
  9
$DIMLFAC
 40
1.0
  9
$DIMTOFL
 70
     0
  9
$DIMTVP
 40
0.0
  9
$DIMTIX
 70
     0
  9
$DIMSOXD
 70
     0
  9
$DIMSAH
 70
     0
  9
$DIMBLK1
  1

  9
$DIMBLK2
  1

  9
$DIMSTYLE
  2
STANDARD
  9
$DIMCLRD
 70
     0
  9
$DIMCLRE
 70
     0
  9
$DIMCLRT
 70
     0
  9
$DIMTFAC
 40
1.0
  9
$DIMGAP
 40
0.09
  9
$LUNITS
 70
     2
  9
$LUPREC
 70
     4
  9
$SKETCHINC
 40
0.1
  9
$FILLETRAD
 40
0.5
  9
$AUNITS
 70
     0
  9
$AUPREC
 70
     0
  9
$MENU
  1
.
  9
$ELEVATION
 40
0.0
  9
$PELEVATION
 40
0.0
  9
$THICKNESS
 40
0.0
  9
$LIMCHECK
 70
     0
  9
$CHAMFERA
 40
0.5
  9
$CHAMFERB
 40
0.5
  9
$SKPOLY
 70
     0
  9
$TDCREATE
 40
2453353.508792488
  9
$TDUPDATE
 40
2440618.867641482
  9
$TDINDWG
 40
2440852.080755556
  9
$TDUSRTIMER
 40
2440852.080755556
  9
$USRTIMER
 70
     1
  9
$ANGBASE
 50
0.0
  9
$ANGDIR
 70
     0
  9
$PDMODE
 70
     0
  9
$PDSIZE
 40
0.0
  9
$PLINEWID
 40
0.0
  9
$COORDS
 70
     1
  9
$SPLFRAME
 70
     0
  9
$SPLINETYPE
 70
     6
  9
$SPLINESEGS
 70
     8
  9
$ATTDIA
 70
     0
  9
$ATTREQ
 70
     1
  9
$HANDLING
 70
     1
  9
$HANDSEED
  5
3D7
  9
$SURFTAB1
 70
     6
  9
$SURFTAB2
 70
     6
  9
$SURFTYPE
 70
     6
  9
$SURFU
 70
     6
  9
$SURFV
 70
     6
  9
$UCSNAME
  2

  9
$UCSORG
 10
0.0
 20
0.0
 30
0.0
  9
$UCSXDIR
 10
1.0
 20
0.0
 30
0.0
  9
$UCSYDIR
 10
0.0
 20
1.0
 30
0.0
  9
$PUCSNAME
  2

  9
$PUCSORG
 10
0.0
 20
0.0
 30
0.0
  9
$PUCSXDIR
 10
1.0
 20
0.0
 30
0.0
  9
$PUCSYDIR
 10
0.0
 20
1.0
 30
0.0
  9
$USERI1
 70
     0
  9
$USERI2
 70
     0
  9
$USERI3
 70
     0
  9
$USERI4
 70
     0
  9
$USERI5
 70
     0
  9
$USERR1
 40
0.0
  9
$USERR2
 40
0.0
  9
$USERR3
 40
0.0
  9
$USERR4
 40
0.0
  9
$USERR5
 40
0.0
  9
$WORLDVIEW
 70
     1
  9
$SHADEDGE
 70
     3
  9
$SHADEDIF
 70
    70
  9
$TILEMODE
 70
     1
  9
$MAXACTVP
 70
    64
  9
$PLIMCHECK
 70
     0
  9
$PEXTMIN
 10
0.0
 20
0.0
 30
0.0
  9
$PEXTMAX
 10
0.0
 20
0.0
 30
0.0
  9
$PLIMMIN
 10
0.0
 20
0.0
  9
$PLIMMAX
 10
0.0
 20
0.0
  9
$UNITMODE
 70
     0
  9
$VISRETAIN
 70
     1
  9
$PLINEGEN
 70
     0
  9
$PSLTSCALE
 70
     1
  0
ENDSEC
  0
SECTION
  2
TABLES
  0
TABLE
  2
VPORT
 70
     1
  0
VPORT
  2
*ACTIVE
 70
     0
 10
0.0
 20
0.0
 11
1.0
 21
1.0
 12
0.223436507992139
 22
0.5002401194071946
 13
0.0
 23
0.0
 14
0.5
 24
0.5
 15
0.5
 25
0.5
 16
0.0
 26
0.0
 36
1.0
 17
0.0
 27
0.0
 37
0.0
 40
4.445143349870402
 41
1.0
 42
50.0
 43
0.0
 44
0.0
 50
0.0
 51
0.0
 71
    16
 72
   100
 73
     1
 74
     3
 75
     0
 76
     0
 77
     0
 78
     0
  0
ENDTAB
  0
TABLE
  2
LTYPE
 70
     1
  0
LTYPE
  2
CONTINUOUS
 70
     0
  3
Solid line
 72
    65
 73
     0
 40
0.0
  0
ENDTAB
  0
TABLE
  2
LAYER
 70
     1
  0
LAYER
  2
0
 70
     0
 62
     7
  6
CONTINUOUS
  0
ENDTAB
  0
TABLE
  2
STYLE
 70
     1
  0
STYLE
  2
STANDARD
 70
     0
 40
0.0
 41
1.0
 50
0.0
 71
     0
 42
0.2
  3
txt
  4

  0
ENDTAB
  0
TABLE
  2
VIEW
 70
     0
  0
ENDTAB
  0
TABLE
  2
UCS
 70
     0
  0
ENDTAB
  0
TABLE
  2
APPID
 70
     1
  0
APPID
  2
ACAD
 70
     0
  0
ENDTAB
  0
TABLE
  2
DIMSTYLE
 70
     1
  0
DIMSTYLE
  2
STANDARD
 70
     0
  3

  4

  5

  6

  7

 40
1.0
 41
0.18
 42
0.0625
 43
0.38
 44
0.18
 45
0.0
 46
0.0
 47
0.0
 48
0.0
140
0.18
141
0.09
142
0.0
143
25.4
144
1.0
145
0.0
146
1.0
147
0.09
 71
     0
 72
     0
 73
     1
 74
     1
 75
     0
 76
     0
 77
     0
 78
     0
170
     0
171
     2
172
     0
173
     0
174
     0
175
     0
176
     0
177
     0
178
     0
  0
ENDTAB
  0
ENDSEC
  0
SECTION
  2
BLOCKS
  0
BLOCK
  8
0
  2
$MODEL_SPACE
 70
     0
 10
0.0
 20
0.0
 30
0.0
  3
$MODEL_SPACE
  1

  0
ENDBLK
  5
21
  8
0
  0
BLOCK
 67
     1
  8
0
  2
$PAPER_SPACE
 70
     0
 10
0.0
 20
0.0
 30
0.0
  3
$PAPER_SPACE
  1

  0
ENDBLK
  5
76
 67
     1
  8
0
  0
ENDSEC
  0
SECTION
  2
ENTITIES
  0
LINE
  5
23
  8
0
 62
     1
 10
-3.743652
 20
0.432617
 30
0.5
 11
-3.745605
 21
0.483398
 31
0.5
  0
LINE
  5
24
  8
0
 62
     1
 10
-3.745605
 20
0.483398
 30
0.5
 11
-3.743652
 21
0.539063
 31
0.5
  0
LINE
  5
25
  8
0
 62
     1
 10
-3.743652
 20
0.539063
 30
0.5
 11
-3.737793
 21
0.591797
 31
0.5
  0
LINE
  5
26
  8
0
 62
     1
 10
-3.737793
 20
0.591797
 30
0.5
 11
-3.728027
 21
0.640625
 31
0.5
  0
LINE
  5
2FE
  8
0
 62
     1
 10
-3.728027
 20
0.640625
 30
0.5
 11
-3.713379
 21
0.6875
 31
0.5
  0
LINE
  5
28
  8
0
 62
     1
 10
-3.713379
 20
0.6875
 30
0.5
 11
-3.695801
 21
0.730469
 31
0.5
  0
LINE
  5
29
  8
0
 62
     1
 10
-3.695801
 20
0.730469
 30
0.5
 11
-3.674316
 21
0.770508
 31
0.5
  0
LINE
  5
2A
  8
0
 62
     1
 10
-3.674316
 20
0.770508
 30
0.5
 11
-3.648926
 21
0.807617
 31
0.5
  0
LINE
  5
2B
  8
0
 62
     1
 10
-3.648926
 20
0.807617
 30
0.5
 11
-3.619629
 21
0.84082
 31
0.5
  0
LINE
  5
2C
  8
0
 62
     1
 10
-3.619629
 20
0.84082
 30
0.5
 11
-3.586426
 21
0.871094
 31
0.5
  0
LINE
  5
2D
  8
0
 62
     1
 10
-3.586426
 20
0.871094
 30
0.5
 11
-3.552246
 21
0.897461
 31
0.5
  0
LINE
  5
2E
  8
0
 62
     1
 10
-3.552246
 20
0.897461
 30
0.5
 11
-3.515137
 21
0.919922
 31
0.5
  0
LINE
  5
2F
  8
0
 62
     1
 10
-3.515137
 20
0.919922
 30
0.5
 11
-3.475098
 21
0.938477
 31
0.5
  0
LINE
  5
30
  8
0
 62
     1
 10
-3.475098
 20
0.938477
 30
0.5
 11
-3.434082
 21
0.952148
 31
0.5
  0
LINE
  5
31
  8
0
 62
     1
 10
-3.434082
 20
0.952148
 30
0.5
 11
-3.390137
 21
0.9619140000000001
 31
0.5
  0
LINE
  5
32
  8
0
 62
     1
 10
-3.390137
 20
0.9619140000000001
 30
0.5
 11
-3.344238
 21
0.96875
 31
0.5
  0
LINE
  5
33
  8
0
 62
     1
 10
-3.344238
 20
0.96875
 30
0.5
 11
-3.29541
 21
0.970703
 31
0.5
  0
LINE
  5
34
  8
0
 62
     1
 10
-3.29541
 20
0.970703
 30
0.5
 11
-3.26123
 21
0.969727
 31
0.5
  0
LINE
  5
35
  8
0
 62
     1
 10
-3.26123
 20
0.969727
 30
0.5
 11
-3.228027
 21
0.96582
 31
0.5
  0
LINE
  5
36
  8
0
 62
     1
 10
-3.228027
 20
0.96582
 30
0.5
 11
-3.196777
 21
0.960938
 31
0.5
  0
LINE
  5
37
  8
0
 62
     1
 10
-3.196777
 20
0.960938
 30
0.5
 11
-3.166504
 21
0.953125
 31
0.5
  0
LINE
  5
38
  8
0
 62
     1
 10
-3.166504
 20
0.953125
 30
0.5
 11
-3.137207
 21
0.942383
 31
0.5
  0
LINE
  5
39
  8
0
 62
     1
 10
-3.137207
 20
0.942383
 30
0.5
 11
-3.108887
 21
0.9306640000000001
 31
0.5
  0
LINE
  5
3A
  8
0
 62
     1
 10
-3.108887
 20
0.9306640000000001
 30
0.5
 11
-3.08252
 21
0.9160160000000001
 31
0.5
  0
LINE
  5
3B
  8
0
 62
     1
 10
-3.08252
 20
0.9160160000000001
 30
0.5
 11
-3.057129
 21
0.8994140000000001
 31
0.5
  0
LINE
  5
3C
  8
0
 62
     1
 10
-3.057129
 20
0.8994140000000001
 30
0.5
 11
-3.033691
 21
0.880859
 31
0.5
  0
LINE
  5
3D
  8
0
 62
     1
 10
-3.033691
 20
0.880859
 30
0.5
 11
-3.01123
 21
0.860352
 31
0.5
  0
LINE
  5
3E
  8
0
 62
     1
 10
-3.01123
 20
0.860352
 30
0.5
 11
-2.991699
 21
0.8369140000000001
 31
0.5
  0
LINE
  5
3F
  8
0
 62
     1
 10
-2.991699
 20
0.8369140000000001
 30
0.5
 11
-2.973145
 21
0.8125
 31
0.5
  0
LINE
  5
40
  8
0
 62
     1
 10
-2.973145
 20
0.8125
 30
0.5
 11
-2.956543
 21
0.785156
 31
0.5
  0
LINE
  5
41
  8
0
 62
     1
 10
-2.956543
 20
0.785156
 30
0.5
 11
-2.941895
 21
0.755859
 31
0.5
  0
LINE
  5
42
  8
0
 62
     1
 10
-2.941895
 20
0.755859
 30
0.5
 11
-2.929199
 21
0.724609
 31
0.5
  0
LINE
  5
43
  8
0
 62
     1
 10
-2.929199
 20
0.724609
 30
0.5
 11
-2.918457
 21
0.691406
 31
0.5
  0
LINE
  5
44
  8
0
 62
     1
 10
-2.918457
 20
0.691406
 30
0.5
 11
-3.04248
 21
0.662109
 31
0.5
  0
LINE
  5
45
  8
0
 62
     1
 10
-3.04248
 20
0.662109
 30
0.5
 11
-3.050293
 21
0.686523
 31
0.5
  0
LINE
  5
46
  8
0
 62
     1
 10
-3.050293
 20
0.686523
 30
0.5
 11
-3.060059
 21
0.708984
 31
0.5
  0
LINE
  5
47
  8
0
 62
     1
 10
-3.060059
 20
0.708984
 30
0.5
 11
-3.070801
 21
0.730469
 31
0.5
  0
LINE
  5
48
  8
0
 62
     1
 10
-3.070801
 20
0.730469
 30
0.5
 11
-3.081543
 21
0.75
 31
0.5
  0
LINE
  5
49
  8
0
 62
     1
 10
-3.081543
 20
0.75
 30
0.5
 11
-3.094238
 21
0.767578
 31
0.5
  0
LINE
  5
4A
  8
0
 62
     1
 10
-3.094238
 20
0.767578
 30
0.5
 11
-3.10791
 21
0.78418
 31
0.5
  0
LINE
  5
4B
  8
0
 62
     1
 10
-3.10791
 20
0.78418
 30
0.5
 11
-3.121582
 21
0.798828
 31
0.5
  0
LINE
  5
4C
  8
0
 62
     1
 10
-3.121582
 20
0.798828
 30
0.5
 11
-3.137207
 21
0.8125
 31
0.5
  0
LINE
  5
4D
  8
0
 62
     1
 10
-3.137207
 20
0.8125
 30
0.5
 11
-3.153809
 21
0.824219
 31
0.5
  0
LINE
  5
4E
  8
0
 62
     1
 10
-3.153809
 20
0.824219
 30
0.5
 11
-3.171387
 21
0.833984
 31
0.5
  0
LINE
  5
4F
  8
0
 62
     1
 10
-3.171387
 20
0.833984
 30
0.5
 11
-3.189941
 21
0.842773
 31
0.5
  0
LINE
  5
50
  8
0
 62
     1
 10
-3.189941
 20
0.842773
 30
0.5
 11
-3.209473
 21
0.849609
 31
0.5
  0
LINE
  5
51
  8
0
 62
     1
 10
-3.209473
 20
0.849609
 30
0.5
 11
-3.22998
 21
0.855469
 31
0.5
  0
LINE
  5
52
  8
0
 62
     1
 10
-3.22998
 20
0.855469
 30
0.5
 11
-3.251465
 21
0.859375
 31
0.5
  0
LINE
  5
53
  8
0
 62
     1
 10
-3.251465
 20
0.859375
 30
0.5
 11
-3.272949
 21
0.861328
 31
0.5
  0
LINE
  5
54
  8
0
 62
     1
 10
-3.272949
 20
0.861328
 30
0.5
 11
-3.296387
 21
0.862305
 31
0.5
  0
LINE
  5
55
  8
0
 62
     1
 10
-3.296387
 20
0.862305
 30
0.5
 11
-3.334473
 21
0.860352
 31
0.5
  0
LINE
  5
56
  8
0
 62
     1
 10
-3.334473
 20
0.860352
 30
0.5
 11
-3.370605
 21
0.856445
 31
0.5
  0
LINE
  5
57
  8
0
 62
     1
 10
-3.370605
 20
0.856445
 30
0.5
 11
-3.403809
 21
0.847656
 31
0.5
  0
LINE
  5
58
  8
0
 62
     1
 10
-3.403809
 20
0.847656
 30
0.5
 11
-3.434082
 21
0.8369140000000001
 31
0.5
  0
LINE
  5
2FF
  8
0
 62
     1
 10
-3.434082
 20
0.8369140000000001
 30
0.5
 11
-3.462402
 21
0.8222660000000001
 31
0.5
  0
LINE
  5
300
  8
0
 62
     1
 10
-3.462402
 20
0.8222660000000001
 30
0.5
 11
-3.48877
 21
0.804688
 31
0.5
  0
LINE
  5
5B
  8
0
 62
     1
 10
-3.48877
 20
0.804688
 30
0.5
 11
-3.512207
 21
0.78418
 31
0.5
  0
LINE
  5
5C
  8
0
 62
     1
 10
-3.512207
 20
0.78418
 30
0.5
 11
-3.533691
 21
0.7597660000000001
 31
0.5
  0
LINE
  5
5D
  8
0
 62
     1
 10
-3.533691
 20
0.7597660000000001
 30
0.5
 11
-3.552246
 21
0.733398
 31
0.5
  0
LINE
  5
301
  8
0
 62
     1
 10
-3.552246
 20
0.733398
 30
0.5
 11
-3.568848
 21
0.704102
 31
0.5
  0
LINE
  5
5F
  8
0
 62
     1
 10
-3.568848
 20
0.704102
 30
0.5
 11
-3.58252
 21
0.672852
 31
0.5
  0
LINE
  5
60
  8
0
 62
     1
 10
-3.58252
 20
0.672852
 30
0.5
 11
-3.594238
 21
0.639648
 31
0.5
  0
LINE
  5
61
  8
0
 62
     1
 10
-3.594238
 20
0.639648
 30
0.5
 11
-3.603027
 21
0.604492
 31
0.5
  0
LINE
  5
62
  8
0
 62
     1
 10
-3.603027
 20
0.604492
 30
0.5
 11
-3.609863
 21
0.566406
 31
0.5
  0
LINE
  5
63
  8
0
 62
     1
 10
-3.609863
 20
0.566406
 30
0.5
 11
-3.612793
 21
0.527344
 31
0.5
  0
LINE
  5
64
  8
0
 62
     1
 10
-3.612793
 20
0.527344
 30
0.5
 11
-3.614746
 21
0.485352
 31
0.5
  0
LINE
  5
65
  8
0
 62
     1
 10
-3.614746
 20
0.485352
 30
0.5
 11
-3.612793
 21
0.436523
 31
0.5
  0
LINE
  5
66
  8
0
 62
     1
 10
-3.612793
 20
0.436523
 30
0.5
 11
-3.608887
 21
0.391602
 31
0.5
  0
LINE
  5
67
  8
0
 62
     1
 10
-3.608887
 20
0.391602
 30
0.5
 11
-3.602051
 21
0.349609
 31
0.5
  0
LINE
  5
68
  8
0
 62
     1
 10
-3.602051
 20
0.349609
 30
0.5
 11
-3.593262
 21
0.311523
 31
0.5
  0
LINE
  5
69
  8
0
 62
     1
 10
-3.593262
 20
0.311523
 30
0.5
 11
-3.581543
 21
0.275391
 31
0.5
  0
LINE
  5
6A
  8
0
 62
     1
 10
-3.581543
 20
0.275391
 30
0.5
 11
-3.566895
 21
0.243164
 31
0.5
  0
LINE
  5
302
  8
0
 62
     1
 10
-3.566895
 20
0.243164
 30
0.5
 11
-3.549316
 21
0.214844
 31
0.5
  0
LINE
  5
303
  8
0
 62
     1
 10
-3.549316
 20
0.214844
 30
0.5
 11
-3.529785
 21
0.188477
 31
0.5
  0
LINE
  5
6D
  8
0
 62
     1
 10
-3.529785
 20
0.188477
 30
0.5
 11
-3.507324
 21
0.166016
 31
0.5
  0
LINE
  5
6E
  8
0
 62
     1
 10
-3.507324
 20
0.166016
 30
0.5
 11
-3.483887
 21
0.146484
 31
0.5
  0
LINE
  5
6F
  8
0
 62
     1
 10
-3.483887
 20
0.146484
 30
0.5
 11
-3.458496
 21
0.129883
 31
0.5
  0
LINE
  5
70
  8
0
 62
     1
 10
-3.458496
 20
0.129883
 30
0.5
 11
-3.432129
 21
0.116211
 31
0.5
  0
LINE
  5
71
  8
0
 62
     1
 10
-3.432129
 20
0.116211
 30
0.5
 11
-3.402832
 21
0.105469
 31
0.5
  0
LINE
  5
72
  8
0
 62
     1
 10
-3.402832
 20
0.105469
 30
0.5
 11
-3.372559
 21
0.097656
 31
0.5
  0
LINE
  5
304
  8
0
 62
     1
 10
-3.372559
 20
0.097656
 30
0.5
 11
-3.341309
 21
0.09375
 31
0.5
  0
LINE
  5
305
  8
0
 62
     1
 10
-3.341309
 20
0.09375
 30
0.5
 11
-3.308105
 21
0.091797
 31
0.5
  0
LINE
  5
306
  8
0
 62
     1
 10
-3.308105
 20
0.091797
 30
0.5
 11
-3.280762
 21
0.092773
 31
0.5
  0
LINE
  5
307
  8
0
 62
     1
 10
-3.280762
 20
0.092773
 30
0.5
 11
-3.254395
 21
0.095703
 31
0.5
  0
LINE
  5
77
  8
0
 62
     1
 10
-3.254395
 20
0.095703
 30
0.5
 11
-3.22998
 21
0.100586
 31
0.5
  0
LINE
  5
78
  8
0
 62
     1
 10
-3.22998
 20
0.100586
 30
0.5
 11
-3.206543
 21
0.106445
 31
0.5
  0
LINE
  5
79
  8
0
 62
     1
 10
-3.206543
 20
0.106445
 30
0.5
 11
-3.184082
 21
0.115234
 31
0.5
  0
LINE
  5
7A
  8
0
 62
     1
 10
-3.184082
 20
0.115234
 30
0.5
 11
-3.163574
 21
0.125977
 31
0.5
  0
LINE
  5
7B
  8
0
 62
     1
 10
-3.163574
 20
0.125977
 30
0.5
 11
-3.144043
 21
0.137695
 31
0.5
  0
LINE
  5
7C
  8
0
 62
     1
 10
-3.144043
 20
0.137695
 30
0.5
 11
-3.126465
 21
0.152344
 31
0.5
  0
LINE
  5
7D
  8
0
 62
     1
 10
-3.126465
 20
0.152344
 30
0.5
 11
-3.108887
 21
0.167969
 31
0.5
  0
LINE
  5
7E
  8
0
 62
     1
 10
-3.108887
 20
0.167969
 30
0.5
 11
-3.093262
 21
0.186523
 31
0.5
  0
LINE
  5
7F
  8
0
 62
     1
 10
-3.093262
 20
0.186523
 30
0.5
 11
-3.07959
 21
0.206055
 31
0.5
  0
LINE
  5
80
  8
0
 62
     1
 10
-3.07959
 20
0.206055
 30
0.5
 11
-3.066895
 21
0.228516
 31
0.5
  0
LINE
  5
81
  8
0
 62
     1
 10
-3.066895
 20
0.228516
 30
0.5
 11
-3.055176
 21
0.251953
 31
0.5
  0
LINE
  5
82
  8
0
 62
     1
 10
-3.055176
 20
0.251953
 30
0.5
 11
-3.044434
 21
0.277344
 31
0.5
  0
LINE
  5
83
  8
0
 62
     1
 10
-3.044434
 20
0.277344
 30
0.5
 11
-3.035645
 21
0.304688
 31
0.5
  0
LINE
  5
84
  8
0
 62
     1
 10
-3.035645
 20
0.304688
 30
0.5
 11
-3.027832
 21
0.334961
 31
0.5
  0
LINE
  5
85
  8
0
 62
     1
 10
-3.027832
 20
0.334961
 30
0.5
 11
-2.902832
 21
0.302734
 31
0.5
  0
LINE
  5
86
  8
0
 62
     1
 10
-2.902832
 20
0.302734
 30
0.5
 11
-2.913574
 21
0.263672
 31
0.5
  0
LINE
  5
87
  8
0
 62
     1
 10
-2.913574
 20
0.263672
 30
0.5
 11
-2.927246
 21
0.227539
 31
0.5
  0
LINE
  5
88
  8
0
 62
     1
 10
-2.927246
 20
0.227539
 30
0.5
 11
-2.942871
 21
0.193359
 31
0.5
  0
LINE
  5
89
  8
0
 62
     1
 10
-2.942871
 20
0.193359
 30
0.5
 11
-2.959473
 21
0.162109
 31
0.5
  0
LINE
  5
8A
  8
0
 62
     1
 10
-2.959473
 20
0.162109
 30
0.5
 11
-2.979004
 21
0.133789
 31
0.5
  0
LINE
  5
8B
  8
0
 62
     1
 10
-2.979004
 20
0.133789
 30
0.5
 11
-2.999512
 21
0.107422
 31
0.5
  0
LINE
  5
8C
  8
0
 62
     1
 10
-2.999512
 20
0.107422
 30
0.5
 11
-3.022949
 21
0.083984
 31
0.5
  0
LINE
  5
8D
  8
0
 62
     1
 10
-3.022949
 20
0.083984
 30
0.5
 11
-3.04834
 21
0.0625
 31
0.5
  0
LINE
  5
8E
  8
0
 62
     1
 10
-3.04834
 20
0.0625
 30
0.5
 11
-3.074707
 21
0.043945
 31
0.5
  0
LINE
  5
8F
  8
0
 62
     1
 10
-3.074707
 20
0.043945
 30
0.5
 11
-3.102051
 21
0.02832
 31
0.5
  0
LINE
  5
90
  8
0
 62
     1
 10
-3.102051
 20
0.02832
 30
0.5
 11
-3.131348
 21
0.014648
 31
0.5
  0
LINE
  5
91
  8
0
 62
     1
 10
-3.131348
 20
0.014648
 30
0.5
 11
-3.161621
 21
0.003906
 31
0.5
  0
LINE
  5
308
  8
0
 62
     1
 10
-3.161621
 20
0.003906
 30
0.5
 11
-3.193848
 21
-0.004883
 31
0.5
  0
LINE
  5
309
  8
0
 62
     1
 10
-3.193848
 20
-0.004883
 30
0.5
 11
-3.227051
 21
-0.011719
 31
0.5
  0
LINE
  5
94
  8
0
 62
     1
 10
-3.227051
 20
-0.011719
 30
0.5
 11
-3.26123
 21
-0.014648
 31
0.5
  0
LINE
  5
95
  8
0
 62
     1
 10
-3.26123
 20
-0.014648
 30
0.5
 11
-3.296387
 21
-0.016602
 31
0.5
  0
LINE
  5
96
  8
0
 62
     1
 10
-3.296387
 20
-0.016602
 30
0.5
 11
-3.353027
 21
-0.013672
 31
0.5
  0
LINE
  5
30A
  8
0
 62
     1
 10
-3.353027
 20
-0.013672
 30
0.5
 11
-3.405762
 21
-0.006836
 31
0.5
  0
LINE
  5
30B
  8
0
 62
     1
 10
-3.405762
 20
-0.006836
 30
0.5
 11
-3.45459
 21
0.003906
 31
0.5
  0
LINE
  5
99
  8
0
 62
     1
 10
-3.45459
 20
0.003906
 30
0.5
 11
-3.499512
 21
0.020508
 31
0.5
  0
LINE
  5
9A
  8
0
 62
     1
 10
-3.499512
 20
0.020508
 30
0.5
 11
-3.539551
 21
0.041016
 31
0.5
  0
LINE
  5
9B
  8
0
 62
     1
 10
-3.539551
 20
0.041016
 30
0.5
 11
-3.57666
 21
0.066406
 31
0.5
  0
LINE
  5
9C
  8
0
 62
     1
 10
-3.57666
 20
0.066406
 30
0.5
 11
-3.609863
 21
0.095703
 31
0.5
  0
LINE
  5
9D
  8
0
 62
     1
 10
-3.609863
 20
0.095703
 30
0.5
 11
-3.638184
 21
0.130859
 31
0.5
  0
LINE
  5
9E
  8
0
 62
     1
 10
-3.638184
 20
0.130859
 30
0.5
 11
-3.663574
 21
0.167969
 31
0.5
  0
LINE
  5
9F
  8
0
 62
     1
 10
-3.663574
 20
0.167969
 30
0.5
 11
-3.685059
 21
0.208008
 31
0.5
  0
LINE
  5
A0
  8
0
 62
     1
 10
-3.685059
 20
0.208008
 30
0.5
 11
-3.703613
 21
0.249023
 31
0.5
  0
LINE
  5
A1
  8
0
 62
     1
 10
-3.703613
 20
0.249023
 30
0.5
 11
-3.718262
 21
0.291992
 31
0.5
  0
LINE
  5
A2
  8
0
 62
     1
 10
-3.718262
 20
0.291992
 30
0.5
 11
-3.72998
 21
0.336914
 31
0.5
  0
LINE
  5
A3
  8
0
 62
     1
 10
-3.72998
 20
0.336914
 30
0.5
 11
-3.73877
 21
0.383789
 31
0.5
  0
LINE
  5
A4
  8
0
 62
     1
 10
-3.73877
 20
0.383789
 30
0.5
 11
-3.743652
 21
0.432617
 31
0.5
  0
LINE
  5
A5
  8
0
 62
     1
 10
-2.785645
 20
0.522461
 30
0.5
 11
-2.779785
 21
0.576172
 31
0.5
  0
LINE
  5
A6
  8
0
 62
     1
 10
-2.779785
 20
0.576172
 30
0.5
 11
-2.77002
 21
0.62793
 31
0.5
  0
LINE
  5
A7
  8
0
 62
     1
 10
-2.77002
 20
0.62793
 30
0.5
 11
-2.755371
 21
0.675781
 31
0.5
  0
LINE
  5
A8
  8
0
 62
     1
 10
-2.755371
 20
0.675781
 30
0.5
 11
-2.737793
 21
0.719727
 31
0.5
  0
LINE
  5
A9
  8
0
 62
     1
 10
-2.737793
 20
0.719727
 30
0.5
 11
-2.716309
 21
0.761719
 31
0.5
  0
LINE
  5
AA
  8
0
 62
     1
 10
-2.716309
 20
0.761719
 30
0.5
 11
-2.689941
 21
0.799805
 31
0.5
  0
LINE
  5
AB
  8
0
 62
     1
 10
-2.689941
 20
0.799805
 30
0.5
 11
-2.660645
 21
0.834961
 31
0.5
  0
LINE
  5
AC
  8
0
 62
     1
 10
-2.660645
 20
0.834961
 30
0.5
 11
-2.627441
 21
0.867188
 31
0.5
  0
LINE
  5
AD
  8
0
 62
     1
 10
-2.627441
 20
0.867188
 30
0.5
 11
-2.592285
 21
0.894531
 31
0.5
  0
LINE
  5
AE
  8
0
 62
     1
 10
-2.592285
 20
0.894531
 30
0.5
 11
-2.554199
 21
0.917969
 31
0.5
  0
LINE
  5
AF
  8
0
 62
     1
 10
-2.554199
 20
0.917969
 30
0.5
 11
-2.51416
 21
0.936523
 31
0.5
  0
LINE
  5
B0
  8
0
 62
     1
 10
-2.51416
 20
0.936523
 30
0.5
 11
-2.472168
 21
0.951172
 31
0.5
  0
LINE
  5
B1
  8
0
 62
     1
 10
-2.472168
 20
0.951172
 30
0.5
 11
-2.427246
 21
0.9619140000000001
 31
0.5
  0
LINE
  5
B2
  8
0
 62
     1
 10
-2.427246
 20
0.9619140000000001
 30
0.5
 11
-2.379395
 21
0.96875
 31
0.5
  0
LINE
  5
B3
  8
0
 62
     1
 10
-2.379395
 20
0.96875
 30
0.5
 11
-2.32959
 21
0.970703
 31
0.5
  0
LINE
  5
B4
  8
0
 62
     1
 10
-2.32959
 20
0.970703
 30
0.5
 11
-2.280762
 21
0.96875
 31
0.5
  0
LINE
  5
B5
  8
0
 62
     1
 10
-2.280762
 20
0.96875
 30
0.5
 11
-2.233887
 21
0.9619140000000001
 31
0.5
  0
LINE
  5
B6
  8
0
 62
     1
 10
-2.233887
 20
0.9619140000000001
 30
0.5
 11
-2.189941
 21
0.951172
 31
0.5
  0
LINE
  5
B7
  8
0
 62
     1
 10
-2.189941
 20
0.951172
 30
0.5
 11
-2.147949
 21
0.936523
 31
0.5
  0
LINE
  5
B8
  8
0
 62
     1
 10
-2.147949
 20
0.936523
 30
0.5
 11
-2.10791
 21
0.916992
 31
0.5
  0
LINE
  5
B9
  8
0
 62
     1
 10
-2.10791
 20
0.916992
 30
0.5
 11
-2.070801
 21
0.893555
 31
0.5
  0
LINE
  5
BA
  8
0
 62
     1
 10
-2.070801
 20
0.893555
 30
0.5
 11
-2.034668
 21
0.866211
 31
0.5
  0
LINE
  5
BB
  8
0
 62
     1
 10
-2.034668
 20
0.866211
 30
0.5
 11
-2.002441
 21
0.833984
 31
0.5
  0
LINE
  5
BC
  8
0
 62
     1
 10
-2.002441
 20
0.833984
 30
0.5
 11
-1.972168
 21
0.798828
 31
0.5
  0
LINE
  5
BD
  8
0
 62
     1
 10
-1.972168
 20
0.798828
 30
0.5
 11
-1.945801
 21
0.760742
 31
0.5
  0
LINE
  5
BE
  8
0
 62
     1
 10
-1.945801
 20
0.760742
 30
0.5
 11
-1.924316
 21
0.720703
 31
0.5
  0
LINE
  5
BF
  8
0
 62
     1
 10
-1.924316
 20
0.720703
 30
0.5
 11
-1.906738
 21
0.676758
 31
0.5
  0
LINE
  5
C0
  8
0
 62
     1
 10
-1.906738
 20
0.676758
 30
0.5
 11
-1.89209
 21
0.630859
 31
0.5
  0
LINE
  5
C1
  8
0
 62
     1
 10
-1.89209
 20
0.630859
 30
0.5
 11
-1.882324
 21
0.582031
 31
0.5
  0
LINE
  5
C2
  8
0
 62
     1
 10
-1.882324
 20
0.582031
 30
0.5
 11
-1.876465
 21
0.530273
 31
0.5
  0
LINE
  5
C3
  8
0
 62
     1
 10
-1.876465
 20
0.530273
 30
0.5
 11
-1.874512
 21
0.475586
 31
0.5
  0
LINE
  5
C4
  8
0
 62
     1
 10
-1.874512
 20
0.475586
 30
0.5
 11
-1.876465
 21
0.421875
 31
0.5
  0
LINE
  5
C5
  8
0
 62
     1
 10
-1.876465
 20
0.421875
 30
0.5
 11
-1.882324
 21
0.370117
 31
0.5
  0
LINE
  5
C6
  8
0
 62
     1
 10
-1.882324
 20
0.370117
 30
0.5
 11
-1.89209
 21
0.321289
 31
0.5
  0
LINE
  5
C7
  8
0
 62
     1
 10
-1.89209
 20
0.321289
 30
0.5
 11
-1.906738
 21
0.275391
 31
0.5
  0
LINE
  5
C8
  8
0
 62
     1
 10
-1.906738
 20
0.275391
 30
0.5
 11
-1.924316
 21
0.232422
 31
0.5
  0
LINE
  5
C9
  8
0
 62
     1
 10
-1.924316
 20
0.232422
 30
0.5
 11
-1.946777
 21
0.191406
 31
0.5
  0
LINE
  5
CA
  8
0
 62
     1
 10
-1.946777
 20
0.191406
 30
0.5
 11
-1.972168
 21
0.154297
 31
0.5
  0
LINE
  5
CB
  8
0
 62
     1
 10
-1.972168
 20
0.154297
 30
0.5
 11
-2.002441
 21
0.119141
 31
0.5
  0
LINE
  5
CC
  8
0
 62
     1
 10
-2.002441
 20
0.119141
 30
0.5
 11
-2.035645
 21
0.086914
 31
0.5
  0
LINE
  5
CD
  8
0
 62
     1
 10
-2.035645
 20
0.086914
 30
0.5
 11
-2.070801
 21
0.05957
 31
0.5
  0
LINE
  5
CE
  8
0
 62
     1
 10
-2.070801
 20
0.05957
 30
0.5
 11
-2.108887
 21
0.036133
 31
0.5
  0
LINE
  5
CF
  8
0
 62
     1
 10
-2.108887
 20
0.036133
 30
0.5
 11
-2.148926
 21
0.017578
 31
0.5
  0
LINE
  5
D0
  8
0
 62
     1
 10
-2.148926
 20
0.017578
 30
0.5
 11
-2.190918
 21
0.00293
 31
0.5
  0
LINE
  5
D1
  8
0
 62
     1
 10
-2.190918
 20
0.00293
 30
0.5
 11
-2.234863
 21
-0.007813
 31
0.5
  0
LINE
  5
D2
  8
0
 62
     1
 10
-2.234863
 20
-0.007813
 30
0.5
 11
-2.281738
 21
-0.013672
 31
0.5
  0
LINE
  5
D3
  8
0
 62
     1
 10
-2.281738
 20
-0.013672
 30
0.5
 11
-2.32959
 21
-0.016602
 31
0.5
  0
LINE
  5
D4
  8
0
 62
     1
 10
-2.32959
 20
-0.016602
 30
0.5
 11
-2.380371
 21
-0.013672
 31
0.5
  0
LINE
  5
D5
  8
0
 62
     1
 10
-2.380371
 20
-0.013672
 30
0.5
 11
-2.428223
 21
-0.007813
 31
0.5
  0
LINE
  5
D6
  8
0
 62
     1
 10
-2.428223
 20
-0.007813
 30
0.5
 11
-2.473145
 21
0.00293
 31
0.5
  0
LINE
  5
D7
  8
0
 62
     1
 10
-2.473145
 20
0.00293
 30
0.5
 11
-2.516113
 21
0.018555
 31
0.5
  0
LINE
  5
D8
  8
0
 62
     1
 10
-2.516113
 20
0.018555
 30
0.5
 11
-2.556152
 21
0.038086
 31
0.5
  0
LINE
  5
D9
  8
0
 62
     1
 10
-2.556152
 20
0.038086
 30
0.5
 11
-2.594238
 21
0.0625
 31
0.5
  0
LINE
  5
DA
  8
0
 62
     1
 10
-2.594238
 20
0.0625
 30
0.5
 11
-2.629395
 21
0.09082
 31
0.5
  0
LINE
  5
DB
  8
0
 62
     1
 10
-2.629395
 20
0.09082
 30
0.5
 11
-2.661621
 21
0.124023
 31
0.5
  0
LINE
  5
DC
  8
0
 62
     1
 10
-2.661621
 20
0.124023
 30
0.5
 11
-2.691895
 21
0.15918
 31
0.5
  0
LINE
  5
DD
  8
0
 62
     1
 10
-2.691895
 20
0.15918
 30
0.5
 11
-2.717285
 21
0.197266
 31
0.5
  0
LINE
  5
DE
  8
0
 62
     1
 10
-2.717285
 20
0.197266
 30
0.5
 11
-2.73877
 21
0.237305
 31
0.5
  0
LINE
  5
DF
  8
0
 62
     1
 10
-2.73877
 20
0.237305
 30
0.5
 11
-2.756348
 21
0.279297
 31
0.5
  0
LINE
  5
E0
  8
0
 62
     1
 10
-2.756348
 20
0.279297
 30
0.5
 11
-2.77002
 21
0.322266
 31
0.5
  0
LINE
  5
E1
  8
0
 62
     1
 10
-2.77002
 20
0.322266
 30
0.5
 11
-2.779785
 21
0.368164
 31
0.5
  0
LINE
  5
E2
  8
0
 62
     1
 10
-2.779785
 20
0.368164
 30
0.5
 11
-2.785645
 21
0.416016
 31
0.5
  0
LINE
  5
E3
  8
0
 62
     1
 10
-2.785645
 20
0.416016
 30
0.5
 11
-2.787598
 21
0.46582
 31
0.5
  0
LINE
  5
E4
  8
0
 62
     1
 10
-2.787598
 20
0.46582
 30
0.5
 11
-2.785645
 21
0.522461
 31
0.5
  0
LINE
  5
E5
  8
0
 62
     1
 10
-2.655762
 20
0.511719
 30
0.5
 11
-2.650879
 21
0.557617
 31
0.5
  0
LINE
  5
E6
  8
0
 62
     1
 10
-2.650879
 20
0.557617
 30
0.5
 11
-2.644043
 21
0.600586
 31
0.5
  0
LINE
  5
E7
  8
0
 62
     1
 10
-2.644043
 20
0.600586
 30
0.5
 11
-2.633301
 21
0.639648
 31
0.5
  0
LINE
  5
E8
  8
0
 62
     1
 10
-2.633301
 20
0.639648
 30
0.5
 11
-2.620605
 21
0.675781
 31
0.5
  0
LINE
  5
E9
  8
0
 62
     1
 10
-2.620605
 20
0.675781
 30
0.5
 11
-2.60498
 21
0.708008
 31
0.5
  0
LINE
  5
EA
  8
0
 62
     1
 10
-2.60498
 20
0.708008
 30
0.5
 11
-2.586426
 21
0.738281
 31
0.5
  0
LINE
  5
EB
  8
0
 62
     1
 10
-2.586426
 20
0.738281
 30
0.5
 11
-2.563965
 21
0.763672
 31
0.5
  0
LINE
  5
EC
  8
0
 62
     1
 10
-2.563965
 20
0.763672
 30
0.5
 11
-2.540527
 21
0.787109
 31
0.5
  0
LINE
  5
ED
  8
0
 62
     1
 10
-2.540527
 20
0.787109
 30
0.5
 11
-2.515137
 21
0.807617
 31
0.5
  0
LINE
  5
EE
  8
0
 62
     1
 10
-2.515137
 20
0.807617
 30
0.5
 11
-2.487793
 21
0.824219
 31
0.5
  0
LINE
  5
EF
  8
0
 62
     1
 10
-2.487793
 20
0.824219
 30
0.5
 11
-2.459473
 21
0.8378910000000001
 31
0.5
  0
LINE
  5
F0
  8
0
 62
     1
 10
-2.459473
 20
0.8378910000000001
 30
0.5
 11
-2.429199
 21
0.848633
 31
0.5
  0
LINE
  5
F1
  8
0
 62
     1
 10
-2.429199
 20
0.848633
 30
0.5
 11
-2.396973
 21
0.856445
 31
0.5
  0
LINE
  5
F2
  8
0
 62
     1
 10
-2.396973
 20
0.856445
 30
0.5
 11
-2.36377
 21
0.861328
 31
0.5
  0
LINE
  5
F3
  8
0
 62
     1
 10
-2.36377
 20
0.861328
 30
0.5
 11
-2.328613
 21
0.862305
 31
0.5
  0
LINE
  5
F4
  8
0
 62
     1
 10
-2.328613
 20
0.862305
 30
0.5
 11
-2.294434
 21
0.861328
 31
0.5
  0
LINE
  5
F5
  8
0
 62
     1
 10
-2.294434
 20
0.861328
 30
0.5
 11
-2.262207
 21
0.856445
 31
0.5
  0
LINE
  5
F6
  8
0
 62
     1
 10
-2.262207
 20
0.856445
 30
0.5
 11
-2.230957
 21
0.848633
 31
0.5
  0
LINE
  5
F7
  8
0
 62
     1
 10
-2.230957
 20
0.848633
 30
0.5
 11
-2.20166
 21
0.8369140000000001
 31
0.5
  0
LINE
  5
F8
  8
0
 62
     1
 10
-2.20166
 20
0.8369140000000001
 30
0.5
 11
-2.17334
 21
0.823242
 31
0.5
  0
LINE
  5
F9
  8
0
 62
     1
 10
-2.17334
 20
0.823242
 30
0.5
 11
-2.145996
 21
0.8056640000000001
 31
0.5
  0
LINE
  5
FA
  8
0
 62
     1
 10
-2.145996
 20
0.8056640000000001
 30
0.5
 11
-2.121582
 21
0.786133
 31
0.5
  0
LINE
  5
FB
  8
0
 62
     1
 10
-2.121582
 20
0.786133
 30
0.5
 11
-2.097168
 21
0.761719
 31
0.5
  0
LINE
  5
FC
  8
0
 62
     1
 10
-2.097168
 20
0.761719
 30
0.5
 11
-2.075684
 21
0.735352
 31
0.5
  0
LINE
  5
FD
  8
0
 62
     1
 10
-2.075684
 20
0.735352
 30
0.5
 11
-2.057129
 21
0.707031
 31
0.5
  0
LINE
  5
FE
  8
0
 62
     1
 10
-2.057129
 20
0.707031
 30
0.5
 11
-2.041504
 21
0.674805
 31
0.5
  0
LINE
  5
FF
  8
0
 62
     1
 10
-2.041504
 20
0.674805
 30
0.5
 11
-2.027832
 21
0.640625
 31
0.5
  0
LINE
  5
100
  8
0
 62
     1
 10
-2.027832
 20
0.640625
 30
0.5
 11
-2.018066
 21
0.6035160000000001
 31
0.5
  0
LINE
  5
101
  8
0
 62
     1
 10
-2.018066
 20
0.6035160000000001
 30
0.5
 11
-2.01123
 21
0.563477
 31
0.5
  0
LINE
  5
102
  8
0
 62
     1
 10
-2.01123
 20
0.563477
 30
0.5
 11
-2.006348
 21
0.520508
 31
0.5
  0
LINE
  5
103
  8
0
 62
     1
 10
-2.006348
 20
0.520508
 30
0.5
 11
-2.005371
 21
0.475586
 31
0.5
  0
LINE
  5
104
  8
0
 62
     1
 10
-2.005371
 20
0.475586
 30
0.5
 11
-2.006348
 21
0.431641
 31
0.5
  0
LINE
  5
105
  8
0
 62
     1
 10
-2.006348
 20
0.431641
 30
0.5
 11
-2.01123
 21
0.390625
 31
0.5
  0
LINE
  5
106
  8
0
 62
     1
 10
-2.01123
 20
0.390625
 30
0.5
 11
-2.018066
 21
0.351563
 31
0.5
  0
LINE
  5
107
  8
0
 62
     1
 10
-2.018066
 20
0.351563
 30
0.5
 11
-2.027832
 21
0.314453
 31
0.5
  0
LINE
  5
108
  8
0
 62
     1
 10
-2.027832
 20
0.314453
 30
0.5
 11
-2.041504
 21
0.280273
 31
0.5
  0
LINE
  5
109
  8
0
 62
     1
 10
-2.041504
 20
0.280273
 30
0.5
 11
-2.056152
 21
0.249023
 31
0.5
  0
LINE
  5
10A
  8
0
 62
     1
 10
-2.056152
 20
0.249023
 30
0.5
 11
-2.074707
 21
0.219727
 31
0.5
  0
LINE
  5
10B
  8
0
 62
     1
 10
-2.074707
 20
0.219727
 30
0.5
 11
-2.096191
 21
0.193359
 31
0.5
  0
LINE
  5
10C
  8
0
 62
     1
 10
-2.096191
 20
0.193359
 30
0.5
 11
-2.119629
 21
0.169922
 31
0.5
  0
LINE
  5
10D
  8
0
 62
     1
 10
-2.119629
 20
0.169922
 30
0.5
 11
-2.14502
 21
0.148438
 31
0.5
  0
LINE
  5
10E
  8
0
 62
     1
 10
-2.14502
 20
0.148438
 30
0.5
 11
-2.171387
 21
0.131836
 31
0.5
  0
LINE
  5
10F
  8
0
 62
     1
 10
-2.171387
 20
0.131836
 30
0.5
 11
-2.199707
 21
0.117188
 31
0.5
  0
LINE
  5
110
  8
0
 62
     1
 10
-2.199707
 20
0.117188
 30
0.5
 11
-2.22998
 21
0.106445
 31
0.5
  0
LINE
  5
111
  8
0
 62
     1
 10
-2.22998
 20
0.106445
 30
0.5
 11
-2.262207
 21
0.097656
 31
0.5
  0
LINE
  5
112
  8
0
 62
     1
 10
-2.262207
 20
0.097656
 30
0.5
 11
-2.296387
 21
0.09375
 31
0.5
  0
LINE
  5
113
  8
0
 62
     1
 10
-2.296387
 20
0.09375
 30
0.5
 11
-2.331543
 21
0.091797
 31
0.5
  0
LINE
  5
114
  8
0
 62
     1
 10
-2.331543
 20
0.091797
 30
0.5
 11
-2.366699
 21
0.09375
 31
0.5
  0
LINE
  5
115
  8
0
 62
     1
 10
-2.366699
 20
0.09375
 30
0.5
 11
-2.399902
 21
0.098633
 31
0.5
  0
LINE
  5
116
  8
0
 62
     1
 10
-2.399902
 20
0.098633
 30
0.5
 11
-2.432129
 21
0.106445
 31
0.5
  0
LINE
  5
117
  8
0
 62
     1
 10
-2.432129
 20
0.106445
 30
0.5
 11
-2.462402
 21
0.117188
 31
0.5
  0
LINE
  5
118
  8
0
 62
     1
 10
-2.462402
 20
0.117188
 30
0.5
 11
-2.490723
 21
0.131836
 31
0.5
  0
LINE
  5
119
  8
0
 62
     1
 10
-2.490723
 20
0.131836
 30
0.5
 11
-2.518066
 21
0.149414
 31
0.5
  0
LINE
  5
11A
  8
0
 62
     1
 10
-2.518066
 20
0.149414
 30
0.5
 11
-2.54248
 21
0.169922
 31
0.5
  0
LINE
  5
11B
  8
0
 62
     1
 10
-2.54248
 20
0.169922
 30
0.5
 11
-2.565918
 21
0.194336
 31
0.5
  0
LINE
  5
11C
  8
0
 62
     1
 10
-2.565918
 20
0.194336
 30
0.5
 11
-2.587402
 21
0.220703
 31
0.5
  0
LINE
  5
11D
  8
0
 62
     1
 10
-2.587402
 20
0.220703
 30
0.5
 11
-2.605957
 21
0.25
 31
0.5
  0
LINE
  5
11E
  8
0
 62
     1
 10
-2.605957
 20
0.25
 30
0.5
 11
-2.621582
 21
0.280273
 31
0.5
  0
LINE
  5
11F
  8
0
 62
     1
 10
-2.621582
 20
0.280273
 30
0.5
 11
-2.634277
 21
0.3125
 31
0.5
  0
LINE
  5
120
  8
0
 62
     1
 10
-2.634277
 20
0.3125
 30
0.5
 11
-2.644043
 21
0.347656
 31
0.5
  0
LINE
  5
121
  8
0
 62
     1
 10
-2.644043
 20
0.347656
 30
0.5
 11
-2.650879
 21
0.383789
 31
0.5
  0
LINE
  5
122
  8
0
 62
     1
 10
-2.650879
 20
0.383789
 30
0.5
 11
-2.655762
 21
0.421875
 31
0.5
  0
LINE
  5
123
  8
0
 62
     1
 10
-2.655762
 20
0.421875
 30
0.5
 11
-2.656738
 21
0.462891
 31
0.5
  0
LINE
  5
124
  8
0
 62
     1
 10
-2.656738
 20
0.462891
 30
0.5
 11
-2.655762
 21
0.511719
 31
0.5
  0
LINE
  5
125
  8
0
 62
     1
 10
-1.712402
 20
0.954102
 30
0.5
 11
-1.586426
 21
0.954102
 31
0.5
  0
LINE
  5
126
  8
0
 62
     1
 10
-1.586426
 20
0.954102
 30
0.5
 11
-1.586426
 21
0.113281
 31
0.5
  0
LINE
  5
127
  8
0
 62
     1
 10
-1.586426
 20
0.113281
 30
0.5
 11
-1.115723
 21
0.113281
 31
0.5
  0
LINE
  5
128
  8
0
 62
     1
 10
-1.115723
 20
0.113281
 30
0.5
 11
-1.115723
 21
0.0
 31
0.5
  0
LINE
  5
129
  8
0
 62
     1
 10
-1.115723
 20
0.0
 30
0.5
 11
-1.712402
 21
0.0
 31
0.5
  0
LINE
  5
12A
  8
0
 62
     1
 10
-1.712402
 20
0.0
 30
0.5
 11
-1.712402
 21
0.954102
 31
0.5
  0
LINE
  5
12B
  8
0
 62
     1
 10
-0.621582
 20
0.0
 30
0.5
 11
-0.965332
 21
0.0
 31
0.5
  0
LINE
  5
12C
  8
0
 62
     1
 10
-0.965332
 20
0.0
 30
0.5
 11
-0.965332
 21
0.954102
 31
0.5
  0
LINE
  5
12D
  8
0
 62
     1
 10
-0.965332
 20
0.954102
 30
0.5
 11
-0.635254
 21
0.954102
 31
0.5
  0
LINE
  5
12E
  8
0
 62
     1
 10
-0.635254
 20
0.954102
 30
0.5
 11
-0.614746
 21
0.954102
 31
0.5
  0
LINE
  5
12F
  8
0
 62
     1
 10
-0.614746
 20
0.954102
 30
0.5
 11
-0.594238
 21
0.954102
 31
0.5
  0
LINE
  5
130
  8
0
 62
     1
 10
-0.594238
 20
0.954102
 30
0.5
 11
-0.57373
 21
0.953125
 31
0.5
  0
LINE
  5
131
  8
0
 62
     1
 10
-0.57373
 20
0.953125
 30
0.5
 11
-0.555176
 21
0.952148
 31
0.5
  0
LINE
  5
132
  8
0
 62
     1
 10
-0.555176
 20
0.952148
 30
0.5
 11
-0.536621
 21
0.951172
 31
0.5
  0
LINE
  5
133
  8
0
 62
     1
 10
-0.536621
 20
0.951172
 30
0.5
 11
-0.519043
 21
0.949219
 31
0.5
  0
LINE
  5
134
  8
0
 62
     1
 10
-0.519043
 20
0.949219
 30
0.5
 11
-0.502441
 21
0.9472660000000001
 31
0.5
  0
LINE
  5
135
  8
0
 62
     1
 10
-0.502441
 20
0.9472660000000001
 30
0.5
 11
-0.486816
 21
0.945313
 31
0.5
  0
LINE
  5
136
  8
0
 62
     1
 10
-0.486816
 20
0.945313
 30
0.5
 11
-0.471191
 21
0.942383
 31
0.5
  0
LINE
  5
137
  8
0
 62
     1
 10
-0.471191
 20
0.942383
 30
0.5
 11
-0.455566
 21
0.939453
 31
0.5
  0
LINE
  5
138
  8
0
 62
     1
 10
-0.455566
 20
0.939453
 30
0.5
 11
-0.440918
 21
0.935547
 31
0.5
  0
LINE
  5
139
  8
0
 62
     1
 10
-0.440918
 20
0.935547
 30
0.5
 11
-0.425293
 21
0.9306640000000001
 31
0.5
  0
LINE
  5
13A
  8
0
 62
     1
 10
-0.425293
 20
0.9306640000000001
 30
0.5
 11
-0.410645
 21
0.924805
 31
0.5
  0
LINE
  5
13B
  8
0
 62
     1
 10
-0.410645
 20
0.924805
 30
0.5
 11
-0.395996
 21
0.917969
 31
0.5
  0
LINE
  5
13C
  8
0
 62
     1
 10
-0.395996
 20
0.917969
 30
0.5
 11
-0.381348
 21
0.910156
 31
0.5
  0
LINE
  5
13D
  8
0
 62
     1
 10
-0.381348
 20
0.910156
 30
0.5
 11
-0.367676
 21
0.902344
 31
0.5
  0
LINE
  5
13E
  8
0
 62
     1
 10
-0.367676
 20
0.902344
 30
0.5
 11
-0.353027
 21
0.893555
 31
0.5
  0
LINE
  5
13F
  8
0
 62
     1
 10
-0.353027
 20
0.893555
 30
0.5
 11
-0.339355
 21
0.8837890000000001
 31
0.5
  0
LINE
  5
140
  8
0
 62
     1
 10
-0.339355
 20
0.8837890000000001
 30
0.5
 11
-0.32666
 21
0.873047
 31
0.5
  0
LINE
  5
141
  8
0
 62
     1
 10
-0.32666
 20
0.873047
 30
0.5
 11
-0.313965
 21
0.862305
 31
0.5
  0
LINE
  5
142
  8
0
 62
     1
 10
-0.313965
 20
0.862305
 30
0.5
 11
-0.30127
 21
0.849609
 31
0.5
  0
LINE
  5
143
  8
0
 62
     1
 10
-0.30127
 20
0.849609
 30
0.5
 11
-0.289551
 21
0.8369140000000001
 31
0.5
  0
LINE
  5
144
  8
0
 62
     1
 10
-0.289551
 20
0.8369140000000001
 30
0.5
 11
-0.278809
 21
0.823242
 31
0.5
  0
LINE
  5
145
  8
0
 62
     1
 10
-0.278809
 20
0.823242
 30
0.5
 11
-0.268066
 21
0.808594
 31
0.5
  0
LINE
  5
146
  8
0
 62
     1
 10
-0.268066
 20
0.808594
 30
0.5
 11
-0.257324
 21
0.792969
 31
0.5
  0
LINE
  5
147
  8
0
 62
     1
 10
-0.257324
 20
0.792969
 30
0.5
 11
-0.247559
 21
0.777344
 31
0.5
  0
LINE
  5
148
  8
0
 62
     1
 10
-0.247559
 20
0.777344
 30
0.5
 11
-0.237793
 21
0.760742
 31
0.5
  0
LINE
  5
149
  8
0
 62
     1
 10
-0.237793
 20
0.760742
 30
0.5
 11
-0.22998
 21
0.7441410000000001
 31
0.5
  0
LINE
  5
14A
  8
0
 62
     1
 10
-0.22998
 20
0.7441410000000001
 30
0.5
 11
-0.221191
 21
0.726563
 31
0.5
  0
LINE
  5
14B
  8
0
 62
     1
 10
-0.221191
 20
0.726563
 30
0.5
 11
-0.214355
 21
0.708984
 31
0.5
  0
LINE
  5
14C
  8
0
 62
     1
 10
-0.214355
 20
0.708984
 30
0.5
 11
-0.206543
 21
0.689453
 31
0.5
  0
LINE
  5
14D
  8
0
 62
     1
 10
-0.206543
 20
0.689453
 30
0.5
 11
-0.200684
 21
0.670898
 31
0.5
  0
LINE
  5
14E
  8
0
 62
     1
 10
-0.200684
 20
0.670898
 30
0.5
 11
-0.194824
 21
0.6503910000000001
 31
0.5
  0
LINE
  5
14F
  8
0
 62
     1
 10
-0.194824
 20
0.6503910000000001
 30
0.5
 11
-0.189941
 21
0.629883
 31
0.5
  0
LINE
  5
150
  8
0
 62
     1
 10
-0.189941
 20
0.629883
 30
0.5
 11
-0.186035
 21
0.607422
 31
0.5
  0
LINE
  5
151
  8
0
 62
     1
 10
-0.186035
 20
0.607422
 30
0.5
 11
-0.182129
 21
0.584961
 31
0.5
  0
LINE
  5
152
  8
0
 62
     1
 10
-0.182129
 20
0.584961
 30
0.5
 11
-0.179199
 21
0.560547
 31
0.5
  0
LINE
  5
153
  8
0
 62
     1
 10
-0.179199
 20
0.560547
 30
0.5
 11
-0.177246
 21
0.535156
 31
0.5
  0
LINE
  5
154
  8
0
 62
     1
 10
-0.177246
 20
0.535156
 30
0.5
 11
-0.17627
 21
0.5097660000000001
 31
0.5
  0
LINE
  5
155
  8
0
 62
     1
 10
-0.17627
 20
0.5097660000000001
 30
0.5
 11
-0.17627
 21
0.482422
 31
0.5
  0
LINE
  5
156
  8
0
 62
     1
 10
-0.17627
 20
0.482422
 30
0.5
 11
-0.177246
 21
0.430664
 31
0.5
  0
LINE
  5
157
  8
0
 62
     1
 10
-0.177246
 20
0.430664
 30
0.5
 11
-0.182129
 21
0.381836
 31
0.5
  0
LINE
  5
158
  8
0
 62
     1
 10
-0.182129
 20
0.381836
 30
0.5
 11
-0.189941
 21
0.334961
 31
0.5
  0
LINE
  5
159
  8
0
 62
     1
 10
-0.189941
 20
0.334961
 30
0.5
 11
-0.20166
 21
0.290039
 31
0.5
  0
LINE
  5
15A
  8
0
 62
     1
 10
-0.20166
 20
0.290039
 30
0.5
 11
-0.215332
 21
0.248047
 31
0.5
  0
LINE
  5
15B
  8
0
 62
     1
 10
-0.215332
 20
0.248047
 30
0.5
 11
-0.23291
 21
0.208008
 31
0.5
  0
LINE
  5
15C
  8
0
 62
     1
 10
-0.23291
 20
0.208008
 30
0.5
 11
-0.252441
 21
0.170898
 31
0.5
  0
LINE
  5
15D
  8
0
 62
     1
 10
-0.252441
 20
0.170898
 30
0.5
 11
-0.276855
 21
0.135742
 31
0.5
  0
LINE
  5
15E
  8
0
 62
     1
 10
-0.276855
 20
0.135742
 30
0.5
 11
-0.304199
 21
0.103516
 31
0.5
  0
LINE
  5
15F
  8
0
 62
     1
 10
-0.304199
 20
0.103516
 30
0.5
 11
-0.335449
 21
0.076172
 31
0.5
  0
LINE
  5
160
  8
0
 62
     1
 10
-0.335449
 20
0.076172
 30
0.5
 11
-0.371582
 21
0.052734
 31
0.5
  0
LINE
  5
161
  8
0
 62
     1
 10
-0.371582
 20
0.052734
 30
0.5
 11
-0.412598
 21
0.03418
 31
0.5
  0
LINE
  5
162
  8
0
 62
     1
 10
-0.412598
 20
0.03418
 30
0.5
 11
-0.458496
 21
0.019531
 31
0.5
  0
LINE
  5
163
  8
0
 62
     1
 10
-0.458496
 20
0.019531
 30
0.5
 11
-0.508301
 21
0.008789
 31
0.5
  0
LINE
  5
164
  8
0
 62
     1
 10
-0.508301
 20
0.008789
 30
0.5
 11
-0.562012
 21
0.001953
 31
0.5
  0
LINE
  5
165
  8
0
 62
     1
 10
-0.562012
 20
0.001953
 30
0.5
 11
-0.621582
 21
0.0
 31
0.5
  0
LINE
  5
166
  8
0
 62
     1
 10
-0.638184
 20
0.84082
 30
0.5
 11
-0.622559
 21
0.84082
 31
0.5
  0
LINE
  5
167
  8
0
 62
     1
 10
-0.622559
 20
0.84082
 30
0.5
 11
-0.606934
 21
0.84082
 31
0.5
  0
LINE
  5
168
  8
0
 62
     1
 10
-0.606934
 20
0.84082
 30
0.5
 11
-0.592285
 21
0.839844
 31
0.5
  0
LINE
  5
169
  8
0
 62
     1
 10
-0.592285
 20
0.839844
 30
0.5
 11
-0.578613
 21
0.839844
 31
0.5
  0
LINE
  5
16A
  8
0
 62
     1
 10
-0.578613
 20
0.839844
 30
0.5
 11
-0.564941
 21
0.838867
 31
0.5
  0
LINE
  5
16B
  8
0
 62
     1
 10
-0.564941
 20
0.838867
 30
0.5
 11
-0.553223
 21
0.8378910000000001
 31
0.5
  0
LINE
  5
16C
  8
0
 62
     1
 10
-0.553223
 20
0.8378910000000001
 30
0.5
 11
-0.541504
 21
0.8369140000000001
 31
0.5
  0
LINE
  5
16D
  8
0
 62
     1
 10
-0.541504
 20
0.8369140000000001
 30
0.5
 11
-0.530762
 21
0.835938
 31
0.5
  0
LINE
  5
16E
  8
0
 62
     1
 10
-0.530762
 20
0.835938
 30
0.5
 11
-0.52002
 21
0.833984
 31
0.5
  0
LINE
  5
16F
  8
0
 62
     1
 10
-0.52002
 20
0.833984
 30
0.5
 11
-0.509277
 21
0.832031
 31
0.5
  0
LINE
  5
170
  8
0
 62
     1
 10
-0.509277
 20
0.832031
 30
0.5
 11
-0.498535
 21
0.829102
 31
0.5
  0
LINE
  5
171
  8
0
 62
     1
 10
-0.498535
 20
0.829102
 30
0.5
 11
-0.487793
 21
0.826172
 31
0.5
  0
LINE
  5
172
  8
0
 62
     1
 10
-0.487793
 20
0.826172
 30
0.5
 11
-0.477051
 21
0.8222660000000001
 31
0.5
  0
LINE
  5
173
  8
0
 62
     1
 10
-0.477051
 20
0.8222660000000001
 30
0.5
 11
-0.466309
 21
0.817383
 31
0.5
  0
LINE
  5
174
  8
0
 62
     1
 10
-0.466309
 20
0.817383
 30
0.5
 11
-0.455566
 21
0.8125
 31
0.5
  0
LINE
  5
175
  8
0
 62
     1
 10
-0.455566
 20
0.8125
 30
0.5
 11
-0.443848
 21
0.8066410000000001
 31
0.5
  0
LINE
  5
176
  8
0
 62
     1
 10
-0.443848
 20
0.8066410000000001
 30
0.5
 11
-0.433105
 21
0.800781
 31
0.5
  0
LINE
  5
177
  8
0
 62
     1
 10
-0.433105
 20
0.800781
 30
0.5
 11
-0.422363
 21
0.792969
 31
0.5
  0
LINE
  5
178
  8
0
 62
     1
 10
-0.422363
 20
0.792969
 30
0.5
 11
-0.412598
 21
0.785156
 31
0.5
  0
LINE
  5
179
  8
0
 62
     1
 10
-0.412598
 20
0.785156
 30
0.5
 11
-0.402832
 21
0.776367
 31
0.5
  0
LINE
  5
17A
  8
0
 62
     1
 10
-0.402832
 20
0.776367
 30
0.5
 11
-0.393066
 21
0.766602
 31
0.5
  0
LINE
  5
17B
  8
0
 62
     1
 10
-0.393066
 20
0.766602
 30
0.5
 11
-0.383301
 21
0.755859
 31
0.5
  0
LINE
  5
17C
  8
0
 62
     1
 10
-0.383301
 20
0.755859
 30
0.5
 11
-0.374512
 21
0.7441410000000001
 31
0.5
  0
LINE
  5
17D
  8
0
 62
     1
 10
-0.374512
 20
0.7441410000000001
 30
0.5
 11
-0.365723
 21
0.731445
 31
0.5
  0
LINE
  5
17E
  8
0
 62
     1
 10
-0.365723
 20
0.731445
 30
0.5
 11
-0.35791
 21
0.71875
 31
0.5
  0
LINE
  5
17F
  8
0
 62
     1
 10
-0.35791
 20
0.71875
 30
0.5
 11
-0.350098
 21
0.706055
 31
0.5
  0
LINE
  5
180
  8
0
 62
     1
 10
-0.350098
 20
0.706055
 30
0.5
 11
-0.343262
 21
0.692383
 31
0.5
  0
LINE
  5
181
  8
0
 62
     1
 10
-0.343262
 20
0.692383
 30
0.5
 11
-0.337402
 21
0.677734
 31
0.5
  0
LINE
  5
182
  8
0
 62
     1
 10
-0.337402
 20
0.677734
 30
0.5
 11
-0.331543
 21
0.664063
 31
0.5
  0
LINE
  5
183
  8
0
 62
     1
 10
-0.331543
 20
0.664063
 30
0.5
 11
-0.32666
 21
0.6494140000000001
 31
0.5
  0
LINE
  5
184
  8
0
 62
     1
 10
-0.32666
 20
0.6494140000000001
 30
0.5
 11
-0.322754
 21
0.6337890000000001
 31
0.5
  0
LINE
  5
185
  8
0
 62
     1
 10
-0.322754
 20
0.6337890000000001
 30
0.5
 11
-0.318848
 21
0.6191410000000001
 31
0.5
  0
LINE
  5
186
  8
0
 62
     1
 10
-0.318848
 20
0.6191410000000001
 30
0.5
 11
-0.315918
 21
0.6025390000000001
 31
0.5
  0
LINE
  5
187
  8
0
 62
     1
 10
-0.315918
 20
0.6025390000000001
 30
0.5
 11
-0.313965
 21
0.5869140000000001
 31
0.5
  0
LINE
  5
188
  8
0
 62
     1
 10
-0.313965
 20
0.5869140000000001
 30
0.5
 11
-0.311035
 21
0.570313
 31
0.5
  0
LINE
  5
189
  8
0
 62
     1
 10
-0.311035
 20
0.570313
 30
0.5
 11
-0.309082
 21
0.553711
 31
0.5
  0
LINE
  5
18A
  8
0
 62
     1
 10
-0.309082
 20
0.553711
 30
0.5
 11
-0.308105
 21
0.537109
 31
0.5
  0
LINE
  5
18B
  8
0
 62
     1
 10
-0.308105
 20
0.537109
 30
0.5
 11
-0.307129
 21
0.520508
 31
0.5
  0
LINE
  5
18C
  8
0
 62
     1
 10
-0.307129
 20
0.520508
 30
0.5
 11
-0.306152
 21
0.50293
 31
0.5
  0
LINE
  5
18D
  8
0
 62
     1
 10
-0.306152
 20
0.50293
 30
0.5
 11
-0.306152
 21
0.485352
 31
0.5
  0
LINE
  5
18E
  8
0
 62
     1
 10
-0.306152
 20
0.485352
 30
0.5
 11
-0.307129
 21
0.453125
 31
0.5
  0
LINE
  5
18F
  8
0
 62
     1
 10
-0.307129
 20
0.453125
 30
0.5
 11
-0.308105
 21
0.422852
 31
0.5
  0
LINE
  5
190
  8
0
 62
     1
 10
-0.308105
 20
0.422852
 30
0.5
 11
-0.311035
 21
0.394531
 31
0.5
  0
LINE
  5
191
  8
0
 62
     1
 10
-0.311035
 20
0.394531
 30
0.5
 11
-0.314941
 21
0.368164
 31
0.5
  0
LINE
  5
192
  8
0
 62
     1
 10
-0.314941
 20
0.368164
 30
0.5
 11
-0.318848
 21
0.342773
 31
0.5
  0
LINE
  5
193
  8
0
 62
     1
 10
-0.318848
 20
0.342773
 30
0.5
 11
-0.324707
 21
0.319336
 31
0.5
  0
LINE
  5
194
  8
0
 62
     1
 10
-0.324707
 20
0.319336
 30
0.5
 11
-0.331543
 21
0.296875
 31
0.5
  0
LINE
  5
195
  8
0
 62
     1
 10
-0.331543
 20
0.296875
 30
0.5
 11
-0.339355
 21
0.276367
 31
0.5
  0
LINE
  5
196
  8
0
 62
     1
 10
-0.339355
 20
0.276367
 30
0.5
 11
-0.348145
 21
0.257813
 31
0.5
  0
LINE
  5
197
  8
0
 62
     1
 10
-0.348145
 20
0.257813
 30
0.5
 11
-0.356934
 21
0.240234
 31
0.5
  0
LINE
  5
198
  8
0
 62
     1
 10
-0.356934
 20
0.240234
 30
0.5
 11
-0.366699
 21
0.223633
 31
0.5
  0
LINE
  5
199
  8
0
 62
     1
 10
-0.366699
 20
0.223633
 30
0.5
 11
-0.377441
 21
0.208984
 31
0.5
  0
LINE
  5
19A
  8
0
 62
     1
 10
-0.377441
 20
0.208984
 30
0.5
 11
-0.388184
 21
0.195313
 31
0.5
  0
LINE
  5
19B
  8
0
 62
     1
 10
-0.388184
 20
0.195313
 30
0.5
 11
-0.398926
 21
0.183594
 31
0.5
  0
LINE
  5
19C
  8
0
 62
     1
 10
-0.398926
 20
0.183594
 30
0.5
 11
-0.410645
 21
0.172852
 31
0.5
  0
LINE
  5
19D
  8
0
 62
     1
 10
-0.410645
 20
0.172852
 30
0.5
 11
-0.42334
 21
0.163086
 31
0.5
  0
LINE
  5
19E
  8
0
 62
     1
 10
-0.42334
 20
0.163086
 30
0.5
 11
-0.436035
 21
0.155273
 31
0.5
  0
LINE
  5
19F
  8
0
 62
     1
 10
-0.436035
 20
0.155273
 30
0.5
 11
-0.44873
 21
0.147461
 31
0.5
  0
LINE
  5
1A0
  8
0
 62
     1
 10
-0.44873
 20
0.147461
 30
0.5
 11
-0.460449
 21
0.141602
 31
0.5
  0
LINE
  5
1A1
  8
0
 62
     1
 10
-0.460449
 20
0.141602
 30
0.5
 11
-0.473145
 21
0.135742
 31
0.5
  0
LINE
  5
1A2
  8
0
 62
     1
 10
-0.473145
 20
0.135742
 30
0.5
 11
-0.48584
 21
0.130859
 31
0.5
  0
LINE
  5
1A3
  8
0
 62
     1
 10
-0.48584
 20
0.130859
 30
0.5
 11
-0.498535
 21
0.126953
 31
0.5
  0
LINE
  5
1A4
  8
0
 62
     1
 10
-0.498535
 20
0.126953
 30
0.5
 11
-0.510254
 21
0.123047
 31
0.5
  0
LINE
  5
1A5
  8
0
 62
     1
 10
-0.510254
 20
0.123047
 30
0.5
 11
-0.522949
 21
0.121094
 31
0.5
  0
LINE
  5
1A6
  8
0
 62
     1
 10
-0.522949
 20
0.121094
 30
0.5
 11
-0.535645
 21
0.119141
 31
0.5
  0
LINE
  5
1A7
  8
0
 62
     1
 10
-0.535645
 20
0.119141
 30
0.5
 11
-0.5483400000000001
 21
0.117188
 31
0.5
  0
LINE
  5
1A8
  8
0
 62
     1
 10
-0.5483400000000001
 20
0.117188
 30
0.5
 11
-0.561035
 21
0.116211
 31
0.5
  0
LINE
  5
1A9
  8
0
 62
     1
 10
-0.561035
 20
0.116211
 30
0.5
 11
-0.575684
 21
0.115234
 31
0.5
  0
LINE
  5
1AA
  8
0
 62
     1
 10
-0.575684
 20
0.115234
 30
0.5
 11
-0.589355
 21
0.114258
 31
0.5
  0
LINE
  5
1AB
  8
0
 62
     1
 10
-0.589355
 20
0.114258
 30
0.5
 11
-0.604004
 21
0.113281
 31
0.5
  0
LINE
  5
1AC
  8
0
 62
     1
 10
-0.604004
 20
0.113281
 30
0.5
 11
-0.618652
 21
0.113281
 31
0.5
  0
LINE
  5
1AD
  8
0
 62
     1
 10
-0.618652
 20
0.113281
 30
0.5
 11
-0.634277
 21
0.113281
 31
0.5
  0
LINE
  5
1AE
  8
0
 62
     1
 10
-0.634277
 20
0.113281
 30
0.5
 11
-0.838379
 21
0.113281
 31
0.5
  0
LINE
  5
1AF
  8
0
 62
     1
 10
-0.838379
 20
0.113281
 30
0.5
 11
-0.838379
 21
0.84082
 31
0.5
  0
LINE
  5
1B0
  8
0
 62
     1
 10
-0.838379
 20
0.84082
 30
0.5
 11
-0.638184
 21
0.84082
 31
0.5
  0
LINE
  5
1B1
  8
0
 62
     1
 10
0.598145
 20
0.84082
 30
0.5
 11
0.788574
 21
0.84082
 31
0.5
  0
LINE
  5
1B2
  8
0
 62
     1
 10
0.788574
 20
0.84082
 30
0.5
 11
0.806152
 21
0.84082
 31
0.5
  0
LINE
  5
1B3
  8
0
 62
     1
 10
0.806152
 20
0.84082
 30
0.5
 11
0.82373
 21
0.84082
 31
0.5
  0
LINE
  5
1B4
  8
0
 62
     1
 10
0.82373
 20
0.84082
 30
0.5
 11
0.839355
 21
0.839844
 31
0.5
  0
LINE
  5
1B5
  8
0
 62
     1
 10
0.839355
 20
0.839844
 30
0.5
 11
0.85498
 21
0.838867
 31
0.5
  0
LINE
  5
1B6
  8
0
 62
     1
 10
0.85498
 20
0.838867
 30
0.5
 11
0.869629
 21
0.8378910000000001
 31
0.5
  0
LINE
  5
1B7
  8
0
 62
     1
 10
0.869629
 20
0.8378910000000001
 30
0.5
 11
0.883301
 21
0.8369140000000001
 31
0.5
  0
LINE
  5
1B8
  8
0
 62
     1
 10
0.883301
 20
0.8369140000000001
 30
0.5
 11
0.895996
 21
0.835938
 31
0.5
  0
LINE
  5
1B9
  8
0
 62
     1
 10
0.895996
 20
0.835938
 30
0.5
 11
0.9077150000000001
 21
0.833984
 31
0.5
  0
LINE
  5
1BA
  8
0
 62
     1
 10
0.9077150000000001
 20
0.833984
 30
0.5
 11
0.919434
 21
0.832031
 31
0.5
  0
LINE
  5
1BB
  8
0
 62
     1
 10
0.919434
 20
0.832031
 30
0.5
 11
0.930176
 21
0.829102
 31
0.5
  0
LINE
  5
1BC
  8
0
 62
     1
 10
0.930176
 20
0.829102
 30
0.5
 11
0.940918
 21
0.825195
 31
0.5
  0
LINE
  5
1BD
  8
0
 62
     1
 10
0.940918
 20
0.825195
 30
0.5
 11
0.95166
 21
0.820313
 31
0.5
  0
LINE
  5
1BE
  8
0
 62
     1
 10
0.95166
 20
0.820313
 30
0.5
 11
0.961426
 21
0.81543
 31
0.5
  0
LINE
  5
1BF
  8
0
 62
     1
 10
0.961426
 20
0.81543
 30
0.5
 11
0.9702150000000001
 21
0.808594
 31
0.5
  0
LINE
  5
1C0
  8
0
 62
     1
 10
0.9702150000000001
 20
0.808594
 30
0.5
 11
0.979004
 21
0.801758
 31
0.5
  0
LINE
  5
1C1
  8
0
 62
     1
 10
0.979004
 20
0.801758
 30
0.5
 11
0.987793
 21
0.793945
 31
0.5
  0
LINE
  5
1C2
  8
0
 62
     1
 10
0.987793
 20
0.793945
 30
0.5
 11
0.995605
 21
0.786133
 31
0.5
  0
LINE
  5
1C3
  8
0
 62
     1
 10
0.995605
 20
0.786133
 30
0.5
 11
1.002441
 21
0.776367
 31
0.5
  0
LINE
  5
1C4
  8
0
 62
     1
 10
1.002441
 20
0.776367
 30
0.5
 11
1.008301
 21
0.765625
 31
0.5
  0
LINE
  5
1C5
  8
0
 62
     1
 10
1.008301
 20
0.765625
 30
0.5
 11
1.013184
 21
0.75293
 31
0.5
  0
LINE
  5
1C6
  8
0
 62
     1
 10
1.013184
 20
0.75293
 30
0.5
 11
1.01709
 21
0.740234
 31
0.5
  0
LINE
  5
1C7
  8
0
 62
     1
 10
1.01709
 20
0.740234
 30
0.5
 11
1.019043
 21
0.726563
 31
0.5
  0
LINE
  5
1C8
  8
0
 62
     1
 10
1.019043
 20
0.726563
 30
0.5
 11
1.020996
 21
0.710938
 31
0.5
  0
LINE
  5
1C9
  8
0
 62
     1
 10
1.020996
 20
0.710938
 30
0.5
 11
1.020996
 21
0.694336
 31
0.5
  0
LINE
  5
1CA
  8
0
 62
     1
 10
1.020996
 20
0.694336
 30
0.5
 11
1.020996
 21
0.678711
 31
0.5
  0
LINE
  5
1CB
  8
0
 62
     1
 10
1.020996
 20
0.678711
 30
0.5
 11
1.019043
 21
0.664063
 31
0.5
  0
LINE
  5
1CC
  8
0
 62
     1
 10
1.019043
 20
0.664063
 30
0.5
 11
1.01709
 21
0.651367
 31
0.5
  0
LINE
  5
1CD
  8
0
 62
     1
 10
1.01709
 20
0.651367
 30
0.5
 11
1.013184
 21
0.638672
 31
0.5
  0
LINE
  5
1CE
  8
0
 62
     1
 10
1.013184
 20
0.638672
 30
0.5
 11
1.008301
 21
0.626953
 31
0.5
  0
LINE
  5
1CF
  8
0
 62
     1
 10
1.008301
 20
0.626953
 30
0.5
 11
1.002441
 21
0.617188
 31
0.5
  0
LINE
  5
1D0
  8
0
 62
     1
 10
1.002441
 20
0.617188
 30
0.5
 11
0.995605
 21
0.607422
 31
0.5
  0
LINE
  5
1D1
  8
0
 62
     1
 10
0.995605
 20
0.607422
 30
0.5
 11
0.98877
 21
0.599609
 31
0.5
  0
LINE
  5
1D2
  8
0
 62
     1
 10
0.98877
 20
0.599609
 30
0.5
 11
0.97998
 21
0.591797
 31
0.5
  0
LINE
  5
1D3
  8
0
 62
     1
 10
0.97998
 20
0.591797
 30
0.5
 11
0.971191
 21
0.585938
 31
0.5
  0
LINE
  5
1D4
  8
0
 62
     1
 10
0.971191
 20
0.585938
 30
0.5
 11
0.962402
 21
0.580078
 31
0.5
  0
LINE
  5
1D5
  8
0
 62
     1
 10
0.962402
 20
0.580078
 30
0.5
 11
0.952637
 21
0.575195
 31
0.5
  0
LINE
  5
1D6
  8
0
 62
     1
 10
0.952637
 20
0.575195
 30
0.5
 11
0.942871
 21
0.570313
 31
0.5
  0
LINE
  5
1D7
  8
0
 62
     1
 10
0.942871
 20
0.570313
 30
0.5
 11
0.933105
 21
0.566406
 31
0.5
  0
LINE
  5
1D8
  8
0
 62
     1
 10
0.933105
 20
0.566406
 30
0.5
 11
0.922363
 21
0.563477
 31
0.5
  0
LINE
  5
1D9
  8
0
 62
     1
 10
0.922363
 20
0.563477
 30
0.5
 11
0.911621
 21
0.561523
 31
0.5
  0
LINE
  5
1DA
  8
0
 62
     1
 10
0.911621
 20
0.561523
 30
0.5
 11
0.900879
 21
0.55957
 31
0.5
  0
LINE
  5
1DB
  8
0
 62
     1
 10
0.900879
 20
0.55957
 30
0.5
 11
0.88916
 21
0.558594
 31
0.5
  0
LINE
  5
1DC
  8
0
 62
     1
 10
0.88916
 20
0.558594
 30
0.5
 11
0.8764650000000001
 21
0.557617
 31
0.5
  0
LINE
  5
1DD
  8
0
 62
     1
 10
0.8764650000000001
 20
0.557617
 30
0.5
 11
0.86377
 21
0.5566410000000001
 31
0.5
  0
LINE
  5
1DE
  8
0
 62
     1
 10
0.86377
 20
0.5566410000000001
 30
0.5
 11
0.850098
 21
0.5556640000000001
 31
0.5
  0
LINE
  5
1DF
  8
0
 62
     1
 10
0.850098
 20
0.5556640000000001
 30
0.5
 11
0.835449
 21
0.554688
 31
0.5
  0
LINE
  5
1E0
  8
0
 62
     1
 10
0.835449
 20
0.554688
 30
0.5
 11
0.820801
 21
0.554688
 31
0.5
  0
LINE
  5
1E1
  8
0
 62
     1
 10
0.820801
 20
0.554688
 30
0.5
 11
0.805176
 21
0.554688
 31
0.5
  0
LINE
  5
1E2
  8
0
 62
     1
 10
0.805176
 20
0.554688
 30
0.5
 11
0.598145
 21
0.554688
 31
0.5
  0
LINE
  5
1E3
  8
0
 62
     1
 10
0.598145
 20
0.554688
 30
0.5
 11
0.598145
 21
0.84082
 31
0.5
  0
LINE
  5
1E4
  8
0
 62
     1
 10
0.836426
 20
0.0
 30
0.5
 11
0.471191
 21
0.0
 31
0.5
  0
LINE
  5
1E5
  8
0
 62
     1
 10
0.471191
 20
0.0
 30
0.5
 11
0.471191
 21
0.954102
 31
0.5
  0
LINE
  5
1E6
  8
0
 62
     1
 10
0.471191
 20
0.954102
 30
0.5
 11
0.8295900000000001
 21
0.954102
 31
0.5
  0
LINE
  5
1E7
  8
0
 62
     1
 10
0.8295900000000001
 20
0.954102
 30
0.5
 11
0.871582
 21
0.953125
 31
0.5
  0
LINE
  5
1E8
  8
0
 62
     1
 10
0.871582
 20
0.953125
 30
0.5
 11
0.909668
 21
0.949219
 31
0.5
  0
LINE
  5
1E9
  8
0
 62
     1
 10
0.909668
 20
0.949219
 30
0.5
 11
0.945801
 21
0.943359
 31
0.5
  0
LINE
  5
1EA
  8
0
 62
     1
 10
0.945801
 20
0.943359
 30
0.5
 11
0.978027
 21
0.935547
 31
0.5
  0
LINE
  5
1EB
  8
0
 62
     1
 10
0.978027
 20
0.935547
 30
0.5
 11
1.006348
 21
0.924805
 31
0.5
  0
LINE
  5
1EC
  8
0
 62
     1
 10
1.006348
 20
0.924805
 30
0.5
 11
1.032715
 21
0.912109
 31
0.5
  0
LINE
  5
1ED
  8
0
 62
     1
 10
1.032715
 20
0.912109
 30
0.5
 11
1.055176
 21
0.896484
 31
0.5
  0
LINE
  5
1EE
  8
0
 62
     1
 10
1.055176
 20
0.896484
 30
0.5
 11
1.074707
 21
0.878906
 31
0.5
  0
LINE
  5
1EF
  8
0
 62
     1
 10
1.074707
 20
0.878906
 30
0.5
 11
1.091309
 21
0.859375
 31
0.5
  0
LINE
  5
1F0
  8
0
 62
     1
 10
1.091309
 20
0.859375
 30
0.5
 11
1.105957
 21
0.839844
 31
0.5
  0
LINE
  5
1F1
  8
0
 62
     1
 10
1.105957
 20
0.839844
 30
0.5
 11
1.117676
 21
0.819336
 31
0.5
  0
LINE
  5
1F2
  8
0
 62
     1
 10
1.117676
 20
0.819336
 30
0.5
 11
1.128418
 21
0.798828
 31
0.5
  0
LINE
  5
1F3
  8
0
 62
     1
 10
1.128418
 20
0.798828
 30
0.5
 11
1.13623
 21
0.777344
 31
0.5
  0
LINE
  5
1F4
  8
0
 62
     1
 10
1.13623
 20
0.777344
 30
0.5
 11
1.141113
 21
0.755859
 31
0.5
  0
LINE
  5
1F5
  8
0
 62
     1
 10
1.141113
 20
0.755859
 30
0.5
 11
1.14502
 21
0.733398
 31
0.5
  0
LINE
  5
1F6
  8
0
 62
     1
 10
1.14502
 20
0.733398
 30
0.5
 11
1.145996
 21
0.710938
 31
0.5
  0
LINE
  5
1F7
  8
0
 62
     1
 10
1.145996
 20
0.710938
 30
0.5
 11
1.14502
 21
0.695313
 31
0.5
  0
LINE
  5
1F8
  8
0
 62
     1
 10
1.14502
 20
0.695313
 30
0.5
 11
1.144043
 21
0.679688
 31
0.5
  0
LINE
  5
1F9
  8
0
 62
     1
 10
1.144043
 20
0.679688
 30
0.5
 11
1.141113
 21
0.6650390000000001
 31
0.5
  0
LINE
  5
1FA
  8
0
 62
     1
 10
1.141113
 20
0.6650390000000001
 30
0.5
 11
1.137207
 21
0.6503910000000001
 31
0.5
  0
LINE
  5
1FB
  8
0
 62
     1
 10
1.137207
 20
0.6503910000000001
 30
0.5
 11
1.133301
 21
0.636719
 31
0.5
  0
LINE
  5
1FC
  8
0
 62
     1
 10
1.133301
 20
0.636719
 30
0.5
 11
1.127441
 21
0.62207
 31
0.5
  0
LINE
  5
1FD
  8
0
 62
     1
 10
1.127441
 20
0.62207
 30
0.5
 11
1.120605
 21
0.608398
 31
0.5
  0
LINE
  5
1FE
  8
0
 62
     1
 10
1.120605
 20
0.608398
 30
0.5
 11
1.112793
 21
0.595703
 31
0.5
  0
LINE
  5
1FF
  8
0
 62
     1
 10
1.112793
 20
0.595703
 30
0.5
 11
1.104004
 21
0.582031
 31
0.5
  0
LINE
  5
200
  8
0
 62
     1
 10
1.104004
 20
0.582031
 30
0.5
 11
1.094238
 21
0.570313
 31
0.5
  0
LINE
  5
201
  8
0
 62
     1
 10
1.094238
 20
0.570313
 30
0.5
 11
1.083496
 21
0.557617
 31
0.5
  0
LINE
  5
202
  8
0
 62
     1
 10
1.083496
 20
0.557617
 30
0.5
 11
1.071777
 21
0.546875
 31
0.5
  0
LINE
  5
203
  8
0
 62
     1
 10
1.071777
 20
0.546875
 30
0.5
 11
1.059082
 21
0.536133
 31
0.5
  0
LINE
  5
204
  8
0
 62
     1
 10
1.059082
 20
0.536133
 30
0.5
 11
1.044434
 21
0.526367
 31
0.5
  0
LINE
  5
205
  8
0
 62
     1
 10
1.044434
 20
0.526367
 30
0.5
 11
1.029785
 21
0.516602
 31
0.5
  0
LINE
  5
206
  8
0
 62
     1
 10
1.029785
 20
0.516602
 30
0.5
 11
1.013184
 21
0.507813
 31
0.5
  0
LINE
  5
207
  8
0
 62
     1
 10
1.013184
 20
0.507813
 30
0.5
 11
1.035645
 21
0.5
 31
0.5
  0
LINE
  5
208
  8
0
 62
     1
 10
1.035645
 20
0.5
 30
0.5
 11
1.056152
 21
0.492188
 31
0.5
  0
LINE
  5
209
  8
0
 62
     1
 10
1.056152
 20
0.492188
 30
0.5
 11
1.074707
 21
0.482422
 31
0.5
  0
LINE
  5
20A
  8
0
 62
     1
 10
1.074707
 20
0.482422
 30
0.5
 11
1.092285
 21
0.47168
 31
0.5
  0
LINE
  5
20B
  8
0
 62
     1
 10
1.092285
 20
0.47168
 30
0.5
 11
1.10791
 21
0.459961
 31
0.5
  0
LINE
  5
20C
  8
0
 62
     1
 10
1.10791
 20
0.459961
 30
0.5
 11
1.122559
 21
0.447266
 31
0.5
  0
LINE
  5
20D
  8
0
 62
     1
 10
1.122559
 20
0.447266
 30
0.5
 11
1.13623
 21
0.433594
 31
0.5
  0
LINE
  5
20E
  8
0
 62
     1
 10
1.13623
 20
0.433594
 30
0.5
 11
1.147949
 21
0.418945
 31
0.5
  0
LINE
  5
20F
  8
0
 62
     1
 10
1.147949
 20
0.418945
 30
0.5
 11
1.158691
 21
0.40332
 31
0.5
  0
LINE
  5
210
  8
0
 62
     1
 10
1.158691
 20
0.40332
 30
0.5
 11
1.16748
 21
0.386719
 31
0.5
  0
LINE
  5
211
  8
0
 62
     1
 10
1.16748
 20
0.386719
 30
0.5
 11
1.175293
 21
0.370117
 31
0.5
  0
LINE
  5
212
  8
0
 62
     1
 10
1.175293
 20
0.370117
 30
0.5
 11
1.181152
 21
0.352539
 31
0.5
  0
LINE
  5
213
  8
0
 62
     1
 10
1.181152
 20
0.352539
 30
0.5
 11
1.186035
 21
0.334961
 31
0.5
  0
LINE
  5
214
  8
0
 62
     1
 10
1.186035
 20
0.334961
 30
0.5
 11
1.189941
 21
0.316406
 31
0.5
  0
LINE
  5
215
  8
0
 62
     1
 10
1.189941
 20
0.316406
 30
0.5
 11
1.191895
 21
0.296875
 31
0.5
  0
LINE
  5
216
  8
0
 62
     1
 10
1.191895
 20
0.296875
 30
0.5
 11
1.192871
 21
0.277344
 31
0.5
  0
LINE
  5
217
  8
0
 62
     1
 10
1.192871
 20
0.277344
 30
0.5
 11
1.191895
 21
0.257813
 31
0.5
  0
LINE
  5
218
  8
0
 62
     1
 10
1.191895
 20
0.257813
 30
0.5
 11
1.189941
 21
0.238281
 31
0.5
  0
LINE
  5
219
  8
0
 62
     1
 10
1.189941
 20
0.238281
 30
0.5
 11
1.187012
 21
0.21875
 31
0.5
  0
LINE
  5
21A
  8
0
 62
     1
 10
1.187012
 20
0.21875
 30
0.5
 11
1.182129
 21
0.200195
 31
0.5
  0
LINE
  5
21B
  8
0
 62
     1
 10
1.182129
 20
0.200195
 30
0.5
 11
1.177246
 21
0.182617
 31
0.5
  0
LINE
  5
21C
  8
0
 62
     1
 10
1.177246
 20
0.182617
 30
0.5
 11
1.17041
 21
0.164063
 31
0.5
  0
LINE
  5
21D
  8
0
 62
     1
 10
1.17041
 20
0.164063
 30
0.5
 11
1.161621
 21
0.147461
 31
0.5
  0
LINE
  5
21E
  8
0
 62
     1
 10
1.161621
 20
0.147461
 30
0.5
 11
1.151855
 21
0.129883
 31
0.5
  0
LINE
  5
21F
  8
0
 62
     1
 10
1.151855
 20
0.129883
 30
0.5
 11
1.14209
 21
0.114258
 31
0.5
  0
LINE
  5
220
  8
0
 62
     1
 10
1.14209
 20
0.114258
 30
0.5
 11
1.130371
 21
0.098633
 31
0.5
  0
LINE
  5
221
  8
0
 62
     1
 10
1.130371
 20
0.098633
 30
0.5
 11
1.117676
 21
0.084961
 31
0.5
  0
LINE
  5
222
  8
0
 62
     1
 10
1.117676
 20
0.084961
 30
0.5
 11
1.103027
 21
0.072266
 31
0.5
  0
LINE
  5
223
  8
0
 62
     1
 10
1.103027
 20
0.072266
 30
0.5
 11
1.088379
 21
0.060547
 31
0.5
  0
LINE
  5
224
  8
0
 62
     1
 10
1.088379
 20
0.060547
 30
0.5
 11
1.072754
 21
0.049805
 31
0.5
  0
LINE
  5
225
  8
0
 62
     1
 10
1.072754
 20
0.049805
 30
0.5
 11
1.056152
 21
0.040039
 31
0.5
  0
LINE
  5
226
  8
0
 62
     1
 10
1.056152
 20
0.040039
 30
0.5
 11
1.037598
 21
0.03125
 31
0.5
  0
LINE
  5
227
  8
0
 62
     1
 10
1.037598
 20
0.03125
 30
0.5
 11
1.018066
 21
0.024414
 31
0.5
  0
LINE
  5
228
  8
0
 62
     1
 10
1.018066
 20
0.024414
 30
0.5
 11
0.997559
 21
0.017578
 31
0.5
  0
LINE
  5
229
  8
0
 62
     1
 10
0.997559
 20
0.017578
 30
0.5
 11
0.975098
 21
0.012695
 31
0.5
  0
LINE
  5
22A
  8
0
 62
     1
 10
0.975098
 20
0.012695
 30
0.5
 11
0.950684
 21
0.007813
 31
0.5
  0
LINE
  5
22B
  8
0
 62
     1
 10
0.950684
 20
0.007813
 30
0.5
 11
0.924316
 21
0.004883
 31
0.5
  0
LINE
  5
22C
  8
0
 62
     1
 10
0.924316
 20
0.004883
 30
0.5
 11
0.896973
 21
0.001953
 31
0.5
  0
LINE
  5
22D
  8
0
 62
     1
 10
0.896973
 20
0.001953
 30
0.5
 11
0.867676
 21
0.000977
 31
0.5
  0
LINE
  5
22E
  8
0
 62
     1
 10
0.867676
 20
0.000977
 30
0.5
 11
0.836426
 21
0.0
 31
0.5
  0
LINE
  5
22F
  8
0
 62
     1
 10
0.818848
 20
0.441406
 30
0.5
 11
0.852051
 21
0.44043
 31
0.5
  0
LINE
  5
230
  8
0
 62
     1
 10
0.852051
 20
0.44043
 30
0.5
 11
0.882324
 21
0.438477
 31
0.5
  0
LINE
  5
231
  8
0
 62
     1
 10
0.882324
 20
0.438477
 30
0.5
 11
0.910645
 21
0.435547
 31
0.5
  0
LINE
  5
232
  8
0
 62
     1
 10
0.910645
 20
0.435547
 30
0.5
 11
0.935059
 21
0.430664
 31
0.5
  0
LINE
  5
233
  8
0
 62
     1
 10
0.935059
 20
0.430664
 30
0.5
 11
0.95752
 21
0.424805
 31
0.5
  0
LINE
  5
234
  8
0
 62
     1
 10
0.95752
 20
0.424805
 30
0.5
 11
0.977051
 21
0.416992
 31
0.5
  0
LINE
  5
235
  8
0
 62
     1
 10
0.977051
 20
0.416992
 30
0.5
 11
0.994629
 21
0.408203
 31
0.5
  0
LINE
  5
236
  8
0
 62
     1
 10
0.994629
 20
0.408203
 30
0.5
 11
1.009277
 21
0.398438
 31
0.5
  0
LINE
  5
237
  8
0
 62
     1
 10
1.009277
 20
0.398438
 30
0.5
 11
1.020996
 21
0.386719
 31
0.5
  0
LINE
  5
238
  8
0
 62
     1
 10
1.020996
 20
0.386719
 30
0.5
 11
1.031738
 21
0.374023
 31
0.5
  0
LINE
  5
239
  8
0
 62
     1
 10
1.031738
 20
0.374023
 30
0.5
 11
1.041504
 21
0.360352
 31
0.5
  0
LINE
  5
23A
  8
0
 62
     1
 10
1.041504
 20
0.360352
 30
0.5
 11
1.04834
 21
0.34668
 31
0.5
  0
LINE
  5
23B
  8
0
 62
     1
 10
1.04834
 20
0.34668
 30
0.5
 11
1.054199
 21
0.331055
 31
0.5
  0
LINE
  5
23C
  8
0
 62
     1
 10
1.054199
 20
0.331055
 30
0.5
 11
1.058105
 21
0.313477
 31
0.5
  0
LINE
  5
23D
  8
0
 62
     1
 10
1.058105
 20
0.313477
 30
0.5
 11
1.061035
 21
0.295898
 31
0.5
  0
LINE
  5
23E
  8
0
 62
     1
 10
1.061035
 20
0.295898
 30
0.5
 11
1.062012
 21
0.277344
 31
0.5
  0
LINE
  5
23F
  8
0
 62
     1
 10
1.062012
 20
0.277344
 30
0.5
 11
1.061035
 21
0.258789
 31
0.5
  0
LINE
  5
240
  8
0
 62
     1
 10
1.061035
 20
0.258789
 30
0.5
 11
1.059082
 21
0.241211
 31
0.5
  0
LINE
  5
241
  8
0
 62
     1
 10
1.059082
 20
0.241211
 30
0.5
 11
1.055176
 21
0.224609
 31
0.5
  0
LINE
  5
242
  8
0
 62
     1
 10
1.055176
 20
0.224609
 30
0.5
 11
1.049316
 21
0.208984
 31
0.5
  0
LINE
  5
243
  8
0
 62
     1
 10
1.049316
 20
0.208984
 30
0.5
 11
1.04248
 21
0.194336
 31
0.5
  0
LINE
  5
244
  8
0
 62
     1
 10
1.04248
 20
0.194336
 30
0.5
 11
1.033691
 21
0.180664
 31
0.5
  0
LINE
  5
245
  8
0
 62
     1
 10
1.033691
 20
0.180664
 30
0.5
 11
1.023926
 21
0.167969
 31
0.5
  0
LINE
  5
246
  8
0
 62
     1
 10
1.023926
 20
0.167969
 30
0.5
 11
1.012207
 21
0.157227
 31
0.5
  0
LINE
  5
247
  8
0
 62
     1
 10
1.012207
 20
0.157227
 30
0.5
 11
0.998535
 21
0.146484
 31
0.5
  0
LINE
  5
248
  8
0
 62
     1
 10
0.998535
 20
0.146484
 30
0.5
 11
0.98291
 21
0.137695
 31
0.5
  0
LINE
  5
249
  8
0
 62
     1
 10
0.98291
 20
0.137695
 30
0.5
 11
0.964355
 21
0.129883
 31
0.5
  0
LINE
  5
24A
  8
0
 62
     1
 10
0.964355
 20
0.129883
 30
0.5
 11
0.943848
 21
0.124023
 31
0.5
  0
LINE
  5
24B
  8
0
 62
     1
 10
0.943848
 20
0.124023
 30
0.5
 11
0.92041
 21
0.119141
 31
0.5
  0
LINE
  5
24C
  8
0
 62
     1
 10
0.92041
 20
0.119141
 30
0.5
 11
0.894043
 21
0.116211
 31
0.5
  0
LINE
  5
24D
  8
0
 62
     1
 10
0.894043
 20
0.116211
 30
0.5
 11
0.865723
 21
0.114258
 31
0.5
  0
LINE
  5
24E
  8
0
 62
     1
 10
0.865723
 20
0.114258
 30
0.5
 11
0.835449
 21
0.113281
 31
0.5
  0
LINE
  5
24F
  8
0
 62
     1
 10
0.835449
 20
0.113281
 30
0.5
 11
0.598145
 21
0.113281
 31
0.5
  0
LINE
  5
250
  8
0
 62
     1
 10
0.598145
 20
0.113281
 30
0.5
 11
0.598145
 21
0.441406
 31
0.5
  0
LINE
  5
251
  8
0
 62
     1
 10
0.598145
 20
0.441406
 30
0.5
 11
0.818848
 21
0.441406
 31
0.5
  0
LINE
  5
252
  8
0
 62
     1
 10
1.366699
 20
0.954102
 30
0.5
 11
2.057129
 21
0.954102
 31
0.5
  0
LINE
  5
253
  8
0
 62
     1
 10
2.057129
 20
0.954102
 30
0.5
 11
2.057129
 21
0.84082
 31
0.5
  0
LINE
  5
254
  8
0
 62
     1
 10
2.057129
 20
0.84082
 30
0.5
 11
1.492676
 21
0.84082
 31
0.5
  0
LINE
  5
255
  8
0
 62
     1
 10
1.492676
 20
0.84082
 30
0.5
 11
1.492676
 21
0.549805
 31
0.5
  0
LINE
  5
256
  8
0
 62
     1
 10
1.492676
 20
0.549805
 30
0.5
 11
2.020996
 21
0.549805
 31
0.5
  0
LINE
  5
257
  8
0
 62
     1
 10
2.020996
 20
0.549805
 30
0.5
 11
2.020996
 21
0.436523
 31
0.5
  0
LINE
  5
258
  8
0
 62
     1
 10
2.020996
 20
0.436523
 30
0.5
 11
1.492676
 21
0.436523
 31
0.5
  0
LINE
  5
259
  8
0
 62
     1
 10
1.492676
 20
0.436523
 30
0.5
 11
1.492676
 21
0.113281
 31
0.5
  0
LINE
  5
25A
  8
0
 62
     1
 10
1.492676
 20
0.113281
 30
0.5
 11
2.07959
 21
0.113281
 31
0.5
  0
LINE
  5
25B
  8
0
 62
     1
 10
2.07959
 20
0.113281
 30
0.5
 11
2.07959
 21
0.0
 31
0.5
  0
LINE
  5
25C
  8
0
 62
     1
 10
2.07959
 20
0.0
 30
0.5
 11
1.366699
 21
0.0
 31
0.5
  0
LINE
  5
25D
  8
0
 62
     1
 10
1.366699
 20
0.0
 30
0.5
 11
1.366699
 21
0.954102
 31
0.5
  0
LINE
  5
25E
  8
0
 62
     1
 10
2.255371
 20
0.954102
 30
0.5
 11
2.945801
 21
0.954102
 31
0.5
  0
LINE
  5
25F
  8
0
 62
     1
 10
2.945801
 20
0.954102
 30
0.5
 11
2.945801
 21
0.84082
 31
0.5
  0
LINE
  5
260
  8
0
 62
     1
 10
2.945801
 20
0.84082
 30
0.5
 11
2.381348
 21
0.84082
 31
0.5
  0
LINE
  5
261
  8
0
 62
     1
 10
2.381348
 20
0.84082
 30
0.5
 11
2.381348
 21
0.549805
 31
0.5
  0
LINE
  5
262
  8
0
 62
     1
 10
2.381348
 20
0.549805
 30
0.5
 11
2.909668
 21
0.549805
 31
0.5
  0
LINE
  5
263
  8
0
 62
     1
 10
2.909668
 20
0.549805
 30
0.5
 11
2.909668
 21
0.436523
 31
0.5
  0
LINE
  5
264
  8
0
 62
     1
 10
2.909668
 20
0.436523
 30
0.5
 11
2.381348
 21
0.436523
 31
0.5
  0
LINE
  5
265
  8
0
 62
     1
 10
2.381348
 20
0.436523
 30
0.5
 11
2.381348
 21
0.113281
 31
0.5
  0
LINE
  5
266
  8
0
 62
     1
 10
2.381348
 20
0.113281
 30
0.5
 11
2.968262
 21
0.113281
 31
0.5
  0
LINE
  5
267
  8
0
 62
     1
 10
2.968262
 20
0.113281
 30
0.5
 11
2.968262
 21
0.0
 31
0.5
  0
LINE
  5
268
  8
0
 62
     1
 10
2.968262
 20
0.0
 30
0.5
 11
2.255371
 21
0.0
 31
0.5
  0
LINE
  5
269
  8
0
 62
     1
 10
2.255371
 20
0.0
 30
0.5
 11
2.255371
 21
0.954102
 31
0.5
  0
LINE
  5
26A
  8
0
 62
     1
 10
3.271973
 20
0.0
 30
0.5
 11
3.14502
 21
0.0
 31
0.5
  0
LINE
  5
26B
  8
0
 62
     1
 10
3.14502
 20
0.0
 30
0.5
 11
3.14502
 21
0.954102
 31
0.5
  0
LINE
  5
26C
  8
0
 62
     1
 10
3.14502
 20
0.954102
 30
0.5
 11
3.567871
 21
0.954102
 31
0.5
  0
LINE
  5
26D
  8
0
 62
     1
 10
3.567871
 20
0.954102
 30
0.5
 11
3.589355
 21
0.954102
 31
0.5
  0
LINE
  5
26E
  8
0
 62
     1
 10
3.589355
 20
0.954102
 30
0.5
 11
3.608887
 21
0.953125
 31
0.5
  0
LINE
  5
26F
  8
0
 62
     1
 10
3.608887
 20
0.953125
 30
0.5
 11
3.628418
 21
0.953125
 31
0.5
  0
LINE
  5
270
  8
0
 62
     1
 10
3.628418
 20
0.953125
 30
0.5
 11
3.646973
 21
0.951172
 31
0.5
  0
LINE
  5
271
  8
0
 62
     1
 10
3.646973
 20
0.951172
 30
0.5
 11
3.664551
 21
0.950195
 31
0.5
  0
LINE
  5
272
  8
0
 62
     1
 10
3.664551
 20
0.950195
 30
0.5
 11
3.682129
 21
0.948242
 31
0.5
  0
LINE
  5
273
  8
0
 62
     1
 10
3.682129
 20
0.948242
 30
0.5
 11
3.697754
 21
0.945313
 31
0.5
  0
LINE
  5
274
  8
0
 62
     1
 10
3.697754
 20
0.945313
 30
0.5
 11
3.712402
 21
0.943359
 31
0.5
  0
LINE
  5
275
  8
0
 62
     1
 10
3.712402
 20
0.943359
 30
0.5
 11
3.727051
 21
0.94043
 31
0.5
  0
LINE
  5
276
  8
0
 62
     1
 10
3.727051
 20
0.94043
 30
0.5
 11
3.741699
 21
0.936523
 31
0.5
  0
LINE
  5
277
  8
0
 62
     1
 10
3.741699
 20
0.936523
 30
0.5
 11
3.754395
 21
0.9316410000000001
 31
0.5
  0
LINE
  5
278
  8
0
 62
     1
 10
3.754395
 20
0.9316410000000001
 30
0.5
 11
3.768066
 21
0.925781
 31
0.5
  0
LINE
  5
279
  8
0
 62
     1
 10
3.768066
 20
0.925781
 30
0.5
 11
3.780762
 21
0.919922
 31
0.5
  0
LINE
  5
27A
  8
0
 62
     1
 10
3.780762
 20
0.919922
 30
0.5
 11
3.79248
 21
0.913086
 31
0.5
  0
LINE
  5
27B
  8
0
 62
     1
 10
3.79248
 20
0.913086
 30
0.5
 11
3.804199
 21
0.905273
 31
0.5
  0
LINE
  5
27C
  8
0
 62
     1
 10
3.804199
 20
0.905273
 30
0.5
 11
3.815918
 21
0.896484
 31
0.5
  0
LINE
  5
27D
  8
0
 62
     1
 10
3.815918
 20
0.896484
 30
0.5
 11
3.82666
 21
0.887695
 31
0.5
  0
LINE
  5
27E
  8
0
 62
     1
 10
3.82666
 20
0.887695
 30
0.5
 11
3.836426
 21
0.87793
 31
0.5
  0
LINE
  5
27F
  8
0
 62
     1
 10
3.836426
 20
0.87793
 30
0.5
 11
3.846191
 21
0.867188
 31
0.5
  0
LINE
  5
280
  8
0
 62
     1
 10
3.846191
 20
0.867188
 30
0.5
 11
3.85498
 21
0.856445
 31
0.5
  0
LINE
  5
281
  8
0
 62
     1
 10
3.85498
 20
0.856445
 30
0.5
 11
3.862793
 21
0.844727
 31
0.5
  0
LINE
  5
282
  8
0
 62
     1
 10
3.862793
 20
0.844727
 30
0.5
 11
3.870605
 21
0.833008
 31
0.5
  0
LINE
  5
283
  8
0
 62
     1
 10
3.870605
 20
0.833008
 30
0.5
 11
3.877441
 21
0.820313
 31
0.5
  0
LINE
  5
284
  8
0
 62
     1
 10
3.877441
 20
0.820313
 30
0.5
 11
3.883301
 21
0.8066410000000001
 31
0.5
  0
LINE
  5
285
  8
0
 62
     1
 10
3.883301
 20
0.8066410000000001
 30
0.5
 11
3.88916
 21
0.793945
 31
0.5
  0
LINE
  5
286
  8
0
 62
     1
 10
3.88916
 20
0.793945
 30
0.5
 11
3.894043
 21
0.779297
 31
0.5
  0
LINE
  5
287
  8
0
 62
     1
 10
3.894043
 20
0.779297
 30
0.5
 11
3.897949
 21
0.765625
 31
0.5
  0
LINE
  5
288
  8
0
 62
     1
 10
3.897949
 20
0.765625
 30
0.5
 11
3.901855
 21
0.751953
 31
0.5
  0
LINE
  5
289
  8
0
 62
     1
 10
3.901855
 20
0.751953
 30
0.5
 11
3.903809
 21
0.737305
 31
0.5
  0
LINE
  5
28A
  8
0
 62
     1
 10
3.903809
 20
0.737305
 30
0.5
 11
3.905762
 21
0.722656
 31
0.5
  0
LINE
  5
28B
  8
0
 62
     1
 10
3.905762
 20
0.722656
 30
0.5
 11
3.906738
 21
0.708008
 31
0.5
  0
LINE
  5
28C
  8
0
 62
     1
 10
3.906738
 20
0.708008
 30
0.5
 11
3.907715
 21
0.693359
 31
0.5
  0
LINE
  5
28D
  8
0
 62
     1
 10
3.907715
 20
0.693359
 30
0.5
 11
3.906738
 21
0.666992
 31
0.5
  0
LINE
  5
28E
  8
0
 62
     1
 10
3.906738
 20
0.666992
 30
0.5
 11
3.902832
 21
0.641602
 31
0.5
  0
LINE
  5
28F
  8
0
 62
     1
 10
3.902832
 20
0.641602
 30
0.5
 11
3.897949
 21
0.6181640000000001
 31
0.5
  0
LINE
  5
290
  8
0
 62
     1
 10
3.897949
 20
0.6181640000000001
 30
0.5
 11
3.890137
 21
0.595703
 31
0.5
  0
LINE
  5
291
  8
0
 62
     1
 10
3.890137
 20
0.595703
 30
0.5
 11
3.880371
 21
0.574219
 31
0.5
  0
LINE
  5
292
  8
0
 62
     1
 10
3.880371
 20
0.574219
 30
0.5
 11
3.868652
 21
0.554688
 31
0.5
  0
LINE
  5
293
  8
0
 62
     1
 10
3.868652
 20
0.554688
 30
0.5
 11
3.85498
 21
0.536133
 31
0.5
  0
LINE
  5
294
  8
0
 62
     1
 10
3.85498
 20
0.536133
 30
0.5
 11
3.839355
 21
0.519531
 31
0.5
  0
LINE
  5
295
  8
0
 62
     1
 10
3.839355
 20
0.519531
 30
0.5
 11
3.820801
 21
0.503906
 31
0.5
  0
LINE
  5
296
  8
0
 62
     1
 10
3.820801
 20
0.503906
 30
0.5
 11
3.80127
 21
0.489258
 31
0.5
  0
LINE
  5
297
  8
0
 62
     1
 10
3.80127
 20
0.489258
 30
0.5
 11
3.778809
 21
0.476563
 31
0.5
  0
LINE
  5
298
  8
0
 62
     1
 10
3.778809
 20
0.476563
 30
0.5
 11
3.755371
 21
0.46582
 31
0.5
  0
LINE
  5
299
  8
0
 62
     1
 10
3.755371
 20
0.46582
 30
0.5
 11
3.729004
 21
0.456055
 31
0.5
  0
LINE
  5
29A
  8
0
 62
     1
 10
3.729004
 20
0.456055
 30
0.5
 11
3.70166
 21
0.448242
 31
0.5
  0
LINE
  5
29B
  8
0
 62
     1
 10
3.70166
 20
0.448242
 30
0.5
 11
3.671387
 21
0.441406
 31
0.5
  0
LINE
  5
29C
  8
0
 62
     1
 10
3.671387
 20
0.441406
 30
0.5
 11
3.640137
 21
0.436523
 31
0.5
  0
LINE
  5
29D
  8
0
 62
     1
 10
3.640137
 20
0.436523
 30
0.5
 11
3.640137
 21
0.433594
 31
0.5
  0
LINE
  5
29E
  8
0
 62
     1
 10
3.640137
 20
0.433594
 30
0.5
 11
3.663574
 21
0.421875
 31
0.5
  0
LINE
  5
29F
  8
0
 62
     1
 10
3.663574
 20
0.421875
 30
0.5
 11
3.687012
 21
0.407227
 31
0.5
  0
LINE
  5
2A0
  8
0
 62
     1
 10
3.687012
 20
0.407227
 30
0.5
 11
3.710449
 21
0.389648
 31
0.5
  0
LINE
  5
2A1
  8
0
 62
     1
 10
3.710449
 20
0.389648
 30
0.5
 11
3.73291
 21
0.369141
 31
0.5
  0
LINE
  5
2A2
  8
0
 62
     1
 10
3.73291
 20
0.369141
 30
0.5
 11
3.755371
 21
0.345703
 31
0.5
  0
LINE
  5
2A3
  8
0
 62
     1
 10
3.755371
 20
0.345703
 30
0.5
 11
3.776855
 21
0.320313
 31
0.5
  0
LINE
  5
2A4
  8
0
 62
     1
 10
3.776855
 20
0.320313
 30
0.5
 11
3.79834
 21
0.291016
 31
0.5
  0
LINE
  5
2A5
  8
0
 62
     1
 10
3.79834
 20
0.291016
 30
0.5
 11
3.819824
 21
0.259766
 31
0.5
  0
LINE
  5
2A6
  8
0
 62
     1
 10
3.819824
 20
0.259766
 30
0.5
 11
3.98584
 21
0.0
 31
0.5
  0
LINE
  5
2A7
  8
0
 62
     1
 10
3.98584
 20
0.0
 30
0.5
 11
3.827637
 21
0.0
 31
0.5
  0
LINE
  5
2A8
  8
0
 62
     1
 10
3.827637
 20
0.0
 30
0.5
 11
3.793457
 21
0.053711
 31
0.5
  0
LINE
  5
2A9
  8
0
 62
     1
 10
3.793457
 20
0.053711
 30
0.5
 11
3.763184
 21
0.101563
 31
0.5
  0
LINE
  5
2AA
  8
0
 62
     1
 10
3.763184
 20
0.101563
 30
0.5
 11
3.73584
 21
0.144531
 31
0.5
  0
LINE
  5
2AB
  8
0
 62
     1
 10
3.73584
 20
0.144531
 30
0.5
 11
3.712402
 21
0.181641
 31
0.5
  0
LINE
  5
2AC
  8
0
 62
     1
 10
3.712402
 20
0.181641
 30
0.5
 11
3.691895
 21
0.213867
 31
0.5
  0
LINE
  5
2AD
  8
0
 62
     1
 10
3.691895
 20
0.213867
 30
0.5
 11
3.674316
 21
0.240234
 31
0.5
  0
LINE
  5
2AE
  8
0
 62
     1
 10
3.674316
 20
0.240234
 30
0.5
 11
3.660645
 21
0.260742
 31
0.5
  0
LINE
  5
2AF
  8
0
 62
     1
 10
3.660645
 20
0.260742
 30
0.5
 11
3.650879
 21
0.276367
 31
0.5
  0
LINE
  5
2B0
  8
0
 62
     1
 10
3.650879
 20
0.276367
 30
0.5
 11
3.64209
 21
0.289063
 31
0.5
  0
LINE
  5
2B1
  8
0
 62
     1
 10
3.64209
 20
0.289063
 30
0.5
 11
3.633301
 21
0.301758
 31
0.5
  0
LINE
  5
2B2
  8
0
 62
     1
 10
3.633301
 20
0.301758
 30
0.5
 11
3.624512
 21
0.313477
 31
0.5
  0
LINE
  5
2B3
  8
0
 62
     1
 10
3.624512
 20
0.313477
 30
0.5
 11
3.614746
 21
0.324219
 31
0.5
  0
LINE
  5
2B4
  8
0
 62
     1
 10
3.614746
 20
0.324219
 30
0.5
 11
3.605957
 21
0.334961
 31
0.5
  0
LINE
  5
2B5
  8
0
 62
     1
 10
3.605957
 20
0.334961
 30
0.5
 11
3.596191
 21
0.345703
 31
0.5
  0
LINE
  5
2B6
  8
0
 62
     1
 10
3.596191
 20
0.345703
 30
0.5
 11
3.587402
 21
0.355469
 31
0.5
  0
LINE
  5
2B7
  8
0
 62
     1
 10
3.587402
 20
0.355469
 30
0.5
 11
3.577637
 21
0.365234
 31
0.5
  0
LINE
  5
2B8
  8
0
 62
     1
 10
3.577637
 20
0.365234
 30
0.5
 11
3.568848
 21
0.374023
 31
0.5
  0
LINE
  5
2B9
  8
0
 62
     1
 10
3.568848
 20
0.374023
 30
0.5
 11
3.559082
 21
0.381836
 31
0.5
  0
LINE
  5
2BA
  8
0
 62
     1
 10
3.559082
 20
0.381836
 30
0.5
 11
3.550293
 21
0.388672
 31
0.5
  0
LINE
  5
2BB
  8
0
 62
     1
 10
3.550293
 20
0.388672
 30
0.5
 11
3.540527
 21
0.394531
 31
0.5
  0
LINE
  5
2BC
  8
0
 62
     1
 10
3.540527
 20
0.394531
 30
0.5
 11
3.531738
 21
0.400391
 31
0.5
  0
LINE
  5
2BD
  8
0
 62
     1
 10
3.531738
 20
0.400391
 30
0.5
 11
3.522949
 21
0.405273
 31
0.5
  0
LINE
  5
2BE
  8
0
 62
     1
 10
3.522949
 20
0.405273
 30
0.5
 11
3.515137
 21
0.408203
 31
0.5
  0
LINE
  5
2BF
  8
0
 62
     1
 10
3.515137
 20
0.408203
 30
0.5
 11
3.506348
 21
0.411133
 31
0.5
  0
LINE
  5
2C0
  8
0
 62
     1
 10
3.506348
 20
0.411133
 30
0.5
 11
3.497559
 21
0.414063
 31
0.5
  0
LINE
  5
2C1
  8
0
 62
     1
 10
3.497559
 20
0.414063
 30
0.5
 11
3.487793
 21
0.416016
 31
0.5
  0
LINE
  5
2C2
  8
0
 62
     1
 10
3.487793
 20
0.416016
 30
0.5
 11
3.478027
 21
0.416992
 31
0.5
  0
LINE
  5
2C3
  8
0
 62
     1
 10
3.478027
 20
0.416992
 30
0.5
 11
3.467285
 21
0.418945
 31
0.5
  0
LINE
  5
2C4
  8
0
 62
     1
 10
3.467285
 20
0.418945
 30
0.5
 11
3.455566
 21
0.419922
 31
0.5
  0
LINE
  5
2C5
  8
0
 62
     1
 10
3.455566
 20
0.419922
 30
0.5
 11
3.443848
 21
0.420898
 31
0.5
  0
LINE
  5
2C6
  8
0
 62
     1
 10
3.443848
 20
0.420898
 30
0.5
 11
3.431152
 21
0.420898
 31
0.5
  0
LINE
  5
2C7
  8
0
 62
     1
 10
3.431152
 20
0.420898
 30
0.5
 11
3.41748
 21
0.420898
 31
0.5
  0
LINE
  5
2C8
  8
0
 62
     1
 10
3.41748
 20
0.420898
 30
0.5
 11
3.271973
 21
0.420898
 31
0.5
  0
LINE
  5
2C9
  8
0
 62
     1
 10
3.271973
 20
0.420898
 30
0.5
 11
3.271973
 21
0.0
 31
0.5
  0
LINE
  5
2CA
  8
0
 62
     1
 10
3.572754
 20
0.849609
 30
0.5
 11
3.599121
 21
0.848633
 31
0.5
  0
LINE
  5
2CB
  8
0
 62
     1
 10
3.599121
 20
0.848633
 30
0.5
 11
3.623535
 21
0.84668
 31
0.5
  0
LINE
  5
2CC
  8
0
 62
     1
 10
3.623535
 20
0.84668
 30
0.5
 11
3.645996
 21
0.842773
 31
0.5
  0
LINE
  5
2CD
  8
0
 62
     1
 10
3.645996
 20
0.842773
 30
0.5
 11
3.666504
 21
0.8378910000000001
 31
0.5
  0
LINE
  5
2CE
  8
0
 62
     1
 10
3.666504
 20
0.8378910000000001
 30
0.5
 11
3.685059
 21
0.832031
 31
0.5
  0
LINE
  5
2CF
  8
0
 62
     1
 10
3.685059
 20
0.832031
 30
0.5
 11
3.702637
 21
0.824219
 31
0.5
  0
LINE
  5
2D0
  8
0
 62
     1
 10
3.702637
 20
0.824219
 30
0.5
 11
3.717285
 21
0.814453
 31
0.5
  0
LINE
  5
2D1
  8
0
 62
     1
 10
3.717285
 20
0.814453
 30
0.5
 11
3.72998
 21
0.803711
 31
0.5
  0
LINE
  5
2D2
  8
0
 62
     1
 10
3.72998
 20
0.803711
 30
0.5
 11
3.740723
 21
0.791992
 31
0.5
  0
LINE
  5
2D3
  8
0
 62
     1
 10
3.740723
 20
0.791992
 30
0.5
 11
3.750488
 21
0.780273
 31
0.5
  0
LINE
  5
2D4
  8
0
 62
     1
 10
3.750488
 20
0.780273
 30
0.5
 11
3.758301
 21
0.766602
 31
0.5
  0
LINE
  5
2D5
  8
0
 62
     1
 10
3.758301
 20
0.766602
 30
0.5
 11
3.765137
 21
0.75293
 31
0.5
  0
LINE
  5
2D6
  8
0
 62
     1
 10
3.765137
 20
0.75293
 30
0.5
 11
3.770996
 21
0.739258
 31
0.5
  0
LINE
  5
2D7
  8
0
 62
     1
 10
3.770996
 20
0.739258
 30
0.5
 11
3.773926
 21
0.724609
 31
0.5
  0
LINE
  5
2D8
  8
0
 62
     1
 10
3.773926
 20
0.724609
 30
0.5
 11
3.776855
 21
0.708984
 31
0.5
  0
LINE
  5
2D9
  8
0
 62
     1
 10
3.776855
 20
0.708984
 30
0.5
 11
3.776855
 21
0.693359
 31
0.5
  0
LINE
  5
2DA
  8
0
 62
     1
 10
3.776855
 20
0.693359
 30
0.5
 11
3.776855
 21
0.6806640000000001
 31
0.5
  0
LINE
  5
2DB
  8
0
 62
     1
 10
3.776855
 20
0.6806640000000001
 30
0.5
 11
3.775879
 21
0.668945
 31
0.5
  0
LINE
  5
2DC
  8
0
 62
     1
 10
3.775879
 20
0.668945
 30
0.5
 11
3.772949
 21
0.657227
 31
0.5
  0
LINE
  5
2DD
  8
0
 62
     1
 10
3.772949
 20
0.657227
 30
0.5
 11
3.77002
 21
0.645508
 31
0.5
  0
LINE
  5
2DE
  8
0
 62
     1
 10
3.77002
 20
0.645508
 30
0.5
 11
3.766113
 21
0.6347660000000001
 31
0.5
  0
LINE
  5
2DF
  8
0
 62
     1
 10
3.766113
 20
0.6347660000000001
 30
0.5
 11
3.76123
 21
0.623047
 31
0.5
  0
LINE
  5
2E0
  8
0
 62
     1
 10
3.76123
 20
0.623047
 30
0.5
 11
3.755371
 21
0.613281
 31
0.5
  0
LINE
  5
2E1
  8
0
 62
     1
 10
3.755371
 20
0.613281
 30
0.5
 11
3.748535
 21
0.6025390000000001
 31
0.5
  0
LINE
  5
2E2
  8
0
 62
     1
 10
3.748535
 20
0.6025390000000001
 30
0.5
 11
3.741699
 21
0.592773
 31
0.5
  0
LINE
  5
2E3
  8
0
 62
     1
 10
3.741699
 20
0.592773
 30
0.5
 11
3.73291
 21
0.583984
 31
0.5
  0
LINE
  5
2E4
  8
0
 62
     1
 10
3.73291
 20
0.583984
 30
0.5
 11
3.724121
 21
0.576172
 31
0.5
  0
LINE
  5
2E5
  8
0
 62
     1
 10
3.724121
 20
0.576172
 30
0.5
 11
3.715332
 21
0.569336
 31
0.5
  0
LINE
  5
2E6
  8
0
 62
     1
 10
3.715332
 20
0.569336
 30
0.5
 11
3.705566
 21
0.5625
 31
0.5
  0
LINE
  5
2E7
  8
0
 62
     1
 10
3.705566
 20
0.5625
 30
0.5
 11
3.694824
 21
0.5566410000000001
 31
0.5
  0
LINE
  5
2E8
  8
0
 62
     1
 10
3.694824
 20
0.5566410000000001
 30
0.5
 11
3.684082
 21
0.552734
 31
0.5
  0
LINE
  5
2E9
  8
0
 62
     1
 10
3.684082
 20
0.552734
 30
0.5
 11
3.672363
 21
0.548828
 31
0.5
  0
LINE
  5
2EA
  8
0
 62
     1
 10
3.672363
 20
0.548828
 30
0.5
 11
3.659668
 21
0.544922
 31
0.5
  0
LINE
  5
2EB
  8
0
 62
     1
 10
3.659668
 20
0.544922
 30
0.5
 11
3.645996
 21
0.541992
 31
0.5
  0
LINE
  5
2EC
  8
0
 62
     1
 10
3.645996
 20
0.541992
 30
0.5
 11
3.631348
 21
0.5400390000000001
 31
0.5
  0
LINE
  5
2ED
  8
0
 62
     1
 10
3.631348
 20
0.5400390000000001
 30
0.5
 11
3.615723
 21
0.538086
 31
0.5
  0
LINE
  5
2EE
  8
0
 62
     1
 10
3.615723
 20
0.538086
 30
0.5
 11
3.599121
 21
0.536133
 31
0.5
  0
LINE
  5
2EF
  8
0
 62
     1
 10
3.599121
 20
0.536133
 30
0.5
 11
3.581543
 21
0.535156
 31
0.5
  0
LINE
  5
2F0
  8
0
 62
     1
 10
3.581543
 20
0.535156
 30
0.5
 11
3.562012
 21
0.53418
 31
0.5
  0
LINE
  5
2F1
  8
0
 62
     1
 10
3.562012
 20
0.53418
 30
0.5
 11
3.54248
 21
0.53418
 31
0.5
  0
LINE
  5
2F2
  8
0
 62
     1
 10
3.54248
 20
0.53418
 30
0.5
 11
3.271973
 21
0.53418
 31
0.5
  0
LINE
  5
2F3
  8
0
 62
     1
 10
3.271973
 20
0.53418
 30
0.5
 11
3.271973
 21
0.849609
 31
0.5
  0
LINE
  5
2F4
  8
0
 62
     1
 10
3.271973
 20
0.849609
 30
0.5
 11
3.572754
 21
0.849609
 31
0.5
  0
POLYLINE
  5
3AD
  8
0
  6
BYBLOCK
 62
     1
 66
     1
 10
0.0
 20
0.0
 30
0.0
 70
     1
  0
VERTEX
  5
3B6
  8
0
  6
BYBLOCK
 62
     1
 10
-4.382422111415589
 20
0.5002401194071946
 30
0.0
  0
VERTEX
  5
3B7
  8
0
  6
BYBLOCK
 62
     1
 10
-4.294856284197187
 20
0.2283159482649519
 30
0.0
  0
VERTEX
  5
3B8
  8
0
  6
BYBLOCK
 62
     1
 10
-4.034951028095208
 20
-0.0333434765103363
 30
0.0
  0
VERTEX
  5
3B9
  8
0
  6
BYBLOCK
 62
     1
 10
-3.612694356345105
 20
-0.2746827299648516
 30
0.0
  0
VERTEX
  5
3BA
  8
0
  6
BYBLOCK
 62
     1
 10
-3.044313356037963
 20
-0.4864272799329495
 30
0.0
  0
VERTEX
  5
3BB
  8
0
  6
BYBLOCK
 62
     1
 10
-2.351650590263849
 20
-0.6604399021070679
 30
0.0
  0
VERTEX
  5
3BC
  8
0
  6
BYBLOCK
 62
     1
 10
-1.561324700661709
 20
-0.790033389004458
 30
0.0
  0
VERTEX
  5
3BD
  8
0
  6
BYBLOCK
 62
     1
 10
-0.7037074679490865
 20
-0.870227535600518
 30
0.0
  0
VERTEX
  5
3BE
  8
0
  6
BYBLOCK
 62
     1
 10
0.1882433585781568
 20
-0.8979405258149569
 30
0.0
  0
VERTEX
  5
3BF
  8
0
  6
BYBLOCK
 62
     1
 10
1.080250608868365
 20
-0.8721073649754574
 30
0.0
  0
VERTEX
  5
3C0
  8
0
  6
BYBLOCK
 62
     1
 10
1.938034944536315
 20
-0.7937208069656783
 30
0.0
  0
VERTEX
  5
3C1
  8
0
  6
BYBLOCK
 62
     1
 10
2.728632194613284
 20
-0.6657932032502476
 30
0.0
  0
VERTEX
  5
3C2
  8
0
  6
BYBLOCK
 62
     1
 10
3.421660150150862
 20
-0.4932407398973215
 30
0.0
  0
VERTEX
  5
3C3
  8
0
  6
BYBLOCK
 62
     1
 10
3.990486135472294
 20
-0.2826945113050174
 30
0.0
  0
VERTEX
  5
3C4
  8
0
  6
BYBLOCK
 62
     1
 10
4.413250486962964
 20
-0.042245690962452
 30
0.0
  0
VERTEX
  5
3C5
  8
0
  6
BYBLOCK
 62
     1
 10
4.673706607684066
 20
0.2188654078098618
 30
0.0
  0
VERTEX
  5
3C6
  8
0
  6
BYBLOCK
 62
     1
 10
4.761845314981762
 20
0.490604431918895
 30
0.0
  0
VERTEX
  5
3C7
  8
0
  6
BYBLOCK
 62
     1
 10
4.674279487763359
 20
0.762528603061138
 30
0.0
  0
VERTEX
  5
3C8
  8
0
  6
BYBLOCK
 62
     1
 10
4.414374231661379
 20
1.024188027836426
 30
0.0
  0
VERTEX
  5
3C9
  8
0
  6
BYBLOCK
 62
     1
 10
3.992117559911274
 20
1.265527281290942
 30
0.0
  0
VERTEX
  5
3CA
  8
0
  6
BYBLOCK
 62
     1
 10
3.423736559604131
 20
1.47727183125904
 30
0.0
  0
VERTEX
  5
3CB
  8
0
  6
BYBLOCK
 62
     1
 10
2.731073793830015
 20
1.651284453433158
 30
0.0
  0
VERTEX
  5
3CC
  8
0
  6
BYBLOCK
 62
     1
 10
1.940747904227873
 20
1.780877940330548
 30
0.0
  0
VERTEX
  5
3CD
  8
0
  6
BYBLOCK
 62
     1
 10
1.083130671515249
 20
1.861072086926607
 30
0.0
  0
VERTEX
  5
3CE
  8
0
  6
BYBLOCK
 62
     1
 10
0.1911798449880045
 20
1.888785077141045
 30
0.0
  0
VERTEX
  5
3CF
  8
0
  6
BYBLOCK
 62
     1
 10
-0.7008274053022047
 20
1.862951916301545
 30
0.0
  0
VERTEX
  5
3D0
  8
0
  6
BYBLOCK
 62
     1
 10
-1.558611740970155
 20
1.784565358291765
 30
0.0
  0
VERTEX
  5
3D1
  8
0
  6
BYBLOCK
 62
     1
 10
-2.349208991047124
 20
1.656637754576333
 30
0.0
  0
VERTEX
  5
3D2
  8
0
  6
BYBLOCK
 62
     1
 10
-3.0422369465847
 20
1.484085291223407
 30
0.0
  0
VERTEX
  5
3D3
  8
0
  6
BYBLOCK
 62
     1
 10
-3.61106293190613
 20
1.273539062631102
 30
0.0
  0
VERTEX
  5
3D4
  8
0
  6
BYBLOCK
 62
     1
 10
-4.033827283396796
 20
1.033090242288536
 30
0.0
  0
VERTEX
  5
3D5
  8
0
  6
BYBLOCK
 62
     1
 10
-4.294283404117896
 20
0.7719791435162222
 30
0.0
  0
SEQEND
  5
3D6
  8
0
  6
BYBLOCK
 62
     1
  0
ENDSEC
  0
EOF
