  0
SECTION
  2
HEADER
  9
$ACADVER
  1
AC1009
  9
$DWGCODEPAGE
  3
ansi_1252
  9
$INSBASE
 10
0.0
 20
0.0
 30
0.0
  9
$EXTMIN
 10
499.7458093196351
 20
165.0341785135252
 30
0.0
  9
$EXTMAX
 10
1029.02105823485
 20
436.476591500522
 30
24.02149290630415
  9
$LIMMIN
 10
0.0
 20
0.0
  9
$LIMMAX
 10
12.0
 20
9.0
  9
$ORTHOMODE
 70
     0
  9
$REGENMODE
 70
     1
  9
$FILLMODE
 70
     1
  9
$QTEXTMODE
 70
     0
  9
$MIRRTEXT
 70
     1
  9
$DRAGMODE
 70
     2
  9
$LTSCALE
 40
1.0
  9
$OSMODE
 70
    37
  9
$ATTMODE
 70
     1
  9
$TEXTSIZE
 40
0.2
  9
$TRACEWID
 40
0.05
  9
$TEXTSTYLE
  7
STANDARD
  9
$CLAYER
  8
0
  9
$CELTYPE
  6
BYBLOCK
  9
$CECOLOR
 62
   256
  9
$DIMSCALE
 40
1.0
  9
$DIMASZ
 40
0.18
  9
$DIMEXO
 40
0.0625
  9
$DIMDLI
 40
0.38
  9
$DIMRND
 40
0.0
  9
$DIMDLE
 40
0.0
  9
$DIMEXE
 40
0.18
  9
$DIMTP
 40
0.0
  9
$DIMTM
 40
0.0
  9
$DIMTXT
 40
0.18
  9
$DIMCEN
 40
0.09
  9
$DIMTSZ
 40
0.0
  9
$DIMTOL
 70
     0
  9
$DIMLIM
 70
     0
  9
$DIMTIH
 70
     1
  9
$DIMTOH
 70
     1
  9
$DIMSE1
 70
     0
  9
$DIMSE2
 70
     0
  9
$DIMTAD
 70
     0
  9
$DIMZIN
 70
     0
  9
$DIMBLK
  1

  9
$DIMASO
 70
     1
  9
$DIMSHO
 70
     1
  9
$DIMPOST
  1

  9
$DIMAPOST
  1

  9
$DIMALT
 70
     0
  9
$DIMALTD
 70
     2
  9
$DIMALTF
 40
25.4
  9
$DIMLFAC
 40
1.0
  9
$DIMTOFL
 70
     0
  9
$DIMTVP
 40
0.0
  9
$DIMTIX
 70
     0
  9
$DIMSOXD
 70
     0
  9
$DIMSAH
 70
     0
  9
$DIMBLK1
  1

  9
$DIMBLK2
  1

  9
$DIMSTYLE
  2
STANDARD
  9
$DIMCLRD
 70
     0
  9
$DIMCLRE
 70
     0
  9
$DIMCLRT
 70
     0
  9
$DIMTFAC
 40
1.0
  9
$DIMGAP
 40
0.09
  9
$LUNITS
 70
     2
  9
$LUPREC
 70
     4
  9
$SKETCHINC
 40
0.1
  9
$FILLETRAD
 40
0.5
  9
$AUNITS
 70
     0
  9
$AUPREC
 70
     0
  9
$MENU
  1
.
  9
$ELEVATION
 40
0.0
  9
$PELEVATION
 40
0.0
  9
$THICKNESS
 40
0.0
  9
$LIMCHECK
 70
     0
  9
$CHAMFERA
 40
0.5
  9
$CHAMFERB
 40
0.5
  9
$SKPOLY
 70
     0
  9
$TDCREATE
 40
2453353.550459155
  9
$TDUPDATE
 40
2440829.888008889
  9
$TDINDWG
 40
2440852.080755556
  9
$TDUSRTIMER
 40
2440852.080755556
  9
$USRTIMER
 70
     1
  9
$ANGBASE
 50
0.0
  9
$ANGDIR
 70
     0
  9
$PDMODE
 70
     0
  9
$PDSIZE
 40
0.0
  9
$PLINEWID
 40
0.0
  9
$COORDS
 70
     1
  9
$SPLFRAME
 70
     0
  9
$SPLINETYPE
 70
     6
  9
$SPLINESEGS
 70
     8
  9
$ATTDIA
 70
     0
  9
$ATTREQ
 70
     1
  9
$HANDLING
 70
     1
  9
$HANDSEED
  5
344
  9
$SURFTAB1
 70
     6
  9
$SURFTAB2
 70
     6
  9
$SURFTYPE
 70
     6
  9
$SURFU
 70
     6
  9
$SURFV
 70
     6
  9
$UCSNAME
  2

  9
$UCSORG
 10
0.0
 20
0.0
 30
0.0
  9
$UCSXDIR
 10
1.0
 20
0.0
 30
0.0
  9
$UCSYDIR
 10
0.0
 20
1.0
 30
0.0
  9
$PUCSNAME
  2

  9
$PUCSORG
 10
0.0
 20
0.0
 30
0.0
  9
$PUCSXDIR
 10
1.0
 20
0.0
 30
0.0
  9
$PUCSYDIR
 10
0.0
 20
1.0
 30
0.0
  9
$USERI1
 70
     0
  9
$USERI2
 70
     0
  9
$USERI3
 70
     0
  9
$USERI4
 70
     0
  9
$USERI5
 70
     0
  9
$USERR1
 40
0.0
  9
$USERR2
 40
0.0
  9
$USERR3
 40
0.0
  9
$USERR4
 40
0.0
  9
$USERR5
 40
0.0
  9
$WORLDVIEW
 70
     1
  9
$SHADEDGE
 70
     3
  9
$SHADEDIF
 70
    70
  9
$TILEMODE
 70
     1
  9
$MAXACTVP
 70
    64
  9
$PLIMCHECK
 70
     0
  9
$PEXTMIN
 10
0.0
 20
0.0
 30
0.0
  9
$PEXTMAX
 10
0.0
 20
0.0
 30
0.0
  9
$PLIMMIN
 10
0.0
 20
0.0
  9
$PLIMMAX
 10
0.0
 20
0.0
  9
$UNITMODE
 70
     0
  9
$VISRETAIN
 70
     1
  9
$PLINEGEN
 70
     0
  9
$PSLTSCALE
 70
     1
  0
ENDSEC
  0
SECTION
  2
TABLES
  0
TABLE
  2
VPORT
 70
     1
  0
VPORT
  2
*ACTIVE
 70
     0
 10
0.0
 20
0.0
 11
1.0
 21
1.0
 12
735.8944004172867
 22
287.2410288913953
 13
0.0
 23
0.0
 14
0.5
 24
0.5
 15
0.5
 25
0.5
 16
0.0
 26
0.0
 36
1.0
 17
0.0
 27
0.0
 37
0.0
 40
407.6418212760059
 41
1.0
 42
50.0
 43
0.0
 44
0.0
 50
0.0
 51
0.0
 71
    16
 72
   100
 73
     1
 74
     3
 75
     0
 76
     0
 77
     0
 78
     0
  0
ENDTAB
  0
TABLE
  2
LTYPE
 70
     1
  0
LTYPE
  2
CONTINUOUS
 70
     0
  3
Solid line
 72
    65
 73
     0
 40
0.0
  0
ENDTAB
  0
TABLE
  2
LAYER
 70
     1
  0
LAYER
  2
0
 70
     0
 62
     7
  6
CONTINUOUS
  0
ENDTAB
  0
TABLE
  2
STYLE
 70
     1
  0
STYLE
  2
STANDARD
 70
     0
 40
0.0
 41
1.0
 50
0.0
 71
     0
 42
0.2
  3
txt
  4

  0
ENDTAB
  0
TABLE
  2
VIEW
 70
     0
  0
ENDTAB
  0
TABLE
  2
UCS
 70
     0
  0
ENDTAB
  0
TABLE
  2
APPID
 70
     1
  0
APPID
  2
ACAD
 70
     0
  0
ENDTAB
  0
TABLE
  2
DIMSTYLE
 70
     1
  0
DIMSTYLE
  2
STANDARD
 70
     0
  3

  4

  5

  6

  7

 40
1.0
 41
0.18
 42
0.0625
 43
0.38
 44
0.18
 45
0.0
 46
0.0
 47
0.0
 48
0.0
140
0.18
141
0.09
142
0.0
143
25.4
144
1.0
145
0.0
146
1.0
147
0.09
 71
     0
 72
     0
 73
     1
 74
     1
 75
     0
 76
     0
 77
     0
 78
     0
170
     0
171
     2
172
     0
173
     0
174
     0
175
     0
176
     0
177
     0
178
     0
  0
ENDTAB
  0
ENDSEC
  0
SECTION
  2
BLOCKS
  0
BLOCK
  8
0
  2
$MODEL_SPACE
 70
     0
 10
0.0
 20
0.0
 30
0.0
  3
$MODEL_SPACE
  1

  0
ENDBLK
  5
21
  8
0
  0
BLOCK
 67
     1
  8
0
  2
$PAPER_SPACE
 70
     0
 10
0.0
 20
0.0
 30
0.0
  3
$PAPER_SPACE
  1

  0
ENDBLK
  5
76
 67
     1
  8
0
  0
ENDSEC
  0
SECTION
  2
ENTITIES
  0
LINE
  5
23
  8
0
 62
     4
 10
550.5824156024971
 20
373.46571298854
 30
24.02149290630415
 11
559.2309697795254
 21
376.7259580487691
 31
24.02149290630415
  0
LINE
  5
24
  8
0
 62
     4
 10
559.2309697795254
 20
376.7259580487691
 30
24.02149290630415
 11
572.5367629582418
 21
341.4293528880767
 31
24.02149290630415
  0
LINE
  5
25
  8
0
 62
     4
 10
572.5367629582418
 20
341.4293528880767
 30
24.02149290630415
 11
594.0922574457702
 21
349.555151336477
 31
24.02149290630415
  0
LINE
  5
26
  8
0
 62
     4
 10
594.0922574457702
 20
349.555151336477
 30
24.02149290630415
 11
596.8229246733879
 21
342.3114701505818
 31
24.02149290630415
  0
LINE
  5
26A
  8
0
 62
     4
 10
596.8229246733879
 20
342.3114701505818
 30
24.02149290630415
 11
566.6188760088303
 21
330.9254266419511
 31
24.02149290630415
  0
LINE
  5
28
  8
0
 62
     4
 10
566.6188760088303
 20
330.9254266419511
 30
24.02149290630415
 11
550.5824156024971
 21
373.46571298854
 31
24.02149290630415
  0
LINE
  5
29
  8
0
 62
     4
 10
594.0555045616234
 20
376.1931613361074
 30
24.02149290630415
 11
602.5114063655434
 21
378.5322782293516
 31
24.02149290630415
  0
LINE
  5
2A
  8
0
 62
     4
 10
602.5114063655434
 20
378.5322782293516
 30
24.02149290630415
 11
606.5767557820204
 21
363.8361690842042
 31
24.02149290630415
  0
LINE
  5
2B
  8
0
 62
     4
 10
606.5767557820204
 20
363.8361690842042
 30
24.02149290630415
 11
607.0270626880422
 21
362.2083285959154
 31
24.02149290630415
  0
LINE
  5
2C
  8
0
 62
     4
 10
607.0270626880422
 20
362.2083285959154
 30
24.02149290630415
 11
607.4725652954818
 21
360.7738130825373
 31
24.02149290630415
  0
LINE
  5
2D
  8
0
 62
     4
 10
607.4725652954818
 20
360.7738130825373
 30
24.02149290630415
 11
607.8227986620564
 21
359.5076882344321
 31
24.02149290630415
  0
LINE
  5
2E
  8
0
 62
     4
 10
607.8227986620564
 20
359.5076882344321
 30
24.02149290630415
 11
608.2134361796987
 21
358.4474756235185
 31
24.02149290630415
  0
LINE
  5
2F
  8
0
 62
     4
 10
608.2134361796987
 20
358.4474756235185
 30
24.02149290630415
 11
608.5338828950692
 21
357.4651887355942
 31
24.02149290630415
  0
LINE
  5
30
  8
0
 62
     4
 10
608.5338828950692
 20
357.4651887355942
 30
24.02149290630415
 11
608.8369380495747
 21
356.7214833152152
 31
24.02149290630415
  0
LINE
  5
31
  8
0
 62
     4
 10
608.8369380495747
 20
356.7214833152152
 30
24.02149290630415
 11
609.1025196751471
 21
356.1134032437856
 31
24.02149290630415
  0
LINE
  5
32
  8
0
 62
     4
 10
609.1025196751471
 20
356.1134032437856
 30
24.02149290630415
 11
609.3180405095034
 21
355.6862530569254
 31
24.02149290630415
  0
LINE
  5
33
  8
0
 62
     4
 10
609.3180405095034
 20
355.6862530569254
 30
24.02149290630415
 11
609.553739397898
 21
355.3620109456755
 31
24.02149290630415
  0
LINE
  5
34
  8
0
 62
     4
 10
609.553739397898
 20
355.3620109456755
 30
24.02149290630415
 11
609.8346947789308
 21
355.0503080537237
 31
24.02149290630415
  0
LINE
  5
35
  8
0
 62
     4
 10
609.8346947789308
 20
355.0503080537237
 30
24.02149290630415
 11
610.1031589836512
 21
354.7838136114208
 31
24.02149290630415
  0
LINE
  5
36
  8
0
 62
     4
 10
610.1031589836512
 20
354.7838136114208
 30
24.02149290630415
 11
610.371575145388
 21
354.517319169118
 31
24.02149290630415
  0
LINE
  5
37
  8
0
 62
     4
 10
610.371575145388
 20
354.517319169118
 30
24.02149290630415
 11
610.6852477997586
 21
354.2633159031276
 31
24.02149290630415
  0
LINE
  5
38
  8
0
 62
     4
 10
610.6852477997586
 20
354.2633159031276
 30
24.02149290630415
 11
610.9863812348298
 21
354.0545691297717
 31
24.02149290630415
  0
LINE
  5
39
  8
0
 62
     4
 10
610.9863812348298
 20
354.0545691297717
 30
24.02149290630415
 11
611.3654403928922
 21
353.9160131586871
 31
24.02149290630415
  0
LINE
  5
3A
  8
0
 62
     4
 10
611.3654403928922
 20
353.9160131586871
 30
24.02149290630415
 11
611.6992911013044
 21
353.7650140542784
 31
24.02149290630415
  0
LINE
  5
3B
  8
0
 62
     4
 10
611.6992911013044
 20
353.7650140542784
 30
24.02149290630415
 11
612.0783983023525
 21
353.6264580831951
 31
24.02149290630415
  0
LINE
  5
3C
  8
0
 62
     4
 10
612.0783983023525
 20
353.6264580831951
 30
24.02149290630415
 11
612.4901747337517
 21
353.5456497810588
 31
24.02149290630415
  0
LINE
  5
3D
  8
0
 62
     4
 10
612.4901747337517
 20
353.5456497810588
 30
24.02149290630415
 11
612.8894599888392
 21
353.5100499285715
 31
24.02149290630415
  0
LINE
  5
3E
  8
0
 62
     4
 10
612.8894599888392
 20
353.5100499285715
 30
24.02149290630415
 11
613.2887452439281
 21
353.4744981190697
 31
24.02149290630415
  0
LINE
  5
3F
  8
0
 62
     4
 10
613.2887452439281
 20
353.4744981190697
 30
24.02149290630415
 11
613.7206997293688
 21
353.4965978925437
 31
24.02149290630415
  0
LINE
  5
40
  8
0
 62
     4
 10
613.7206997293688
 20
353.4965978925437
 30
24.02149290630415
 11
614.1527022577964
 21
353.5187457090034
 31
24.02149290630415
  0
LINE
  5
41
  8
0
 62
     4
 10
614.1527022577964
 20
353.5187457090034
 30
24.02149290630415
 11
614.6173740165759
 21
353.5986411944101
 31
24.02149290630415
  0
LINE
  5
42
  8
0
 62
     4
 10
614.6173740165759
 20
353.5986411944101
 30
24.02149290630415
 11
615.1148110916799
 21
353.7362363057769
 31
24.02149290630415
  0
LINE
  5
43
  8
0
 62
     4
 10
615.1148110916799
 20
353.7362363057769
 30
24.02149290630415
 11
615.6122001237984
 21
353.8738314171436
 31
24.02149290630415
  0
LINE
  5
44
  8
0
 62
     4
 10
615.6122001237984
 20
353.8738314171436
 30
24.02149290630415
 11
616.129815252943
 21
354.1143826471076
 31
24.02149290630415
  0
LINE
  5
45
  8
0
 62
     4
 10
616.129815252943
 20
354.1143826471076
 30
24.02149290630415
 11
616.6022219324375
 21
354.3423946577748
 31
24.02149290630415
  0
LINE
  5
46
  8
0
 62
     4
 10
616.6022219324375
 20
354.3423946577748
 30
24.02149290630415
 11
617.0620893926359
 21
354.6156631610766
 31
24.02149290630415
  0
LINE
  5
47
  8
0
 62
     4
 10
617.0620893926359
 20
354.6156631610766
 30
24.02149290630415
 11
617.5219568528355
 21
354.8888836213927
 31
24.02149290630415
  0
LINE
  5
48
  8
0
 62
     4
 10
617.5219568528355
 20
354.8888836213927
 30
24.02149290630415
 11
617.9115854677751
 21
355.2400778476837
 31
24.02149290630415
  0
LINE
  5
49
  8
0
 62
     4
 10
617.9115854677751
 20
355.2400778476837
 30
24.02149290630415
 11
618.3012621257016
 21
355.5912720739733
 31
24.02149290630415
  0
LINE
  5
4A
  8
0
 62
     4
 10
618.3012621257016
 20
355.5912720739733
 30
24.02149290630415
 11
618.6783995643298
 21
355.9876747499133
 31
24.02149290630415
  0
LINE
  5
4B
  8
0
 62
     4
 10
618.6783995643298
 20
355.9876747499133
 30
24.02149290630415
 11
618.9977893340129
 21
356.4167946991909
 31
24.02149290630415
  0
LINE
  5
4C
  8
0
 62
     4
 10
618.9977893340129
 20
356.4167946991909
 30
24.02149290630415
 11
619.2719706540458
 21
356.833375429173
 31
24.02149290630415
  0
LINE
  5
4D
  8
0
 62
     4
 10
619.2719706540458
 20
356.833375429173
 30
24.02149290630415
 11
619.533660797765
 21
357.2952126517896
 31
24.02149290630415
  0
LINE
  5
4E
  8
0
 62
     4
 10
619.533660797765
 20
357.2952126517896
 30
24.02149290630415
 11
619.7501424918385
 21
357.7445106551081
 31
24.02149290630415
  0
LINE
  5
4F
  8
0
 62
     4
 10
619.7501424918385
 20
357.7445106551081
 30
24.02149290630415
 11
619.9213676932739
 21
358.1813174821168
 31
24.02149290630415
  0
LINE
  5
50
  8
0
 62
     4
 10
619.9213676932739
 20
358.1813174821168
 30
24.02149290630415
 11
620.0348932687487
 21
358.6508415824633
 31
24.02149290630415
  0
LINE
  5
51
  8
0
 62
     4
 10
620.0348932687487
 20
358.6508415824633
 30
24.02149290630415
 11
620.1483708012388
 21
359.120317639824
 31
24.02149290630415
  0
LINE
  5
52
  8
0
 62
     4
 10
620.1483708012388
 20
359.120317639824
 30
24.02149290630415
 11
620.204196750753
 21
359.6225590135094
 31
24.02149290630415
  0
LINE
  5
53
  8
0
 62
     4
 10
620.204196750753
 20
359.6225590135094
 30
24.02149290630415
 11
620.2022269883353
 21
360.1574696175469
 31
24.02149290630415
  0
LINE
  5
54
  8
0
 62
     4
 10
620.2022269883353
 20
360.1574696175469
 30
24.02149290630415
 11
620.1502444776851
 21
360.8733101061554
 31
24.02149290630415
  0
LINE
  5
55
  8
0
 62
     4
 10
620.1502444776851
 20
360.8733101061554
 30
24.02149290630415
 11
620.0482492188057
 21
361.7699843933619
 31
24.02149290630415
  0
LINE
  5
56
  8
0
 62
     4
 10
620.0482492188057
 20
361.7699843933619
 30
24.02149290630415
 11
619.8182674457203
 21
362.7773016768941
 31
24.02149290630415
  0
LINE
  5
57
  8
0
 62
     4
 10
619.8182674457203
 20
362.7773016768941
 30
24.02149290630415
 11
619.5960205933518
 21
363.9327835286739
 31
24.02149290630415
  0
LINE
  5
58
  8
0
 62
     4
 10
619.5960205933518
 20
363.9327835286739
 30
24.02149290630415
 11
619.2659652808179
 21
365.3018644953752
 31
24.02149290630415
  0
LINE
  5
26B
  8
0
 62
     4
 10
619.2659652808179
 20
365.3018644953752
 30
24.02149290630415
 11
618.9108795726777
 21
366.7613623613769
 31
24.02149290630415
  0
LINE
  5
26C
  8
0
 62
     4
 10
618.9108795726777
 20
366.7613623613769
 30
24.02149290630415
 11
618.4480814903445
 21
368.4344593423002
 31
24.02149290630415
  0
LINE
  5
5B
  8
0
 62
     4
 10
618.4480814903445
 20
368.4344593423002
 30
24.02149290630415
 11
614.7204742641306
 21
381.9096520889925
 31
24.02149290630415
  0
LINE
  5
5C
  8
0
 62
     4
 10
614.7204742641306
 20
381.9096520889925
 30
24.02149290630415
 11
623.1763760680494
 21
384.2487689822367
 31
24.02149290630415
  0
LINE
  5
5D
  8
0
 62
     4
 10
623.1763760680494
 20
384.2487689822367
 30
24.02149290630415
 11
632.0325720297599
 21
352.2339321394163
 31
24.02149290630415
  0
LINE
  5
26D
  8
0
 62
     4
 10
632.0325720297599
 20
352.2339321394163
 30
24.02149290630415
 11
624.1644761572577
 21
350.0573927101625
 31
24.02149290630415
  0
LINE
  5
5F
  8
0
 62
     4
 10
624.1644761572577
 20
350.0573927101625
 30
24.02149290630415
 11
622.8385858348007
 21
354.850593361701
 31
24.02149290630415
  0
LINE
  5
60
  8
0
 62
     4
 10
622.8385858348007
 20
354.850593361701
 30
24.02149290630415
 11
622.5615219356198
 21
354.0924270025921
 31
24.02149290630415
  0
LINE
  5
61
  8
0
 62
     4
 10
622.5615219356198
 20
354.0924270025921
 30
24.02149290630415
 11
622.2267103674915
 21
353.3669779168208
 31
24.02149290630415
  0
LINE
  5
62
  8
0
 62
     4
 10
622.2267103674915
 20
353.3669779168208
 30
24.02149290630415
 11
621.8794076230529
 21
352.6867853236869
 31
24.02149290630415
  0
LINE
  5
63
  8
0
 62
     4
 10
621.8794076230529
 20
352.6867853236869
 30
24.02149290630415
 11
621.4416879793139
 21
351.9815142919579
 31
24.02149290630415
  0
LINE
  5
64
  8
0
 62
     4
 10
621.4416879793139
 20
351.9815142919579
 30
24.02149290630415
 11
620.9789379399674
 21
351.3667082025136
 31
24.02149290630415
  0
LINE
  5
65
  8
0
 62
     4
 10
620.9789379399674
 20
351.3667082025136
 30
24.02149290630415
 11
620.4834706272823
 21
350.694202487108
 31
24.02149290630415
  0
LINE
  5
66
  8
0
 62
     4
 10
620.4834706272823
 20
350.694202487108
 30
24.02149290630415
 11
619.9629729189874
 21
350.1121136710028
 31
24.02149290630415
  0
LINE
  5
67
  8
0
 62
     4
 10
619.9629729189874
 20
350.1121136710028
 30
24.02149290630415
 11
619.3395190920971
 21
349.5502029089385
 31
24.02149290630415
  0
LINE
  5
68
  8
0
 62
     4
 10
619.3395190920971
 20
349.5502029089385
 30
24.02149290630415
 11
618.7161133081936
 21
348.9883401898599
 31
24.02149290630415
  0
LINE
  5
69
  8
0
 62
     4
 10
618.7161133081936
 20
348.9883401898599
 30
24.02149290630415
 11
618.080168304992
 21
348.4716378774458
 31
24.02149290630415
  0
LINE
  5
6A
  8
0
 62
     4
 10
618.080168304992
 20
348.4716378774458
 30
24.02149290630415
 11
617.4191929061817
 21
348.0454005073165
 31
24.02149290630415
  0
LINE
  5
26E
  8
0
 62
     4
 10
617.4191929061817
 20
348.0454005073165
 30
24.02149290630415
 11
616.7582655503584
 21
347.6192111801729
 31
24.02149290630415
  0
LINE
  5
26F
  8
0
 62
     4
 10
616.7582655503584
 20
347.6192111801729
 30
24.02149290630415
 11
616.0270513062905
 21
347.2708995330315
 31
24.02149290630415
  0
LINE
  5
6D
  8
0
 62
     4
 10
616.0270513062905
 20
347.2708995330315
 30
24.02149290630415
 11
615.2958851052083
 21
346.9225878858902
 31
24.02149290630415
  0
LINE
  5
6E
  8
0
 62
     4
 10
615.2958851052083
 20
346.9225878858902
 30
24.02149290630415
 11
614.5396885085165
 21
346.6646931380479
 31
24.02149290630415
  0
LINE
  5
6F
  8
0
 62
     4
 10
614.5396885085165
 20
346.6646931380479
 30
24.02149290630415
 11
613.7382354191921
 21
346.3943552568801
 31
24.02149290630415
  0
LINE
  5
70
  8
0
 62
     4
 10
613.7382354191921
 20
346.3943552568801
 30
24.02149290630415
 11
612.9694996032031
 21
346.1816689586881
 31
24.02149290630415
  0
LINE
  5
71
  8
0
 62
     4
 10
612.9694996032031
 20
346.1816689586881
 30
24.02149290630415
 11
612.1757814345947
 21
346.0594956457665
 31
24.02149290630415
  0
LINE
  5
72
  8
0
 62
     4
 10
612.1757814345947
 20
346.0594956457665
 30
24.02149290630415
 11
611.382063265984
 21
345.9372742898592
 31
24.02149290630415
  0
LINE
  5
270
  8
0
 62
     4
 10
611.382063265984
 20
345.9372742898592
 30
24.02149290630415
 11
610.6085231514151
 21
345.9180090525479
 31
24.02149290630415
  0
LINE
  5
271
  8
0
 62
     4
 10
610.6085231514151
 20
345.9180090525479
 30
24.02149290630415
 11
609.834983036845
 21
345.8987438152365
 31
24.02149290630415
  0
LINE
  5
272
  8
0
 62
     4
 10
609.834983036845
 20
345.8987438152365
 30
24.02149290630415
 11
609.0816209763177
 21
345.9824346965223
 31
24.02149290630415
  0
LINE
  5
273
  8
0
 62
     4
 10
609.0816209763177
 20
345.9824346965223
 30
24.02149290630415
 11
608.3283069587772
 21
346.0660775348226
 31
24.02149290630415
  0
LINE
  5
77
  8
0
 62
     4
 10
608.3283069587772
 20
346.0660775348226
 30
24.02149290630415
 11
607.5624537219385
 21
346.1949768657573
 31
24.02149290630415
  0
LINE
  5
78
  8
0
 62
     4
 10
607.5624537219385
 20
346.1949768657573
 30
24.02149290630415
 11
606.8620350317754
 21
346.4393715345863
 31
24.02149290630415
  0
LINE
  5
79
  8
0
 62
     4
 10
606.8620350317754
 20
346.4393715345863
 30
24.02149290630415
 11
606.1616163416131
 21
346.6837181604294
 31
24.02149290630415
  0
LINE
  5
7A
  8
0
 62
     4
 10
606.1616163416131
 20
346.6837181604294
 30
24.02149290630415
 11
605.5064061011021
 21
346.9405559625837
 31
24.02149290630415
  0
LINE
  5
7B
  8
0
 62
     4
 10
605.5064061011021
 20
346.9405559625837
 30
24.02149290630415
 11
604.9166304072658
 21
347.3128891026308
 31
24.02149290630415
  0
LINE
  5
7C
  8
0
 62
     4
 10
604.9166304072658
 20
347.3128891026308
 30
24.02149290630415
 11
604.3268547134303
 21
347.6852222426794
 31
24.02149290630415
  0
LINE
  5
7D
  8
0
 62
     4
 10
604.3268547134303
 20
347.6852222426794
 30
24.02149290630415
 11
603.7572570736365
 21
348.1604634583367
 31
24.02149290630415
  0
LINE
  5
7E
  8
0
 62
     4
 10
603.7572570736365
 20
348.1604634583367
 30
24.02149290630415
 11
603.2329159264765
 21
348.6482438932923
 31
24.02149290630415
  0
LINE
  5
7F
  8
0
 62
     4
 10
603.2329159264765
 20
348.6482438932923
 30
24.02149290630415
 11
602.7537832289677
 21
349.1485155045589
 31
24.02149290630415
  0
LINE
  5
80
  8
0
 62
     4
 10
602.7537832289677
 20
349.1485155045589
 30
24.02149290630415
 11
602.2948285855007
 21
349.7517432344229
 31
24.02149290630415
  0
LINE
  5
81
  8
0
 62
     4
 10
602.2948285855007
 20
349.7517432344229
 30
24.02149290630415
 11
601.8685912153715
 21
350.4127186332325
 31
24.02149290630415
  0
LINE
  5
82
  8
0
 62
     4
 10
601.8685912153715
 20
350.4127186332325
 30
24.02149290630415
 11
601.4625318992828
 21
351.1766021076525
 31
24.02149290630415
  0
LINE
  5
83
  8
0
 62
     4
 10
601.4625318992828
 20
351.1766021076525
 30
24.02149290630415
 11
601.0440294498694
 21
351.9857420747082
 31
24.02149290630415
  0
LINE
  5
84
  8
0
 62
     4
 10
601.0440294498694
 20
351.9857420747082
 30
24.02149290630415
 11
600.7034046804572
 21
352.8650728440366
 31
24.02149290630415
  0
LINE
  5
85
  8
0
 62
     4
 10
600.7034046804572
 20
352.8650728440366
 30
24.02149290630415
 11
600.3377495154376
 21
353.8348685556497
 31
24.02149290630415
  0
LINE
  5
86
  8
0
 62
     4
 10
600.3377495154376
 20
353.8348685556497
 30
24.02149290630415
 11
599.9596512170933
 21
354.8499207598986
 31
24.02149290630415
  0
LINE
  5
87
  8
0
 62
     4
 10
599.9596512170933
 20
354.8499207598986
 30
24.02149290630415
 11
599.6594305987503
 21
355.9351637664202
 31
24.02149290630415
  0
LINE
  5
88
  8
0
 62
     4
 10
599.6594305987503
 20
355.9351637664202
 30
24.02149290630415
 11
594.0555045616234
 21
376.1931613361074
 31
24.02149290630415
  0
LINE
  5
89
  8
0
 62
     4
 10
635.6958977409582
 20
372.2064102444206
 30
24.02149290630415
 11
635.5843899708857
 21
374.0944035008845
 31
24.02149290630415
  0
LINE
  5
8A
  8
0
 62
     4
 10
635.5843899708857
 20
374.0944035008845
 30
24.02149290630415
 11
635.5822280365242
 21
375.9072094845504
 31
24.02149290630415
  0
LINE
  5
8B
  8
0
 62
     4
 10
635.5822280365242
 20
375.9072094845504
 30
24.02149290630415
 11
635.7441809416993
 21
377.6073546664876
 31
24.02149290630415
  0
LINE
  5
8C
  8
0
 62
     4
 10
635.7441809416993
 20
377.6073546664876
 30
24.02149290630415
 11
636.0616009489636
 21
379.2408642271016
 31
24.02149290630415
  0
LINE
  5
8D
  8
0
 62
     4
 10
636.0616009489636
 20
379.2408642271016
 30
24.02149290630415
 11
636.5344880583159
 21
380.8077381663951
 31
24.02149290630415
  0
LINE
  5
8E
  8
0
 62
     4
 10
636.5344880583159
 20
380.8077381663951
 30
24.02149290630415
 11
637.1714900072061
 21
382.2619513039558
 31
24.02149290630415
  0
LINE
  5
8F
  8
0
 62
     4
 10
637.1714900072061
 20
382.2619513039558
 30
24.02149290630415
 11
637.9725107096593
 21
383.6034075538163
 31
24.02149290630415
  0
LINE
  5
90
  8
0
 62
     4
 10
637.9725107096593
 20
383.6034075538163
 30
24.02149290630415
 11
638.8829252908081
 21
384.8696765308788
 31
24.02149290630415
  0
LINE
  5
91
  8
0
 62
     4
 10
638.8829252908081
 20
384.8696765308788
 30
24.02149290630415
 11
639.9112373591415
 21
386.0146850117504
 31
24.02149290630415
  0
LINE
  5
274
  8
0
 62
     4
 10
639.9112373591415
 20
386.0146850117504
 30
24.02149290630415
 11
641.0574469146584
 21
387.0384329964314
 31
24.02149290630415
  0
LINE
  5
275
  8
0
 62
     4
 10
641.0574469146584
 20
387.0384329964314
 30
24.02149290630415
 11
642.3216500433326
 21
387.940872441936
 31
24.02149290630415
  0
LINE
  5
94
  8
0
 62
     4
 10
642.3216500433326
 20
387.940872441936
 30
24.02149290630415
 11
643.7583755340569
 21
388.684433733358
 31
24.02149290630415
  0
LINE
  5
95
  8
0
 62
     4
 10
643.7583755340569
 20
388.684433733358
 30
24.02149290630415
 11
645.258421680085
 21
389.3443521864797
 31
24.02149290630415
  0
LINE
  5
96
  8
0
 62
     4
 10
645.258421680085
 20
389.3443521864797
 30
24.02149290630415
 11
646.9310382311501
 21
389.845344442533
 31
24.02149290630415
  0
LINE
  5
276
  8
0
 62
     4
 10
646.9310382311501
 20
389.845344442533
 30
24.02149290630415
 11
648.6668793515454
 21
390.262645817302
 31
24.02149290630415
  0
LINE
  5
277
  8
0
 62
     4
 10
648.6668793515454
 20
390.262645817302
 30
24.02149290630415
 11
650.1054785187193
 21
390.4817218326074
 31
24.02149290630415
  0
LINE
  5
99
  8
0
 62
     4
 10
650.1054785187193
 20
390.4817218326074
 30
24.02149290630415
 11
651.5065080709865
 21
390.6460768870725
 31
24.02149290630415
  0
LINE
  5
9A
  8
0
 62
     4
 10
651.5065080709865
 20
390.6460768870725
 30
24.02149290630415
 11
652.8409500449171
 21
390.6549167964614
 31
24.02149290630415
  0
LINE
  5
9B
  8
0
 62
     4
 10
652.8409500449171
 20
390.6549167964614
 30
24.02149290630415
 11
654.1377743609565
 21
390.6090837879959
 31
24.02149290630415
  0
LINE
  5
9C
  8
0
 62
     4
 10
654.1377743609565
 20
390.6090837879959
 30
24.02149290630415
 11
655.3595074901714
 21
390.4539049438224
 31
24.02149290630415
  0
LINE
  5
9D
  8
0
 62
     4
 10
655.3595074901714
 20
390.4539049438224
 30
24.02149290630415
 11
656.4974536521288
 21
390.2354534873324
 31
24.02149290630415
  0
LINE
  5
9E
  8
0
 62
     4
 10
656.4974536521288
 20
390.2354534873324
 30
24.02149290630415
 11
657.6149815451159
 21
389.8700865802269
 31
24.02149290630415
  0
LINE
  5
9F
  8
0
 62
     4
 10
657.6149815451159
 20
389.8700865802269
 30
24.02149290630415
 11
658.6026972904365
 21
389.4328954093327
 31
24.02149290630415
  0
LINE
  5
A0
  8
0
 62
     4
 10
658.6026972904365
 20
389.4328954093327
 30
24.02149290630415
 11
659.5989166442472
 21
388.9495829720573
 31
24.02149290630415
  0
LINE
  5
A1
  8
0
 62
     4
 10
659.5989166442472
 20
388.9495829720573
 30
24.02149290630415
 11
660.5285484197204
 21
388.3107553897074
 31
24.02149290630415
  0
LINE
  5
A2
  8
0
 62
     4
 10
660.5285484197204
 20
388.3107553897074
 30
24.02149290630415
 11
661.4206105802903
 21
387.6173029324884
 31
24.02149290630415
  0
LINE
  5
A3
  8
0
 62
     4
 10
661.4206105802903
 20
387.6173029324884
 30
24.02149290630415
 11
662.2460851625216
 21
386.7682872872078
 31
24.02149290630415
  0
LINE
  5
A4
  8
0
 62
     4
 10
662.2460851625216
 20
386.7682872872078
 30
24.02149290630415
 11
663.0339420868637
 21
385.8646467670583
 31
24.02149290630415
  0
LINE
  5
A5
  8
0
 62
     4
 10
663.0339420868637
 20
385.8646467670583
 30
24.02149290630415
 11
663.7928290907586
 21
384.8601159767017
 31
24.02149290630415
  0
LINE
  5
A6
  8
0
 62
     4
 10
663.7928290907586
 20
384.8601159767017
 30
24.02149290630415
 11
664.4679771703839
 21
383.7924086600025
 31
24.02149290630415
  0
LINE
  5
A7
  8
0
 62
     4
 10
664.4679771703839
 20
383.7924086600025
 30
24.02149290630415
 11
665.122658938052
 21
382.5777378497022
 31
24.02149290630415
  0
LINE
  5
A8
  8
0
 62
     4
 10
665.122658938052
 20
382.5777378497022
 30
24.02149290630415
 11
656.870747651893
 21
379.4729598915635
 31
24.02149290630415
  0
LINE
  5
A9
  8
0
 62
     4
 10
656.870747651893
 20
379.4729598915635
 30
24.02149290630415
 11
656.6211643405975
 21
380.046977486052
 31
24.02149290630415
  0
LINE
  5
AA
  8
0
 62
     4
 10
656.6211643405975
 20
380.046977486052
 30
24.02149290630415
 11
656.3715810292997
 21
380.6210431235262
 31
24.02149290630415
  0
LINE
  5
AB
  8
0
 62
     4
 10
656.3715810292997
 20
380.6210431235262
 30
24.02149290630415
 11
656.0844281030974
 21
381.1403878001615
 31
24.02149290630415
  0
LINE
  5
AC
  8
0
 62
     4
 10
656.0844281030974
 20
381.1403878001615
 30
24.02149290630415
 11
655.7682091704786
 21
381.5589382925612
 31
24.02149290630415
  0
LINE
  5
AD
  8
0
 62
     4
 10
655.7682091704786
 20
381.5589382925612
 30
24.02149290630415
 11
655.4059170144672
 21
381.9688890905001
 31
24.02149290630415
  0
LINE
  5
AE
  8
0
 62
     4
 10
655.4059170144672
 20
381.9688890905001
 30
24.02149290630415
 11
655.0521284669417
 21
382.3327666650437
 31
24.02149290630415
  0
LINE
  5
AF
  8
0
 62
     4
 10
655.0521284669417
 20
382.3327666650437
 30
24.02149290630415
 11
654.652218653038
 21
382.688044545128
 31
24.02149290630415
  0
LINE
  5
B0
  8
0
 62
     4
 10
654.652218653038
 20
382.688044545128
 30
24.02149290630415
 11
654.2232908757034
 21
382.9425282409781
 31
24.02149290630415
  0
LINE
  5
B1
  8
0
 62
     4
 10
654.2232908757034
 20
382.9425282409781
 30
24.02149290630415
 11
653.7482418319883
 21
383.1884602853531
 31
24.02149290630415
  0
LINE
  5
B2
  8
0
 62
     4
 10
653.7482418319883
 20
383.1884602853531
 30
24.02149290630415
 11
653.2902960912229
 21
383.3421497969674
 31
24.02149290630415
  0
LINE
  5
B3
  8
0
 62
     4
 10
653.2902960912229
 20
383.3421497969674
 30
24.02149290630415
 11
652.7862290840772
 21
383.4872396141211
 31
24.02149290630415
  0
LINE
  5
B4
  8
0
 62
     4
 10
652.7862290840772
 20
383.4872396141211
 30
24.02149290630415
 11
652.2907137284062
 21
383.5862562078809
 31
24.02149290630415
  0
LINE
  5
B5
  8
0
 62
     4
 10
652.2907137284062
 20
383.5862562078809
 30
24.02149290630415
 11
651.7576287578285
 21
383.6305518408002
 31
24.02149290630415
  0
LINE
  5
B6
  8
0
 62
     4
 10
651.7576287578285
 20
383.6305518408002
 30
24.02149290630415
 11
651.1869261293616
 21
383.6201745558649
 31
24.02149290630415
  0
LINE
  5
B7
  8
0
 62
     4
 10
651.1869261293616
 20
383.6201745558649
 30
24.02149290630415
 11
650.6162715438783
 21
383.609749227944
 31
24.02149290630415
  0
LINE
  5
B8
  8
0
 62
     4
 10
650.6162715438783
 20
383.609749227944
 30
24.02149290630415
 11
650.0165509519807
 21
383.498577758773
 31
24.02149290630415
  0
LINE
  5
B9
  8
0
 62
     4
 10
650.0165509519807
 20
383.498577758773
 30
24.02149290630415
 11
649.2408969460348
 21
383.3070303743383
 31
24.02149290630415
  0
LINE
  5
BA
  8
0
 62
     4
 10
649.2408969460348
 20
383.3070303743383
 30
24.02149290630415
 11
648.5199158579453
 21
383.0779133749975
 31
24.02149290630415
  0
LINE
  5
BB
  8
0
 62
     4
 10
648.5199158579453
 20
383.0779133749975
 30
24.02149290630415
 11
647.8621593391841
 21
382.7650574513865
 31
24.02149290630415
  0
LINE
  5
BC
  8
0
 62
     4
 10
647.8621593391841
 20
382.7650574513865
 30
24.02149290630415
 11
647.2130025148846
 21
382.4060802613943
 31
24.02149290630415
  0
LINE
  5
BD
  8
0
 62
     4
 10
647.2130025148846
 20
382.4060802613943
 30
24.02149290630415
 11
646.6731434833091
 21
381.9720118845769
 31
24.02149290630415
  0
LINE
  5
BE
  8
0
 62
     4
 10
646.6731434833091
 20
381.9720118845769
 30
24.02149290630415
 11
646.1418841461921
 21
381.4917261554083
 31
24.02149290630415
  0
LINE
  5
BF
  8
0
 62
     4
 10
646.1418841461921
 20
381.4917261554083
 30
24.02149290630415
 11
645.6738493784064
 21
380.9277975879409
 31
24.02149290630415
  0
LINE
  5
C0
  8
0
 62
     4
 10
645.6738493784064
 20
380.9277975879409
 30
24.02149290630415
 11
645.3066568378404
 21
380.3348030140551
 31
24.02149290630415
  0
LINE
  5
C1
  8
0
 62
     4
 10
645.3066568378404
 20
380.3348030140551
 30
24.02149290630415
 11
644.9565676002241
 21
379.6495659074099
 31
24.02149290630415
  0
LINE
  5
C2
  8
0
 62
     4
 10
644.9565676002241
 20
379.6495659074099
 30
24.02149290630415
 11
644.6782545834119
 21
378.8345166530991
 31
24.02149290630415
  0
LINE
  5
C3
  8
0
 62
     4
 10
644.6782545834119
 20
378.8345166530991
 30
24.02149290630415
 11
644.5007357508346
 21
377.9904013923712
 31
24.02149290630415
  0
LINE
  5
C4
  8
0
 62
     4
 10
644.5007357508346
 20
377.9904013923712
 30
24.02149290630415
 11
644.3864895305724
 21
377.0625952503588
 31
24.02149290630415
  0
LINE
  5
C5
  8
0
 62
     4
 10
644.3864895305724
 20
377.0625952503588
 30
24.02149290630415
 11
644.3815891460176
 21
376.0596498785341
 31
24.02149290630415
  0
LINE
  5
C6
  8
0
 62
     4
 10
644.3815891460176
 20
376.0596498785341
 30
24.02149290630415
 11
644.4399133307954
 21
374.9729655824391
 31
24.02149290630415
  0
LINE
  5
C7
  8
0
 62
     4
 10
644.4399133307954
 20
374.9729655824391
 30
24.02149290630415
 11
644.5700617793619
 21
373.7564691386784
 31
24.02149290630415
  0
LINE
  5
C8
  8
0
 62
     4
 10
644.5700617793619
 20
373.7564691386784
 30
24.02149290630415
 11
644.7548831457829
 21
372.5024030800116
 31
24.02149290630415
  0
LINE
  5
C9
  8
0
 62
     4
 10
644.7548831457829
 20
372.5024030800116
 30
24.02149290630415
 11
645.0576500423742
 21
371.1270284821684
 31
24.02149290630415
  0
LINE
  5
CA
  8
0
 62
     4
 10
645.0576500423742
 20
371.1270284821684
 30
24.02149290630415
 11
645.3893868594105
 21
369.8524961115452
 31
24.02149290630415
  0
LINE
  5
CB
  8
0
 62
     4
 10
645.3893868594105
 20
369.8524961115452
 30
24.02149290630415
 11
645.7501896828622
 21
368.6787579251577
 31
24.02149290630415
  0
LINE
  5
CC
  8
0
 62
     4
 10
645.7501896828622
 20
368.6787579251577
 30
24.02149290630415
 11
646.1775800846514
 21
367.6604868408592
 31
24.02149290630415
  0
LINE
  5
CD
  8
0
 62
     4
 10
646.1775800846514
 20
367.6604868408592
 30
24.02149290630415
 11
646.6425401013462
 21
366.6969367174023
 31
24.02149290630415
  0
LINE
  5
CE
  8
0
 62
     4
 10
646.6425401013462
 20
366.6969367174023
 30
24.02149290630415
 11
647.1194628215076
 21
365.926471353925
 31
24.02149290630415
  0
LINE
  5
CF
  8
0
 62
     4
 10
647.1194628215076
 20
365.926471353925
 30
24.02149290630415
 11
647.633907113589
 21
365.2106789083023
 31
24.02149290630415
  0
LINE
  5
D0
  8
0
 62
     4
 10
647.633907113589
 20
365.2106789083023
 30
24.02149290630415
 11
648.2149870269925
 21
364.6504016077556
 31
24.02149290630415
  0
LINE
  5
D1
  8
0
 62
     4
 10
648.2149870269925
 20
364.6504016077556
 30
24.02149290630415
 11
648.825036860841
 21
364.1909184914446
 31
24.02149290630415
  0
LINE
  5
D2
  8
0
 62
     4
 10
648.825036860841
 20
364.1909184914446
 30
24.02149290630415
 11
649.4727043525809
 21
363.7861563359726
 31
24.02149290630415
  0
LINE
  5
D3
  8
0
 62
     4
 10
649.4727043525809
 20
363.7861563359726
 30
24.02149290630415
 11
650.1493898077515
 21
363.4821403217505
 31
24.02149290630415
  0
LINE
  5
D4
  8
0
 62
     4
 10
650.1493898077515
 20
363.4821403217505
 30
24.02149290630415
 11
650.8550932263528
 21
363.2790145777357
 31
24.02149290630415
  0
LINE
  5
D5
  8
0
 62
     4
 10
650.8550932263528
 20
363.2790145777357
 30
24.02149290630415
 11
651.5522449934792
 21
363.1219620571134
 31
24.02149290630415
  0
LINE
  5
D6
  8
0
 62
     4
 10
651.5522449934792
 20
363.1219620571134
 30
24.02149290630415
 11
652.324535990417
 21
363.0743034151875
 31
24.02149290630415
  0
LINE
  5
D7
  8
0
 62
     4
 10
652.324535990417
 20
363.0743034151875
 30
24.02149290630415
 11
653.0797717273927
 21
363.118935349008
 31
24.02149290630415
  0
LINE
  5
D8
  8
0
 62
     4
 10
653.0797717273927
 20
363.118935349008
 30
24.02149290630415
 11
653.9186503026657
 21
363.226743809171
 31
24.02149290630415
  0
LINE
  5
D9
  8
0
 62
     4
 10
653.9186503026657
 20
363.226743809171
 30
24.02149290630415
 11
654.5183708945644
 21
363.3379633213277
 31
24.02149290630415
  0
LINE
  5
DA
  8
0
 62
     4
 10
654.5183708945644
 20
363.3379633213277
 30
24.02149290630415
 11
655.054818874147
 21
363.5328737147689
 31
24.02149290630415
  0
LINE
  5
DB
  8
0
 62
     4
 10
655.054818874147
 20
363.5328737147689
 30
24.02149290630415
 11
655.5912668537308
 21
363.7277841082115
 31
24.02149290630415
  0
LINE
  5
DC
  8
0
 62
     4
 10
655.5912668537308
 20
363.7277841082115
 30
24.02149290630415
 11
656.0644902639851
 21
364.0063853829387
 31
24.02149290630415
  0
LINE
  5
DD
  8
0
 62
     4
 10
656.0644902639851
 20
364.0063853829387
 30
24.02149290630415
 11
656.5377136742397
 21
364.2849866576657
 31
24.02149290630415
  0
LINE
  5
DE
  8
0
 62
     4
 10
656.5377136742397
 20
364.2849866576657
 30
24.02149290630415
 11
656.9562641666387
 21
364.6012055902849
 31
24.02149290630415
  0
LINE
  5
DF
  8
0
 62
     4
 10
656.9562641666387
 20
364.6012055902849
 30
24.02149290630415
 11
657.3200936981978
 21
364.954946094823
 31
24.02149290630415
  0
LINE
  5
E0
  8
0
 62
     4
 10
657.3200936981978
 20
364.954946094823
 30
24.02149290630415
 11
657.6754196212686
 21
365.3548559087265
 31
24.02149290630415
  0
LINE
  5
E1
  8
0
 62
     4
 10
657.6754196212686
 20
365.3548559087265
 30
24.02149290630415
 11
657.9674729320234
 21
365.8384566039159
 31
24.02149290630415
  0
LINE
  5
E2
  8
0
 62
     4
 10
657.9674729320234
 20
365.8384566039159
 30
24.02149290630415
 11
658.2595262427783
 21
366.3220572991054
 31
24.02149290630415
  0
LINE
  5
E3
  8
0
 62
     4
 10
658.2595262427783
 20
366.3220572991054
 30
24.02149290630415
 11
658.4883549842039
 21
366.8893969185665
 31
24.02149290630415
  0
LINE
  5
E4
  8
0
 62
     4
 10
658.4883549842039
 20
366.8893969185665
 30
24.02149290630415
 11
658.6539111133134
 21
367.5404274193135
 31
24.02149290630415
  0
LINE
  5
E5
  8
0
 62
     4
 10
658.6539111133134
 20
367.5404274193135
 30
24.02149290630415
 11
658.8109636339359
 21
368.2375791864401
 31
24.02149290630415
  0
LINE
  5
E6
  8
0
 62
     4
 10
658.8109636339359
 20
368.2375791864401
 30
24.02149290630415
 11
658.9132951937162
 21
368.9723005684731
 31
24.02149290630415
  0
LINE
  5
E7
  8
0
 62
     4
 10
658.9132951937162
 20
368.9723005684731
 30
24.02149290630415
 11
658.9609538356422
 21
369.7445915654108
 31
24.02149290630415
  0
LINE
  5
E8
  8
0
 62
     4
 10
658.9609538356422
 20
369.7445915654108
 30
24.02149290630415
 11
658.9915091746183
 21
370.6091731380936
 31
24.02149290630415
  0
LINE
  5
E9
  8
0
 62
     4
 10
658.9915091746183
 20
370.6091731380936
 30
24.02149290630415
 11
667.7447490177322
 21
370.7530138376167
 31
24.02149290630415
  0
LINE
  5
EA
  8
0
 62
     4
 10
667.7447490177322
 20
370.7530138376167
 30
24.02149290630415
 11
667.6408320394197
 21
369.2545531101223
 31
24.02149290630415
  0
LINE
  5
EB
  8
0
 62
     4
 10
667.6408320394197
 20
369.2545531101223
 30
24.02149290630415
 11
667.4276172683842
 21
367.8312316124376
 31
24.02149290630415
  0
LINE
  5
EC
  8
0
 62
     4
 10
667.4276172683842
 20
367.8312316124376
 30
24.02149290630415
 11
667.1511298850327
 21
366.4916009960389
 31
24.02149290630415
  0
LINE
  5
ED
  8
0
 62
     4
 10
667.1511298850327
 20
366.4916009960389
 30
24.02149290630415
 11
666.7652966659714
 21
365.2271096094511
 31
24.02149290630415
  0
LINE
  5
EE
  8
0
 62
     4
 10
666.7652966659714
 20
365.2271096094511
 30
24.02149290630415
 11
666.3161908345951
 21
364.0463571471349
 31
24.02149290630415
  0
LINE
  5
EF
  8
0
 62
     4
 10
666.3161908345951
 20
364.0463571471349
 30
24.02149290630415
 11
665.7116179011285
 21
362.9321922631548
 31
24.02149290630415
  0
LINE
  5
F0
  8
0
 62
     4
 10
665.7116179011285
 20
362.9321922631548
 30
24.02149290630415
 11
665.0898936217275
 21
361.91031795492
 31
24.02149290630415
  0
LINE
  5
F1
  8
0
 62
     4
 10
665.0898936217275
 20
361.91031795492
 30
24.02149290630415
 11
664.3127022402373
 21
360.9550312250225
 31
24.02149290630415
  0
LINE
  5
F2
  8
0
 62
     4
 10
664.3127022402373
 20
360.9550312250225
 30
24.02149290630415
 11
663.4722862894166
 21
360.0834353764095
 31
24.02149290630415
  0
LINE
  5
F3
  8
0
 62
     4
 10
663.4722862894166
 20
360.0834353764095
 30
24.02149290630415
 11
662.5224764599018
 21
359.2869787576091
 31
24.02149290630415
  0
LINE
  5
F4
  8
0
 62
     4
 10
662.5224764599018
 20
359.2869787576091
 30
24.02149290630415
 11
661.4718244031673
 21
358.5195881452241
 31
24.02149290630415
  0
LINE
  5
F5
  8
0
 62
     4
 10
661.4718244031673
 20
358.5195881452241
 30
24.02149290630415
 11
660.3494441686121
 21
357.8820096805049
 31
24.02149290630415
  0
LINE
  5
F6
  8
0
 62
     4
 10
660.3494441686121
 20
357.8820096805049
 30
24.02149290630415
 11
659.1176700553638
 21
357.3195704455966
 31
24.02149290630415
  0
LINE
  5
F7
  8
0
 62
     4
 10
659.1176700553638
 20
357.3195704455966
 30
24.02149290630415
 11
657.7765020634188
 21
356.832318483485
 31
24.02149290630415
  0
LINE
  5
F8
  8
0
 62
     4
 10
657.7765020634188
 20
356.832318483485
 30
24.02149290630415
 11
656.3721095021433
 21
356.4287574026594
 31
24.02149290630415
  0
LINE
  5
F9
  8
0
 62
     4
 10
656.3721095021433
 20
356.4287574026594
 30
24.02149290630415
 11
654.8122498387799
 21
356.0917839001698
 31
24.02149290630415
  0
LINE
  5
FA
  8
0
 62
     4
 10
654.8122498387799
 20
356.0917839001698
 30
24.02149290630415
 11
653.0882753358798
 21
355.8675672853818
 31
24.02149290630415
  0
LINE
  5
FB
  8
0
 62
     4
 10
653.0882753358798
 20
355.8675672853818
 30
24.02149290630415
 11
651.3933668393972
 21
355.7441448548295
 31
24.02149290630415
  0
LINE
  5
FC
  8
0
 62
     4
 10
651.3933668393972
 20
355.7441448548295
 30
24.02149290630415
 11
649.7564942697761
 21
355.8223588357316
 31
24.02149290630415
  0
LINE
  5
FD
  8
0
 62
     4
 10
649.7564942697761
 20
355.8223588357316
 30
24.02149290630415
 11
648.1947609299651
 21
356.0099186523443
 31
24.02149290630415
  0
LINE
  5
FE
  8
0
 62
     4
 10
648.1947609299651
 20
356.0099186523443
 30
24.02149290630415
 11
646.6911115600025
 21
356.3991629233984
 31
24.02149290630415
  0
LINE
  5
FF
  8
0
 62
     4
 10
646.6911115600025
 20
356.3991629233984
 30
24.02149290630415
 11
645.2540497683763
 21
356.9438742965415
 31
24.02149290630415
  0
LINE
  5
100
  8
0
 62
     4
 10
645.2540497683763
 20
356.9438742965415
 30
24.02149290630415
 11
643.8835755550851
 21
357.644052771775
 31
24.02149290630415
  0
LINE
  5
101
  8
0
 62
     4
 10
643.8835755550851
 20
357.644052771775
 30
24.02149290630415
 11
642.5796889201317
 21
358.4997944350688
 31
24.02149290630415
  0
LINE
  5
102
  8
0
 62
     4
 10
642.5796889201317
 20
358.4997944350688
 30
24.02149290630415
 11
641.3885591728786
 21
359.5195548519279
 31
24.02149290630415
  0
LINE
  5
103
  8
0
 62
     4
 10
641.3885591728786
 20
359.5195548519279
 30
24.02149290630415
 11
640.2725686554379
 21
360.6486611044948
 31
24.02149290630415
  0
LINE
  5
104
  8
0
 62
     4
 10
640.2725686554379
 20
360.6486611044948
 30
24.02149290630415
 11
639.2778386341879
 21
361.8957128872329
 31
24.02149290630415
  0
LINE
  5
105
  8
0
 62
     4
 10
639.2778386341879
 20
361.8957128872329
 30
24.02149290630415
 11
638.3958655006406
 21
363.3068314665205
 31
24.02149290630415
  0
LINE
  5
106
  8
0
 62
     4
 10
638.3958655006406
 20
363.3068314665205
 30
24.02149290630415
 11
637.6352009062687
 21
364.8358955759795
 31
24.02149290630415
  0
LINE
  5
107
  8
0
 62
     4
 10
637.6352009062687
 20
364.8358955759795
 30
24.02149290630415
 11
636.9957487651027
 21
366.4828091296355
 31
24.02149290630415
  0
LINE
  5
108
  8
0
 62
     4
 10
636.9957487651027
 20
366.4828091296355
 30
24.02149290630415
 11
636.4229802882458
 21
368.2852858713518
 31
24.02149290630415
  0
LINE
  5
109
  8
0
 62
     4
 10
636.4229802882458
 20
368.2852858713518
 30
24.02149290630415
 11
636.017545530972
 21
370.2142117517286
 31
24.02149290630415
  0
LINE
  5
10A
  8
0
 62
     4
 10
636.017545530972
 20
370.2142117517286
 30
24.02149290630415
 11
635.6958977409582
 21
372.2064102444206
 31
24.02149290630415
  0
LINE
  5
10B
  8
0
 62
     4
 10
671.0815745973478
 20
405.9740473816268
 30
24.02149290630415
 11
679.8104086036692
 21
406.8577500626639
 31
24.02149290630415
  0
LINE
  5
10C
  8
0
 62
     4
 10
679.8104086036692
 20
406.8577500626639
 30
24.02149290630415
 11
682.2582948167925
 21
382.6783398619938
 31
24.02149290630415
  0
LINE
  5
10D
  8
0
 62
     4
 10
682.2582948167925
 20
382.6783398619938
 30
24.02149290630415
 11
691.3508622687006
 21
395.3408855036665
 31
24.02149290630415
  0
LINE
  5
10E
  8
0
 62
     4
 10
691.3508622687006
 20
395.3408855036665
 30
24.02149290630415
 11
702.0868841792869
 21
396.4278100146902
 31
24.02149290630415
  0
LINE
  5
10F
  8
0
 62
     4
 10
702.0868841792869
 20
396.4278100146902
 30
24.02149290630415
 11
692.0146722036742
 21
383.1944656585796
 31
24.02149290630415
  0
LINE
  5
110
  8
0
 62
     4
 10
692.0146722036742
 20
383.1944656585796
 30
24.02149290630415
 11
706.2728695331396
 21
363.4645565889439
 31
24.02149290630415
  0
LINE
  5
111
  8
0
 62
     4
 10
706.2728695331396
 20
363.4645565889439
 30
24.02149290630415
 11
696.8438090085997
 21
362.5099905038331
 31
24.02149290630415
  0
LINE
  5
112
  8
0
 62
     4
 10
696.8438090085997
 20
362.5099905038331
 30
24.02149290630415
 11
687.0275700613959
 21
376.559200845014
 31
24.02149290630415
  0
LINE
  5
113
  8
0
 62
     4
 10
687.0275700613959
 20
376.559200845014
 30
24.02149290630415
 11
683.3546357530363
 21
371.8489704299747
 31
24.02149290630415
  0
LINE
  5
114
  8
0
 62
     4
 10
683.3546357530363
 20
371.8489704299747
 30
24.02149290630415
 11
684.4273875832466
 21
361.2529457800466
 31
24.02149290630415
  0
LINE
  5
115
  8
0
 62
     4
 10
684.4273875832466
 20
361.2529457800466
 30
24.02149290630415
 11
675.6985055339394
 21
360.3692430990095
 31
24.02149290630415
  0
LINE
  5
116
  8
0
 62
     4
 10
675.6985055339394
 20
360.3692430990095
 30
24.02149290630415
 11
671.0815745973478
 21
405.9740473816268
 31
24.02149290630415
  0
LINE
  5
117
  8
0
 62
     4
 10
706.6725391321149
 20
396.7462869676419
 30
24.02149290630415
 11
716.0074354044618
 21
396.9184730287938
 31
24.02149290630415
  0
LINE
  5
118
  8
0
 62
     4
 10
716.0074354044618
 20
396.9184730287938
 30
24.02149290630415
 11
724.3703259878496
 21
373.4695083844192
 31
24.02149290630415
  0
LINE
  5
119
  8
0
 62
     4
 10
724.3703259878496
 20
373.4695083844192
 30
24.02149290630415
 11
731.7219597628659
 21
397.2083644051887
 31
24.02149290630415
  0
LINE
  5
11A
  8
0
 62
     4
 10
731.7219597628659
 20
397.2083644051887
 30
24.02149290630415
 11
740.8223101784745
 21
397.3762265976175
 31
24.02149290630415
  0
LINE
  5
11B
  8
0
 62
     4
 10
740.8223101784745
 20
397.3762265976175
 30
24.02149290630415
 11
729.6843126055953
 21
365.214906691054
 31
24.02149290630415
  0
LINE
  5
11C
  8
0
 62
     4
 10
729.6843126055953
 20
365.214906691054
 30
24.02149290630415
 11
727.680727925266
 21
359.3592354082704
 31
24.02149290630415
  0
LINE
  5
11D
  8
0
 62
     4
 10
727.680727925266
 20
359.3592354082704
 30
24.02149290630415
 11
727.4122637205458
 21
358.6504091955907
 31
24.02149290630415
  0
LINE
  5
11E
  8
0
 62
     4
 10
727.4122637205458
 20
358.6504091955907
 30
24.02149290630415
 11
727.1429347420797
 21
357.9884729370658
 31
24.02149290630415
  0
LINE
  5
11F
  8
0
 62
     4
 10
727.1429347420797
 20
357.9884729370658
 30
24.02149290630415
 11
726.8726929468833
 21
357.3734746756774
 31
24.02149290630415
  0
LINE
  5
120
  8
0
 62
     4
 10
726.8726929468833
 20
357.3734746756774
 30
24.02149290630415
 11
726.601634420929
 21
356.805366368444
 31
24.02149290630415
  0
LINE
  5
121
  8
0
 62
     4
 10
726.601634420929
 20
356.805366368444
 30
24.02149290630415
 11
726.330575894975
 21
356.2372580612091
 31
24.02149290630415
  0
LINE
  5
122
  8
0
 62
     4
 10
726.330575894975
 20
356.2372580612091
 30
24.02149290630415
 11
726.1046777756831
 21
355.7638424790121
 31
24.02149290630415
  0
LINE
  5
123
  8
0
 62
     4
 10
726.1046777756831
 20
355.7638424790121
 30
24.02149290630415
 11
725.8318897022396
 21
355.2895621230699
 31
24.02149290630415
  0
LINE
  5
124
  8
0
 62
     4
 10
725.8318897022396
 20
355.2895621230699
 30
24.02149290630415
 11
725.5573240383201
 21
354.9091097184205
 31
24.02149290630415
  0
LINE
  5
125
  8
0
 62
     4
 10
725.5573240383201
 20
354.9091097184205
 30
24.02149290630415
 11
725.3297444145269
 21
354.5295220875149
 31
24.02149290630415
  0
LINE
  5
126
  8
0
 62
     4
 10
725.3297444145269
 20
354.5295220875149
 30
24.02149290630415
 11
725.0551787506074
 21
354.1490696828641
 31
24.02149290630415
  0
LINE
  5
127
  8
0
 62
     4
 10
725.0551787506074
 20
354.1490696828641
 30
24.02149290630415
 11
724.7797963559301
 21
353.8155072323683
 31
24.02149290630415
  0
LINE
  5
128
  8
0
 62
     4
 10
724.7797963559301
 20
353.8155072323683
 30
24.02149290630415
 11
724.4574759641132
 21
353.4810800081258
 31
24.02149290630415
  0
LINE
  5
129
  8
0
 62
     4
 10
724.4574759641132
 20
353.4810800081258
 30
24.02149290630415
 11
724.1812287956902
 21
353.1944555547677
 31
24.02149290630415
  0
LINE
  5
12A
  8
0
 62
     4
 10
724.1812287956902
 20
353.1944555547677
 30
24.02149290630415
 11
723.8580436301286
 21
352.9069182846802
 31
24.02149290630415
  0
LINE
  5
12B
  8
0
 62
     4
 10
723.8580436301286
 20
352.9069182846802
 30
24.02149290630415
 11
723.5349065075541
 21
352.619429057577
 31
24.02149290630415
  0
LINE
  5
12C
  8
0
 62
     4
 10
723.5349065075541
 20
352.619429057577
 30
24.02149290630415
 11
723.2108565682479
 21
352.3788297846272
 31
24.02149290630415
  0
LINE
  5
12D
  8
0
 62
     4
 10
723.2108565682479
 20
352.3788297846272
 30
24.02149290630415
 11
722.839916674788
 21
352.1373657379337
 31
24.02149290630415
  0
LINE
  5
12E
  8
0
 62
     4
 10
722.839916674788
 20
352.1373657379337
 30
24.02149290630415
 11
722.5158667354831
 21
351.8967184219983
 31
24.02149290630415
  0
LINE
  5
12F
  8
0
 62
     4
 10
722.5158667354831
 20
351.8967184219983
 30
24.02149290630415
 11
722.0971240711391
 21
351.7013275986988
 31
24.02149290630415
  0
LINE
  5
130
  8
0
 62
     4
 10
722.0971240711391
 20
351.7013275986988
 30
24.02149290630415
 11
721.7253194039356
 21
351.5067535061575
 31
24.02149290630415
  0
LINE
  5
131
  8
0
 62
     4
 10
721.7253194039356
 20
351.5067535061575
 30
24.02149290630415
 11
721.2596867854401
 21
351.3104498661271
 31
24.02149290630415
  0
LINE
  5
132
  8
0
 62
     4
 10
721.2596867854401
 20
351.3104498661271
 30
24.02149290630415
 11
720.8401273903382
 21
351.1619489969797
 31
24.02149290630415
  0
LINE
  5
133
  8
0
 62
     4
 10
720.8401273903382
 20
351.1619489969797
 30
24.02149290630415
 11
720.3744947718426
 21
350.9656453569494
 31
24.02149290630415
  0
LINE
  5
134
  8
0
 62
     4
 10
720.3744947718426
 20
350.9656453569494
 30
24.02149290630415
 11
719.9079973796024
 21
350.8162797140582
 31
24.02149290630415
  0
LINE
  5
135
  8
0
 62
     4
 10
719.9079973796024
 20
350.8162797140582
 30
24.02149290630415
 11
719.3937452594639
 21
350.7129392515753
 31
24.02149290630415
  0
LINE
  5
136
  8
0
 62
     4
 10
719.3937452594639
 20
350.7129392515753
 30
24.02149290630415
 11
718.8803098700842
 21
350.562708834939
 31
24.02149290630415
  0
LINE
  5
137
  8
0
 62
     4
 10
718.8803098700842
 20
350.562708834939
 30
24.02149290630415
 11
718.3191677957929
 21
350.4585035987124
 31
24.02149290630415
  0
LINE
  5
138
  8
0
 62
     4
 10
718.3191677957929
 20
350.4585035987124
 30
24.02149290630415
 11
717.8040028589239
 21
350.4020530903817
 31
24.02149290630415
  0
LINE
  5
139
  8
0
 62
     4
 10
717.8040028589239
 20
350.4020530903817
 30
24.02149290630415
 11
717.1950580137495
 21
350.3439210775491
 31
24.02149290630415
  0
LINE
  5
13A
  8
0
 62
     4
 10
717.1950580137495
 20
350.3439210775491
 30
24.02149290630415
 11
716.6330031227279
 21
350.2866057954747
 31
24.02149290630415
  0
LINE
  5
13B
  8
0
 62
     4
 10
716.6330031227279
 20
350.2866057954747
 30
24.02149290630415
 11
716.0240582775535
 21
350.2284737826407
 31
24.02149290630415
  0
LINE
  5
13C
  8
0
 62
     4
 10
716.0240582775535
 20
350.2284737826407
 30
24.02149290630415
 11
715.4142486586346
 21
350.2172317239603
 31
24.02149290630415
  0
LINE
  5
13D
  8
0
 62
     4
 10
715.4142486586346
 20
350.2172317239603
 30
24.02149290630415
 11
714.8044390397145
 21
350.2059896652812
 31
24.02149290630415
  0
LINE
  5
13E
  8
0
 62
     4
 10
714.8044390397145
 20
350.2059896652812
 30
24.02149290630415
 11
714.1468266499114
 21
350.2407727870091
 31
24.02149290630415
  0
LINE
  5
13F
  8
0
 62
     4
 10
714.1468266499114
 20
350.2407727870091
 30
24.02149290630415
 11
713.5361522572468
 21
350.2764206824821
 31
24.02149290630415
  0
LINE
  5
140
  8
0
 62
     4
 10
713.5361522572468
 20
350.2764206824821
 30
24.02149290630415
 11
712.8785879104305
 21
350.3112038042101
 31
24.02149290630415
  0
LINE
  5
141
  8
0
 62
     4
 10
712.8785879104305
 20
350.3112038042101
 30
24.02149290630415
 11
712.2679135177658
 21
350.3468516996832
 31
24.02149290630415
  0
LINE
  5
142
  8
0
 62
     4
 10
712.2679135177658
 20
350.3468516996832
 30
24.02149290630415
 11
711.6563263083719
 21
350.4294375922955
 31
24.02149290630415
  0
LINE
  5
143
  8
0
 62
     4
 10
711.6563263083719
 20
350.4294375922955
 30
24.02149290630415
 11
711.043922368219
 21
350.5589134390599
 31
24.02149290630415
  0
LINE
  5
144
  8
0
 62
     4
 10
711.043922368219
 20
350.5589134390599
 30
24.02149290630415
 11
710.4323832018097
 21
350.6414993316721
 31
24.02149290630415
  0
LINE
  5
145
  8
0
 62
     4
 10
710.4323832018097
 20
350.6414993316721
 30
24.02149290630415
 11
709.5077478968592
 21
357.5224079316973
 31
24.02149290630415
  0
LINE
  5
146
  8
0
 62
     4
 10
709.5077478968592
 20
357.5224079316973
 30
24.02149290630415
 11
710.0254591119774
 21
357.4380924915961
 31
24.02149290630415
  0
LINE
  5
147
  8
0
 62
     4
 10
710.0254591119774
 20
357.4380924915961
 30
24.02149290630415
 11
710.4962803729397
 21
357.3529603207353
 31
24.02149290630415
  0
LINE
  5
148
  8
0
 62
     4
 10
710.4962803729397
 20
357.3529603207353
 30
24.02149290630415
 11
711.0139915880579
 21
357.2686448806354
 31
24.02149290630415
  0
LINE
  5
149
  8
0
 62
     4
 10
711.0139915880579
 20
357.2686448806354
 30
24.02149290630415
 11
711.4839480752755
 21
357.2304026639282
 31
24.02149290630415
  0
LINE
  5
14A
  8
0
 62
     4
 10
711.4839480752755
 20
357.2304026639282
 30
24.02149290630415
 11
711.9539045624942
 21
357.1921124042353
 31
24.02149290630415
  0
LINE
  5
14B
  8
0
 62
     4
 10
711.9539045624942
 20
357.1921124042353
 30
24.02149290630415
 11
712.3761063218158
 21
357.1998953679364
 31
24.02149290630415
  0
LINE
  5
14C
  8
0
 62
     4
 10
712.3761063218158
 20
357.1998953679364
 30
24.02149290630415
 11
712.799124811896
 21
357.1607883774854
 31
24.02149290630415
  0
LINE
  5
14D
  8
0
 62
     4
 10
712.799124811896
 20
357.1607883774854
 30
24.02149290630415
 11
713.2213265712175
 21
357.1685713411864
 31
24.02149290630415
  0
LINE
  5
14E
  8
0
 62
     4
 10
713.2213265712175
 20
357.1685713411864
 30
24.02149290630415
 11
713.9709893218367
 21
357.2293457182402
 31
24.02149290630415
  0
LINE
  5
14F
  8
0
 62
     4
 10
713.9709893218367
 20
357.2293457182402
 30
24.02149290630415
 11
714.6737621183031
 21
357.2892072785633
 31
24.02149290630415
  0
LINE
  5
150
  8
0
 62
     4
 10
714.6737621183031
 20
357.2892072785633
 30
24.02149290630415
 11
715.3279154131288
 21
357.442080059418
 31
24.02149290630415
  0
LINE
  5
151
  8
0
 62
     4
 10
715.3279154131288
 20
357.442080059418
 30
24.02149290630415
 11
715.8864631661863
 21
357.6870032010909
 31
24.02149290630415
  0
LINE
  5
152
  8
0
 62
     4
 10
715.8864631661863
 20
357.6870032010909
 30
24.02149290630415
 11
716.4450589622294
 21
357.9319263427638
 31
24.02149290630415
  0
LINE
  5
153
  8
0
 62
     4
 10
716.4450589622294
 20
357.9319263427638
 30
24.02149290630415
 11
716.9080972594911
 21
358.2689478882389
 31
24.02149290630415
  0
LINE
  5
154
  8
0
 62
     4
 10
716.9080972594911
 20
358.2689478882389
 30
24.02149290630415
 11
717.3711355567527
 21
358.6059694337142
 31
24.02149290630415
  0
LINE
  5
155
  8
0
 62
     4
 10
717.3711355567527
 20
358.6059694337142
 30
24.02149290630415
 11
717.738616355233
 21
359.0350413400075
 31
24.02149290630415
  0
LINE
  5
156
  8
0
 62
     4
 10
717.738616355233
 20
359.0350413400075
 30
24.02149290630415
 11
718.1052323799687
 21
359.5110512434386
 31
24.02149290630415
  0
LINE
  5
157
  8
0
 62
     4
 10
718.1052323799687
 20
359.5110512434386
 30
24.02149290630415
 11
718.4240936768081
 21
360.0331343702637
 31
24.02149290630415
  0
LINE
  5
158
  8
0
 62
     4
 10
718.4240936768081
 20
360.0331343702637
 30
24.02149290630415
 11
718.7429069306596
 21
360.5551694541032
 31
24.02149290630415
  0
LINE
  5
159
  8
0
 62
     4
 10
718.7429069306596
 20
360.5551694541032
 30
24.02149290630415
 11
719.0140134996018
 21
361.123277761338
 31
24.02149290630415
  0
LINE
  5
15A
  8
0
 62
     4
 10
719.0140134996018
 20
361.123277761338
 30
24.02149290630415
 11
719.2850720255559
 21
361.6913860685716
 31
24.02149290630415
  0
LINE
  5
15B
  8
0
 62
     4
 10
719.2850720255559
 20
361.6913860685716
 30
24.02149290630415
 11
719.5075110498682
 21
362.3524575533539
 31
24.02149290630415
  0
LINE
  5
15C
  8
0
 62
     4
 10
719.5075110498682
 20
362.3524575533539
 30
24.02149290630415
 11
719.7308148479251
 21
362.9665910409958
 31
24.02149290630415
  0
LINE
  5
15D
  8
0
 62
     4
 10
719.7308148479251
 20
362.9665910409958
 30
24.02149290630415
 11
719.9054511013543
 21
363.6736877061866
 31
24.02149290630415
  0
LINE
  5
15E
  8
0
 62
     4
 10
719.9054511013543
 20
363.6736877061866
 30
24.02149290630415
 11
706.6725391321149
 21
396.7462869676419
 31
24.02149290630415
  0
LINE
  5
15F
  8
0
 62
     4
 10
770.3076838182615
 20
362.4684813640907
 30
24.02149290630415
 11
775.867362265454
 21
407.9679273788223
 31
24.02149290630415
  0
LINE
  5
160
  8
0
 62
     4
 10
775.867362265454
 20
407.9679273788223
 30
24.02149290630415
 11
807.1162497854643
 21
404.149566952408
 31
24.02149290630415
  0
LINE
  5
161
  8
0
 62
     4
 10
807.1162497854643
 20
404.149566952408
 30
24.02149290630415
 11
806.1772976707418
 21
396.4654276725821
 31
24.02149290630415
  0
LINE
  5
162
  8
0
 62
     4
 10
806.1772976707418
 20
396.4654276725821
 30
24.02149290630415
 11
784.1028428504662
 21
399.1627530680444
 31
24.02149290630415
  0
LINE
  5
163
  8
0
 62
     4
 10
784.1028428504662
 20
399.1627530680444
 30
24.02149290630415
 11
782.782621600335
 21
388.3583659886476
 31
24.02149290630415
  0
LINE
  5
164
  8
0
 62
     4
 10
782.782621600335
 20
388.3583659886476
 30
24.02149290630415
 11
801.8299839705314
 21
386.0309235409551
 31
24.02149290630415
  0
LINE
  5
165
  8
0
 62
     4
 10
801.8299839705314
 20
386.0309235409551
 30
24.02149290630415
 11
800.8910318558098
 21
378.3467842611292
 31
24.02149290630415
  0
LINE
  5
166
  8
0
 62
     4
 10
800.8910318558098
 20
378.3467842611292
 30
24.02149290630415
 11
781.8436694856137
 21
380.6742267088217
 31
24.02149290630415
  0
LINE
  5
167
  8
0
 62
     4
 10
781.8436694856137
 20
380.6742267088217
 30
24.02149290630415
 11
779.4820684750093
 21
361.347446333139
 31
24.02149290630415
  0
LINE
  5
168
  8
0
 62
     4
 10
779.4820684750093
 20
361.347446333139
 30
24.02149290630415
 11
770.3076838182615
 21
362.4684813640907
 31
24.02149290630415
  0
LINE
  5
169
  8
0
 62
     4
 10
808.6530488156382
 20
357.4669663260689
 30
24.02149290630415
 11
815.1126684730714
 21
390.0500556050813
 31
24.02149290630415
  0
LINE
  5
16A
  8
0
 62
     4
 10
815.1126684730714
 20
390.0500556050813
 30
24.02149290630415
 11
823.1203772623453
 21
388.4625231818885
 31
24.02149290630415
  0
LINE
  5
16B
  8
0
 62
     4
 10
823.1203772623453
 20
388.4625231818885
 30
24.02149290630415
 11
822.1988647514747
 21
383.8143643045194
 31
24.02149290630415
  0
LINE
  5
16C
  8
0
 62
     4
 10
822.1988647514747
 20
383.8143643045194
 30
24.02149290630415
 11
822.8602244941706
 21
384.4963825311151
 31
24.02149290630415
  0
LINE
  5
16D
  8
0
 62
     4
 10
822.8602244941706
 20
384.4963825311151
 30
24.02149290630415
 11
823.512456069562
 21
385.1323275343168
 31
24.02149290630415
  0
LINE
  5
16E
  8
0
 62
     4
 10
823.512456069562
 20
385.1323275343168
 30
24.02149290630415
 11
824.1004061299377
 21
385.6853983869906
 31
24.02149290630415
  0
LINE
  5
16F
  8
0
 62
     4
 10
824.1004061299377
 20
385.6853983869906
 30
24.02149290630415
 11
824.6792280230084
 21
386.1924440592576
 31
24.02149290630415
  0
LINE
  5
170
  8
0
 62
     4
 10
824.6792280230084
 20
386.1924440592576
 30
24.02149290630415
 11
825.2306654141637
 21
386.561414190298
 31
24.02149290630415
  0
LINE
  5
171
  8
0
 62
     4
 10
825.2306654141637
 20
386.561414190298
 30
24.02149290630415
 11
825.7821028053224
 21
386.9303843213386
 31
24.02149290630415
  0
LINE
  5
172
  8
0
 62
     4
 10
825.7821028053224
 20
386.9303843213386
 30
24.02149290630415
 11
826.2693067244481
 21
387.216432258867
 31
24.02149290630415
  0
LINE
  5
173
  8
0
 62
     4
 10
826.2693067244481
 20
387.216432258867
 30
24.02149290630415
 11
826.7382062659783
 21
387.4104778785644
 31
24.02149290630415
  0
LINE
  5
174
  8
0
 62
     4
 10
826.7382062659783
 20
387.4104778785644
 30
24.02149290630415
 11
827.2071538504954
 21
387.6044754552761
 31
24.02149290630415
  0
LINE
  5
175
  8
0
 62
     4
 10
827.2071538504954
 20
387.6044754552761
 30
24.02149290630415
 11
827.7038702808118
 21
387.6973425468523
 31
24.02149290630415
  0
LINE
  5
176
  8
0
 62
     4
 10
827.7038702808118
 20
387.6973425468523
 30
24.02149290630415
 11
828.1545615307202
 21
387.799289762746
 31
24.02149290630415
  0
LINE
  5
177
  8
0
 62
     4
 10
828.1545615307202
 20
387.799289762746
 30
24.02149290630415
 11
828.6421497937315
 21
387.8461316739138
 31
24.02149290630415
  0
LINE
  5
178
  8
0
 62
     4
 10
828.6421497937315
 20
387.8461316739138
 30
24.02149290630415
 11
829.1297380567448
 21
387.8929255420945
 31
24.02149290630415
  0
LINE
  5
179
  8
0
 62
     4
 10
829.1297380567448
 20
387.8929255420945
 30
24.02149290630415
 11
829.6542233328607
 21
387.8846141055494
 31
24.02149290630415
  0
LINE
  5
17A
  8
0
 62
     4
 10
829.6542233328607
 20
387.8846141055494
 30
24.02149290630415
 11
830.1695804416725
 21
387.8302774885947
 31
24.02149290630415
  0
LINE
  5
17B
  8
0
 62
     4
 10
830.1695804416725
 20
387.8302774885947
 30
24.02149290630415
 11
830.6758093831809
 21
387.7299156912329
 31
24.02149290630415
  0
LINE
  5
17C
  8
0
 62
     4
 10
830.6758093831809
 20
387.7299156912329
 30
24.02149290630415
 11
831.4030360594256
 21
387.5379359199256
 31
24.02149290630415
  0
LINE
  5
17D
  8
0
 62
     4
 10
831.4030360594256
 20
387.5379359199256
 30
24.02149290630415
 11
832.1302146926855
 21
387.3459081056328
 31
24.02149290630415
  0
LINE
  5
17E
  8
0
 62
     4
 10
832.1302146926855
 20
387.3459081056328
 30
24.02149290630415
 11
832.7931598539144
 21
387.0710061408121
 31
24.02149290630415
  0
LINE
  5
17F
  8
0
 62
     4
 10
832.7931598539144
 20
387.0710061408121
 30
24.02149290630415
 11
833.4930020282461
 21
386.7409508282799
 31
24.02149290630415
  0
LINE
  5
180
  8
0
 62
     4
 10
833.4930020282461
 20
386.7409508282799
 30
24.02149290630415
 11
834.1377388978513
 21
386.3739504596581
 31
24.02149290630415
  0
LINE
  5
181
  8
0
 62
     4
 10
834.1377388978513
 20
386.3739504596581
 30
24.02149290630415
 11
834.7732995571664
 21
385.9609729536124
 31
24.02149290630415
  0
LINE
  5
182
  8
0
 62
     4
 10
834.7732995571664
 20
385.9609729536124
 30
24.02149290630415
 11
835.399732049176
 21
385.5019702671583
 31
24.02149290630415
  0
LINE
  5
183
  8
0
 62
     4
 10
835.399732049176
 20
385.5019702671583
 30
24.02149290630415
 11
836.0170844168692
 21
384.9969424002973
 31
24.02149290630415
  0
LINE
  5
184
  8
0
 62
     4
 10
836.0170844168692
 20
384.9969424002973
 30
24.02149290630415
 11
831.8515653749714
 21
377.9786308608482
 31
24.02149290630415
  0
LINE
  5
185
  8
0
 62
     4
 10
831.8515653749714
 20
377.9786308608482
 30
24.02149290630415
 11
831.4183137289135
 21
378.447194101478
 31
24.02149290630415
  0
LINE
  5
186
  8
0
 62
     4
 10
831.4183137289135
 20
378.447194101478
 30
24.02149290630415
 11
830.9207805678382
 21
378.83278710561
 31
24.02149290630415
  0
LINE
  5
187
  8
0
 62
     4
 10
830.9207805678382
 20
378.83278710561
 30
24.02149290630415
 11
830.4601924628532
 21
379.1632748050149
 31
24.02149290630415
  0
LINE
  5
188
  8
0
 62
     4
 10
830.4601924628532
 20
379.1632748050149
 30
24.02149290630415
 11
829.9904281475774
 21
379.4476892810257
 31
24.02149290630415
  0
LINE
  5
189
  8
0
 62
     4
 10
829.9904281475774
 20
379.4476892810257
 30
24.02149290630415
 11
829.520711875288
 21
379.7321518000222
 31
24.02149290630415
  0
LINE
  5
18A
  8
0
 62
     4
 10
829.520711875288
 20
379.7321518000222
 30
24.02149290630415
 11
829.0326912254025
 21
379.9245639582019
 31
24.02149290630415
  0
LINE
  5
18B
  8
0
 62
     4
 10
829.0326912254025
 20
379.9245639582019
 30
24.02149290630415
 11
828.5907437989129
 21
380.1078479490772
 31
24.02149290630415
  0
LINE
  5
18C
  8
0
 62
     4
 10
828.5907437989129
 20
380.1078479490772
 30
24.02149290630415
 11
828.0845148574053
 21
380.2082097464389
 31
24.02149290630415
  0
LINE
  5
18D
  8
0
 62
     4
 10
828.0845148574053
 20
380.2082097464389
 30
24.02149290630415
 11
827.6703362767141
 21
380.290315209193
 31
24.02149290630415
  0
LINE
  5
18E
  8
0
 62
     4
 10
827.6703362767141
 20
380.290315209193
 30
24.02149290630415
 11
827.246981485735
 21
380.3263954915386
 31
24.02149290630415
  0
LINE
  5
18F
  8
0
 62
     4
 10
827.246981485735
 20
380.3263954915386
 30
24.02149290630415
 11
826.8145465704351
 21
380.3164505934745
 31
24.02149290630415
  0
LINE
  5
190
  8
0
 62
     4
 10
826.8145465704351
 20
380.3164505934745
 30
24.02149290630415
 11
826.3821116551353
 21
380.3065537383976
 31
24.02149290630415
  0
LINE
  5
191
  8
0
 62
     4
 10
826.3821116551353
 20
380.3065537383976
 30
24.02149290630415
 11
825.9865737529403
 21
380.241455492622
 31
24.02149290630415
  0
LINE
  5
192
  8
0
 62
     4
 10
825.9865737529403
 20
380.241455492622
 30
24.02149290630415
 11
825.5819076834409
 21
380.1303801094224
 31
24.02149290630415
  0
LINE
  5
193
  8
0
 62
     4
 10
825.5819076834409
 20
380.1303801094224
 30
24.02149290630415
 11
825.2141386270455
 21
379.9641513785113
 31
24.02149290630415
  0
LINE
  5
194
  8
0
 62
     4
 10
825.2141386270455
 20
379.9641513785113
 30
24.02149290630415
 11
824.84636957065
 21
379.7978746046131
 31
24.02149290630415
  0
LINE
  5
195
  8
0
 62
     4
 10
824.84636957065
 20
379.7978746046131
 30
24.02149290630415
 11
824.4694723469502
 21
379.5856206932936
 31
24.02149290630415
  0
LINE
  5
196
  8
0
 62
     4
 10
824.4694723469502
 20
379.5856206932936
 30
24.02149290630415
 11
824.1294721363531
 21
379.3182134342599
 31
24.02149290630415
  0
LINE
  5
197
  8
0
 62
     4
 10
824.1294721363531
 20
379.3182134342599
 30
24.02149290630415
 11
823.7803918014397
 21
379.0047809948192
 31
24.02149290630415
  0
LINE
  5
198
  8
0
 62
     4
 10
823.7803918014397
 20
379.0047809948192
 30
24.02149290630415
 11
823.422135256234
 21
378.6453714179544
 31
24.02149290630415
  0
LINE
  5
199
  8
0
 62
     4
 10
823.422135256234
 20
378.6453714179544
 30
24.02149290630415
 11
823.1007757241341
 21
378.2307604503925
 31
24.02149290630415
  0
LINE
  5
19A
  8
0
 62
     4
 10
823.1007757241341
 20
378.2307604503925
 30
24.02149290630415
 11
822.7612079004105
 21
377.7240991220124
 31
24.02149290630415
  0
LINE
  5
19B
  8
0
 62
     4
 10
822.7612079004105
 20
377.7240991220124
 30
24.02149290630415
 11
822.4676172141092
 21
377.2083576693135
 31
24.02149290630415
  0
LINE
  5
19C
  8
0
 62
     4
 10
822.4676172141092
 20
377.2083576693135
 30
24.02149290630415
 11
822.155818236186
 21
376.600565855798
 31
24.02149290630415
  0
LINE
  5
19D
  8
0
 62
     4
 10
822.155818236186
 20
376.600565855798
 30
24.02149290630415
 11
821.8257629236543
 21
375.9007236814657
 31
24.02149290630415
  0
LINE
  5
19E
  8
0
 62
     4
 10
821.8257629236543
 20
375.9007236814657
 30
24.02149290630415
 11
821.5052201223114
 21
375.0076526181956
 31
24.02149290630415
  0
LINE
  5
19F
  8
0
 62
     4
 10
821.5052201223114
 20
375.0076526181956
 30
24.02149290630415
 11
821.1481646517534
 21
373.9305288762778
 31
24.02149290630415
  0
LINE
  5
1A0
  8
0
 62
     4
 10
821.1481646517534
 20
373.9305288762778
 30
24.02149290630415
 11
820.8006697353699
 21
372.6601762454206
 31
24.02149290630415
  0
LINE
  5
1A1
  8
0
 62
     4
 10
820.8006697353699
 20
372.6601762454206
 30
24.02149290630415
 11
820.4257903170746
 21
371.2517480733371
 31
24.02149290630415
  0
LINE
  5
1A2
  8
0
 62
     4
 10
820.4257903170746
 20
371.2517480733371
 30
24.02149290630415
 11
820.0512952426659
 21
369.6041138748943
 31
24.02149290630415
  0
LINE
  5
1A3
  8
0
 62
     4
 10
820.0512952426659
 20
369.6041138748943
 30
24.02149290630415
 11
819.649463709329
 21
367.8184041352253
 31
24.02149290630415
  0
LINE
  5
1A4
  8
0
 62
     4
 10
819.649463709329
 20
367.8184041352253
 30
24.02149290630415
 11
819.2571446871818
 21
365.8394655066182
 31
24.02149290630415
  0
LINE
  5
1A5
  8
0
 62
     4
 10
819.2571446871818
 20
365.8394655066182
 30
24.02149290630415
 11
817.2590369072368
 21
355.7608157709067
 31
24.02149290630415
  0
LINE
  5
1A6
  8
0
 62
     4
 10
817.2590369072368
 20
355.7608157709067
 30
24.02149290630415
 11
808.6530488156382
 21
357.4669663260689
 31
24.02149290630415
  0
LINE
  5
1A7
  8
0
 62
     4
 10
835.5284392081685
 20
358.147351091147
 30
24.02149290630415
 11
835.5726867981016
 21
359.0113561480016
 31
24.02149290630415
  0
LINE
  5
1A8
  8
0
 62
     4
 10
835.5726867981016
 20
359.0113561480016
 30
24.02149290630415
 11
835.6294255643461
 21
359.9205216115194
 31
24.02149290630415
  0
LINE
  5
1A9
  8
0
 62
     4
 10
835.6294255643461
 20
359.9205216115194
 30
24.02149290630415
 11
835.7891204491873
 21
360.8499131720636
 31
24.02149290630415
  0
LINE
  5
1AA
  8
0
 62
     4
 10
835.7891204491873
 20
360.8499131720636
 30
24.02149290630415
 11
835.9738457296378
 21
361.869769674894
 31
24.02149290630415
  0
LINE
  5
1AB
  8
0
 62
     4
 10
835.9738457296378
 20
361.869769674894
 30
24.02149290630415
 11
836.1710621863977
 21
362.9348346273733
 31
24.02149290630415
  0
LINE
  5
1AC
  8
0
 62
     4
 10
836.1710621863977
 20
362.9348346273733
 30
24.02149290630415
 11
836.4712347617551
 21
364.0200776338949
 31
24.02149290630415
  0
LINE
  5
1AD
  8
0
 62
     4
 10
836.4712347617551
 20
364.0200776338949
 30
24.02149290630415
 11
842.0743440681229
 21
384.278315418512
 31
24.02149290630415
  0
LINE
  5
1AE
  8
0
 62
     4
 10
842.0743440681229
 20
384.278315418512
 30
24.02149290630415
 11
850.5303419580132
 21
381.9395348261676
 31
24.02149290630415
  0
LINE
  5
1AF
  8
0
 62
     4
 10
850.5303419580132
 20
381.9395348261676
 30
24.02149290630415
 11
846.4655690573657
 21
367.2432815520631
 31
24.02149290630415
  0
LINE
  5
1B0
  8
0
 62
     4
 10
846.4655690573657
 20
367.2432815520631
 30
24.02149290630415
 11
846.0153582373173
 21
365.6153930207886
 31
24.02149290630415
  0
LINE
  5
1B1
  8
0
 62
     4
 10
846.0153582373173
 20
365.6153930207886
 30
24.02149290630415
 11
845.6603205721606
 21
364.1558471118012
 31
24.02149290630415
  0
LINE
  5
1B2
  8
0
 62
     4
 10
845.6603205721606
 20
364.1558471118012
 30
24.02149290630415
 11
845.3101352485728
 21
362.8897222636958
 31
24.02149290630415
  0
LINE
  5
1B3
  8
0
 62
     4
 10
845.3101352485728
 20
362.8897222636958
 30
24.02149290630415
 11
845.1004276155006
 21
361.7794488615663
 31
24.02149290630415
  0
LINE
  5
1B4
  8
0
 62
     4
 10
845.1004276155006
 20
361.7794488615663
 30
24.02149290630415
 11
844.8704938854019
 21
360.7720835350471
 31
24.02149290630415
  0
LINE
  5
1B5
  8
0
 62
     4
 10
844.8704938854019
 20
360.7720835350471
 30
24.02149290630415
 11
844.7483205724809
 21
359.9783653664377
 31
24.02149290630415
  0
LINE
  5
1B6
  8
0
 62
     4
 10
844.7483205724809
 20
359.9783653664377
 30
24.02149290630415
 11
844.6636688314786
 21
359.3202725467764
 31
24.02149290630415
  0
LINE
  5
1B7
  8
0
 62
     4
 10
844.6636688314786
 20
359.3202725467764
 30
24.02149290630415
 11
844.6290298387066
 21
358.8430615687003
 31
24.02149290630415
  0
LINE
  5
1B8
  8
0
 62
     4
 10
844.6290298387066
 20
358.8430615687003
 30
24.02149290630415
 11
844.6646296911947
 21
358.4437763136107
 31
24.02149290630415
  0
LINE
  5
1B9
  8
0
 62
     4
 10
844.6646296911947
 20
358.4437763136107
 30
24.02149290630415
 11
844.7454379933306
 21
358.0319998822114
 31
24.02149290630415
  0
LINE
  5
1BA
  8
0
 62
     4
 10
844.7454379933306
 20
358.0319998822114
 30
24.02149290630415
 11
844.838785514766
 21
357.6654319004608
 31
24.02149290630415
  0
LINE
  5
1BB
  8
0
 62
     4
 10
844.838785514766
 20
357.6654319004608
 30
24.02149290630415
 11
844.9320849932144
 21
357.2989119616974
 31
24.02149290630415
  0
LINE
  5
1BC
  8
0
 62
     4
 10
844.9320849932144
 20
357.2989119616974
 30
24.02149290630415
 11
845.0706409642976
 21
356.9198047606501
 31
24.02149290630415
  0
LINE
  5
1BD
  8
0
 62
     4
 10
845.0706409642976
 20
356.9198047606501
 30
24.02149290630415
 11
845.2216881116913
 21
356.5859540522373
 31
24.02149290630415
  0
LINE
  5
1BE
  8
0
 62
     4
 10
845.2216881116913
 20
356.5859540522373
 30
24.02149290630415
 11
845.4756913776835
 21
356.2723294408525
 31
24.02149290630415
  0
LINE
  5
1BF
  8
0
 62
     4
 10
845.4756913776835
 20
356.2723294408525
 30
24.02149290630415
 11
845.6844861940256
 21
355.9711960057801
 31
24.02149290630415
  0
LINE
  5
1C0
  8
0
 62
     4
 10
845.6844861940256
 20
355.9711960057801
 30
24.02149290630415
 11
845.9384894600157
 21
355.6575233514096
 31
24.02149290630415
  0
LINE
  5
1C1
  8
0
 62
     4
 10
845.9384894600157
 20
355.6575233514096
 30
24.02149290630415
 11
846.2501923519685
 21
355.3766160133624
 31
24.02149290630415
  0
LINE
  5
1C2
  8
0
 62
     4
 10
846.2501923519685
 20
355.3766160133624
 30
24.02149290630415
 11
846.5744344632174
 21
355.1409171249655
 31
24.02149290630415
  0
LINE
  5
1C3
  8
0
 62
     4
 10
846.5744344632174
 20
355.1409171249655
 30
24.02149290630415
 11
846.8986765744673
 21
354.9051701935842
 31
24.02149290630415
  0
LINE
  5
1C4
  8
0
 62
     4
 10
846.8986765744673
 20
354.9051701935842
 30
24.02149290630415
 11
847.2806183116768
 21
354.7021885785251
 31
24.02149290630415
  0
LINE
  5
1C5
  8
0
 62
     4
 10
847.2806183116768
 20
354.7021885785251
 30
24.02149290630415
 11
847.6626080918729
 21
354.4992069634673
 31
24.02149290630415
  0
LINE
  5
1C6
  8
0
 62
     4
 10
847.6626080918729
 20
354.4992069634673
 30
24.02149290630415
 11
848.1022974980297
 21
354.3288945787614
 31
24.02149290630415
  0
LINE
  5
1C7
  8
0
 62
     4
 10
848.1022974980297
 20
354.3288945787614
 30
24.02149290630415
 11
848.5996865301479
 21
354.1912994673946
 31
24.02149290630415
  0
LINE
  5
1C8
  8
0
 62
     4
 10
848.5996865301479
 20
354.1912994673946
 30
24.02149290630415
 11
849.0971236052521
 21
354.0537523990123
 31
24.02149290630415
  0
LINE
  5
1C9
  8
0
 62
     4
 10
849.0971236052521
 20
354.0537523990123
 30
24.02149290630415
 11
849.664751482627
 21
353.9940830106334
 31
24.02149290630415
  0
LINE
  5
1CA
  8
0
 62
     4
 10
849.664751482627
 20
353.9940830106334
 30
24.02149290630415
 11
850.1871709103539
 21
353.9469528415515
 31
24.02149290630415
  0
LINE
  5
1CB
  8
0
 62
     4
 10
850.1871709103539
 20
353.9469528415515
 30
24.02149290630415
 11
850.7221295573768
 21
353.9450311221184
 31
24.02149290630415
  0
LINE
  5
1CC
  8
0
 62
     4
 10
850.7221295573768
 20
353.9450311221184
 30
24.02149290630415
 11
851.2570401614141
 21
353.9431094026867
 31
24.02149290630415
  0
LINE
  5
1CD
  8
0
 62
     4
 10
851.2570401614141
 20
353.9431094026867
 30
24.02149290630415
 11
851.7717727114107
 21
354.0441438018494
 31
24.02149290630415
  0
LINE
  5
1CE
  8
0
 62
     4
 10
851.7717727114107
 20
354.0441438018494
 30
24.02149290630415
 11
852.2865052614072
 21
354.1451782010136
 31
24.02149290630415
  0
LINE
  5
1CF
  8
0
 62
     4
 10
852.2865052614072
 20
354.1451782010136
 30
24.02149290630415
 11
852.8137289877154
 21
354.2914210498279
 31
24.02149290630415
  0
LINE
  5
1D0
  8
0
 62
     4
 10
852.8137289877154
 20
354.2914210498279
 30
24.02149290630415
 11
853.3082354406847
 21
354.4954115675881
 31
24.02149290630415
  0
LINE
  5
1D1
  8
0
 62
     4
 10
853.3082354406847
 20
354.4954115675881
 30
24.02149290630415
 11
853.7575334440037
 21
354.7118932616593
 31
24.02149290630415
  0
LINE
  5
1D2
  8
0
 62
     4
 10
853.7575334440037
 20
354.7118932616593
 30
24.02149290630415
 11
854.219370666621
 21
354.9735834053807
 31
24.02149290630415
  0
LINE
  5
1D3
  8
0
 62
     4
 10
854.219370666621
 20
354.9735834053807
 30
24.02149290630415
 11
854.6359513966011
 21
355.2477647254134
 31
24.02149290630415
  0
LINE
  5
1D4
  8
0
 62
     4
 10
854.6359513966011
 20
355.2477647254134
 30
24.02149290630415
 11
855.0073236769333
 21
355.5344852647428
 31
24.02149290630415
  0
LINE
  5
1D5
  8
0
 62
     4
 10
855.0073236769333
 20
355.5344852647428
 30
24.02149290630415
 11
855.3459786839255
 21
355.8789534730194
 31
24.02149290630415
  0
LINE
  5
1D6
  8
0
 62
     4
 10
855.3459786839255
 20
355.8789534730194
 30
24.02149290630415
 11
855.6846336909189
 21
356.2233736383101
 31
24.02149290630415
  0
LINE
  5
1D7
  8
0
 62
     4
 10
855.6846336909189
 20
356.2233736383101
 30
24.02149290630415
 11
855.9905714245747
 21
356.6255414725466
 31
24.02149290630415
  0
LINE
  5
1D8
  8
0
 62
     4
 10
855.9905714245747
 20
356.6255414725466
 30
24.02149290630415
 11
856.263839927876
 21
357.0854569757315
 31
24.02149290630415
  0
LINE
  5
1D9
  8
0
 62
     4
 10
856.263839927876
 20
357.0854569757315
 30
24.02149290630415
 11
856.5870731364232
 21
357.7262062775146
 31
24.02149290630415
  0
LINE
  5
1DA
  8
0
 62
     4
 10
856.5870731364232
 20
357.7262062775146
 30
24.02149290630415
 11
856.9603671361874
 21
358.5478374208816
 31
24.02149290630415
  0
LINE
  5
1DB
  8
0
 62
     4
 10
856.9603671361874
 20
358.5478374208816
 30
24.02149290630415
 11
857.2807658085712
 21
359.5301723517915
 31
24.02149290630415
  0
LINE
  5
1DC
  8
0
 62
     4
 10
857.2807658085712
 20
359.5301723517915
 30
24.02149290630415
 11
857.6838464595394
 21
360.6356414553396
 31
24.02149290630415
  0
LINE
  5
1DD
  8
0
 62
     4
 10
857.6838464595394
 20
360.6356414553396
 30
24.02149290630415
 11
858.1042706283847
 21
361.979692026433
 31
24.02149290630415
  0
LINE
  5
1DE
  8
0
 62
     4
 10
858.1042706283847
 20
361.979692026433
 30
24.02149290630415
 11
858.5497251928398
 21
363.4142075398124
 31
24.02149290630415
  0
LINE
  5
1DF
  8
0
 62
     4
 10
858.5497251928398
 20
363.4142075398124
 30
24.02149290630415
 11
859.012475232186
 21
365.0873045207356
 31
24.02149290630415
  0
LINE
  5
1E0
  8
0
 62
     4
 10
859.012475232186
 20
365.0873045207356
 30
24.02149290630415
 11
862.7395059425719
 21
378.5626413963851
 31
24.02149290630415
  0
LINE
  5
1E1
  8
0
 62
     4
 10
862.7395059425719
 20
378.5626413963851
 30
24.02149290630415
 11
871.1955038324632
 21
376.223860804042
 31
24.02149290630415
  0
LINE
  5
1E2
  8
0
 62
     4
 10
871.1955038324632
 20
376.223860804042
 30
24.02149290630415
 11
862.3406530743553
 21
344.2086396173361
 31
24.02149290630415
  0
LINE
  5
1E3
  8
0
 62
     4
 10
862.3406530743553
 20
344.2086396173361
 30
24.02149290630415
 11
854.4725091588675
 21
346.3848427456887
 31
24.02149290630415
  0
LINE
  5
1E4
  8
0
 62
     4
 10
854.4725091588675
 20
346.3848427456887
 30
24.02149290630415
 11
855.7982073093795
 21
351.1780914402129
 31
24.02149290630415
  0
LINE
  5
1E5
  8
0
 62
     4
 10
855.7982073093795
 20
351.1780914402129
 30
24.02149290630415
 11
855.1709580866097
 21
350.6700849082308
 31
24.02149290630415
  0
LINE
  5
1E6
  8
0
 62
     4
 10
855.1709580866097
 20
350.6700849082308
 30
24.02149290630415
 11
854.5109435475176
 21
350.2198260451944
 31
24.02149290630415
  0
LINE
  5
1E7
  8
0
 62
     4
 10
854.5109435475176
 20
350.2198260451944
 30
24.02149290630415
 11
853.8634682277207
 21
349.8147275888225
 31
24.02149290630415
  0
LINE
  5
1E8
  8
0
 62
     4
 10
853.8634682277207
 20
349.8147275888225
 30
24.02149290630415
 11
853.1255279656384
 21
349.4347075710457
 31
24.02149290630415
  0
LINE
  5
1E9
  8
0
 62
     4
 10
853.1255279656384
 20
349.4347075710457
 30
24.02149290630415
 11
852.4125700561792
 21
349.1451044525667
 31
24.02149290630415
  0
LINE
  5
1EA
  8
0
 62
     4
 10
852.4125700561792
 20
349.1451044525667
 30
24.02149290630415
 11
851.641960563745
 21
348.8227840607498
 31
24.02149290630415
  0
LINE
  5
1EB
  8
0
 62
     4
 10
851.641960563745
 20
348.8227840607498
 30
24.02149290630415
 11
850.8963334239338
 21
348.5909286112177
 31
24.02149290630415
  0
LINE
  5
1EC
  8
0
 62
     4
 10
850.8963334239338
 20
348.5909286112177
 30
24.02149290630415
 11
850.0727325181488
 21
348.4292639639582
 31
24.02149290630415
  0
LINE
  5
1ED
  8
0
 62
     4
 10
850.0727325181488
 20
348.4292639639582
 30
24.02149290630415
 11
849.2491796553486
 21
348.2676473596857
 31
24.02149290630415
  0
LINE
  5
1EE
  8
0
 62
     4
 10
849.2491796553486
 20
348.2676473596857
 30
24.02149290630415
 11
848.4381179688596
 21
348.1511911620751
 31
24.02149290630415
  0
LINE
  5
1EF
  8
0
 62
     4
 10
848.4381179688596
 20
348.1511911620751
 30
24.02149290630415
 11
847.6520866779804
 21
348.1251999067505
 31
24.02149290630415
  0
LINE
  5
1F0
  8
0
 62
     4
 10
847.6520866779804
 20
348.1251999067505
 30
24.02149290630415
 11
846.8660553871
 21
348.099208651426
 31
24.02149290630415
  0
LINE
  5
1F1
  8
0
 62
     4
 10
846.8660553871
 20
348.099208651426
 30
24.02149290630415
 11
846.0597979991933
 21
348.1761735146987
 31
24.02149290630415
  0
LINE
  5
1F2
  8
0
 62
     4
 10
846.0597979991933
 20
348.1761735146987
 30
24.02149290630415
 11
845.2535406112854
 21
348.2531383779701
 31
24.02149290630415
  0
LINE
  5
1F3
  8
0
 62
     4
 10
845.2535406112854
 20
348.2531383779701
 30
24.02149290630415
 11
844.4723136189862
 21
348.4205681835263
 31
24.02149290630415
  0
LINE
  5
1F4
  8
0
 62
     4
 10
844.4723136189862
 20
348.4205681835263
 30
24.02149290630415
 11
843.645878177038
 21
348.6004411224092
 31
24.02149290630415
  0
LINE
  5
1F5
  8
0
 62
     4
 10
843.645878177038
 20
348.6004411224092
 30
24.02149290630415
 11
842.877142361051
 21
348.8130793776156
 31
24.02149290630415
  0
LINE
  5
1F6
  8
0
 62
     4
 10
842.877142361051
 20
348.8130793776156
 30
24.02149290630415
 11
842.1334369406718
 21
349.1161345321224
 31
24.02149290630415
  0
LINE
  5
1F7
  8
0
 62
     4
 10
842.1334369406718
 20
349.1161345321224
 30
24.02149290630415
 11
841.3897315202926
 21
349.4191896866279
 31
24.02149290630415
  0
LINE
  5
1F8
  8
0
 62
     4
 10
841.3897315202926
 20
349.4191896866279
 30
24.02149290630415
 11
840.7162169021851
 21
349.8001705641212
 31
24.02149290630415
  0
LINE
  5
1F9
  8
0
 62
     4
 10
840.7162169021851
 20
349.8001705641212
 30
24.02149290630415
 11
840.0427503270637
 21
350.181151441616
 31
24.02149290630415
  0
LINE
  5
1FA
  8
0
 62
     4
 10
840.0427503270637
 20
350.181151441616
 30
24.02149290630415
 11
839.4395225972019
 21
350.6400580420973
 31
24.02149290630415
  0
LINE
  5
1FB
  8
0
 62
     4
 10
839.4395225972019
 20
350.6400580420973
 30
24.02149290630415
 11
838.8362468243522
 21
351.0990126855658
 31
24.02149290630415
  0
LINE
  5
1FC
  8
0
 62
     4
 10
838.8362468243522
 20
351.0990126855658
 30
24.02149290630415
 11
838.2455102708007
 21
351.6031277356973
 31
24.02149290630415
  0
LINE
  5
1FD
  8
0
 62
     4
 10
838.2455102708007
 20
351.6031277356973
 30
24.02149290630415
 11
837.7702210121561
 21
352.1726773325056
 31
24.02149290630415
  0
LINE
  5
1FE
  8
0
 62
     4
 10
837.7702210121561
 20
352.1726773325056
 30
24.02149290630415
 11
837.2949317535115
 21
352.7422749722996
 31
24.02149290630415
  0
LINE
  5
1FF
  8
0
 62
     4
 10
837.2949317535115
 20
352.7422749722996
 30
24.02149290630415
 11
836.864850944517
 21
353.2993333927968
 31
24.02149290630415
  0
LINE
  5
200
  8
0
 62
     4
 10
836.864850944517
 20
353.2993333927968
 30
24.02149290630415
 11
836.5502654734162
 21
353.9217783169851
 31
24.02149290630415
  0
LINE
  5
201
  8
0
 62
     4
 10
836.5502654734162
 20
353.9217783169851
 30
24.02149290630415
 11
836.2356319593307
 21
354.544271284159
 31
24.02149290630415
  0
LINE
  5
202
  8
0
 62
     4
 10
836.2356319593307
 20
354.544271284159
 30
24.02149290630415
 11
835.9912372905017
 21
355.244689974321
 31
24.02149290630415
  0
LINE
  5
203
  8
0
 62
     4
 10
835.9912372905017
 20
355.244689974321
 30
24.02149290630415
 11
835.7920991143087
 21
355.932569445186
 31
24.02149290630415
  0
LINE
  5
204
  8
0
 62
     4
 10
835.7920991143087
 20
355.932569445186
 30
24.02149290630415
 11
835.6381213447792
 21
356.6080057827256
 31
24.02149290630415
  0
LINE
  5
205
  8
0
 62
     4
 10
835.6381213447792
 20
356.6080057827256
 30
24.02149290630415
 11
835.554430463493
 21
357.3613198002674
 31
24.02149290630415
  0
LINE
  5
206
  8
0
 62
     4
 10
835.554430463493
 20
357.3613198002674
 30
24.02149290630415
 11
835.5284392081685
 21
358.147351091147
 31
24.02149290630415
  0
LINE
  5
207
  8
0
 62
     4
 10
871.0355206897068
 20
341.4892144483982
 30
24.02149290630415
 11
881.9781274392869
 21
372.8523001456849
 31
24.02149290630415
  0
LINE
  5
208
  8
0
 62
     4
 10
881.9781274392869
 20
372.8523001456849
 30
24.02149290630415
 11
890.2618912250402
 21
369.96213020517
 31
24.02149290630415
  0
LINE
  5
209
  8
0
 62
     4
 10
890.2618912250402
 20
369.96213020517
 30
24.02149290630415
 11
879.3192844754601
 21
338.5989964648976
 31
24.02149290630415
  0
LINE
  5
20A
  8
0
 62
     4
 10
879.3192844754601
 20
338.5989964648976
 30
24.02149290630415
 11
871.0355206897068
 21
341.4892144483982
 31
24.02149290630415
  0
LINE
  5
20B
  8
0
 62
     4
 10
883.4618389701375
 20
377.1049211208593
 30
24.02149290630415
 11
886.1356713455382
 21
384.7684980027575
 31
24.02149290630415
  0
LINE
  5
20C
  8
0
 62
     4
 10
886.1356713455382
 20
384.7684980027575
 30
24.02149290630415
 11
894.4194351312915
 21
381.8783280622425
 31
24.02149290630415
  0
LINE
  5
20D
  8
0
 62
     4
 10
894.4194351312915
 20
381.8783280622425
 30
24.02149290630415
 11
891.7456027558906
 21
374.2147511803444
 31
24.02149290630415
  0
LINE
  5
20E
  8
0
 62
     4
 10
891.7456027558906
 20
374.2147511803444
 30
24.02149290630415
 11
883.4618389701375
 21
377.1049211208593
 31
24.02149290630415
  0
LINE
  5
20F
  8
0
 62
     4
 10
890.2318163159209
 20
338.3350002578575
 30
24.02149290630415
 11
890.2581438721475
 21
338.7793017906531
 31
24.02149290630415
  0
LINE
  5
210
  8
0
 62
     4
 10
890.2581438721475
 20
338.7793017906531
 30
24.02149290630415
 11
890.3019110322225
 21
339.26717831158
 31
24.02149290630415
  0
LINE
  5
211
  8
0
 62
     4
 10
890.3019110322225
 20
339.26717831158
 30
24.02149290630415
 11
890.4066927842807
 21
339.7811421738029
 31
24.02149290630415
  0
LINE
  5
212
  8
0
 62
     4
 10
890.4066927842807
 20
339.7811421738029
 30
24.02149290630415
 11
890.5114745363369
 21
340.2951060360257
 31
24.02149290630415
  0
LINE
  5
213
  8
0
 62
     4
 10
890.5114745363369
 20
340.2951060360257
 30
24.02149290630415
 11
890.6249040258401
 21
340.7045283611207
 31
24.02149290630415
  0
LINE
  5
214
  8
0
 62
     4
 10
890.6249040258401
 20
340.7045283611207
 30
24.02149290630415
 11
890.7471734247338
 21
341.2620672114762
 31
24.02149290630415
  0
LINE
  5
215
  8
0
 62
     4
 10
890.7471734247338
 20
341.2620672114762
 30
24.02149290630415
 11
890.9303613296379
 21
341.8457414461133
 31
24.02149290630415
  0
LINE
  5
216
  8
0
 62
     4
 10
890.9303613296379
 20
341.8457414461133
 30
24.02149290630415
 11
891.148476485226
 21
342.5164695710442
 31
24.02149290630415
  0
LINE
  5
217
  8
0
 62
     4
 10
891.148476485226
 20
342.5164695710442
 30
24.02149290630415
 11
891.4624854404985
 21
343.3004350135336
 31
24.02149290630415
  0
LINE
  5
218
  8
0
 62
     4
 10
891.4624854404985
 20
343.3004350135336
 30
24.02149290630415
 11
891.7677986153369
 21
344.1889419931522
 31
24.02149290630415
  0
LINE
  5
219
  8
0
 62
     4
 10
891.7677986153369
 20
344.1889419931522
 30
24.02149290630415
 11
892.1341263821582
 21
345.1035843570523
 31
24.02149290630415
  0
LINE
  5
21A
  8
0
 62
     4
 10
892.1341263821582
 20
345.1035843570523
 30
24.02149290630415
 11
892.5527729605299
 21
346.1488555993776
 31
24.02149290630415
  0
LINE
  5
21B
  8
0
 62
     4
 10
892.5527729605299
 20
346.1488555993776
 30
24.02149290630415
 11
897.9430518397455
 21
359.6068489571487
 31
24.02149290630415
  0
LINE
  5
21C
  8
0
 62
     4
 10
897.9430518397455
 20
359.6068489571487
 30
24.02149290630415
 11
894.1974284938526
 21
361.1070872751192
 31
24.02149290630415
  0
LINE
  5
21D
  8
0
 62
     4
 10
894.1974284938526
 20
361.1070872751192
 30
24.02149290630415
 11
896.7966020693002
 21
367.5965416267429
 31
24.02149290630415
  0
LINE
  5
21E
  8
0
 62
     4
 10
896.7966020693002
 20
367.5965416267429
 30
24.02149290630415
 11
900.5422254151931
 21
366.0963513517582
 31
24.02149290630415
  0
LINE
  5
21F
  8
0
 62
     4
 10
900.5422254151931
 20
366.0963513517582
 30
24.02149290630415
 11
903.0018341168566
 21
372.2373499272836
 31
24.02149290630415
  0
LINE
  5
220
  8
0
 62
     4
 10
903.0018341168566
 20
372.2373499272836
 30
24.02149290630415
 11
913.0652061830792
 21
373.7661738218127
 31
24.02149290630415
  0
LINE
  5
221
  8
0
 62
     4
 10
913.0652061830792
 20
373.7661738218127
 30
24.02149290630415
 11
908.6867125850765
 21
362.8342806580674
 31
24.02149290630415
  0
LINE
  5
222
  8
0
 62
     4
 10
908.6867125850765
 20
362.8342806580674
 30
24.02149290630415
 11
914.2615726157858
 21
360.6014348494414
 31
24.02149290630415
  0
LINE
  5
223
  8
0
 62
     4
 10
914.2615726157858
 20
360.6014348494414
 30
24.02149290630415
 11
911.6623990403382
 21
354.111932454832
 31
24.02149290630415
  0
LINE
  5
224
  8
0
 62
     4
 10
911.6623990403382
 20
354.111932454832
 30
24.02149290630415
 11
906.0875390096289
 21
356.3448263064437
 31
24.02149290630415
  0
LINE
  5
225
  8
0
 62
     4
 10
906.0875390096289
 20
356.3448263064437
 30
24.02149290630415
 11
901.0985151479188
 21
343.8885292028665
 31
24.02149290630415
  0
LINE
  5
226
  8
0
 62
     4
 10
901.0985151479188
 20
343.8885292028665
 30
24.02149290630415
 11
900.7496269849478
 21
343.0174618270976
 31
24.02149290630415
  0
LINE
  5
227
  8
0
 62
     4
 10
900.7496269849478
 20
343.0174618270976
 30
24.02149290630415
 11
900.4181784258258
 21
342.1899213964756
 31
24.02149290630415
  0
LINE
  5
228
  8
0
 62
     4
 10
900.4181784258258
 20
342.1899213964756
 30
24.02149290630415
 11
900.1826236663858
 21
341.4756182834134
 31
24.02149290630415
  0
LINE
  5
229
  8
0
 62
     4
 10
900.1826236663858
 20
341.4756182834134
 30
24.02149290630415
 11
899.9558607733504
 21
340.9094316956117
 31
24.02149290630415
  0
LINE
  5
22A
  8
0
 62
     4
 10
899.9558607733504
 20
340.9094316956117
 30
24.02149290630415
 11
899.7465374841659
 21
340.3868200959425
 31
24.02149290630415
  0
LINE
  5
22B
  8
0
 62
     4
 10
899.7465374841659
 20
340.3868200959425
 30
24.02149290630415
 11
899.6330599516757
 21
339.9773497278618
 31
24.02149290630415
  0
LINE
  5
22C
  8
0
 62
     4
 10
899.6330599516757
 20
339.9773497278618
 30
24.02149290630415
 11
899.5545096698727
 21
339.655029336045
 31
24.02149290630415
  0
LINE
  5
22D
  8
0
 62
     4
 10
899.5545096698727
 20
339.655029336045
 30
24.02149290630415
 11
899.510838595769
 21
339.4198589204921
 31
24.02149290630415
  0
LINE
  5
22E
  8
0
 62
     4
 10
899.510838595769
 20
339.4198589204921
 30
24.02149290630415
 11
899.5020947723513
 21
339.2717423952316
 31
24.02149290630415
  0
LINE
  5
22F
  8
0
 62
     4
 10
899.5020947723513
 20
339.2717423952316
 30
24.02149290630415
 11
899.4758633020981
 21
339.0800989248256
 31
24.02149290630415
  0
LINE
  5
230
  8
0
 62
     4
 10
899.4758633020981
 20
339.0800989248256
 30
24.02149290630415
 11
899.5106464238261
 21
338.9145427957155
 31
24.02149290630415
  0
LINE
  5
231
  8
0
 62
     4
 10
899.5106464238261
 20
338.9145427957155
 30
24.02149290630415
 11
899.5453815025683
 21
338.7489866666041
 31
24.02149290630415
  0
LINE
  5
232
  8
0
 62
     4
 10
899.5453815025683
 20
338.7489866666041
 30
24.02149290630415
 11
899.5801646242962
 21
338.583430537494
 31
24.02149290630415
  0
LINE
  5
233
  8
0
 62
     4
 10
899.5801646242962
 20
338.583430537494
 30
24.02149290630415
 11
899.6149477460251
 21
338.4178744083839
 31
24.02149290630415
  0
LINE
  5
234
  8
0
 62
     4
 10
899.6149477460251
 20
338.4178744083839
 30
24.02149290630415
 11
899.7107454597351
 21
338.2784536635554
 31
24.02149290630415
  0
LINE
  5
235
  8
0
 62
     4
 10
899.7107454597351
 20
338.2784536635554
 30
24.02149290630415
 11
899.7890555266108
 21
338.0954579305957
 31
24.02149290630415
  0
LINE
  5
236
  8
0
 62
     4
 10
899.7890555266108
 20
338.0954579305957
 30
24.02149290630415
 11
899.9283801854663
 21
337.9385495389319
 31
24.02149290630415
  0
LINE
  5
237
  8
0
 62
     4
 10
899.9283801854663
 20
337.9385495389319
 30
24.02149290630415
 11
900.0241298561905
 21
337.7991287941034
 31
24.02149290630415
  0
LINE
  5
238
  8
0
 62
     4
 10
900.0241298561905
 20
337.7991287941034
 30
24.02149290630415
 11
900.1809421618834
 21
337.6857953905721
 31
24.02149290630415
  0
LINE
  5
239
  8
0
 62
     4
 10
900.1809421618834
 20
337.6857953905721
 30
24.02149290630415
 11
900.32026682074
 21
337.5289350418941
 31
24.02149290630415
  0
LINE
  5
23A
  8
0
 62
     4
 10
900.32026682074
 20
337.5289350418941
 30
24.02149290630415
 11
900.4770310834472
 21
337.4156016383615
 31
24.02149290630415
  0
LINE
  5
23B
  8
0
 62
     4
 10
900.4770310834472
 20
337.4156016383615
 30
24.02149290630415
 11
900.6512349500031
 21
337.3457951799759
 31
24.02149290630415
  0
LINE
  5
23C
  8
0
 62
     4
 10
900.6512349500031
 20
337.3457951799759
 30
24.02149290630415
 11
900.8079992127102
 21
337.2324617764433
 31
24.02149290630415
  0
LINE
  5
23D
  8
0
 62
     4
 10
900.8079992127102
 20
337.2324617764433
 30
24.02149290630415
 11
901.0257780673974
 21
337.1452637571938
 31
24.02149290630415
  0
LINE
  5
23E
  8
0
 62
     4
 10
901.0257780673974
 20
337.1452637571938
 30
24.02149290630415
 11
901.2870838672334
 21
337.0405780911088
 31
24.02149290630415
  0
LINE
  5
23F
  8
0
 62
     4
 10
901.2870838672334
 20
337.0405780911088
 30
24.02149290630415
 11
901.6529792471813
 21
336.9445882054546
 31
24.02149290630415
  0
LINE
  5
240
  8
0
 62
     4
 10
901.6529792471813
 20
336.9445882054546
 30
24.02149290630415
 11
902.0362661879944
 21
336.8921252649473
 31
24.02149290630415
  0
LINE
  5
241
  8
0
 62
     4
 10
902.0362661879944
 20
336.8921252649473
 30
24.02149290630415
 11
902.46312811694
 21
336.8222707635759
 31
24.02149290630415
  0
LINE
  5
242
  8
0
 62
     4
 10
902.46312811694
 20
336.8222707635759
 30
24.02149290630415
 11
902.9335650340167
 21
336.734928615368
 31
24.02149290630415
  0
LINE
  5
243
  8
0
 62
     4
 10
902.9335650340167
 20
336.734928615368
 30
24.02149290630415
 11
903.4214415549443
 21
336.6911614552939
 31
24.02149290630415
  0
LINE
  5
244
  8
0
 62
     4
 10
903.4214415549443
 20
336.6911614552939
 30
24.02149290630415
 11
904.0138596129982
 21
336.6560420326648
 31
24.02149290630415
  0
LINE
  5
245
  8
0
 62
     4
 10
904.0138596129982
 20
336.6560420326648
 30
24.02149290630415
 11
904.6062776710542
 21
336.6209226100357
 31
24.02149290630415
  0
LINE
  5
246
  8
0
 62
     4
 10
904.6062776710542
 20
336.6209226100357
 30
24.02149290630415
 11
902.7737260202175
 21
330.0265423773972
 31
24.02149290630415
  0
LINE
  5
247
  8
0
 62
     4
 10
902.7737260202175
 20
330.0265423773972
 30
24.02149290630415
 11
901.9112102959243
 21
330.0182309408507
 31
24.02149290630415
  0
LINE
  5
248
  8
0
 62
     4
 10
901.9112102959243
 20
330.0182309408507
 30
24.02149290630415
 11
901.0835737793304
 21
330.0970214375839
 31
24.02149290630415
  0
LINE
  5
249
  8
0
 62
     4
 10
901.0835737793304
 20
330.0970214375839
 30
24.02149290630415
 11
900.2559372627366
 21
330.1758119343169
 31
24.02149290630415
  0
LINE
  5
24A
  8
0
 62
     4
 10
900.2559372627366
 20
330.1758119343169
 30
24.02149290630415
 11
899.4022134048455
 21
330.3155689800452
 31
24.02149290630415
  0
LINE
  5
24B
  8
0
 62
     4
 10
899.4022134048455
 20
330.3155689800452
 30
24.02149290630415
 11
898.5223541626751
 21
330.5163406177559
 31
24.02149290630415
  0
LINE
  5
24C
  8
0
 62
     4
 10
898.5223541626751
 20
330.5163406177559
 30
24.02149290630415
 11
897.6599345243524
 21
330.760687243599
 31
24.02149290630415
  0
LINE
  5
24D
  8
0
 62
     4
 10
897.6599345243524
 20
330.760687243599
 30
24.02149290630415
 11
896.7539879408837
 21
331.0224734732918
 31
24.02149290630415
  0
LINE
  5
24E
  8
0
 62
     4
 10
896.7539879408837
 20
331.0224734732918
 30
24.02149290630415
 11
895.8829205651157
 21
331.3713616362629
 31
24.02149290630415
  0
LINE
  5
24F
  8
0
 62
     4
 10
895.8829205651157
 20
331.3713616362629
 30
24.02149290630415
 11
895.3167339773136
 21
331.5981245292981
 31
24.02149290630415
  0
LINE
  5
250
  8
0
 62
     4
 10
895.3167339773136
 20
331.5981245292981
 30
24.02149290630415
 11
894.8115139385079
 21
331.8510228066161
 31
24.02149290630415
  0
LINE
  5
251
  8
0
 62
     4
 10
894.8115139385079
 20
331.8510228066161
 30
24.02149290630415
 11
894.306341942689
 21
332.1038730409485
 31
24.02149290630415
  0
LINE
  5
252
  8
0
 62
     4
 10
894.306341942689
 20
332.1038730409485
 30
24.02149290630415
 11
893.8621364958663
 21
332.3828586595625
 31
24.02149290630415
  0
LINE
  5
253
  8
0
 62
     4
 10
893.8621364958663
 20
332.3828586595625
 30
24.02149290630415
 11
893.3918437077457
 21
332.7228588701574
 31
24.02149290630415
  0
LINE
  5
254
  8
0
 62
     4
 10
893.3918437077457
 20
332.7228588701574
 30
24.02149290630415
 11
892.9650778647726
 21
333.0454194769042
 31
24.02149290630415
  0
LINE
  5
255
  8
0
 62
     4
 10
892.9650778647726
 20
333.0454194769042
 30
24.02149290630415
 11
892.581887009932
 21
333.3505404797998
 31
24.02149290630415
  0
LINE
  5
256
  8
0
 62
     4
 10
892.581887009932
 20
333.3505404797998
 30
24.02149290630415
 11
892.2160877159543
 21
333.699188427841
 31
24.02149290630415
  0
LINE
  5
257
  8
0
 62
     4
 10
892.2160877159543
 20
333.699188427841
 30
24.02149290630415
 11
891.8503364649632
 21
334.0478363758836
 31
24.02149290630415
  0
LINE
  5
258
  8
0
 62
     4
 10
891.8503364649632
 20
334.0478363758836
 30
24.02149290630415
 11
891.5455998059531
 21
334.422571665222
 31
24.02149290630415
  0
LINE
  5
259
  8
0
 62
     4
 10
891.5455998059531
 20
334.422571665222
 30
24.02149290630415
 11
891.2408151039583
 21
334.7973549975462
 31
24.02149290630415
  0
LINE
  5
25A
  8
0
 62
     4
 10
891.2408151039583
 20
334.7973549975462
 30
24.02149290630415
 11
891.0406199820779
 21
335.1807860673167
 31
24.02149290630415
  0
LINE
  5
25B
  8
0
 62
     4
 10
891.0406199820779
 20
335.1807860673167
 30
24.02149290630415
 11
890.7794102682144
 21
335.5381297957913
 31
24.02149290630415
  0
LINE
  5
25C
  8
0
 62
     4
 10
890.7794102682144
 20
335.5381297957913
 30
24.02149290630415
 11
890.6227420914786
 21
335.904073218725
 31
24.02149290630415
  0
LINE
  5
25D
  8
0
 62
     4
 10
890.6227420914786
 20
335.904073218725
 30
24.02149290630415
 11
890.4661219577295
 21
336.2700646846458
 31
24.02149290630415
  0
LINE
  5
25E
  8
0
 62
     4
 10
890.4661219577295
 20
336.2700646846458
 30
24.02149290630415
 11
890.3704683729777
 21
336.6621915348483
 31
24.02149290630415
  0
LINE
  5
25F
  8
0
 62
     4
 10
890.3704683729777
 20
336.6621915348483
 30
24.02149290630415
 11
890.3183417333705
 21
337.0368307382154
 31
24.02149290630415
  0
LINE
  5
260
  8
0
 62
     4
 10
890.3183417333705
 20
337.0368307382154
 30
24.02149290630415
 11
890.2401277524684
 21
337.4724845335634
 31
24.02149290630415
  0
LINE
  5
261
  8
0
 62
     4
 10
890.2401277524684
 20
337.4724845335634
 30
24.02149290630415
 11
890.2490157048421
 21
337.8732110782264
 31
24.02149290630415
  0
LINE
  5
262
  8
0
 62
     4
 10
890.2490157048421
 20
337.8732110782264
 30
24.02149290630415
 11
890.2318163159209
 21
338.3350002578575
 31
24.02149290630415
  0
ARC
  5
2A7
  8
0
  6
BYBLOCK
 62
    32
 10
689.1511123898004
 20
204.9711626222478
 30
0.0
 40
109.7857330515596
 50
127.8617907132131
 51
154.2488410010266
  0
ARC
  5
2A8
  8
0
  6
BYBLOCK
 62
    32
 10
671.9987053100651
 20
273.7448853613277
 30
0.0
 40
52.25030843484009
 50
158.8613930869352
 51
210.7617064068521
  0
ARC
  5
2A9
  8
0
  6
BYBLOCK
 62
     1
 10
622.8425182455865
 20
249.4147952739523
 30
0.0
 40
4.623120367592469
 50
239.3276570092114
 51
300.5741412734676
  0
ARC
  5
2AA
  8
0
  6
BYBLOCK
 62
     1
 10
592.0143733915304
 20
256.4400348663309
 30
0.0
 40
4.155623491480589
 50
245.1540059634164
 51
308.5552428363323
  0
ARC
  5
2AB
  8
0
  6
BYBLOCK
 62
     3
 10
649.8497758440416
 20
292.3051173559691
 30
0.0
 40
26.58699641877436
 50
179.3910747183138
 51
267.4357998058889
  0
ARC
  5
2AC
  8
0
  6
BYBLOCK
 62
     3
 10
620.31616357191
 20
266.0347488517969
 30
0.0
 40
28.34562559174037
 50
359.413791080488
 51
84.4800820633297
  0
ARC
  5
2AD
  8
0
  6
BYBLOCK
 62
    32
 10
683.0740401283149
 20
207.9094063279541
 30
0.0
 40
105.1582887009033
 50
124.8106159252629
 51
154.42334172761
  0
ARC
  5
2AE
  8
0
  6
BYBLOCK
 62
    32
 10
668.5984171206419
 20
271.8841297743137
 30
0.0
 40
50.82837293129533
 50
157.1200362320775
 51
211.3572713642242
  0
ARC
  5
2AF
  8
0
  6
BYBLOCK
 62
     1
 10
584.2783727316523
 20
234.7775250647507
 30
0.0
 40
21.11061932799311
 50
87.13699598867048
 51
60.7158556818372
  0
ARC
  5
2B0
  8
0
  6
BYBLOCK
 62
     1
 10
634.8593547912508
 20
229.9534172098159
 30
0.0
 40
21.12896913847446
 50
132.8714604630353
 51
107.188537279947
  0
ARC
  5
2B1
  8
0
  6
BYBLOCK
 62
     1
 10
624.1421054816724
 20
250.4253772746498
 30
0.0
 40
4.482457021527218
 50
311.6075149406344
 51
356.33330067634
  0
ARC
  5
2B2
  8
0
  6
BYBLOCK
 62
     1
 10
589.2350178429671
 20
257.3648950473025
 30
0.0
 40
4.181693438261473
 50
201.0662883708745
 51
255.9575969325218
  0
LINE
  5
2B3
  8
0
  6
BYBLOCK
 10
555.344834862502
 20
300.748150211518
 30
0.0
 11
663.3273098176221
 21
300.748150211518
 31
0.0
  0
LINE
  5
2B4
  8
0
  6
BYBLOCK
 10
663.3273098176221
 20
300.748150211518
 30
0.0
 11
663.3273098176221
 21
197.4605654718379
 31
0.0
  0
LINE
  5
2B5
  8
0
  6
BYBLOCK
 10
663.3273098176221
 20
197.4605654718379
 30
0.0
 11
555.344834862502
 21
197.4605654718379
 31
0.0
  0
LINE
  5
2B6
  8
0
  6
BYBLOCK
 10
555.344834862502
 20
197.4605654718379
 30
0.0
 11
555.344834862502
 21
300.748150211518
 31
0.0
  0
ARC
  5
2B7
  8
0
  6
BYBLOCK
 62
    32
 10
814.5717510022691
 20
204.9711626222478
 30
0.0
 40
109.7857330515596
 50
127.8617907132131
 51
154.2488410010266
  0
ARC
  5
2B8
  8
0
  6
BYBLOCK
 62
    32
 10
797.4193439225339
 20
273.7448853613277
 30
0.0
 40
52.25030843484009
 50
158.8613930869352
 51
210.7617064068521
  0
ARC
  5
2B9
  8
0
  6
BYBLOCK
 62
     1
 10
748.2631568580553
 20
249.4147952739523
 30
0.0
 40
4.623120367592469
 50
239.3276570092114
 51
300.5741412734676
  0
ARC
  5
2BA
  8
0
  6
BYBLOCK
 62
     1
 10
717.4350120039992
 20
256.4400348663309
 30
0.0
 40
4.155623491480589
 50
245.1540059634164
 51
308.5552428363323
  0
ARC
  5
2BB
  8
0
  6
BYBLOCK
 62
     3
 10
775.2704144565105
 20
292.3051173559691
 30
0.0
 40
26.58699641877448
 50
179.3910747183138
 51
267.4357998058889
  0
ARC
  5
2BC
  8
0
  6
BYBLOCK
 62
     3
 10
745.7368021843788
 20
266.0347488517969
 30
0.0
 40
28.34562559174037
 50
359.413791080488
 51
84.4800820633297
  0
ARC
  5
2BD
  8
0
  6
BYBLOCK
 62
    32
 10
808.4946787407837
 20
207.9094063279541
 30
0.0
 40
105.1582887009032
 50
124.8106159252628
 51
154.4233417276099
  0
ARC
  5
2BE
  8
0
  6
BYBLOCK
 62
    32
 10
794.0190557331109
 20
271.8841297743137
 30
0.0
 40
50.82837293129533
 50
157.1200362320775
 51
211.3572713642242
  0
ARC
  5
2BF
  8
0
  6
BYBLOCK
 62
     1
 10
709.6990113441211
 20
234.7775250647507
 30
0.0
 40
21.11061932799311
 50
87.13699598867048
 51
60.7158556818372
  0
ARC
  5
2C0
  8
0
  6
BYBLOCK
 62
     1
 10
760.2799934037196
 20
229.9534172098159
 30
0.0
 40
21.12896913847446
 50
132.8714604630353
 51
107.1885372799469
  0
ARC
  5
2C1
  8
0
  6
BYBLOCK
 62
     1
 10
749.5627440941412
 20
250.4253772746498
 30
0.0
 40
4.482457021527218
 50
311.6075149406344
 51
356.33330067634
  0
ARC
  5
2C2
  8
0
  6
BYBLOCK
 62
     1
 10
714.6556564554359
 20
257.3648950473025
 30
0.0
 40
4.181693438261473
 50
201.0662883708745
 51
255.9575969325218
  0
LINE
  5
2C3
  8
0
  6
BYBLOCK
 10
680.7654734749706
 20
300.748150211518
 30
0.0
 11
788.7479484300909
 21
300.748150211518
 31
0.0
  0
LINE
  5
2C4
  8
0
  6
BYBLOCK
 10
788.7479484300909
 20
300.748150211518
 30
0.0
 11
788.7479484300909
 21
197.4605654718379
 31
0.0
  0
LINE
  5
2C5
  8
0
  6
BYBLOCK
 10
788.7479484300909
 20
197.4605654718379
 30
0.0
 11
680.7654734749706
 21
197.4605654718379
 31
0.0
  0
LINE
  5
2C6
  8
0
  6
BYBLOCK
 10
680.7654734749706
 20
197.4605654718379
 30
0.0
 11
680.7654734749706
 21
300.748150211518
 31
0.0
  0
ARC
  5
2C7
  8
0
  6
BYBLOCK
 62
    32
 10
942.6751840235609
 20
204.9711626222478
 30
0.0
 40
109.7857330515595
 50
127.8617907132131
 51
154.2488410010267
  0
ARC
  5
2C8
  8
0
  6
BYBLOCK
 62
    32
 10
925.5227769438254
 20
273.7448853613277
 30
0.0
 40
52.25030843484009
 50
158.8613930869352
 51
210.7617064068521
  0
ARC
  5
2C9
  8
0
  6
BYBLOCK
 62
     1
 10
876.366589879347
 20
249.4147952739523
 30
0.0
 40
4.623120367592469
 50
239.3276570092114
 51
300.5741412734676
  0
ARC
  5
2CA
  8
0
  6
BYBLOCK
 62
     1
 10
845.5384450252909
 20
256.4400348663309
 30
0.0
 40
4.155623491480589
 50
245.1540059634164
 51
308.5552428363325
  0
ARC
  5
2CB
  8
0
  6
BYBLOCK
 62
     3
 10
903.373847477802
 20
292.3051173559691
 30
0.0
 40
26.58699641877425
 50
179.3910747183138
 51
267.4357998058889
  0
ARC
  5
2CC
  8
0
  6
BYBLOCK
 62
     3
 10
873.8402352056705
 20
266.0347488517969
 30
0.0
 40
28.34562559174037
 50
359.413791080488
 51
84.4800820633297
  0
ARC
  5
2CD
  8
0
  6
BYBLOCK
 62
    32
 10
936.5981117620754
 20
207.9094063279541
 30
0.0
 40
105.1582887009033
 50
124.8106159252629
 51
154.42334172761
  0
ARC
  5
2CE
  8
0
  6
BYBLOCK
 62
    32
 10
922.1224887544024
 20
271.8841297743137
 30
0.0
 40
50.82837293129533
 50
157.1200362320775
 51
211.3572713642242
  0
ARC
  5
2CF
  8
0
  6
BYBLOCK
 62
     1
 10
837.8024443654126
 20
234.7775250647507
 30
0.0
 40
21.11061932799311
 50
87.13699598867048
 51
60.7158556818372
  0
ARC
  5
2D0
  8
0
  6
BYBLOCK
 62
     1
 10
888.3834264250113
 20
229.9534172098159
 30
0.0
 40
21.12896913847446
 50
132.8714604630353
 51
107.1885372799469
  0
ARC
  5
2D1
  8
0
  6
BYBLOCK
 62
     1
 10
877.6661771154329
 20
250.4253772746498
 30
0.0
 40
4.482457021527218
 50
311.6075149406344
 51
356.33330067634
  0
ARC
  5
2D2
  8
0
  6
BYBLOCK
 62
     1
 10
842.7590894767275
 20
257.3648950473025
 30
0.0
 40
4.181693438261367
 50
201.0662883708751
 51
255.9575969325223
  0
LINE
  5
2D3
  8
0
  6
BYBLOCK
 10
808.8689064962625
 20
300.748150211518
 30
0.0
 11
916.8513814513826
 21
300.748150211518
 31
0.0
  0
LINE
  5
2D4
  8
0
  6
BYBLOCK
 10
916.8513814513826
 20
300.748150211518
 30
0.0
 11
916.8513814513826
 21
197.4605654718379
 31
0.0
  0
LINE
  5
2D5
  8
0
  6
BYBLOCK
 10
916.8513814513826
 20
197.4605654718379
 30
0.0
 11
808.8689064962625
 21
197.4605654718379
 31
0.0
  0
LINE
  5
2D6
  8
0
  6
BYBLOCK
 10
808.8689064962625
 20
197.4605654718379
 30
0.0
 11
808.8689064962625
 21
300.748150211518
 31
0.0
  0
POLYLINE
  5
2D7
  8
0
  6
BYBLOCK
 62
     6
 66
     1
 10
0.0
 20
0.0
 30
0.0
  0
VERTEX
  5
33A
  8
0
  6
BYBLOCK
 62
     6
 10
963.1391198473164
 20
165.0341785135252
 30
0.0
  0
VERTEX
  5
33B
  8
0
  6
BYBLOCK
 62
     6
 10
499.7458093196351
 20
165.0832553955846
 30
0.0
  0
VERTEX
  5
33C
  8
0
  6
BYBLOCK
 62
     6
 10
499.7458093196351
 20
436.476591500522
 30
0.0
  0
VERTEX
  5
33D
  8
0
  6
BYBLOCK
 62
     6
 10
963.8006263454836
 20
436.476591500522
 30
0.0
  0
VERTEX
  5
33E
  8
0
  6
BYBLOCK
 62
     6
 10
963.8006263454821
 20
200.2810259484435
 30
0.0
  0
SEQEND
  5
339
  8
0
  6
BYBLOCK
 62
     6
  0
ARC
  5
2DA
  8
0
  6
BYBLOCK
 62
     6
 10
1015.207896495052
 20
385.7874763020388
 30
0.0
 40
13.8299129863301
 50
304.7005001068845
 51
235.2994998931149
  0
LINE
  5
2DD
  8
0
  6
BYBLOCK
 62
     6
 10
963.8006263454821
 20
200.2810259484435
 30
0.0
 11
1007.33471097665
 21
200.2810259484435
 31
0.0
  0
POLYLINE
  5
2E1
  8
0
  6
BYBLOCK
 62
     2
 66
     1
 10
0.0
 20
0.0
 30
0.0
 70
     1
  0
VERTEX
  5
340
  8
0
  6
BYBLOCK
 62
     2
 10
522.9022373149354
 20
257.708967376792
 30
0.0
  0
VERTEX
  5
341
  8
0
  6
BYBLOCK
 62
     2
 10
531.2385513932441
 20
257.708967376792
 30
0.0
  0
VERTEX
  5
342
  8
0
  6
BYBLOCK
 62
     2
 10
531.2385513932441
 20
197.5022545890072
 30
0.0
  0
VERTEX
  5
343
  8
0
  6
BYBLOCK
 62
     2
 10
522.9022373149354
 20
197.5022545890072
 30
0.0
  0
SEQEND
  5
33F
  8
0
  6
BYBLOCK
 62
     2
  0
LINE
  5
31F
  8
0
  6
BYBLOCK
 62
     6
 10
1007.33471097665
 20
374.4173644731131
 30
0.0
 11
1007.33471097665
 21
200.2810259484435
 31
0.0
  0
LINE
  5
322
  8
0
  6
BYBLOCK
 62
     6
 10
963.1391198473164
 20
165.0341785135252
 30
0.0
 11
963.3218549253598
 21
183.5879282288826
 31
0.0
  0
LINE
  5
323
  8
0
  6
BYBLOCK
 62
     6
 10
963.3218549253598
 20
183.5879282288826
 30
0.0
 11
1023.081082013455
 21
183.6083977918262
 31
0.0
  0
LINE
  5
324
  8
0
  6
BYBLOCK
 62
     6
 10
1023.081082013455
 20
183.6083977918262
 30
0.0
 11
1023.081082013455
 21
374.4173644731131
 31
0.0
  0
ENDSEC
  0
EOF
