  0
SECTION
  2
HEADER
  9
$ACADVER
  1
AC1009
  9
$DWGCODEPAGE
  3
ansi_1252
  9
$INSBASE
 10
0.0
 20
0.0
 30
0.0
  9
$EXTMIN
 10
0.1470606240946483
 20
0.4511834646806365
 30
0.0
  9
$EXTMAX
 10
4.819984618049054
 20
4.701189665365691
 30
0.0
  9
$LIMMIN
 10
0.0
 20
0.0
  9
$LIMMAX
 10
12.0
 20
9.0
  9
$ORTHOMODE
 70
     0
  9
$REGENMODE
 70
     1
  9
$FILLMODE
 70
     1
  9
$QTEXTMODE
 70
     0
  9
$MIRRTEXT
 70
     1
  9
$DRAGMODE
 70
     2
  9
$LTSCALE
 40
1.0
  9
$OSMODE
 70
    37
  9
$ATTMODE
 70
     1
  9
$TEXTSIZE
 40
0.2
  9
$TRACEWID
 40
0.05
  9
$TEXTSTYLE
  7
STANDARD
  9
$CLAYER
  8
0
  9
$CELTYPE
  6
BYLAYER
  9
$CECOLOR
 62
   256
  9
$DIMSCALE
 40
1.0
  9
$DIMASZ
 40
0.18
  9
$DIMEXO
 40
0.0625
  9
$DIMDLI
 40
0.38
  9
$DIMRND
 40
0.0
  9
$DIMDLE
 40
0.0
  9
$DIMEXE
 40
0.18
  9
$DIMTP
 40
0.0
  9
$DIMTM
 40
0.0
  9
$DIMTXT
 40
0.18
  9
$DIMCEN
 40
0.09
  9
$DIMTSZ
 40
0.0
  9
$DIMTOL
 70
     0
  9
$DIMLIM
 70
     0
  9
$DIMTIH
 70
     1
  9
$DIMTOH
 70
     1
  9
$DIMSE1
 70
     0
  9
$DIMSE2
 70
     0
  9
$DIMTAD
 70
     0
  9
$DIMZIN
 70
     0
  9
$DIMBLK
  1

  9
$DIMASO
 70
     1
  9
$DIMSHO
 70
     1
  9
$DIMPOST
  1

  9
$DIMAPOST
  1

  9
$DIMALT
 70
     0
  9
$DIMALTD
 70
     2
  9
$DIMALTF
 40
25.4
  9
$DIMLFAC
 40
1.0
  9
$DIMTOFL
 70
     0
  9
$DIMTVP
 40
0.0
  9
$DIMTIX
 70
     0
  9
$DIMSOXD
 70
     0
  9
$DIMSAH
 70
     0
  9
$DIMBLK1
  1

  9
$DIMBLK2
  1

  9
$DIMSTYLE
  2
STANDARD
  9
$DIMCLRD
 70
     0
  9
$DIMCLRE
 70
     0
  9
$DIMCLRT
 70
     0
  9
$DIMTFAC
 40
1.0
  9
$DIMGAP
 40
0.09
  9
$LUNITS
 70
     2
  9
$LUPREC
 70
     4
  9
$SKETCHINC
 40
0.1
  9
$FILLETRAD
 40
0.5
  9
$AUNITS
 70
     0
  9
$AUPREC
 70
     0
  9
$MENU
  1
.
  9
$ELEVATION
 40
0.0
  9
$PELEVATION
 40
0.0
  9
$THICKNESS
 40
0.0
  9
$LIMCHECK
 70
     0
  9
$CHAMFERA
 40
0.5
  9
$CHAMFERB
 40
0.5
  9
$SKPOLY
 70
     0
  9
$TDCREATE
 40
2454910.5
  9
$TDUPDATE
 40
2455331.849791111
  9
$TDINDWG
 40
0.0000000116
  9
$TDUSRTIMER
 40
0.0000000116
  9
$USRTIMER
 70
     1
  9
$ANGBASE
 50
0.0
  9
$ANGDIR
 70
     0
  9
$PDMODE
 70
     0
  9
$PDSIZE
 40
0.0
  9
$PLINEWID
 40
0.0
  9
$COORDS
 70
     1
  9
$SPLFRAME
 70
     0
  9
$SPLINETYPE
 70
     6
  9
$SPLINESEGS
 70
     8
  9
$ATTDIA
 70
     0
  9
$ATTREQ
 70
     1
  9
$HANDLING
 70
     1
  9
$HANDSEED
  5
1EE
  9
$SURFTAB1
 70
     6
  9
$SURFTAB2
 70
     6
  9
$SURFTYPE
 70
     6
  9
$SURFU
 70
     6
  9
$SURFV
 70
     6
  9
$UCSNAME
  2

  9
$UCSORG
 10
0.0
 20
0.0
 30
0.0
  9
$UCSXDIR
 10
1.0
 20
0.0
 30
0.0
  9
$UCSYDIR
 10
0.0
 20
1.0
 30
0.0
  9
$PUCSNAME
  2

  9
$PUCSORG
 10
0.0
 20
0.0
 30
0.0
  9
$PUCSXDIR
 10
1.0
 20
0.0
 30
0.0
  9
$PUCSYDIR
 10
0.0
 20
1.0
 30
0.0
  9
$USERI1
 70
     0
  9
$USERI2
 70
     0
  9
$USERI3
 70
     0
  9
$USERI4
 70
     0
  9
$USERI5
 70
     0
  9
$USERR1
 40
0.0
  9
$USERR2
 40
0.0
  9
$USERR3
 40
0.0
  9
$USERR4
 40
0.0
  9
$USERR5
 40
0.0
  9
$WORLDVIEW
 70
     1
  9
$SHADEDGE
 70
     3
  9
$SHADEDIF
 70
    70
  9
$TILEMODE
 70
     1
  9
$MAXACTVP
 70
    64
  9
$PLIMCHECK
 70
     0
  9
$PEXTMIN
 10
1.000000000000000E+20
 20
1.000000000000000E+20
 30
1.000000000000000E+20
  9
$PEXTMAX
 10
-1.000000000000000E+20
 20
-1.000000000000000E+20
 30
-1.000000000000000E+20
  9
$PLIMMIN
 10
0.0
 20
0.0
  9
$PLIMMAX
 10
12.0
 20
9.0
  9
$UNITMODE
 70
     0
  9
$VISRETAIN
 70
     1
  9
$PLINEGEN
 70
     0
  9
$PSLTSCALE
 70
     1
  0
ENDSEC
  0
SECTION
  2
TABLES
  0
TABLE
  2
VPORT
 70
     1
  0
VPORT
  2
*ACTIVE
 70
     0
 10
0.0
 20
0.0
 11
1.0
 21
1.0
 12
10.42990654205607
 22
4.5
 13
0.0
 23
0.0
 14
0.5
 24
0.5
 15
0.5
 25
0.5
 16
0.0
 26
0.0
 36
1.0
 17
0.0
 27
0.0
 37
0.0
 40
9.0
 41
1.972972972850329
 42
50.0
 43
0.0
 44
0.0
 50
0.0
 51
0.0
 71
     0
 72
   100
 73
     1
 74
     3
 75
     0
 76
     0
 77
     0
 78
     0
  0
ENDTAB
  0
TABLE
  2
LTYPE
 70
     2
  0
LTYPE
  2
CONTINUOUS
 70
     0
  3
Solid line
 72
    65
 73
     0
 40
0.0
  0
LTYPE
  2
CONTINUOUS2
 70
     0
  3
Solid Line
 72
    65
 73
     0
 40
0.0
  0
ENDTAB
  0
TABLE
  2
LAYER
 70
     1
  0
LAYER
  2
0
 70
     0
 62
     7
  6
CONTINUOUS
  0
ENDTAB
  0
TABLE
  2
STYLE
 70
     1
  0
STYLE
  2
STANDARD
 70
     0
 40
0.0
 41
1.0
 50
0.0
 71
     0
 42
0.2
  3
txt
  4

  0
ENDTAB
  0
TABLE
  2
VIEW
 70
     0
  0
ENDTAB
  0
TABLE
  2
UCS
 70
     0
  0
ENDTAB
  0
TABLE
  2
APPID
 70
     1
  0
APPID
  2
ACAD
 70
     0
  0
ENDTAB
  0
TABLE
  2
DIMSTYLE
 70
     1
  0
DIMSTYLE
  2
STANDARD
 70
     0
  3

  4

  5

  6

  7

 40
1.0
 41
0.18
 42
0.0625
 43
0.38
 44
0.18
 45
0.0
 46
0.0
 47
0.0
 48
0.0
140
0.18
141
0.09
142
0.0
143
25.4
144
1.0
145
0.0
146
1.0
147
0.09
 71
     0
 72
     0
 73
     1
 74
     1
 75
     0
 76
     0
 77
     0
 78
     0
170
     0
171
     2
172
     0
173
     0
174
     0
175
     0
176
     0
177
     0
178
     0
  0
ENDTAB
  0
ENDSEC
  0
SECTION
  2
BLOCKS
  0
BLOCK
  8
0
  2
$MODEL_SPACE
 70
     0
 10
0.0
 20
0.0
 30
0.0
  3
$MODEL_SPACE
  1

  0
ENDBLK
  5
21
  8
0
  0
BLOCK
 67
     1
  8
0
  2
$PAPER_SPACE
 70
     0
 10
0.0
 20
0.0
 30
0.0
  3
$PAPER_SPACE
  1

  0
ENDBLK
  5
1D
 67
     1
  8
0
  0
ENDSEC
  0
SECTION
  2
ENTITIES
  0
POLYLINE
  5
3C
  8
0
 66
     1
 10
0.0
 20
0.0
 30
0.0
 70
     1
  0
VERTEX
  5
56
  8
0
 10
0.774187
 20
2.299364
 30
0.0
  0
VERTEX
  5
57
  8
0
 10
1.394413
 20
0.764612
 30
0.0
 42
0.40648
  0
VERTEX
  5
58
  8
0
 10
1.546046
 20
0.704117
 30
0.0
  0
VERTEX
  5
59
  8
0
 10
2.35289
 20
1.038187
 30
0.0
  0
VERTEX
  5
5A
  8
0
 10
3.280774
 20
0.587921
 30
0.0
 42
0.418844
  0
VERTEX
  5
5B
  8
0
 10
3.437904
 20
0.64377
 30
0.0
  0
VERTEX
  5
5C
  8
0
 10
3.88105
 20
1.594905
 30
0.0
  0
VERTEX
  5
5D
  8
0
 10
4.667417
 20
3.280913
 30
0.0
 42
0.34963
  0
VERTEX
  5
5E
  8
0
 10
4.629716
 20
3.53377
 30
0.0
  0
VERTEX
  5
5F
  8
0
 10
3.45622
 20
4.122714
 30
0.0
  0
VERTEX
  5
60
  8
0
 10
3.436384
 20
4.470266
 30
0.0
 42
0.406444
  0
VERTEX
  5
61
  8
0
 10
3.31194
 20
4.575918
 30
0.0
  0
VERTEX
  5
62
  8
0
 10
1.3622
 20
4.423853
 30
0.0
 42
0.411232
  0
VERTEX
  5
63
  8
0
 10
1.254567
 20
4.299301
 30
0.0
  0
VERTEX
  5
64
  8
0
 10
1.25792
 20
4.24981
 30
0.0
  0
VERTEX
  5
65
  8
0
 10
0.866775
 20
4.156007
 30
0.0
 42
0.401741
  0
VERTEX
  5
66
  8
0
 10
0.779226
 20
4.019841
 30
0.0
  0
VERTEX
  5
67
  8
0
 10
0.805587
 20
3.884668
 30
0.0
  0
VERTEX
  5
68
  8
0
 10
0.300839
 20
3.599767
 30
0.0
 42
0.388147
  0
VERTEX
  5
69
  8
0
 10
0.276645
 20
3.529242
 30
0.0
  0
SEQEND
  5
6A
  8
0
  0
POLYLINE
  5
3D
  8
0
 66
     1
 10
0.0
 20
0.0
 30
0.0
 70
     1
  0
VERTEX
  5
6B
  8
0
 10
4.15719
 20
3.084453
 30
0.0
  0
VERTEX
  5
6C
  8
0
 10
4.196236
 20
3.066125
 30
0.0
 42
0.82213
  0
VERTEX
  5
6D
  8
0
 10
4.205297
 20
3.093435
 30
0.0
  0
VERTEX
  5
6E
  8
0
 10
4.36459
 20
3.289645
 30
0.0
 42
-0.723063
  0
VERTEX
  5
6F
  8
0
 10
4.390554
 20
3.279776
 30
0.0
  0
VERTEX
  5
70
  8
0
 10
4.384104
 20
3.135001
 30
0.0
  0
VERTEX
  5
71
  8
0
 10
4.339308
 20
3.157052
 30
0.0
 42
0.412398
  0
VERTEX
  5
72
  8
0
 10
4.319769
 20
3.150471
 30
0.0
  0
VERTEX
  5
73
  8
0
 10
4.313228
 20
3.13739
 30
0.0
 42
0.416025
  0
VERTEX
  5
74
  8
0
 10
4.319849
 20
3.117729
 30
0.0
  0
VERTEX
  5
75
  8
0
 10
4.380667
 20
3.08779
 30
0.0
  0
VERTEX
  5
76
  8
0
 10
4.37409
 20
2.997433
 30
0.0
 42
0.735178
  0
VERTEX
  5
77
  8
0
 10
4.368582
 20
2.969334
 30
0.0
  0
VERTEX
  5
78
  8
0
 10
4.407628
 20
2.951006
 30
0.0
 42
0.82213
  0
VERTEX
  5
79
  8
0
 10
4.416689
 20
2.978316
 30
0.0
  0
VERTEX
  5
7A
  8
0
 10
4.448903
 20
3.420875
 30
0.0
 42
0.733852
  0
VERTEX
  5
7B
  8
0
 10
4.422963
 20
3.431154
 30
0.0
  0
VERTEX
  5
7C
  8
0
 10
4.164377
 20
3.112642
 30
0.0
 42
0.779287
  0
SEQEND
  5
7D
  8
0
  0
POLYLINE
  5
3E
  8
0
 66
     1
 10
0.0
 20
0.0
 30
0.0
 70
     1
  0
VERTEX
  5
7E
  8
0
 10
4.085061
 20
2.635673
 30
0.0
  0
VERTEX
  5
7F
  8
0
 10
4.074751
 20
2.791624
 30
0.0
 42
-0.252317
  0
VERTEX
  5
80
  8
0
 10
4.080514
 20
2.804247
 30
0.0
  0
VERTEX
  5
81
  8
0
 10
4.208651
 20
2.901287
 30
0.0
 42
-0.599985
  0
VERTEX
  5
82
  8
0
 10
4.232081
 20
2.890466
 30
0.0
  0
VERTEX
  5
83
  8
0
 10
4.241013
 20
2.734829
 30
0.0
 42
-0.248208
  0
VERTEX
  5
84
  8
0
 10
4.23532
 20
2.722393
 30
0.0
  0
VERTEX
  5
85
  8
0
 10
4.108562
 20
2.625039
 30
0.0
 42
-0.599339
  0
SEQEND
  5
86
  8
0
  0
POLYLINE
  5
3F
  8
0
 66
     1
 10
0.0
 20
0.0
 30
0.0
 70
     1
  0
VERTEX
  5
87
  8
0
 10
2.738664
 20
4.302725
 30
0.0
  0
VERTEX
  5
88
  8
0
 10
1.485791
 20
1.504153
 30
0.0
  0
VERTEX
  5
89
  8
0
 10
1.507418
 20
1.637927
 30
0.0
  0
VERTEX
  5
8A
  8
0
 10
2.721053
 20
4.351499
 30
0.0
 42
-0.314061
  0
VERTEX
  5
8B
  8
0
 10
2.885793
 20
4.403755
 30
0.0
  0
VERTEX
  5
8C
  8
0
 10
3.454131
 20
4.162803
 30
0.0
  0
VERTEX
  5
8D
  8
0
 10
3.45622
 20
4.122714
 30
0.0
  0
VERTEX
  5
8E
  8
0
 10
2.894737
 20
4.35908
 30
0.0
 42
0.4159
  0
SEQEND
  5
8F
  8
0
  0
POLYLINE
  5
40
  8
0
 66
     1
 10
0.0
 20
0.0
 30
0.0
 70
     1
  0
VERTEX
  5
90
  8
0
 10
2.68166
 20
3.837485
 30
0.0
 42
0.779293
  0
VERTEX
  5
91
  8
0
 10
2.674473
 20
3.809296
 30
0.0
  0
VERTEX
  5
92
  8
0
 10
2.713519
 20
3.790968
 30
0.0
 42
0.822124
  0
VERTEX
  5
93
  8
0
 10
2.722579
 20
3.818278
 30
0.0
  0
VERTEX
  5
94
  8
0
 10
2.886357
 20
4.020011
 30
0.0
 42
-0.733852
  0
VERTEX
  5
95
  8
0
 10
2.912297
 20
4.009731
 30
0.0
  0
VERTEX
  5
96
  8
0
 10
2.902962
 20
3.881488
 30
0.0
 42
-0.531962
  0
VERTEX
  5
97
  8
0
 10
2.881917
 20
3.869428
 30
0.0
  0
VERTEX
  5
98
  8
0
 10
2.856591
 20
3.881895
 30
0.0
 42
0.412398
  0
VERTEX
  5
99
  8
0
 10
2.837052
 20
3.875315
 30
0.0
  0
VERTEX
  5
9A
  8
0
 10
2.830511
 20
3.862234
 30
0.0
 42
0.416026
  0
VERTEX
  5
9B
  8
0
 10
2.837133
 20
3.842572
 30
0.0
  0
VERTEX
  5
9C
  8
0
 10
2.889108
 20
3.816987
 30
0.0
 42
-0.305514
  0
VERTEX
  5
9D
  8
0
 10
2.897235
 20
3.802804
 30
0.0
  0
VERTEX
  5
9E
  8
0
 10
2.891373
 20
3.722276
 30
0.0
 42
0.735188
  0
VERTEX
  5
9F
  8
0
 10
2.885865
 20
3.694177
 30
0.0
  0
VERTEX
  5
A0
  8
0
 10
2.92491
 20
3.675849
 30
0.0
 42
0.822124
  0
VERTEX
  5
A1
  8
0
 10
2.933971
 20
3.703159
 30
0.0
  0
VERTEX
  5
A2
  8
0
 10
2.966186
 20
4.145718
 30
0.0
 42
0.733837
  0
VERTEX
  5
A3
  8
0
 10
2.940245
 20
4.155998
 30
0.0
  0
SEQEND
  5
A4
  8
0
  0
POLYLINE
  5
41
  8
0
 66
     1
 10
0.0
 20
0.0
 30
0.0
 70
     1
  0
VERTEX
  5
A5
  8
0
 10
2.693382
 20
3.659875
 30
0.0
  0
VERTEX
  5
A6
  8
0
 10
2.565246
 20
3.562835
 30
0.0
 42
0.252319
  0
VERTEX
  5
A7
  8
0
 10
2.559483
 20
3.550212
 30
0.0
  0
VERTEX
  5
A8
  8
0
 10
2.569792
 20
3.394262
 30
0.0
 42
0.599337
  0
VERTEX
  5
A9
  8
0
 10
2.593293
 20
3.383628
 30
0.0
  0
VERTEX
  5
AA
  8
0
 10
2.720052
 20
3.48098
 30
0.0
 42
0.248227
  0
VERTEX
  5
AB
  8
0
 10
2.725745
 20
3.493417
 30
0.0
  0
VERTEX
  5
AC
  8
0
 10
2.716812
 20
3.649054
 30
0.0
 42
0.599988
  0
SEQEND
  5
AD
  8
0
  0
POLYLINE
  5
42
  8
0
 66
     1
 10
0.0
 20
0.0
 30
0.0
 70
     1
  0
VERTEX
  5
AE
  8
0
 10
2.000217
 20
3.726777
 30
0.0
 42
-0.969084
  0
VERTEX
  5
AF
  8
0
 10
2.008238
 20
3.769891
 30
0.0
 42
0.414203
  0
VERTEX
  5
B0
  8
0
 10
2.012407
 20
3.772948
 30
0.0
  0
VERTEX
  5
B1
  8
0
 10
2.079791
 20
4.211239
 30
0.0
 42
0.567965
  0
VERTEX
  5
B2
  8
0
 10
2.071927
 20
4.219164
 30
0.0
 42
-0.950289
  0
VERTEX
  5
B3
  8
0
 10
2.083459
 20
4.261437
 30
0.0
  0
VERTEX
  5
B4
  8
0
 10
2.138652
 20
4.249364
 30
0.0
 42
-0.425178
  0
VERTEX
  5
B5
  8
0
 10
2.155206
 20
4.22245
 30
0.0
 42
-0.425178
  0
VERTEX
  5
B6
  8
0
 10
2.127693
 20
4.206911
 30
0.0
 42
0.456588
  0
VERTEX
  5
B7
  8
0
 10
2.119406
 20
4.201638
 30
0.0
  0
VERTEX
  5
B8
  8
0
 10
2.100152
 20
4.071988
 30
0.0
 42
0.806368
  0
VERTEX
  5
B9
  8
0
 10
2.126895
 20
4.061892
 30
0.0
  0
VERTEX
  5
BA
  8
0
 10
2.204953
 20
4.182457
 30
0.0
 42
0.456461
  0
VERTEX
  5
BB
  8
0
 10
2.20222
 20
4.191891
 30
0.0
 42
-0.896964
  0
VERTEX
  5
BC
  8
0
 10
2.216101
 20
4.23324
 30
0.0
  0
VERTEX
  5
BD
  8
0
 10
2.280688
 20
4.219112
 30
0.0
 42
-0.470964
  0
VERTEX
  5
BE
  8
0
 10
2.296162
 20
4.189034
 30
0.0
 42
-0.470964
  0
VERTEX
  5
BF
  8
0
 10
2.263706
 20
4.179514
 30
0.0
 42
0.425945
  0
VERTEX
  5
C0
  8
0
 10
2.254538
 20
4.177556
 30
0.0
  0
VERTEX
  5
C1
  8
0
 10
2.149054
 20
4.007415
 30
0.0
 42
0.207874
  0
VERTEX
  5
C2
  8
0
 10
2.147368
 20
3.995881
 30
0.0
  0
VERTEX
  5
C3
  8
0
 10
2.220926
 20
3.724656
 30
0.0
 42
0.346255
  0
VERTEX
  5
C4
  8
0
 10
2.224555
 20
3.721958
 30
0.0
 42
-0.450213
  0
VERTEX
  5
C5
  8
0
 10
2.246994
 20
3.69797
 30
0.0
 42
-0.450213
  0
VERTEX
  5
C6
  8
0
 10
2.220466
 20
3.678599
 30
0.0
  0
VERTEX
  5
C7
  8
0
 10
2.155878
 20
3.692727
 30
0.0
 42
-0.94494
  0
VERTEX
  5
C8
  8
0
 10
2.162803
 20
3.735981
 30
0.0
 42
0.522882
  0
VERTEX
  5
C9
  8
0
 10
2.166714
 20
3.740537
 30
0.0
  0
VERTEX
  5
CA
  8
0
 10
2.111108
 20
3.954595
 30
0.0
 42
0.828649
  0
VERTEX
  5
CB
  8
0
 10
2.082432
 20
3.952663
 30
0.0
  0
VERTEX
  5
CC
  8
0
 10
2.059521
 20
3.761981
 30
0.0
 42
0.41421
  0
VERTEX
  5
CD
  8
0
 10
2.062715
 20
3.757915
 30
0.0
 42
-0.428307
  0
VERTEX
  5
CE
  8
0
 10
2.081728
 20
3.732478
 30
0.0
 42
-0.428307
  0
VERTEX
  5
CF
  8
0
 10
2.05541
 20
3.714704
 30
0.0
  0
SEQEND
  5
D0
  8
0
  0
POLYLINE
  5
43
  8
0
 66
     1
 10
0.0
 20
0.0
 30
0.0
 70
     1
  0
VERTEX
  5
D1
  8
0
 10
2.015724
 20
3.336979
 30
0.0
 42
0.599333
  0
VERTEX
  5
D2
  8
0
 10
2.041246
 20
3.333235
 30
0.0
  0
VERTEX
  5
D3
  8
0
 10
2.13626
 20
3.461756
 30
0.0
 42
0.248203
  0
VERTEX
  5
D4
  8
0
 10
2.138305
 20
3.47528
 30
0.0
  0
VERTEX
  5
D5
  8
0
 10
2.086819
 20
3.622426
 30
0.0
 42
0.599981
  0
VERTEX
  5
D6
  8
0
 10
2.061314
 20
3.62637
 30
0.0
  0
VERTEX
  5
D7
  8
0
 10
1.964889
 20
3.497769
 30
0.0
 42
0.252319
  0
VERTEX
  5
D8
  8
0
 10
1.962828
 20
3.484046
 30
0.0
  0
SEQEND
  5
D9
  8
0
  0
POLYLINE
  5
44
  8
0
 66
     1
 10
0.0
 20
0.0
 30
0.0
 70
     1
  0
VERTEX
  5
DA
  8
0
 10
3.472908
 20
1.333776
 30
0.0
  0
VERTEX
  5
DB
  8
0
 10
3.462598
 20
1.489727
 30
0.0
 42
-0.252317
  0
VERTEX
  5
DC
  8
0
 10
3.468362
 20
1.502351
 30
0.0
  0
VERTEX
  5
DD
  8
0
 10
3.596498
 20
1.599391
 30
0.0
 42
-0.599985
  0
VERTEX
  5
DE
  8
0
 10
3.619928
 20
1.58857
 30
0.0
  0
VERTEX
  5
DF
  8
0
 10
3.628861
 20
1.432933
 30
0.0
 42
-0.248224
  0
VERTEX
  5
E0
  8
0
 10
3.623168
 20
1.420496
 30
0.0
  0
VERTEX
  5
E1
  8
0
 10
3.496409
 20
1.323143
 30
0.0
 42
-0.599339
  0
SEQEND
  5
E2
  8
0
  0
POLYLINE
  5
45
  8
0
 66
     1
 10
0.0
 20
0.0
 30
0.0
 70
     1
  0
VERTEX
  5
E3
  8
0
 10
1.477366
 20
3.497382
 30
0.0
 42
-0.252321
  0
VERTEX
  5
E4
  8
0
 10
1.475805
 20
3.51117
 30
0.0
  0
VERTEX
  5
E5
  8
0
 10
1.53566
 20
3.660345
 30
0.0
 42
-0.599995
  0
VERTEX
  5
E6
  8
0
 10
1.561317
 20
3.663137
 30
0.0
  0
VERTEX
  5
E7
  8
0
 10
1.649132
 20
3.53433
 30
0.0
 42
-0.248209
  0
VERTEX
  5
E8
  8
0
 10
1.650658
 20
3.520738
 30
0.0
  0
VERTEX
  5
E9
  8
0
 10
1.592145
 20
3.372005
 30
0.0
 42
-0.599329
  0
VERTEX
  5
EA
  8
0
 10
1.566524
 20
3.369015
 30
0.0
  0
SEQEND
  5
EB
  8
0
  0
POLYLINE
  5
46
  8
0
 66
     1
 10
0.0
 20
0.0
 30
0.0
 70
     1
  0
VERTEX
  5
EC
  8
0
 10
1.196738
 20
3.238553
 30
0.0
  0
VERTEX
  5
ED
  8
0
 10
1.093879
 20
3.355698
 30
0.0
 42
0.599988
  0
VERTEX
  5
EE
  8
0
 10
1.068755
 20
3.3498
 30
0.0
  0
VERTEX
  5
EF
  8
0
 10
1.027525
 20
3.194442
 30
0.0
 42
0.252316
  0
VERTEX
  5
F0
  8
0
 10
1.030755
 20
3.180947
 30
0.0
  0
VERTEX
  5
F1
  8
0
 10
1.134892
 20
3.064404
 30
0.0
 42
0.599344
  0
VERTEX
  5
F2
  8
0
 10
1.159958
 20
3.070492
 30
0.0
  0
VERTEX
  5
F3
  8
0
 10
1.199909
 20
3.225248
 30
0.0
 42
0.248212
  0
SEQEND
  5
F4
  8
0
  0
POLYLINE
  5
47
  8
0
 66
     1
 10
0.0
 20
0.0
 30
0.0
 70
     1
  0
VERTEX
  5
F5
  8
0
 10
1.009308
 20
3.511148
 30
0.0
 42
0.638373
  0
VERTEX
  5
F6
  8
0
 10
1.109026
 20
3.542558
 30
0.0
  0
VERTEX
  5
F7
  8
0
 10
1.036244
 20
3.935798
 30
0.0
 42
0.414216
  0
VERTEX
  5
F8
  8
0
 10
1.019202
 20
3.947517
 30
0.0
  0
VERTEX
  5
F9
  8
0
 10
0.979215
 20
3.940116
 30
0.0
 42
-0.999985
  0
VERTEX
  5
FA
  8
0
 10
0.971229
 20
3.983257
 30
0.0
  0
VERTEX
  5
FB
  8
0
 10
1.127665
 20
4.012211
 30
0.0
 42
-0.99999
  0
VERTEX
  5
FC
  8
0
 10
1.135651
 20
3.969069
 30
0.0
  0
VERTEX
  5
FD
  8
0
 10
1.095663
 20
3.961668
 30
0.0
 42
0.414216
  0
VERTEX
  5
FE
  8
0
 10
1.083944
 20
3.944626
 30
0.0
  0
VERTEX
  5
FF
  8
0
 10
1.157901
 20
3.545033
 30
0.0
 42
-0.683612
  0
VERTEX
  5
100
  8
0
 10
0.970449
 20
3.481915
 30
0.0
 42
-0.462044
  0
VERTEX
  5
101
  8
0
 10
0.974203
 20
3.50387
 30
0.0
  0
VERTEX
  5
102
  8
0
 10
0.991039
 20
3.513866
 30
0.0
 42
-0.355698
  0
SEQEND
  5
103
  8
0
  0
POLYLINE
  5
48
  8
0
 66
     1
 10
0.0
 20
0.0
 30
0.0
 70
     1
  0
VERTEX
  5
104
  8
0
 10
3.209211
 20
0.84135
 30
0.0
  0
VERTEX
  5
105
  8
0
 10
3.5448
 20
1.131653
 30
0.0
 42
0.822116
  0
VERTEX
  5
106
  8
0
 10
3.561282
 20
1.15524
 30
0.0
  0
VERTEX
  5
107
  8
0
 10
3.523253
 20
1.175593
 30
0.0
 42
0.735176
  0
VERTEX
  5
108
  8
0
 10
3.504015
 20
1.154385
 30
0.0
  0
VERTEX
  5
109
  8
0
 10
3.435497
 20
1.095113
 30
0.0
  0
VERTEX
  5
10A
  8
0
 10
3.375148
 20
1.125985
 30
0.0
 42
0.416028
  0
VERTEX
  5
10B
  8
0
 10
3.355426
 20
1.119544
 30
0.0
  0
VERTEX
  5
10C
  8
0
 10
3.348847
 20
1.106483
 30
0.0
 42
0.412394
  0
VERTEX
  5
10D
  8
0
 10
3.355248
 20
1.086884
 30
0.0
  0
VERTEX
  5
10E
  8
0
 10
3.399698
 20
1.064144
 30
0.0
  0
VERTEX
  5
10F
  8
0
 10
3.287474
 20
0.972455
 30
0.0
 42
-0.723081
  0
VERTEX
  5
110
  8
0
 10
3.264045
 20
0.987375
 30
0.0
  0
VERTEX
  5
111
  8
0
 10
3.326169
 20
1.23235
 30
0.0
 42
0.822141
  0
VERTEX
  5
112
  8
0
 10
3.342651
 20
1.255936
 30
0.0
  0
VERTEX
  5
113
  8
0
 10
3.304622
 20
1.276289
 30
0.0
 42
0.7793
  0
VERTEX
  5
114
  8
0
 10
3.286316
 20
1.253682
 30
0.0
  0
VERTEX
  5
115
  8
0
 10
3.185467
 20
0.856005
 30
0.0
 42
0.733849
  0
SEQEND
  5
116
  8
0
  0
POLYLINE
  5
49
  8
0
 66
     1
 10
0.0
 20
0.0
 30
0.0
 70
     1
  0
VERTEX
  5
117
  8
0
 10
2.077026
 20
2.00943
 30
0.0
 42
0.59933
  0
VERTEX
  5
118
  8
0
 10
2.100527
 20
1.998796
 30
0.0
  0
VERTEX
  5
119
  8
0
 10
2.227286
 20
2.096149
 30
0.0
 42
0.248213
  0
VERTEX
  5
11A
  8
0
 10
2.232978
 20
2.108586
 30
0.0
  0
VERTEX
  5
11B
  8
0
 10
2.224046
 20
2.264224
 30
0.0
 42
0.599973
  0
VERTEX
  5
11C
  8
0
 10
2.200616
 20
2.275044
 30
0.0
  0
VERTEX
  5
11D
  8
0
 10
2.072479
 20
2.178004
 30
0.0
 42
0.252317
  0
VERTEX
  5
11E
  8
0
 10
2.066716
 20
2.165381
 30
0.0
  0
SEQEND
  5
11F
  8
0
  0
POLYLINE
  5
4A
  8
0
 66
     1
 10
0.0
 20
0.0
 30
0.0
 70
     1
  0
VERTEX
  5
120
  8
0
 10
0.73646
 20
3.1595
 30
0.0
 42
0.34281
  0
VERTEX
  5
121
  8
0
 10
0.791525
 20
3.212783
 30
0.0
 42
-0.33812
  0
VERTEX
  5
122
  8
0
 10
0.813261
 20
3.231701
 30
0.0
 42
-0.588899
  0
VERTEX
  5
123
  8
0
 10
0.836142
 20
3.20491
 30
0.0
 42
-0.05461
  0
VERTEX
  5
124
  8
0
 10
0.823894
 20
3.161168
 30
0.0
 42
-0.179724
  0
VERTEX
  5
125
  8
0
 10
0.795899
 20
3.115676
 30
0.0
 42
-0.224994
  0
VERTEX
  5
126
  8
0
 10
0.757312
 20
3.10047
 30
0.0
 42
-0.066966
  0
VERTEX
  5
127
  8
0
 10
0.717815
 20
3.104586
 30
0.0
 42
-0.062427
  0
VERTEX
  5
128
  8
0
 10
0.678266
 20
3.127312
 30
0.0
 42
-0.103453
  0
VERTEX
  5
129
  8
0
 10
0.601573
 20
3.221124
 30
0.0
 42
-0.080442
  0
VERTEX
  5
12A
  8
0
 10
0.572824
 20
3.284485
 30
0.0
 42
-0.032491
  0
VERTEX
  5
12B
  8
0
 10
0.545694
 20
3.357832
 30
0.0
 42
-0.064879
  0
VERTEX
  5
12C
  8
0
 10
0.526448
 20
3.461063
 30
0.0
 42
-0.09576
  0
VERTEX
  5
12D
  8
0
 10
0.557067
 20
3.529301
 30
0.0
 42
-0.03197
  0
VERTEX
  5
12E
  8
0
 10
0.59731
 20
3.56342
 30
0.0
 42
-0.126653
  0
VERTEX
  5
12F
  8
0
 10
0.635803
 20
3.571293
 30
0.0
 42
-0.15047
  0
VERTEX
  5
130
  8
0
 10
0.697042
 20
3.556421
 30
0.0
 42
-0.035679
  0
VERTEX
  5
131
  8
0
 10
0.745158
 20
3.50393
 30
0.0
  0
VERTEX
  5
132
  8
0
 10
0.80766
 20
3.369516
 30
0.0
 42
-0.414309
  0
VERTEX
  5
133
  8
0
 10
0.800021
 20
3.35342
 30
0.0
 42
-0.414309
  0
VERTEX
  5
134
  8
0
 10
0.772278
 20
3.350833
 30
0.0
  0
VERTEX
  5
135
  8
0
 10
0.765079
 20
3.364181
 30
0.0
  0
VERTEX
  5
136
  8
0
 10
0.758255
 20
3.378757
 30
0.0
  0
VERTEX
  5
137
  8
0
 10
0.74487
 20
3.409692
 30
0.0
  0
VERTEX
  5
138
  8
0
 10
0.737876
 20
3.4251
 30
0.0
  0
VERTEX
  5
139
  8
0
 10
0.730395
 20
3.439836
 30
0.0
  0
VERTEX
  5
13A
  8
0
 10
0.726403
 20
3.446803
 30
0.0
  0
VERTEX
  5
13B
  8
0
 10
0.722209
 20
3.453423
 30
0.0
  0
VERTEX
  5
13C
  8
0
 10
0.717784
 20
3.459638
 30
0.0
  0
VERTEX
  5
13D
  8
0
 10
0.713102
 20
3.465388
 30
0.0
  0
VERTEX
  5
13E
  8
0
 10
0.705309
 20
3.473322
 30
0.0
  0
VERTEX
  5
13F
  8
0
 10
0.696411
 20
3.48082
 30
0.0
  0
VERTEX
  5
140
  8
0
 10
0.686936
 20
3.487601
 30
0.0
  0
VERTEX
  5
141
  8
0
 10
0.677408
 20
3.493383
 30
0.0
  0
VERTEX
  5
142
  8
0
 10
0.671156
 20
3.496393
 30
0.0
  0
VERTEX
  5
143
  8
0
 10
0.66451
 20
3.498794
 30
0.0
  0
VERTEX
  5
144
  8
0
 10
0.657664
 20
3.500589
 30
0.0
  0
VERTEX
  5
145
  8
0
 10
0.650813
 20
3.501781
 30
0.0
  0
VERTEX
  5
146
  8
0
 10
0.64355
 20
3.502375
 30
0.0
  0
VERTEX
  5
147
  8
0
 10
0.635448
 20
3.502277
 30
0.0
  0
VERTEX
  5
148
  8
0
 10
0.631394
 20
3.501888
 30
0.0
  0
VERTEX
  5
149
  8
0
 10
0.627505
 20
3.501231
 30
0.0
  0
VERTEX
  5
14A
  8
0
 10
0.623905
 20
3.500273
 30
0.0
  0
VERTEX
  5
14B
  8
0
 10
0.620719
 20
3.498982
 30
0.0
  0
VERTEX
  5
14C
  8
0
 10
0.61524
 20
3.495586
 30
0.0
  0
VERTEX
  5
14D
  8
0
 10
0.610725
 20
3.491494
 30
0.0
  0
VERTEX
  5
14E
  8
0
 10
0.606975
 20
3.486816
 30
0.0
  0
VERTEX
  5
14F
  8
0
 10
0.603791
 20
3.481657
 30
0.0
  0
VERTEX
  5
150
  8
0
 10
0.598322
 20
3.470335
 30
0.0
  0
VERTEX
  5
151
  8
0
 10
0.592724
 20
3.458389
 30
0.0
  0
VERTEX
  5
152
  8
0
 10
0.589683
 20
3.451342
 30
0.0
  0
VERTEX
  5
153
  8
0
 10
0.587794
 20
3.444475
 30
0.0
  0
VERTEX
  5
154
  8
0
 10
0.585725
 20
3.429694
 30
0.0
  0
VERTEX
  5
155
  8
0
 10
0.585398
 20
3.423166
 30
0.0
  0
VERTEX
  5
156
  8
0
 10
0.585731
 20
3.416457
 30
0.0
  0
VERTEX
  5
157
  8
0
 10
0.587745
 20
3.402742
 30
0.0
  0
VERTEX
  5
158
  8
0
 10
0.590499
 20
3.389031
 30
0.0
  0
VERTEX
  5
159
  8
0
 10
0.591757
 20
3.382327
 30
0.0
  0
VERTEX
  5
15A
  8
0
 10
0.592724
 20
3.375804
 30
0.0
  0
VERTEX
  5
15B
  8
0
 10
0.594314
 20
3.36716
 30
0.0
  0
VERTEX
  5
15C
  8
0
 10
0.59688
 20
3.358346
 30
0.0
  0
VERTEX
  5
15D
  8
0
 10
0.60018
 20
3.34944
 30
0.0
  0
VERTEX
  5
15E
  8
0
 10
0.603977
 20
3.34052
 30
0.0
  0
VERTEX
  5
15F
  8
0
 10
0.612104
 20
3.32295
 30
0.0
  0
VERTEX
  5
160
  8
0
 10
0.615955
 20
3.314455
 30
0.0
  0
VERTEX
  5
161
  8
0
 10
0.619346
 20
3.306257
 30
0.0
  0
VERTEX
  5
162
  8
0
 10
0.622289
 20
3.299045
 30
0.0
  0
VERTEX
  5
163
  8
0
 10
0.625405
 20
3.292226
 30
0.0
  0
VERTEX
  5
164
  8
0
 10
0.632176
 20
3.279372
 30
0.0
  0
VERTEX
  5
165
  8
0
 10
0.639699
 20
3.266904
 30
0.0
  0
VERTEX
  5
166
  8
0
 10
0.648014
 20
3.254026
 30
0.0
  0
VERTEX
  5
167
  8
0
 10
0.662217
 20
3.231753
 30
0.0
  0
VERTEX
  5
168
  8
0
 10
0.669874
 20
3.220019
 30
0.0
  0
VERTEX
  5
169
  8
0
 10
0.677408
 20
3.209234
 30
0.0
  0
VERTEX
  5
16A
  8
0
 10
0.683506
 20
3.201153
 30
0.0
  0
VERTEX
  5
16B
  8
0
 10
0.690259
 20
3.192729
 30
0.0
  0
VERTEX
  5
16C
  8
0
 10
0.697524
 20
3.184399
 30
0.0
  0
VERTEX
  5
16D
  8
0
 10
0.705155
 20
3.176603
 30
0.0
  0
VERTEX
  5
16E
  8
0
 10
0.713009
 20
3.169777
 30
0.0
  0
VERTEX
  5
16F
  8
0
 10
0.716975
 20
3.166865
 30
0.0
  0
VERTEX
  5
170
  8
0
 10
0.720941
 20
3.164359
 30
0.0
  0
VERTEX
  5
171
  8
0
 10
0.724891
 20
3.162315
 30
0.0
  0
VERTEX
  5
172
  8
0
 10
0.728806
 20
3.160787
 30
0.0
  0
VERTEX
  5
173
  8
0
 10
0.732669
 20
3.159831
 30
0.0
  0
SEQEND
  5
174
  8
0
  0
POLYLINE
  5
4B
  8
0
 66
     1
 10
0.0
 20
0.0
 30
0.0
 70
     1
  0
VERTEX
  5
175
  8
0
 10
1.848108
 20
1.543623
 30
0.0
  0
VERTEX
  5
176
  8
0
 10
2.183697
 20
1.833927
 30
0.0
 42
0.822141
  0
VERTEX
  5
177
  8
0
 10
2.200179
 20
1.857512
 30
0.0
  0
VERTEX
  5
178
  8
0
 10
2.162151
 20
1.877866
 30
0.0
 42
0.735191
  0
VERTEX
  5
179
  8
0
 10
2.142912
 20
1.856658
 30
0.0
  0
VERTEX
  5
17A
  8
0
 10
2.074395
 20
1.797387
 30
0.0
  0
VERTEX
  5
17B
  8
0
 10
2.014046
 20
1.828258
 30
0.0
 42
0.416034
  0
VERTEX
  5
17C
  8
0
 10
1.994324
 20
1.821817
 30
0.0
  0
VERTEX
  5
17D
  8
0
 10
1.987744
 20
1.808756
 30
0.0
 42
0.412406
  0
VERTEX
  5
17E
  8
0
 10
1.994145
 20
1.789156
 30
0.0
  0
VERTEX
  5
17F
  8
0
 10
2.038596
 20
1.766418
 30
0.0
  0
VERTEX
  5
180
  8
0
 10
1.924937
 20
1.668097
 30
0.0
 42
-0.733836
  0
VERTEX
  5
181
  8
0
 10
1.901193
 20
1.682753
 30
0.0
  0
VERTEX
  5
182
  8
0
 10
1.965067
 20
1.934623
 30
0.0
 42
0.822116
  0
VERTEX
  5
183
  8
0
 10
1.981549
 20
1.958209
 30
0.0
  0
VERTEX
  5
184
  8
0
 10
1.943521
 20
1.978563
 30
0.0
 42
0.779292
  0
VERTEX
  5
185
  8
0
 10
1.925213
 20
1.955954
 30
0.0
  0
VERTEX
  5
186
  8
0
 10
1.824365
 20
1.558279
 30
0.0
 42
0.733855
  0
SEQEND
  5
187
  8
0
  0
POLYLINE
  5
4C
  8
0
 66
     1
 10
0.0
 20
0.0
 30
0.0
 70
     1
  0
VERTEX
  5
188
  8
0
 10
0.734681
 20
2.797718
 30
0.0
 42
-0.252329
  0
VERTEX
  5
189
  8
0
 10
0.729156
 20
2.810448
 30
0.0
  0
VERTEX
  5
18A
  8
0
 10
0.742781
 20
2.970604
 30
0.0
 42
-0.59999
  0
VERTEX
  5
18B
  8
0
 10
0.766501
 20
2.980776
 30
0.0
  0
VERTEX
  5
18C
  8
0
 10
0.888139
 20
2.883272
 30
0.0
 42
-0.248205
  0
VERTEX
  5
18D
  8
0
 10
0.893572
 20
2.87072
 30
0.0
  0
VERTEX
  5
18E
  8
0
 10
0.881101
 20
2.711377
 30
0.0
 42
-0.599326
  0
VERTEX
  5
18F
  8
0
 10
0.857473
 20
2.701029
 30
0.0
  0
SEQEND
  5
190
  8
0
  0
POLYLINE
  5
4D
  8
0
 66
     1
 10
0.0
 20
0.0
 30
0.0
 70
     1
  0
VERTEX
  5
191
  8
0
 10
0.569271
 20
3.038393
 30
0.0
 42
0.406085
  0
VERTEX
  5
192
  8
0
 10
0.587937
 20
3.030178
 30
0.0
  0
VERTEX
  5
193
  8
0
 10
0.605991
 20
3.03691
 30
0.0
 42
0.422394
  0
VERTEX
  5
194
  8
0
 10
0.614437
 20
3.056101
 30
0.0
  0
VERTEX
  5
195
  8
0
 10
0.444702
 20
3.475303
 30
0.0
 42
0.426537
  0
VERTEX
  5
196
  8
0
 10
0.425095
 20
3.483129
 30
0.0
  0
VERTEX
  5
197
  8
0
 10
0.407545
 20
3.475152
 30
0.0
 42
0.401999
  0
VERTEX
  5
198
  8
0
 10
0.400041
 20
3.45635
 30
0.0
  0
SEQEND
  5
199
  8
0
  0
POLYLINE
  5
4E
  8
0
 66
     1
 10
0.0
 20
0.0
 30
0.0
 70
     1
  0
VERTEX
  5
19A
  8
0
 10
1.460704
 20
1.256562
 30
0.0
  0
VERTEX
  5
19B
  8
0
 10
1.25792
 20
4.24981
 30
0.0
  0
VERTEX
  5
19C
  8
0
 10
1.220964
 20
4.241067
 30
0.0
  0
VERTEX
  5
19D
  8
0
 10
1.424725
 20
1.246721
 30
0.0
 42
0.417203
  0
VERTEX
  5
19E
  8
0
 10
1.550553
 20
1.137985
 30
0.0
  0
VERTEX
  5
19F
  8
0
 10
2.017182
 20
1.174896
 30
0.0
  0
VERTEX
  5
1A0
  8
0
 10
1.958895
 20
1.205982
 30
0.0
  0
VERTEX
  5
1A1
  8
0
 10
1.555075
 20
1.175011
 30
0.0
 42
-0.417204
  0
SEQEND
  5
1A2
  8
0
  0
POLYLINE
  5
4F
  8
0
 66
     1
 10
0.0
 20
0.0
 30
0.0
 70
     1
  0
VERTEX
  5
1A3
  8
0
 10
1.326437
 20
1.022875
 30
0.0
 42
0.426797
  0
VERTEX
  5
1A4
  8
0
 10
1.468556
 20
0.931498
 30
0.0
  0
VERTEX
  5
1A5
  8
0
 10
2.159972
 20
1.097308
 30
0.0
  0
VERTEX
  5
1A6
  8
0
 10
2.1114
 20
1.123329
 30
0.0
  0
VERTEX
  5
1A7
  8
0
 10
1.467452
 20
0.968832
 30
0.0
 42
-0.426796
  0
VERTEX
  5
1A8
  8
0
 10
1.360862
 20
1.037364
 30
0.0
  0
VERTEX
  5
1A9
  8
0
 10
0.805587
 20
3.884668
 30
0.0
  0
VERTEX
  5
1AA
  8
0
 10
0.770927
 20
3.865294
 30
0.0
  0
SEQEND
  5
1AB
  8
0
  0
POLYLINE
  5
50
  8
0
 66
     1
 10
0.0
 20
0.0
 30
0.0
 70
     1
  0
VERTEX
  5
1AC
  8
0
 10
1.479583
 20
1.466844
 30
0.0
  0
VERTEX
  5
1AD
  8
0
 10
2.304236
 20
1.018044
 30
0.0
  0
VERTEX
  5
1AE
  8
0
 10
2.35289
 20
1.038187
 30
0.0
  0
VERTEX
  5
1AF
  8
0
 10
1.485791
 20
1.504153
 30
0.0
  0
VERTEX
  5
1B0
  8
0
 10
1.952758
 20
4.307996
 30
0.0
 42
-0.44465
  0
VERTEX
  5
1B1
  8
0
 10
2.099117
 20
4.401618
 30
0.0
  0
VERTEX
  5
1B2
  8
0
 10
2.673358
 20
4.24487
 30
0.0
  0
VERTEX
  5
1B3
  8
0
 10
2.688115
 20
4.277863
 30
0.0
  0
VERTEX
  5
1B4
  8
0
 10
2.069705
 20
4.447598
 30
0.0
 42
0.444649
  0
VERTEX
  5
1B5
  8
0
 10
1.923346
 20
4.353976
 30
0.0
  0
VERTEX
  5
1B6
  8
0
 10
1.452169
 20
1.522139
 30
0.0
 42
0.342738
  0
SEQEND
  5
1B7
  8
0
  0
POLYLINE
  5
51
  8
0
 66
     1
 10
0.0
 20
0.0
 30
0.0
 70
     1
  0
VERTEX
  5
1B8
  8
0
 10
0.240159
 20
3.709054
 30
0.0
 42
0.384197
  0
VERTEX
  5
1B9
  8
0
 10
0.161363
 20
3.480893
 30
0.0
  0
VERTEX
  5
1BA
  8
0
 10
0.658302
 20
2.252508
 30
0.0
  0
VERTEX
  5
1BB
  8
0
 10
1.278518
 20
0.717776
 30
0.0
  0
VERTEX
  5
1BC
  8
0
 10
1.280227
 20
0.713752
 30
0.0
 42
0.40648
  0
VERTEX
  5
1BD
  8
0
 10
1.593865
 20
0.588625
 30
0.0
  0
VERTEX
  5
1BE
  8
0
 10
2.348832
 20
0.901216
 30
0.0
  0
VERTEX
  5
1BF
  8
0
 10
3.226202
 20
0.475463
 30
0.0
 42
0.418844
  0
VERTEX
  5
1C0
  8
0
 10
3.55121
 20
0.59098
 30
0.0
  0
VERTEX
  5
1C1
  8
0
 10
3.994344
 20
1.542092
 30
0.0
  0
VERTEX
  5
1C2
  8
0
 10
4.778602
 20
3.223575
 30
0.0
 42
0.344461
  0
VERTEX
  5
1C3
  8
0
 10
4.714929
 20
3.625223
 30
0.0
  0
VERTEX
  5
1C4
  8
0
 10
4.685784
 20
3.645489
 30
0.0
  0
VERTEX
  5
1C5
  8
0
 10
3.576898
 20
4.202008
 30
0.0
  0
VERTEX
  5
1C6
  8
0
 10
3.561181
 20
4.477389
 30
0.0
  0
VERTEX
  5
1C7
  8
0
 10
3.560823
 20
4.482097
 30
0.0
 42
0.406444
  0
VERTEX
  5
1C8
  8
0
 10
3.303423
 20
4.700628
 30
0.0
  0
VERTEX
  5
1C9
  8
0
 10
3.302221
 20
4.70054
 30
0.0
  0
VERTEX
  5
1CA
  8
0
 10
1.352481
 20
4.548475
 30
0.0
 42
0.343162
  0
VERTEX
  5
1CB
  8
0
 10
1.13281
 20
4.348351
 30
0.0
  0
VERTEX
  5
1CC
  8
0
 10
0.837625
 20
4.27756
 30
0.0
 42
0.401741
  0
VERTEX
  5
1CD
  8
0
 10
0.656537
 20
3.995914
 30
0.0
  0
VERTEX
  5
1CE
  8
0
 10
0.665644
 20
3.949216
 30
0.0
  0
SEQEND
  5
1CF
  8
0
  0
POLYLINE
  5
52
  8
0
 66
     1
 10
0.0
 20
0.0
 30
0.0
 70
     1
  0
VERTEX
  5
1D0
  8
0
 10
1.40471
 20
3.788338
 30
0.0
 42
-0.544827
  0
VERTEX
  5
1D1
  8
0
 10
1.388088
 20
3.832955
 30
0.0
 42
-0.084543
  0
VERTEX
  5
1D2
  8
0
 10
1.436204
 20
3.875823
 30
0.0
 42
-0.100918
  0
VERTEX
  5
1D3
  8
0
 10
1.412583
 20
4.059539
 30
0.0
 42
-0.159115
  0
VERTEX
  5
1D4
  8
0
 10
1.472397
 20
4.212074
 30
0.0
 42
-0.226986
  0
VERTEX
  5
1D5
  8
0
 10
1.537683
 20
4.237924
 30
0.0
 42
-0.178588
  0
VERTEX
  5
1D6
  8
0
 10
1.599799
 20
4.210012
 30
0.0
 42
-0.124087
  0
VERTEX
  5
1D7
  8
0
 10
1.663663
 20
4.101532
 30
0.0
 42
-0.068474
  0
VERTEX
  5
1D8
  8
0
 10
1.673286
 20
4.037668
 30
0.0
 42
0.010016
  0
VERTEX
  5
1D9
  8
0
 10
1.67941
 20
3.934437
 30
0.0
 42
-0.077933
  0
VERTEX
  5
1DA
  8
0
 10
1.675911
 20
3.909067
 30
0.0
 42
-0.518624
  0
VERTEX
  5
1DB
  8
0
 10
1.649665
 20
3.896819
 30
0.0
 42
-0.319023
  0
VERTEX
  5
1DC
  8
0
 10
1.631294
 20
3.91694
 30
0.0
 42
0.00165
  0
VERTEX
  5
1DD
  8
0
 10
1.624295
 20
4.000925
 30
0.0
 42
0.054097
  0
VERTEX
  5
1DE
  8
0
 10
1.612922
 20
4.069162
 30
0.0
 42
0.033154
  0
VERTEX
  5
1DF
  8
0
 10
1.59455
 20
4.125152
 30
0.0
 42
0.07277
  0
VERTEX
  5
1E0
  8
0
 10
1.56743
 20
4.16802
 30
0.0
 42
0.42554
  0
VERTEX
  5
1E1
  8
0
 10
1.496568
 20
4.148773
 30
0.0
 42
0.092227
  0
VERTEX
  5
1E2
  8
0
 10
1.471198
 20
4.094533
 30
0.0
 42
0.147829
  0
VERTEX
  5
1E3
  8
0
 10
1.482571
 20
3.896819
 30
0.0
 42
-0.082013
  0
VERTEX
  5
1E4
  8
0
 10
1.535936
 20
3.904692
 30
0.0
 42
-0.380495
  0
VERTEX
  5
1E5
  8
0
 10
1.570055
 20
3.873198
 30
0.0
 42
-0.018027
  0
VERTEX
  5
1E6
  8
0
 10
1.54773
 20
3.867029
 30
0.0
 42
0.07879
  0
VERTEX
  5
1E7
  8
0
 10
1.505317
 20
3.856576
 30
0.0
 42
0.442759
  0
VERTEX
  5
1E8
  8
0
 10
1.603299
 20
3.826831
 30
0.0
 42
-0.254131
  0
VERTEX
  5
1E9
  8
0
 10
1.700406
 20
3.804086
 30
0.0
 42
-0.13149
  0
VERTEX
  5
1EA
  8
0
 10
1.724184
 20
3.735786
 30
0.0
 42
0.286706
  0
VERTEX
  5
1EB
  8
0
 10
1.599519
 20
3.772052
 30
0.0
 42
-0.457286
  0
VERTEX
  5
1EC
  8
0
 10
1.4607
 20
3.831206
 30
0.0
 42
0.08734
  0
SEQEND
  5
1ED
  8
0
  0
ENDSEC
  0
EOF
