0
SECTION
2
HEADER
0
ENDSEC
0
SECTION
2
TABLES
0
ENDSEC
0
SECTION
2
BLOCKS
0
ENDSEC
0
SECTION
2
ENTITIES
0
POLYLINE
8
R2V
62
0
66
1
70
8
0
VERTEX
8
R2V
62
0
70
32
10
4.933333
20
1.466667
30
0
0
VERTEX
8
R2V
62
0
70
32
10
4.800000
20
1.466667
30
0
0
VERTEX
8
R2V
62
0
70
32
10
4.866667
20
1.133333
30
0
0
VERTEX
8
R2V
62
0
70
32
10
4.933333
20
1.133333
30
0
0
VERTEX
8
R2V
62
0
70
32
10
5.200000
20
0.933333
30
0
0
VERTEX
8
R2V
62
0
70
32
10
5.266667
20
0.666667
30
0
0
VERTEX
8
R2V
62
0
70
32
10
5.266667
20
1.066667
30
0
0
VERTEX
8
R2V
62
0
70
32
10
5.000000
20
1.266667
30
0
0
VERTEX
8
R2V
62
0
70
32
10
4.933333
20
1.466667
30
0
0
SEQEND
0
POLYLINE
8
R2V
62
0
66
1
70
8
0
VERTEX
8
R2V
62
0
70
32
10
5.133333
20
3.866667
30
0
0
VERTEX
8
R2V
62
0
70
32
10
5.000000
20
3.866667
30
0
0
VERTEX
8
R2V
62
0
70
32
10
5.066667
20
3.333333
30
0
0
VERTEX
8
R2V
62
0
70
32
10
5.133333
20
3.333333
30
0
0
VERTEX
8
R2V
62
0
70
32
10
5.200000
20
3.266667
30
0
0
VERTEX
8
R2V
62
0
70
32
10
5.133333
20
3.866667
30
0
0
SEQEND
0
POLYLINE
8
R2V
62
0
66
1
70
8
0
VERTEX
8
R2V
62
0
70
32
10
4.600000
20
4.066667
30
0
0
VERTEX
8
R2V
62
0
70
32
10
4.333333
20
3.933333
30
0
0
VERTEX
8
R2V
62
0
70
32
10
4.400000
20
3.333333
30
0
0
VERTEX
8
R2V
62
0
70
32
10
4.466667
20
3.333333
30
0
0
VERTEX
8
R2V
62
0
70
32
10
4.933333
20
3.000000
30
0
0
VERTEX
8
R2V
62
0
70
32
10
5.133333
20
3.000000
30
0
0
VERTEX
8
R2V
62
0
70
32
10
5.333333
20
2.866667
30
0
0
VERTEX
8
R2V
62
0
70
32
10
5.266667
20
2.400000
30
0
0
VERTEX
8
R2V
62
0
70
32
10
5.600000
20
2.466667
30
0
0
VERTEX
8
R2V
62
0
70
32
10
5.600000
20
3.000000
30
0
0
VERTEX
8
R2V
62
0
70
32
10
4.733333
20
3.400000
30
0
0
VERTEX
8
R2V
62
0
70
32
10
4.733333
20
3.866667
30
0
0
VERTEX
8
R2V
62
0
70
32
10
4.733333
20
4.000000
30
0
0
VERTEX
8
R2V
62
0
70
32
10
4.600000
20
4.066667
30
0
0
SEQEND
0
POLYLINE
8
R2V
62
0
66
1
70
8
0
VERTEX
8
R2V
62
0
70
32
10
5.200000
20
2.866667
30
0
0
VERTEX
8
R2V
62
0
70
32
10
5.066667
20
2.866667
30
0
0
VERTEX
8
R2V
62
0
70
32
10
5.066667
20
2.466667
30
0
0
VERTEX
8
R2V
62
0
70
32
10
5.200000
20
2.466667
30
0
0
VERTEX
8
R2V
62
0
70
32
10
5.200000
20
2.866667
30
0
0
SEQEND
0
POLYLINE
8
R2V
62
0
66
1
70
8
0
VERTEX
8
R2V
62
0
70
32
10
4.666667
20
3.066667
30
0
0
VERTEX
8
R2V
62
0
70
32
10
4.533333
20
3.000000
30
0
0
VERTEX
8
R2V
62
0
70
32
10
4.600000
20
2.533333
30
0
0
VERTEX
8
R2V
62
0
70
32
10
4.666667
20
2.533333
30
0
0
VERTEX
8
R2V
62
0
70
32
10
4.866667
20
2.266667
30
0
0
VERTEX
8
R2V
62
0
70
32
10
5.000000
20
2.266667
30
0
0
VERTEX
8
R2V
62
0
70
32
10
5.266667
20
2.066667
30
0
0
VERTEX
8
R2V
62
0
70
32
10
5.200000
20
1.666667
30
0
0
VERTEX
8
R2V
62
0
70
32
10
5.533333
20
1.800000
30
0
0
VERTEX
8
R2V
62
0
70
32
10
5.466667
20
2.266667
30
0
0
VERTEX
8
R2V
62
0
70
32
10
5.000000
20
2.466667
30
0
0
VERTEX
8
R2V
62
0
70
32
10
4.800000
20
2.866667
30
0
0
VERTEX
8
R2V
62
0
70
32
10
4.800000
20
3.000000
30
0
0
VERTEX
8
R2V
62
0
70
32
10
4.666667
20
3.066667
30
0
0
SEQEND
0
POLYLINE
8
R2V
62
0
66
1
70
8
0
VERTEX
8
R2V
62
0
70
32
10
5.133333
20
2.066667
30
0
0
VERTEX
8
R2V
62
0
70
32
10
5.000000
20
2.066667
30
0
0
VERTEX
8
R2V
62
0
70
32
10
5.000000
20
1.933333
30
0
0
VERTEX
8
R2V
62
0
70
32
10
5.066667
20
1.933333
30
0
0
VERTEX
8
R2V
62
0
70
32
10
5.066667
20
1.733333
30
0
0
VERTEX
8
R2V
62
0
70
32
10
5.133333
20
1.733333
30
0
0
VERTEX
8
R2V
62
0
70
32
10
5.133333
20
2.066667
30
0
0
SEQEND
0
POLYLINE
8
R2V
62
0
66
1
70
8
0
VERTEX
8
R2V
62
0
70
32
10
4.800000
20
2.200000
30
0
0
VERTEX
8
R2V
62
0
70
32
10
4.666667
20
2.066667
30
0
0
VERTEX
8
R2V
62
0
70
32
10
4.733333
20
1.733333
30
0
0
VERTEX
8
R2V
62
0
70
32
10
4.800000
20
1.733333
30
0
0
VERTEX
8
R2V
62
0
70
32
10
5.266667
20
1.266667
30
0
0
VERTEX
8
R2V
62
0
70
32
10
5.466667
20
1.333333
30
0
0
VERTEX
8
R2V
62
0
70
32
10
4.866667
20
1.866667
30
0
0
VERTEX
8
R2V
62
0
70
32
10
4.866667
20
2.133333
30
0
0
VERTEX
8
R2V
62
0
70
32
10
4.800000
20
2.200000
30
0
0
SEQEND
0
POLYLINE
8
R2V
62
0
66
1
70
8
0
VERTEX
8
R2V
62
0
70
32
10
4.933333
20
6.066667
30
0
0
VERTEX
8
R2V
62
0
70
32
10
4.466667
20
6.000000
30
0
0
VERTEX
8
R2V
62
0
70
32
10
4.600000
20
6.000000
30
0
0
VERTEX
8
R2V
62
0
70
32
10
4.933333
20
5.866667
30
0
0
VERTEX
8
R2V
62
0
70
32
10
4.933333
20
6.066667
30
0
0
SEQEND
0
POLYLINE
8
R2V
62
0
66
1
70
8
0
VERTEX
8
R2V
62
0
70
32
10
5.933333
20
6.066667
30
0
0
VERTEX
8
R2V
62
0
70
32
10
5.400000
20
6.066667
30
0
0
VERTEX
8
R2V
62
0
70
32
10
5.466667
20
5.800000
30
0
0
VERTEX
8
R2V
62
0
70
32
10
5.933333
20
5.933333
30
0
0
VERTEX
8
R2V
62
0
70
32
10
5.933333
20
6.066667
30
0
0
SEQEND
0
POLYLINE
8
R2V
62
0
66
1
70
8
0
VERTEX
8
R2V
62
0
70
32
10
5.133333
20
5.266667
30
0
0
VERTEX
8
R2V
62
0
70
32
10
5.000000
20
5.266667
30
0
0
VERTEX
8
R2V
62
0
70
32
10
5.066667
20
4.466667
30
0
0
VERTEX
8
R2V
62
0
70
32
10
5.266667
20
4.533333
30
0
0
VERTEX
8
R2V
62
0
70
32
10
5.133333
20
5.266667
30
0
0
SEQEND
0
POLYLINE
8
R2V
62
0
66
1
70
8
0
VERTEX
8
R2V
62
0
70
32
10
4.733333
20
5.333333
30
0
0
VERTEX
8
R2V
62
0
70
32
10
4.133333
20
5.266667
30
0
0
VERTEX
8
R2V
62
0
70
32
10
4.000000
20
4.800000
30
0
0
VERTEX
8
R2V
62
0
70
32
10
4.066667
20
4.800000
30
0
0
VERTEX
8
R2V
62
0
70
32
10
4.200000
20
4.466667
30
0
0
VERTEX
8
R2V
62
0
70
32
10
4.266667
20
4.466667
30
0
0
VERTEX
8
R2V
62
0
70
32
10
4.533333
20
4.200000
30
0
0
VERTEX
8
R2V
62
0
70
32
10
4.666667
20
4.200000
30
0
0
VERTEX
8
R2V
62
0
70
32
10
5.400000
20
3.866667
30
0
0
VERTEX
8
R2V
62
0
70
32
10
5.600000
20
3.666667
30
0
0
VERTEX
8
R2V
62
0
70
32
10
5.533333
20
3.333333
30
0
0
VERTEX
8
R2V
62
0
70
32
10
5.333333
20
3.200000
30
0
0
VERTEX
8
R2V
62
0
70
32
10
5.466667
20
3.200000
30
0
0
VERTEX
8
R2V
62
0
70
32
10
5.533333
20
3.066667
30
0
0
VERTEX
8
R2V
62
0
70
32
10
5.866667
20
3.133333
30
0
0
VERTEX
8
R2V
62
0
70
32
10
6.066667
20
3.600000
30
0
0
VERTEX
8
R2V
62
0
70
32
10
5.733333
20
4.066667
30
0
0
VERTEX
8
R2V
62
0
70
32
10
4.733333
20
4.533333
30
0
0
VERTEX
8
R2V
62
0
70
32
10
4.533333
20
4.733333
30
0
0
VERTEX
8
R2V
62
0
70
32
10
4.600000
20
5.200000
30
0
0
VERTEX
8
R2V
62
0
70
32
10
4.733333
20
5.200000
30
0
0
VERTEX
8
R2V
62
0
70
32
10
4.733333
20
5.333333
30
0
0
SEQEND
0
POLYLINE
8
R2V
62
0
66
1
70
8
0
VERTEX
8
R2V
62
0
70
32
10
6.600000
20
8.200000
30
0
0
VERTEX
8
R2V
62
0
70
32
10
6.333333
20
8.000000
30
0
0
VERTEX
8
R2V
62
0
70
32
10
6.466667
20
8.000000
30
0
0
VERTEX
8
R2V
62
0
70
32
10
6.466667
20
7.866667
30
0
0
VERTEX
8
R2V
62
0
70
32
10
6.600000
20
7.866667
30
0
0
VERTEX
8
R2V
62
0
70
32
10
6.866667
20
7.533333
30
0
0
VERTEX
8
R2V
62
0
70
32
10
7.133333
20
7.600000
30
0
0
VERTEX
8
R2V
62
0
70
32
10
7.066667
20
7.866667
30
0
0
VERTEX
8
R2V
62
0
70
32
10
6.600000
20
8.133333
30
0
0
VERTEX
8
R2V
62
0
70
32
10
6.600000
20
8.200000
30
0
0
SEQEND
0
POLYLINE
8
R2V
62
0
66
1
70
8
0
VERTEX
8
R2V
62
0
70
32
10
7.933333
20
7.866667
30
0
0
VERTEX
8
R2V
62
0
70
32
10
7.800000
20
7.733333
30
0
0
VERTEX
8
R2V
62
0
70
32
10
7.933333
20
7.733333
30
0
0
VERTEX
8
R2V
62
0
70
32
10
8.533333
20
7.400000
30
0
0
VERTEX
8
R2V
62
0
70
32
10
8.466667
20
7.266667
30
0
0
VERTEX
8
R2V
62
0
70
32
10
8.266667
20
7.466667
30
0
0
VERTEX
8
R2V
62
0
70
32
10
7.933333
20
7.600000
30
0
0
VERTEX
8
R2V
62
0
70
32
10
7.666667
20
7.733333
30
0
0
VERTEX
8
R2V
62
0
70
32
10
7.666667
20
7.533333
30
0
0
VERTEX
8
R2V
62
0
70
32
10
7.800000
20
7.533333
30
0
0
VERTEX
8
R2V
62
0
70
32
10
8.333333
20
7.133333
30
0
0
VERTEX
8
R2V
62
0
70
32
10
8.466667
20
7.133333
30
0
0
VERTEX
8
R2V
62
0
70
32
10
9.000000
20
7.066667
30
0
0
VERTEX
8
R2V
62
0
70
32
10
9.133333
20
7.266667
30
0
0
VERTEX
8
R2V
62
0
70
32
10
8.066667
20
7.733333
30
0
0
VERTEX
8
R2V
62
0
70
32
10
7.933333
20
7.866667
30
0
0
SEQEND
0
POLYLINE
8
R2V
62
0
66
1
70
8
0
VERTEX
8
R2V
62
0
70
32
10
4.466667
20
8.066667
30
0
0
VERTEX
8
R2V
62
0
70
32
10
4.466667
20
7.866667
30
0
0
VERTEX
8
R2V
62
0
70
32
10
4.533333
20
7.866667
30
0
0
VERTEX
8
R2V
62
0
70
32
10
4.733333
20
7.733333
30
0
0
VERTEX
8
R2V
62
0
70
32
10
4.533333
20
7.400000
30
0
0
VERTEX
8
R2V
62
0
70
32
10
4.600000
20
7.400000
30
0
0
VERTEX
8
R2V
62
0
70
32
10
4.800000
20
7.333333
30
0
0
VERTEX
8
R2V
62
0
70
32
10
4.866667
20
7.800000
30
0
0
VERTEX
8
R2V
62
0
70
32
10
4.533333
20
7.933333
30
0
0
VERTEX
8
R2V
62
0
70
32
10
4.466667
20
8.066667
30
0
0
SEQEND
0
POLYLINE
8
R2V
62
0
66
1
70
8
0
VERTEX
8
R2V
62
0
70
32
10
3.800000
20
8.266667
30
0
0
VERTEX
8
R2V
62
0
70
32
10
3.200000
20
7.866667
30
0
0
VERTEX
8
R2V
62
0
70
32
10
3.200000
20
7.600000
30
0
0
VERTEX
8
R2V
62
0
70
32
10
3.533333
20
7.666667
30
0
0
VERTEX
8
R2V
62
0
70
32
10
3.733333
20
7.933333
30
0
0
VERTEX
8
R2V
62
0
70
32
10
3.933333
20
8.000000
30
0
0
VERTEX
8
R2V
62
0
70
32
10
3.800000
20
8.266667
30
0
0
SEQEND
0
POLYLINE
8
R2V
62
0
66
1
70
8
0
VERTEX
8
R2V
62
0
70
32
10
1.866667
20
8.066667
30
0
0
VERTEX
8
R2V
62
0
70
32
10
0.800000
20
7.733333
30
0
0
VERTEX
8
R2V
62
0
70
32
10
0.800000
20
7.533333
30
0
0
VERTEX
8
R2V
62
0
70
32
10
0.933333
20
7.533333
30
0
0
VERTEX
8
R2V
62
0
70
32
10
1.333333
20
7.466667
30
0
0
VERTEX
8
R2V
62
0
70
32
10
2.200000
20
7.933333
30
0
0
VERTEX
8
R2V
62
0
70
32
10
1.800000
20
7.933333
30
0
0
VERTEX
8
R2V
62
0
70
32
10
1.333333
20
7.666667
30
0
0
VERTEX
8
R2V
62
0
70
32
10
1.133333
20
7.733333
30
0
0
VERTEX
8
R2V
62
0
70
32
10
1.866667
20
8.000000
30
0
0
VERTEX
8
R2V
62
0
70
32
10
1.866667
20
8.066667
30
0
0
SEQEND
0
POLYLINE
8
R2V
62
0
66
1
70
8
0
VERTEX
8
R2V
62
0
70
32
10
4.200000
20
8.066667
30
0
0
VERTEX
8
R2V
62
0
70
32
10
3.933333
20
7.933333
30
0
0
VERTEX
8
R2V
62
0
70
32
10
3.600000
20
7.666667
30
0
0
VERTEX
8
R2V
62
0
70
32
10
3.666667
20
7.400000
30
0
0
VERTEX
8
R2V
62
0
70
32
10
3.933333
20
7.466667
30
0
0
VERTEX
8
R2V
62
0
70
32
10
4.133333
20
7.733333
30
0
0
VERTEX
8
R2V
62
0
70
32
10
4.266667
20
7.733333
30
0
0
VERTEX
8
R2V
62
0
70
32
10
4.266667
20
8.000000
30
0
0
VERTEX
8
R2V
62
0
70
32
10
4.200000
20
8.066667
30
0
0
SEQEND
0
POLYLINE
8
R2V
62
0
66
1
70
8
0
VERTEX
8
R2V
62
0
70
32
10
5.933333
20
7.800000
30
0
0
VERTEX
8
R2V
62
0
70
32
10
5.666667
20
7.600000
30
0
0
VERTEX
8
R2V
62
0
70
32
10
5.733333
20
7.600000
30
0
0
VERTEX
8
R2V
62
0
70
32
10
5.866667
20
7.333333
30
0
0
VERTEX
8
R2V
62
0
70
32
10
6.133333
20
7.333333
30
0
0
VERTEX
8
R2V
62
0
70
32
10
6.066667
20
7.600000
30
0
0
VERTEX
8
R2V
62
0
70
32
10
5.933333
20
7.800000
30
0
0
VERTEX
8
R2V
62
0
70
32
10
6.000000
20
7.800000
30
0
0
VERTEX
8
R2V
62
0
70
32
10
6.400000
20
7.400000
30
0
0
VERTEX
8
R2V
62
0
70
32
10
6.733333
20
7.466667
30
0
0
VERTEX
8
R2V
62
0
70
32
10
6.200000
20
8.066667
30
0
0
VERTEX
8
R2V
62
0
70
32
10
5.933333
20
7.933333
30
0
0
VERTEX
8
R2V
62
0
70
32
10
5.933333
20
7.800000
30
0
0
SEQEND
0
POLYLINE
8
R2V
62
0
66
1
70
8
0
VERTEX
8
R2V
62
0
70
32
10
4.466667
20
7.800000
30
0
0
VERTEX
8
R2V
62
0
70
32
10
4.133333
20
7.533333
30
0
0
VERTEX
8
R2V
62
0
70
32
10
4.133333
20
7.333333
30
0
0
VERTEX
8
R2V
62
0
70
32
10
4.533333
20
7.466667
30
0
0
VERTEX
8
R2V
62
0
70
32
10
4.533333
20
7.733333
30
0
0
VERTEX
8
R2V
62
0
70
32
10
4.466667
20
7.800000
30
0
0
SEQEND
0
POLYLINE
8
R2V
62
0
66
1
70
8
0
VERTEX
8
R2V
62
0
70
32
10
7.400000
20
7.666667
30
0
0
VERTEX
8
R2V
62
0
70
32
10
7.266667
20
7.666667
30
0
0
VERTEX
8
R2V
62
0
70
32
10
7.266667
20
7.466667
30
0
0
VERTEX
8
R2V
62
0
70
32
10
7.066667
20
7.400000
30
0
0
VERTEX
8
R2V
62
0
70
32
10
7.133333
20
7.400000
30
0
0
VERTEX
8
R2V
62
0
70
32
10
7.666667
20
6.933333
30
0
0
VERTEX
8
R2V
62
0
70
32
10
7.800000
20
6.933333
30
0
0
VERTEX
8
R2V
62
0
70
32
10
7.866667
20
6.800000
30
0
0
VERTEX
8
R2V
62
0
70
32
10
8.400000
20
6.866667
30
0
0
VERTEX
8
R2V
62
0
70
32
10
8.333333
20
7.133333
30
0
0
VERTEX
8
R2V
62
0
70
32
10
8.000000
20
7.266667
30
0
0
VERTEX
8
R2V
62
0
70
32
10
7.400000
20
7.666667
30
0
0
SEQEND
0
POLYLINE
8
R2V
62
0
66
1
70
8
0
VERTEX
8
R2V
62
0
70
32
10
2.466667
20
7.933333
30
0
0
VERTEX
8
R2V
62
0
70
32
10
1.133333
20
7.400000
30
0
0
VERTEX
8
R2V
62
0
70
32
10
1.200000
20
7.200000
30
0
0
VERTEX
8
R2V
62
0
70
32
10
2.000000
20
7.266667
30
0
0
VERTEX
8
R2V
62
0
70
32
10
2.666667
20
7.600000
30
0
0
VERTEX
8
R2V
62
0
70
32
10
2.600000
20
7.800000
30
0
0
VERTEX
8
R2V
62
0
70
32
10
1.666667
20
7.400000
30
0
0
VERTEX
8
R2V
62
0
70
32
10
2.466667
20
7.800000
30
0
0
VERTEX
8
R2V
62
0
70
32
10
2.466667
20
7.933333
30
0
0
SEQEND
0
POLYLINE
8
R2V
62
0
66
1
70
8
0
VERTEX
8
R2V
62
0
70
32
10
3.000000
20
7.733333
30
0
0
VERTEX
8
R2V
62
0
70
32
10
2.066667
20
7.266667
30
0
0
VERTEX
8
R2V
62
0
70
32
10
1.866667
20
7.133333
30
0
0
VERTEX
8
R2V
62
0
70
32
10
1.866667
20
6.933333
30
0
0
VERTEX
8
R2V
62
0
70
32
10
2.000000
20
6.933333
30
0
0
VERTEX
8
R2V
62
0
70
32
10
2.400000
20
6.866667
30
0
0
VERTEX
8
R2V
62
0
70
32
10
3.066667
20
7.400000
30
0
0
VERTEX
8
R2V
62
0
70
32
10
3.200000
20
7.400000
30
0
0
VERTEX
8
R2V
62
0
70
32
10
3.200000
20
7.533333
30
0
0
VERTEX
8
R2V
62
0
70
32
10
3.000000
20
7.533333
30
0
0
VERTEX
8
R2V
62
0
70
32
10
3.000000
20
7.733333
30
0
0
SEQEND
0
POLYLINE
8
R2V
62
0
66
1
70
8
0
VERTEX
8
R2V
62
0
70
32
10
6.866667
20
7.466667
30
0
0
VERTEX
8
R2V
62
0
70
32
10
6.800000
20
7.333333
30
0
0
VERTEX
8
R2V
62
0
70
32
10
6.533333
20
7.266667
30
0
0
VERTEX
8
R2V
62
0
70
32
10
6.600000
20
7.266667
30
0
0
VERTEX
8
R2V
62
0
70
32
10
7.000000
20
6.800000
30
0
0
VERTEX
8
R2V
62
0
70
32
10
7.133333
20
6.800000
30
0
0
VERTEX
8
R2V
62
0
70
32
10
7.266667
20
6.600000
30
0
0
VERTEX
8
R2V
62
0
70
32
10
7.800000
20
6.666667
30
0
0
VERTEX
8
R2V
62
0
70
32
10
7.533333
20
7.000000
30
0
0
VERTEX
8
R2V
62
0
70
32
10
7.066667
20
7.266667
30
0
0
VERTEX
8
R2V
62
0
70
32
10
6.866667
20
7.466667
30
0
0
SEQEND
0
POLYLINE
8
R2V
62
0
66
1
70
8
0
VERTEX
8
R2V
62
0
70
32
10
4.533333
20
7.266667
30
0
0
VERTEX
8
R2V
62
0
70
32
10
4.066667
20
6.866667
30
0
0
VERTEX
8
R2V
62
0
70
32
10
4.133333
20
6.733333
30
0
0
VERTEX
8
R2V
62
0
70
32
10
4.533333
20
6.866667
30
0
0
VERTEX
8
R2V
62
0
70
32
10
4.666667
20
7.200000
30
0
0
VERTEX
8
R2V
62
0
70
32
10
4.533333
20
7.266667
30
0
0
SEQEND
0
POLYLINE
8
R2V
62
0
66
1
70
8
0
VERTEX
8
R2V
62
0
70
32
10
6.333333
20
7.333333
30
0
0
VERTEX
8
R2V
62
0
70
32
10
5.933333
20
7.200000
30
0
0
VERTEX
8
R2V
62
0
70
32
10
6.000000
20
7.200000
30
0
0
VERTEX
8
R2V
62
0
70
32
10
6.400000
20
6.666667
30
0
0
VERTEX
8
R2V
62
0
70
32
10
6.533333
20
6.666667
30
0
0
VERTEX
8
R2V
62
0
70
32
10
6.666667
20
6.533333
30
0
0
VERTEX
8
R2V
62
0
70
32
10
7.066667
20
6.533333
30
0
0
VERTEX
8
R2V
62
0
70
32
10
6.933333
20
6.800000
30
0
0
VERTEX
8
R2V
62
0
70
32
10
6.466667
20
7.266667
30
0
0
VERTEX
8
R2V
62
0
70
32
10
6.333333
20
7.333333
30
0
0
SEQEND
0
POLYLINE
8
R2V
62
0
66
1
70
8
0
VERTEX
8
R2V
62
0
70
32
10
3.533333
20
7.466667
30
0
0
VERTEX
8
R2V
62
0
70
32
10
3.133333
20
7.333333
30
0
0
VERTEX
8
R2V
62
0
70
32
10
2.466667
20
6.733333
30
0
0
VERTEX
8
R2V
62
0
70
32
10
2.533333
20
6.733333
30
0
0
VERTEX
8
R2V
62
0
70
32
10
3.000000
20
6.666667
30
0
0
VERTEX
8
R2V
62
0
70
32
10
3.533333
20
7.200000
30
0
0
VERTEX
8
R2V
62
0
70
32
10
3.733333
20
7.333333
30
0
0
VERTEX
8
R2V
62
0
70
32
10
3.533333
20
7.333333
30
0
0
VERTEX
8
R2V
62
0
70
32
10
3.533333
20
7.466667
30
0
0
SEQEND
0
POLYLINE
8
R2V
62
0
66
1
70
8
0
VERTEX
8
R2V
62
0
70
32
10
4.000000
20
7.400000
30
0
0
VERTEX
8
R2V
62
0
70
32
10
3.200000
20
6.733333
30
0
0
VERTEX
8
R2V
62
0
70
32
10
3.200000
20
6.600000
30
0
0
VERTEX
8
R2V
62
0
70
32
10
3.800000
20
6.666667
30
0
0
VERTEX
8
R2V
62
0
70
32
10
4.333333
20
7.266667
30
0
0
VERTEX
8
R2V
62
0
70
32
10
4.000000
20
7.266667
30
0
0
VERTEX
8
R2V
62
0
70
32
10
4.000000
20
7.400000
30
0
0
SEQEND
0
POLYLINE
8
R2V
62
0
66
1
70
8
0
VERTEX
8
R2V
62
0
70
32
10
5.733333
20
6.600000
30
0
0
VERTEX
8
R2V
62
0
70
32
10
5.733333
20
6.533333
30
0
0
VERTEX
8
R2V
62
0
70
32
10
5.666667
20
6.533333
30
0
0
VERTEX
8
R2V
62
0
70
32
10
5.666667
20
6.600000
30
0
0
VERTEX
8
R2V
62
0
70
32
10
5.733333
20
6.600000
30
0
0
SEQEND
0
POLYLINE
8
R2V
62
0
66
1
70
8
0
VERTEX
8
R2V
62
0
70
32
10
4.666667
20
6.600000
30
0
0
VERTEX
8
R2V
62
0
70
32
10
4.666667
20
6.533333
30
0
0
VERTEX
8
R2V
62
0
70
32
10
4.533333
20
6.533333
30
0
0
VERTEX
8
R2V
62
0
70
32
10
4.533333
20
6.600000
30
0
0
VERTEX
8
R2V
62
0
70
32
10
4.666667
20
6.600000
30
0
0
SEQEND
0
POLYLINE
8
R2V
62
0
66
1
70
8
0
VERTEX
8
R2V
62
0
70
32
10
5.333333
20
8.333333
30
0
0
VERTEX
8
R2V
62
0
70
32
10
5.000000
20
8.333333
30
0
0
VERTEX
8
R2V
62
0
70
32
10
5.066667
20
5.866667
30
0
0
VERTEX
8
R2V
62
0
70
32
10
5.200000
20
5.866667
30
0
0
VERTEX
8
R2V
62
0
70
32
10
5.266667
20
5.800000
30
0
0
VERTEX
8
R2V
62
0
70
32
10
5.333333
20
6.466667
30
0
0
VERTEX
8
R2V
62
0
70
32
10
5.400000
20
6.466667
30
0
0
VERTEX
8
R2V
62
0
70
32
10
5.466667
20
6.333333
30
0
0
VERTEX
8
R2V
62
0
70
32
10
6.266667
20
6.333333
30
0
0
VERTEX
8
R2V
62
0
70
32
10
6.400000
20
6.000000
30
0
0
VERTEX
8
R2V
62
0
70
32
10
6.200000
20
5.800000
30
0
0
VERTEX
8
R2V
62
0
70
32
10
5.600000
20
5.733333
30
0
0
VERTEX
8
R2V
62
0
70
32
10
6.066667
20
5.466667
30
0
0
VERTEX
8
R2V
62
0
70
32
10
6.133333
20
5.400000
30
0
0
VERTEX
8
R2V
62
0
70
32
10
6.666667
20
5.733333
30
0
0
VERTEX
8
R2V
62
0
70
32
10
6.800000
20
5.866667
30
0
0
VERTEX
8
R2V
62
0
70
32
10
6.733333
20
6.400000
30
0
0
VERTEX
8
R2V
62
0
70
32
10
6.400000
20
6.666667
30
0
0
VERTEX
8
R2V
62
0
70
32
10
6.133333
20
6.733333
30
0
0
VERTEX
8
R2V
62
0
70
32
10
6.266667
20
6.800000
30
0
0
VERTEX
8
R2V
62
0
70
32
10
5.800000
20
7.266667
30
0
0
VERTEX
8
R2V
62
0
70
32
10
5.600000
20
7.200000
30
0
0
VERTEX
8
R2V
62
0
70
32
10
5.733333
20
6.866667
30
0
0
VERTEX
8
R2V
62
0
70
32
10
5.800000
20
6.866667
30
0
0
VERTEX
8
R2V
62
0
70
32
10
5.866667
20
6.733333
30
0
0
VERTEX
8
R2V
62
0
70
32
10
5.666667
20
6.800000
30
0
0
VERTEX
8
R2V
62
0
70
32
10
5.600000
20
7.066667
30
0
0
VERTEX
8
R2V
62
0
70
32
10
5.400000
20
7.066667
30
0
0
VERTEX
8
R2V
62
0
70
32
10
5.466667
20
6.733333
30
0
0
VERTEX
8
R2V
62
0
70
32
10
5.666667
20
6.733333
30
0
0
VERTEX
8
R2V
62
0
70
32
10
5.266667
20
6.533333
30
0
0
VERTEX
8
R2V
62
0
70
32
10
5.333333
20
8.333333
30
0
0
SEQEND
0
POLYLINE
8
R2V
62
0
66
1
70
8
0
VERTEX
8
R2V
62
0
70
32
10
4.866667
20
7.066667
30
0
0
VERTEX
8
R2V
62
0
70
32
10
4.666667
20
7.066667
30
0
0
VERTEX
8
R2V
62
0
70
32
10
4.600000
20
6.733333
30
0
0
VERTEX
8
R2V
62
0
70
32
10
3.933333
20
6.666667
30
0
0
VERTEX
8
R2V
62
0
70
32
10
3.600000
20
6.333333
30
0
0
VERTEX
8
R2V
62
0
70
32
10
3.666667
20
5.800000
30
0
0
VERTEX
8
R2V
62
0
70
32
10
3.733333
20
5.800000
30
0
0
VERTEX
8
R2V
62
0
70
32
10
4.066667
20
5.533333
30
0
0
VERTEX
8
R2V
62
0
70
32
10
4.333333
20
5.533333
30
0
0
VERTEX
8
R2V
62
0
70
32
10
5.600000
20
5.200000
30
0
0
VERTEX
8
R2V
62
0
70
32
10
5.800000
20
5.000000
30
0
0
VERTEX
8
R2V
62
0
70
32
10
5.733333
20
4.600000
30
0
0
VERTEX
8
R2V
62
0
70
32
10
5.400000
20
4.333333
30
0
0
VERTEX
8
R2V
62
0
70
32
10
5.466667
20
4.333333
30
0
0
VERTEX
8
R2V
62
0
70
32
10
5.666667
20
4.133333
30
0
0
VERTEX
8
R2V
62
0
70
32
10
5.933333
20
4.200000
30
0
0
VERTEX
8
R2V
62
0
70
32
10
6.266667
20
4.533333
30
0
0
VERTEX
8
R2V
62
0
70
32
10
6.266667
20
5.133333
30
0
0
VERTEX
8
R2V
62
0
70
32
10
5.866667
20
5.533333
30
0
0
VERTEX
8
R2V
62
0
70
32
10
4.800000
20
5.866667
30
0
0
VERTEX
8
R2V
62
0
70
32
10
4.066667
20
6.000000
30
0
0
VERTEX
8
R2V
62
0
70
32
10
4.066667
20
6.400000
30
0
0
VERTEX
8
R2V
62
0
70
32
10
4.200000
20
6.400000
30
0
0
VERTEX
8
R2V
62
0
70
32
10
4.666667
20
6.333333
30
0
0
VERTEX
8
R2V
62
0
70
32
10
4.933333
20
6.466667
30
0
0
VERTEX
8
R2V
62
0
70
32
10
4.933333
20
6.666667
30
0
0
VERTEX
8
R2V
62
0
70
32
10
4.666667
20
6.733333
30
0
0
VERTEX
8
R2V
62
0
70
32
10
4.866667
20
6.800000
30
0
0
VERTEX
8
R2V
62
0
70
32
10
4.866667
20
7.066667
30
0
0
SEQEND
0
POLYLINE
8
R2V
62
0
66
1
70
8
0
VERTEX
8
R2V
62
0
70
32
10
7.400000
20
8.600000
30
0
0
VERTEX
8
R2V
62
0
70
32
10
7.333333
20
8.600000
30
0
0
VERTEX
8
R2V
62
0
70
32
10
7.333333
20
8.533333
30
0
0
VERTEX
8
R2V
62
0
70
32
10
7.400000
20
8.533333
30
0
0
VERTEX
8
R2V
62
0
70
32
10
7.400000
20
8.600000
30
0
0
SEQEND
0
POLYLINE
8
R2V
62
0
66
1
70
8
0
VERTEX
8
R2V
62
0
70
32
10
2.933333
20
8.600000
30
0
0
VERTEX
8
R2V
62
0
70
32
10
2.800000
20
8.533333
30
0
0
VERTEX
8
R2V
62
0
70
32
10
3.000000
20
8.666667
30
0
0
VERTEX
8
R2V
62
0
70
32
10
2.933333
20
8.600000
30
0
0
SEQEND
0
POLYLINE
8
R2V
62
0
66
1
70
8
0
VERTEX
8
R2V
62
0
70
32
10
7.533333
20
8.533333
30
0
0
VERTEX
8
R2V
62
0
70
32
10
7.400000
20
8.533333
30
0
0
VERTEX
8
R2V
62
0
70
32
10
7.400000
20
8.466667
30
0
0
VERTEX
8
R2V
62
0
70
32
10
7.533333
20
8.466667
30
0
0
VERTEX
8
R2V
62
0
70
32
10
7.533333
20
8.533333
30
0
0
SEQEND
0
POLYLINE
8
R2V
62
0
66
1
70
8
0
VERTEX
8
R2V
62
0
70
32
10
5.333333
20
9.266667
30
0
0
VERTEX
8
R2V
62
0
70
32
10
4.866667
20
9.200000
30
0
0
VERTEX
8
R2V
62
0
70
32
10
4.733333
20
9.066667
30
0
0
VERTEX
8
R2V
62
0
70
32
10
4.800000
20
8.600000
30
0
0
VERTEX
8
R2V
62
0
70
32
10
4.866667
20
8.600000
30
0
0
VERTEX
8
R2V
62
0
70
32
10
4.933333
20
8.466667
30
0
0
VERTEX
8
R2V
62
0
70
32
10
5.466667
20
8.533333
30
0
0
VERTEX
8
R2V
62
0
70
32
10
5.533333
20
8.933333
30
0
0
VERTEX
8
R2V
62
0
70
32
10
5.333333
20
9.266667
30
0
0
VERTEX
8
R2V
62
0
70
32
10
5.466667
20
9.266667
30
0
0
VERTEX
8
R2V
62
0
70
32
10
5.733333
20
8.800000
30
0
0
VERTEX
8
R2V
62
0
70
32
10
6.133333
20
9.000000
30
0
0
VERTEX
8
R2V
62
0
70
32
10
6.666667
20
9.000000
30
0
0
VERTEX
8
R2V
62
0
70
32
10
8.666667
20
8.000000
30
0
0
VERTEX
8
R2V
62
0
70
32
10
8.866667
20
8.000000
30
0
0
VERTEX
8
R2V
62
0
70
32
10
9.333333
20
7.733333
30
0
0
VERTEX
8
R2V
62
0
70
32
10
9.600000
20
7.733333
30
0
0
VERTEX
8
R2V
62
0
70
32
10
9.600000
20
7.400000
30
0
0
VERTEX
8
R2V
62
0
70
32
10
9.333333
20
7.066667
30
0
0
VERTEX
8
R2V
62
0
70
32
10
9.000000
20
6.933333
30
0
0
VERTEX
8
R2V
62
0
70
32
10
8.933333
20
6.800000
30
0
0
VERTEX
8
R2V
62
0
70
32
10
8.400000
20
6.666667
30
0
0
VERTEX
8
R2V
62
0
70
32
10
8.133333
20
6.400000
30
0
0
VERTEX
8
R2V
62
0
70
32
10
7.733333
20
6.400000
30
0
0
VERTEX
8
R2V
62
0
70
32
10
7.733333
20
6.266667
30
0
0
VERTEX
8
R2V
62
0
70
32
10
6.933333
20
6.066667
30
0
0
VERTEX
8
R2V
62
0
70
32
10
7.000000
20
6.066667
30
0
0
VERTEX
8
R2V
62
0
70
32
10
6.933333
20
5.600000
30
0
0
VERTEX
8
R2V
62
0
70
32
10
6.666667
20
5.333333
30
0
0
VERTEX
8
R2V
62
0
70
32
10
6.333333
20
5.200000
30
0
0
VERTEX
8
R2V
62
0
70
32
10
6.400000
20
5.200000
30
0
0
VERTEX
8
R2V
62
0
70
32
10
6.533333
20
4.666667
30
0
0
VERTEX
8
R2V
62
0
70
32
10
6.066667
20
4.066667
30
0
0
VERTEX
8
R2V
62
0
70
32
10
5.933333
20
4.000000
30
0
0
VERTEX
8
R2V
62
0
70
32
10
6.000000
20
4.000000
30
0
0
VERTEX
8
R2V
62
0
70
32
10
6.200000
20
3.666667
30
0
0
VERTEX
8
R2V
62
0
70
32
10
6.133333
20
3.133333
30
0
0
VERTEX
8
R2V
62
0
70
32
10
6.000000
20
2.933333
30
0
0
VERTEX
8
R2V
62
0
70
32
10
5.800000
20
2.933333
30
0
0
VERTEX
8
R2V
62
0
70
32
10
5.800000
20
2.466667
30
0
0
VERTEX
8
R2V
62
0
70
32
10
5.533333
20
2.266667
30
0
0
VERTEX
8
R2V
62
0
70
32
10
5.600000
20
2.266667
30
0
0
VERTEX
8
R2V
62
0
70
32
10
5.600000
20
1.666667
30
0
0
VERTEX
8
R2V
62
0
70
32
10
5.400000
20
1.600000
30
0
0
VERTEX
8
R2V
62
0
70
32
10
5.533333
20
1.333333
30
0
0
VERTEX
8
R2V
62
0
70
32
10
5.600000
20
1.333333
30
0
0
VERTEX
8
R2V
62
0
70
32
10
5.533333
20
1.000000
30
0
0
VERTEX
8
R2V
62
0
70
32
10
5.400000
20
1.000000
30
0
0
VERTEX
8
R2V
62
0
70
32
10
5.333333
20
0.266667
30
0
0
VERTEX
8
R2V
62
0
70
32
10
5.000000
20
0.266667
30
0
0
VERTEX
8
R2V
62
0
70
32
10
4.800000
20
0.600000
30
0
0
VERTEX
8
R2V
62
0
70
32
10
4.800000
20
1.133333
30
0
0
VERTEX
8
R2V
62
0
70
32
10
4.666667
20
1.200000
30
0
0
VERTEX
8
R2V
62
0
70
32
10
4.666667
20
1.800000
30
0
0
VERTEX
8
R2V
62
0
70
32
10
4.666667
20
2.266667
30
0
0
VERTEX
8
R2V
62
0
70
32
10
4.733333
20
2.333333
30
0
0
VERTEX
8
R2V
62
0
70
32
10
4.533333
20
2.400000
30
0
0
VERTEX
8
R2V
62
0
70
32
10
4.466667
20
3.200000
30
0
0
VERTEX
8
R2V
62
0
70
32
10
4.266667
20
3.400000
30
0
0
VERTEX
8
R2V
62
0
70
32
10
4.266667
20
4.066667
30
0
0
VERTEX
8
R2V
62
0
70
32
10
4.400000
20
4.200000
30
0
0
VERTEX
8
R2V
62
0
70
32
10
4.066667
20
4.400000
30
0
0
VERTEX
8
R2V
62
0
70
32
10
3.933333
20
4.666667
30
0
0
VERTEX
8
R2V
62
0
70
32
10
4.000000
20
5.266667
30
0
0
VERTEX
8
R2V
62
0
70
32
10
4.133333
20
5.466667
30
0
0
VERTEX
8
R2V
62
0
70
32
10
3.733333
20
5.600000
30
0
0
VERTEX
8
R2V
62
0
70
32
10
3.533333
20
5.800000
30
0
0
VERTEX
8
R2V
62
0
70
32
10
3.533333
20
6.133333
30
0
0
VERTEX
8
R2V
62
0
70
32
10
2.733333
20
6.266667
30
0
0
VERTEX
8
R2V
62
0
70
32
10
2.533333
20
6.466667
30
0
0
VERTEX
8
R2V
62
0
70
32
10
2.000000
20
6.600000
30
0
0
VERTEX
8
R2V
62
0
70
32
10
1.866667
20
6.800000
30
0
0
VERTEX
8
R2V
62
0
70
32
10
1.333333
20
6.933333
30
0
0
VERTEX
8
R2V
62
0
70
32
10
0.866667
20
7.266667
30
0
0
VERTEX
8
R2V
62
0
70
32
10
0.733333
20
7.533333
30
0
0
VERTEX
8
R2V
62
0
70
32
10
0.600000
20
7.800000
30
0
0
VERTEX
8
R2V
62
0
70
32
10
1.533333
20
8.066667
30
0
0
VERTEX
8
R2V
62
0
70
32
10
3.133333
20
8.866667
30
0
0
VERTEX
8
R2V
62
0
70
32
10
3.933333
20
9.066667
30
0
0
VERTEX
8
R2V
62
0
70
32
10
4.533333
20
8.800000
30
0
0
VERTEX
8
R2V
62
0
70
32
10
4.666667
20
8.666667
30
0
0
VERTEX
8
R2V
62
0
70
32
10
4.733333
20
9.200000
30
0
0
VERTEX
8
R2V
62
0
70
32
10
4.866667
20
9.333333
30
0
0
VERTEX
8
R2V
62
0
70
32
10
5.333333
20
9.333333
30
0
0
VERTEX
8
R2V
62
0
70
32
10
5.333333
20
9.266667
30
0
0
SEQEND
0
POLYLINE
8
R2V
62
0
66
1
70
8
0
VERTEX
8
R2V
62
0
70
32
10
7.666667
20
8.466667
30
0
0
VERTEX
8
R2V
62
0
70
32
10
7.533333
20
8.400000
30
0
0
VERTEX
8
R2V
62
0
70
32
10
7.600000
20
8.400000
30
0
0
VERTEX
8
R2V
62
0
70
32
10
7.866667
20
8.200000
30
0
0
VERTEX
8
R2V
62
0
70
32
10
7.400000
20
8.400000
30
0
0
VERTEX
8
R2V
62
0
70
32
10
7.200000
20
8.400000
30
0
0
VERTEX
8
R2V
62
0
70
32
10
7.866667
20
7.933333
30
0
0
VERTEX
8
R2V
62
0
70
32
10
8.200000
20
7.933333
30
0
0
VERTEX
8
R2V
62
0
70
32
10
8.066667
20
7.800000
30
0
0
VERTEX
8
R2V
62
0
70
32
10
8.200000
20
7.800000
30
0
0
VERTEX
8
R2V
62
0
70
32
10
8.866667
20
7.400000
30
0
0
VERTEX
8
R2V
62
0
70
32
10
9.200000
20
7.400000
30
0
0
VERTEX
8
R2V
62
0
70
32
10
9.333333
20
7.333333
30
0
0
VERTEX
8
R2V
62
0
70
32
10
9.533333
20
7.600000
30
0
0
VERTEX
8
R2V
62
0
70
32
10
8.400000
20
8.000000
30
0
0
VERTEX
8
R2V
62
0
70
32
10
8.600000
20
7.800000
30
0
0
VERTEX
8
R2V
62
0
70
32
10
8.800000
20
7.800000
30
0
0
VERTEX
8
R2V
62
0
70
32
10
9.133333
20
7.666667
30
0
0
VERTEX
8
R2V
62
0
70
32
10
9.133333
20
7.533333
30
0
0
VERTEX
8
R2V
62
0
70
32
10
8.266667
20
7.866667
30
0
0
VERTEX
8
R2V
62
0
70
32
10
8.333333
20
8.133333
30
0
0
VERTEX
8
R2V
62
0
70
32
10
7.666667
20
8.466667
30
0
0
SEQEND
0
POLYLINE
8
R2V
62
0
66
1
70
8
0
VERTEX
8
R2V
62
0
70
32
10
7.066667
20
8.400000
30
0
0
VERTEX
8
R2V
62
0
70
32
10
6.866667
20
8.333333
30
0
0
VERTEX
8
R2V
62
0
70
32
10
6.933333
20
8.333333
30
0
0
VERTEX
8
R2V
62
0
70
32
10
7.466667
20
7.933333
30
0
0
VERTEX
8
R2V
62
0
70
32
10
6.733333
20
8.400000
30
0
0
VERTEX
8
R2V
62
0
70
32
10
6.533333
20
8.333333
30
0
0
VERTEX
8
R2V
62
0
70
32
10
6.600000
20
8.333333
30
0
0
VERTEX
8
R2V
62
0
70
32
10
6.800000
20
8.066667
30
0
0
VERTEX
8
R2V
62
0
70
32
10
6.933333
20
8.066667
30
0
0
VERTEX
8
R2V
62
0
70
32
10
7.133333
20
7.800000
30
0
0
VERTEX
8
R2V
62
0
70
32
10
7.266667
20
7.800000
30
0
0
VERTEX
8
R2V
62
0
70
32
10
7.600000
20
7.733333
30
0
0
VERTEX
8
R2V
62
0
70
32
10
7.666667
20
8.000000
30
0
0
VERTEX
8
R2V
62
0
70
32
10
7.066667
20
8.400000
30
0
0
SEQEND
0
POLYLINE
8
R2V
62
0
66
1
70
8
0
VERTEX
8
R2V
62
0
70
32
10
3.200000
20
8.533333
30
0
0
VERTEX
8
R2V
62
0
70
32
10
2.600000
20
8.333333
30
0
0
VERTEX
8
R2V
62
0
70
32
10
2.400000
20
8.200000
30
0
0
VERTEX
8
R2V
62
0
70
32
10
2.400000
20
8.333333
30
0
0
VERTEX
8
R2V
62
0
70
32
10
2.800000
20
8.533333
30
0
0
VERTEX
8
R2V
62
0
70
32
10
2.200000
20
8.333333
30
0
0
VERTEX
8
R2V
62
0
70
32
10
1.933333
20
8.200000
30
0
0
VERTEX
8
R2V
62
0
70
32
10
1.933333
20
8.066667
30
0
0
VERTEX
8
R2V
62
0
70
32
10
2.066667
20
8.066667
30
0
0
VERTEX
8
R2V
62
0
70
32
10
2.333333
20
8.000000
30
0
0
VERTEX
8
R2V
62
0
70
32
10
3.200000
20
8.533333
30
0
0
VERTEX
8
R2V
62
0
70
32
10
3.866667
20
8.533333
30
0
0
VERTEX
8
R2V
62
0
70
32
10
4.000000
20
8.200000
30
0
0
VERTEX
8
R2V
62
0
70
32
10
4.266667
20
8.200000
30
0
0
VERTEX
8
R2V
62
0
70
32
10
4.400000
20
8.066667
30
0
0
VERTEX
8
R2V
62
0
70
32
10
4.333333
20
8.800000
30
0
0
VERTEX
8
R2V
62
0
70
32
10
4.200000
20
8.933333
30
0
0
VERTEX
8
R2V
62
0
70
32
10
3.400000
20
8.866667
30
0
0
VERTEX
8
R2V
62
0
70
32
10
3.066667
20
8.733333
30
0
0
VERTEX
8
R2V
62
0
70
32
10
3.066667
20
8.600000
30
0
0
VERTEX
8
R2V
62
0
70
32
10
3.200000
20
8.600000
30
0
0
VERTEX
8
R2V
62
0
70
32
10
3.200000
20
8.533333
30
0
0
SEQEND
0
POLYLINE
8
R2V
62
0
66
1
70
8
0
VERTEX
8
R2V
62
0
70
32
10
3.733333
20
8.466667
30
0
0
VERTEX
8
R2V
62
0
70
32
10
3.400000
20
8.333333
30
0
0
VERTEX
8
R2V
62
0
70
32
10
2.866667
20
8.000000
30
0
0
VERTEX
8
R2V
62
0
70
32
10
3.266667
20
8.333333
30
0
0
VERTEX
8
R2V
62
0
70
32
10
3.400000
20
8.333333
30
0
0
VERTEX
8
R2V
62
0
70
32
10
3.333333
20
8.466667
30
0
0
VERTEX
8
R2V
62
0
70
32
10
2.600000
20
8.000000
30
0
0
VERTEX
8
R2V
62
0
70
32
10
2.666667
20
7.800000
30
0
0
VERTEX
8
R2V
62
0
70
32
10
3.133333
20
7.866667
30
0
0
VERTEX
8
R2V
62
0
70
32
10
3.733333
20
8.333333
30
0
0
VERTEX
8
R2V
62
0
70
32
10
3.733333
20
8.466667
30
0
0
SEQEND
0
POLYLINE
8
R2V
62
0
66
1
70
8
0
VERTEX
8
R2V
62
0
70
32
10
4.733333
20
8.666667
30
0
0
VERTEX
8
R2V
62
0
70
32
10
4.800000
20
7.866667
30
0
0
VERTEX
8
R2V
62
0
70
32
10
4.933333
20
8.000000
30
0
0
VERTEX
8
R2V
62
0
70
32
10
4.866667
20
8.533333
30
0
0
VERTEX
8
R2V
62
0
70
32
10
4.733333
20
8.666667
30
0
0
SEQEND
0
POLYLINE
8
R2V
62
0
66
1
70
8
0
VERTEX
8
R2V
62
0
70
32
10
5.866667
20
8.000000
30
0
0
VERTEX
8
R2V
62
0
70
32
10
5.400000
20
7.800000
30
0
0
VERTEX
8
R2V
62
0
70
32
10
5.466667
20
7.333333
30
0
0
VERTEX
8
R2V
62
0
70
32
10
5.733333
20
7.333333
30
0
0
VERTEX
8
R2V
62
0
70
32
10
5.533333
20
7.733333
30
0
0
VERTEX
8
R2V
62
0
70
32
10
5.866667
20
7.866667
30
0
0
VERTEX
8
R2V
62
0
70
32
10
6.000000
20
8.133333
30
0
0
VERTEX
8
R2V
62
0
70
32
10
6.400000
20
8.266667
30
0
0
VERTEX
8
R2V
62
0
70
32
10
6.466667
20
8.533333
30
0
0
VERTEX
8
R2V
62
0
70
32
10
6.733333
20
8.533333
30
0
0
VERTEX
8
R2V
62
0
70
32
10
7.066667
20
8.466667
30
0
0
VERTEX
8
R2V
62
0
70
32
10
7.266667
20
8.666667
30
0
0
VERTEX
8
R2V
62
0
70
32
10
6.666667
20
8.933333
30
0
0
VERTEX
8
R2V
62
0
70
32
10
6.066667
20
8.866667
30
0
0
VERTEX
8
R2V
62
0
70
32
10
5.933333
20
8.733333
30
0
0
VERTEX
8
R2V
62
0
70
32
10
5.866667
20
8.000000
30
0
0
SEQEND
0
POLYLINE
8
R2V
62
0
66
1
70
8
0
VERTEX
8
R2V
62
0
70
32
10
10.133333
20
9.533333
30
0
0
VERTEX
8
R2V
62
0
70
32
10
0.133333
20
9.533333
30
0
0
VERTEX
8
R2V
62
0
70
32
10
0.133333
20
0.133333
30
0
0
VERTEX
8
R2V
62
0
70
32
10
10.133333
20
0.133333
30
0
0
VERTEX
8
R2V
62
0
70
32
10
10.133333
20
9.533333
30
0
0
SEQEND
0
POLYLINE
8
R2V
62
0
66
1
70
8
0
VERTEX
8
R2V
62
0
70
32
10
10.200000
20
9.666667
30
0
0
VERTEX
8
R2V
62
0
70
32
10
10.200000
20
0.066667
30
0
0
VERTEX
8
R2V
62
0
70
32
10
0.066667
20
0.066667
30
0
0
VERTEX
8
R2V
62
0
70
32
10
0.133333
20
9.600000
30
0
0
VERTEX
8
R2V
62
0
70
32
10
10.200000
20
9.666667
30
0
0
SEQEND
0
ENDSEC
0
EOF
