0
SECTION
2
HEADER
9
$EXTMIN
10
-1.1318359375
20
-0.015625
30
0.5
9
$EXTMAX
10
1.107421875
20
0.9697265625
30
0.5
0
ENDSEC
0
SECTION
2
TABLES
0
TABLE
2
VPORT
0
VPORT
2
*ACTIVE
41
  1.000000
0
ENDTAB
0
TABLE
2
LAYER
0
LAYER
2
0
62
0
0
ENDTAB
0
ENDSEC
0
SECTION
2
BLOCKS
0
ENDSEC
0
SECTION
2
ENTITIES
0
LINE
8
0
62
0
10
-1.129883
20
0.412109
30
0.500000
11
-1.131836
21
0.468750
31
0.500000
0
LINE
8
0
62
0
10
-1.131836
20
0.468750
30
0.500000
11
-1.129883
21
0.528320
31
0.500000
0
LINE
8
0
62
0
10
-1.129883
20
0.528320
30
0.500000
11
-1.125000
21
0.583984
31
0.500000
0
LINE
8
0
62
0
10
-1.125000
20
0.583984
30
0.500000
11
-1.116211
21
0.636719
31
0.500000
0
LINE
8
0
62
0
10
-1.116211
20
0.636719
30
0.500000
11
-1.104492
21
0.685547
31
0.500000
0
LINE
8
0
62
0
10
-1.104492
20
0.685547
30
0.500000
11
-1.088867
21
0.731445
31
0.500000
0
LINE
8
0
62
0
10
-1.088867
20
0.731445
30
0.500000
11
-1.070313
21
0.774414
31
0.500000
0
LINE
8
0
62
0
10
-1.070313
20
0.774414
30
0.500000
11
-1.047852
21
0.814453
31
0.500000
0
LINE
8
0
62
0
10
-1.047852
20
0.814453
30
0.500000
11
-1.021484
21
0.850586
31
0.500000
0
LINE
8
0
62
0
10
-1.021484
20
0.850586
30
0.500000
11
-0.997070
21
0.877930
31
0.500000
0
LINE
8
0
62
0
10
-0.997070
20
0.877930
30
0.500000
11
-0.969727
21
0.902344
31
0.500000
0
LINE
8
0
62
0
10
-0.969727
20
0.902344
30
0.500000
11
-0.940430
21
0.922852
31
0.500000
0
LINE
8
0
62
0
10
-0.940430
20
0.922852
30
0.500000
11
-0.909180
21
0.939453
31
0.500000
0
LINE
8
0
62
0
10
-0.909180
20
0.939453
30
0.500000
11
-0.875977
21
0.953125
31
0.500000
0
LINE
8
0
62
0
10
-0.875977
20
0.953125
30
0.500000
11
-0.840820
21
0.961914
31
0.500000
0
LINE
8
0
62
0
10
-0.840820
20
0.961914
30
0.500000
11
-0.803711
21
0.967773
31
0.500000
0
LINE
8
0
62
0
10
-0.803711
20
0.967773
30
0.500000
11
-0.763672
21
0.969727
31
0.500000
0
LINE
8
0
62
0
10
-0.763672
20
0.969727
30
0.500000
11
-0.731445
21
0.968750
31
0.500000
0
LINE
8
0
62
0
10
-0.731445
20
0.968750
30
0.500000
11
-0.701172
21
0.963867
31
0.500000
0
LINE
8
0
62
0
10
-0.701172
20
0.963867
30
0.500000
11
-0.671875
21
0.957031
31
0.500000
0
LINE
8
0
62
0
10
-0.671875
20
0.957031
30
0.500000
11
-0.643555
21
0.947266
31
0.500000
0
LINE
8
0
62
0
10
-0.643555
20
0.947266
30
0.500000
11
-0.616211
21
0.934570
31
0.500000
0
LINE
8
0
62
0
10
-0.616211
20
0.934570
30
0.500000
11
-0.590820
21
0.918945
31
0.500000
0
LINE
8
0
62
0
10
-0.590820
20
0.918945
30
0.500000
11
-0.566406
21
0.901367
31
0.500000
0
LINE
8
0
62
0
10
-0.566406
20
0.901367
30
0.500000
11
-0.543945
21
0.879883
31
0.500000
0
LINE
8
0
62
0
10
-0.543945
20
0.879883
30
0.500000
11
-0.528320
21
0.863281
31
0.500000
0
LINE
8
0
62
0
10
-0.528320
20
0.863281
30
0.500000
11
-0.514648
21
0.843750
31
0.500000
0
LINE
8
0
62
0
10
-0.514648
20
0.843750
30
0.500000
11
-0.500977
21
0.823242
31
0.500000
0
LINE
8
0
62
0
10
-0.500977
20
0.823242
30
0.500000
11
-0.489258
21
0.800781
31
0.500000
0
LINE
8
0
62
0
10
-0.489258
20
0.800781
30
0.500000
11
-0.477539
21
0.776367
31
0.500000
0
LINE
8
0
62
0
10
-0.477539
20
0.776367
30
0.500000
11
-0.467773
21
0.749023
31
0.500000
0
LINE
8
0
62
0
10
-0.467773
20
0.749023
30
0.500000
11
-0.458984
21
0.720703
31
0.500000
0
LINE
8
0
62
0
10
-0.458984
20
0.720703
30
0.500000
11
-0.451172
21
0.690430
31
0.500000
0
LINE
8
0
62
0
10
-0.451172
20
0.690430
30
0.500000
11
-0.607422
21
0.644531
31
0.500000
0
LINE
8
0
62
0
10
-0.607422
20
0.644531
30
0.500000
11
-0.611328
21
0.663086
31
0.500000
0
LINE
8
0
62
0
10
-0.611328
20
0.663086
30
0.500000
11
-0.617188
21
0.680664
31
0.500000
0
LINE
8
0
62
0
10
-0.617188
20
0.680664
30
0.500000
11
-0.623047
21
0.697266
31
0.500000
0
LINE
8
0
62
0
10
-0.623047
20
0.697266
30
0.500000
11
-0.629883
21
0.712891
31
0.500000
0
LINE
8
0
62
0
10
-0.629883
20
0.712891
30
0.500000
11
-0.637695
21
0.727539
31
0.500000
0
LINE
8
0
62
0
10
-0.637695
20
0.727539
30
0.500000
11
-0.646484
21
0.740234
31
0.500000
0
LINE
8
0
62
0
10
-0.646484
20
0.740234
30
0.500000
11
-0.656250
21
0.752930
31
0.500000
0
LINE
8
0
62
0
10
-0.656250
20
0.752930
30
0.500000
11
-0.666992
21
0.763672
31
0.500000
0
LINE
8
0
62
0
10
-0.666992
20
0.763672
30
0.500000
11
-0.678711
21
0.773438
31
0.500000
0
LINE
8
0
62
0
10
-0.678711
20
0.773438
30
0.500000
11
-0.690430
21
0.781250
31
0.500000
0
LINE
8
0
62
0
10
-0.690430
20
0.781250
30
0.500000
11
-0.703125
21
0.788086
31
0.500000
0
LINE
8
0
62
0
10
-0.703125
20
0.788086
30
0.500000
11
-0.715820
21
0.793945
31
0.500000
0
LINE
8
0
62
0
10
-0.715820
20
0.793945
30
0.500000
11
-0.729492
21
0.798828
31
0.500000
0
LINE
8
0
62
0
10
-0.729492
20
0.798828
30
0.500000
11
-0.743164
21
0.801758
31
0.500000
0
LINE
8
0
62
0
10
-0.743164
20
0.801758
30
0.500000
11
-0.757813
21
0.803711
31
0.500000
0
LINE
8
0
62
0
10
-0.757813
20
0.803711
30
0.500000
11
-0.772461
21
0.804688
31
0.500000
0
LINE
8
0
62
0
10
-0.772461
20
0.804688
30
0.500000
11
-0.793945
21
0.803711
31
0.500000
0
LINE
8
0
62
0
10
-0.793945
20
0.803711
30
0.500000
11
-0.814453
21
0.799805
31
0.500000
0
LINE
8
0
62
0
10
-0.814453
20
0.799805
30
0.500000
11
-0.833984
21
0.793945
31
0.500000
0
LINE
8
0
62
0
10
-0.833984
20
0.793945
30
0.500000
11
-0.851563
21
0.786133
31
0.500000
0
LINE
8
0
62
0
10
-0.851563
20
0.786133
30
0.500000
11
-0.869141
21
0.775391
31
0.500000
0
LINE
8
0
62
0
10
-0.869141
20
0.775391
30
0.500000
11
-0.885742
21
0.762695
31
0.500000
0
LINE
8
0
62
0
10
-0.885742
20
0.762695
30
0.500000
11
-0.900391
21
0.747070
31
0.500000
0
LINE
8
0
62
0
10
-0.900391
20
0.747070
30
0.500000
11
-0.915039
21
0.729492
31
0.500000
0
LINE
8
0
62
0
10
-0.915039
20
0.729492
30
0.500000
11
-0.927734
21
0.708984
31
0.500000
0
LINE
8
0
62
0
10
-0.927734
20
0.708984
30
0.500000
11
-0.938477
21
0.685547
31
0.500000
0
LINE
8
0
62
0
10
-0.938477
20
0.685547
30
0.500000
11
-0.948242
21
0.659180
31
0.500000
0
LINE
8
0
62
0
10
-0.948242
20
0.659180
30
0.500000
11
-0.956055
21
0.629883
31
0.500000
0
LINE
8
0
62
0
10
-0.956055
20
0.629883
30
0.500000
11
-0.961914
21
0.596680
31
0.500000
0
LINE
8
0
62
0
10
-0.961914
20
0.596680
30
0.500000
11
-0.965820
21
0.561523
31
0.500000
0
LINE
8
0
62
0
10
-0.965820
20
0.561523
30
0.500000
11
-0.968750
21
0.522461
31
0.500000
0
LINE
8
0
62
0
10
-0.968750
20
0.522461
30
0.500000
11
-0.969727
21
0.480469
31
0.500000
0
LINE
8
0
62
0
10
-0.969727
20
0.480469
30
0.500000
11
-0.968750
21
0.437500
31
0.500000
0
LINE
8
0
62
0
10
-0.968750
20
0.437500
30
0.500000
11
-0.966797
21
0.397461
31
0.500000
0
LINE
8
0
62
0
10
-0.966797
20
0.397461
30
0.500000
11
-0.961914
21
0.360352
31
0.500000
0
LINE
8
0
62
0
10
-0.961914
20
0.360352
30
0.500000
11
-0.956055
21
0.327148
31
0.500000
0
LINE
8
0
62
0
10
-0.956055
20
0.327148
30
0.500000
11
-0.949219
21
0.296875
31
0.500000
0
LINE
8
0
62
0
10
-0.949219
20
0.296875
30
0.500000
11
-0.939453
21
0.269531
31
0.500000
0
LINE
8
0
62
0
10
-0.939453
20
0.269531
30
0.500000
11
-0.928711
21
0.246094
31
0.500000
0
LINE
8
0
62
0
10
-0.928711
20
0.246094
30
0.500000
11
-0.916016
21
0.225586
31
0.500000
0
LINE
8
0
62
0
10
-0.916016
20
0.225586
30
0.500000
11
-0.902344
21
0.208008
31
0.500000
0
LINE
8
0
62
0
10
-0.902344
20
0.208008
30
0.500000
11
-0.887695
21
0.192383
31
0.500000
0
LINE
8
0
62
0
10
-0.887695
20
0.192383
30
0.500000
11
-0.872070
21
0.178711
31
0.500000
0
LINE
8
0
62
0
10
-0.872070
20
0.178711
30
0.500000
11
-0.855469
21
0.167969
31
0.500000
0
LINE
8
0
62
0
10
-0.855469
20
0.167969
30
0.500000
11
-0.836914
21
0.160156
31
0.500000
0
LINE
8
0
62
0
10
-0.836914
20
0.160156
30
0.500000
11
-0.818359
21
0.154297
31
0.500000
0
LINE
8
0
62
0
10
-0.818359
20
0.154297
30
0.500000
11
-0.798828
21
0.150391
31
0.500000
0
LINE
8
0
62
0
10
-0.798828
20
0.150391
30
0.500000
11
-0.778320
21
0.149414
31
0.500000
0
LINE
8
0
62
0
10
-0.778320
20
0.149414
30
0.500000
11
-0.762695
21
0.150391
31
0.500000
0
LINE
8
0
62
0
10
-0.762695
20
0.150391
30
0.500000
11
-0.748047
21
0.152344
31
0.500000
0
LINE
8
0
62
0
10
-0.748047
20
0.152344
30
0.500000
11
-0.733398
21
0.156250
31
0.500000
0
LINE
8
0
62
0
10
-0.733398
20
0.156250
30
0.500000
11
-0.719727
21
0.161133
31
0.500000
0
LINE
8
0
62
0
10
-0.719727
20
0.161133
30
0.500000
11
-0.707031
21
0.167969
31
0.500000
0
LINE
8
0
62
0
10
-0.707031
20
0.167969
30
0.500000
11
-0.694336
21
0.176758
31
0.500000
0
LINE
8
0
62
0
10
-0.694336
20
0.176758
30
0.500000
11
-0.681641
21
0.186523
31
0.500000
0
LINE
8
0
62
0
10
-0.681641
20
0.186523
30
0.500000
11
-0.669922
21
0.198242
31
0.500000
0
LINE
8
0
62
0
10
-0.669922
20
0.198242
30
0.500000
11
-0.659180
21
0.210938
31
0.500000
0
LINE
8
0
62
0
10
-0.659180
20
0.210938
30
0.500000
11
-0.649414
21
0.225586
31
0.500000
0
LINE
8
0
62
0
10
-0.649414
20
0.225586
30
0.500000
11
-0.639648
21
0.242188
31
0.500000
0
LINE
8
0
62
0
10
-0.639648
20
0.242188
30
0.500000
11
-0.630859
21
0.260742
31
0.500000
0
LINE
8
0
62
0
10
-0.630859
20
0.260742
30
0.500000
11
-0.623047
21
0.280273
31
0.500000
0
LINE
8
0
62
0
10
-0.623047
20
0.280273
30
0.500000
11
-0.616211
21
0.302734
31
0.500000
0
LINE
8
0
62
0
10
-0.616211
20
0.302734
30
0.500000
11
-0.610352
21
0.326172
31
0.500000
0
LINE
8
0
62
0
10
-0.610352
20
0.326172
30
0.500000
11
-0.604492
21
0.351563
31
0.500000
0
LINE
8
0
62
0
10
-0.604492
20
0.351563
30
0.500000
11
-0.450195
21
0.291992
31
0.500000
0
LINE
8
0
62
0
10
-0.450195
20
0.291992
30
0.500000
11
-0.459961
21
0.252930
31
0.500000
0
LINE
8
0
62
0
10
-0.459961
20
0.252930
30
0.500000
11
-0.470703
21
0.217773
31
0.500000
0
LINE
8
0
62
0
10
-0.470703
20
0.217773
30
0.500000
11
-0.483398
21
0.184570
31
0.500000
0
LINE
8
0
62
0
10
-0.483398
20
0.184570
30
0.500000
11
-0.498047
21
0.153320
31
0.500000
0
LINE
8
0
62
0
10
-0.498047
20
0.153320
30
0.500000
11
-0.513672
21
0.125977
31
0.500000
0
LINE
8
0
62
0
10
-0.513672
20
0.125977
30
0.500000
11
-0.530273
21
0.100586
31
0.500000
0
LINE
8
0
62
0
10
-0.530273
20
0.100586
30
0.500000
11
-0.548828
21
0.078125
31
0.500000
0
LINE
8
0
62
0
10
-0.548828
20
0.078125
30
0.500000
11
-0.569336
21
0.058594
31
0.500000
0
LINE
8
0
62
0
10
-0.569336
20
0.058594
30
0.500000
11
-0.590820
21
0.041016
31
0.500000
0
LINE
8
0
62
0
10
-0.590820
20
0.041016
30
0.500000
11
-0.613281
21
0.026367
31
0.500000
0
LINE
8
0
62
0
10
-0.613281
20
0.026367
30
0.500000
11
-0.637695
21
0.013672
31
0.500000
0
LINE
8
0
62
0
10
-0.637695
20
0.013672
30
0.500000
11
-0.662109
21
0.002930
31
0.500000
0
LINE
8
0
62
0
10
-0.662109
20
0.002930
30
0.500000
11
-0.688477
21
-0.004883
31
0.500000
0
LINE
8
0
62
0
10
-0.688477
20
-0.004883
30
0.500000
11
-0.715820
21
-0.010742
31
0.500000
0
LINE
8
0
62
0
10
-0.715820
20
-0.010742
30
0.500000
11
-0.744141
21
-0.014648
31
0.500000
0
LINE
8
0
62
0
10
-0.744141
20
-0.014648
30
0.500000
11
-0.774414
21
-0.015625
31
0.500000
0
LINE
8
0
62
0
10
-0.774414
20
-0.015625
30
0.500000
11
-0.811523
21
-0.013672
31
0.500000
0
LINE
8
0
62
0
10
-0.811523
20
-0.013672
30
0.500000
11
-0.847656
21
-0.007813
31
0.500000
0
LINE
8
0
62
0
10
-0.847656
20
-0.007813
30
0.500000
11
-0.880859
21
0.000977
31
0.500000
0
LINE
8
0
62
0
10
-0.880859
20
0.000977
30
0.500000
11
-0.913086
21
0.013672
31
0.500000
0
LINE
8
0
62
0
10
-0.913086
20
0.013672
30
0.500000
11
-0.943359
21
0.030273
31
0.500000
0
LINE
8
0
62
0
10
-0.943359
20
0.030273
30
0.500000
11
-0.971680
21
0.050781
31
0.500000
0
LINE
8
0
62
0
10
-0.971680
20
0.050781
30
0.500000
11
-0.998047
21
0.074219
31
0.500000
0
LINE
8
0
62
0
10
-0.998047
20
0.074219
30
0.500000
11
-1.022461
21
0.101563
31
0.500000
0
LINE
8
0
62
0
10
-1.022461
20
0.101563
30
0.500000
11
-1.047852
21
0.137695
31
0.500000
0
LINE
8
0
62
0
10
-1.047852
20
0.137695
30
0.500000
11
-1.070313
21
0.175781
31
0.500000
0
LINE
8
0
62
0
10
-1.070313
20
0.175781
30
0.500000
11
-1.088867
21
0.216797
31
0.500000
0
LINE
8
0
62
0
10
-1.088867
20
0.216797
30
0.500000
11
-1.104492
21
0.261719
31
0.500000
0
LINE
8
0
62
0
10
-1.104492
20
0.261719
30
0.500000
11
-1.116211
21
0.308594
31
0.500000
0
LINE
8
0
62
0
10
-1.116211
20
0.308594
30
0.500000
11
-1.125000
21
0.359375
31
0.500000
0
LINE
8
0
62
0
10
-1.125000
20
0.359375
30
0.500000
11
-1.129883
21
0.412109
31
0.500000
0
LINE
8
0
62
0
10
-0.310547
20
0.000000
30
0.500000
11
-0.310547
21
0.946289
31
0.500000
0
LINE
8
0
62
0
10
-0.310547
20
0.946289
30
0.500000
11
-0.153320
21
0.946289
31
0.500000
0
LINE
8
0
62
0
10
-0.153320
20
0.946289
30
0.500000
11
-0.153320
21
0.161133
31
0.500000
0
LINE
8
0
62
0
10
-0.153320
20
0.161133
30
0.500000
11
0.240234
21
0.161133
31
0.500000
0
LINE
8
0
62
0
10
0.240234
20
0.161133
30
0.500000
11
0.240234
21
0.000000
31
0.500000
0
LINE
8
0
62
0
10
0.240234
20
0.000000
30
0.500000
11
-0.310547
21
0.000000
31
0.500000
0
LINE
8
0
62
0
10
0.350586
20
0.000000
30
0.500000
11
0.350586
21
0.954102
31
0.500000
0
LINE
8
0
62
0
10
0.350586
20
0.954102
30
0.500000
11
0.586914
21
0.954102
31
0.500000
0
LINE
8
0
62
0
10
0.586914
20
0.954102
30
0.500000
11
0.728516
21
0.302734
31
0.500000
0
LINE
8
0
62
0
10
0.728516
20
0.302734
30
0.500000
11
0.870117
21
0.954102
31
0.500000
0
LINE
8
0
62
0
10
0.870117
20
0.954102
30
0.500000
11
1.107422
21
0.954102
31
0.500000
0
LINE
8
0
62
0
10
1.107422
20
0.954102
30
0.500000
11
1.107422
21
0.000000
31
0.500000
0
LINE
8
0
62
0
10
1.107422
20
0.000000
30
0.500000
11
0.959961
21
0.000000
31
0.500000
0
LINE
8
0
62
0
10
0.959961
20
0.000000
30
0.500000
11
0.959961
21
0.751953
31
0.500000
0
LINE
8
0
62
0
10
0.959961
20
0.751953
30
0.500000
11
0.804688
21
0.000000
31
0.500000
0
LINE
8
0
62
0
10
0.804688
20
0.000000
30
0.500000
11
0.652344
21
0.000000
31
0.500000
0
LINE
8
0
62
0
10
0.652344
20
0.000000
30
0.500000
11
0.498047
21
0.751953
31
0.500000
0
LINE
8
0
62
0
10
0.498047
20
0.751953
30
0.500000
11
0.498047
21
0.000000
31
0.500000
0
LINE
8
0
62
0
10
0.498047
20
0.000000
30
0.500000
11
0.350586
21
0.000000
31
0.500000
0
ENDSEC
0
EOF
