  0
SECTION
  2
HEADER
  9
$ACADVER
  1
AC1009
  9
$DWGCODEPAGE
  3
ansi_1252
  9
$INSBASE
 10
0.0
 20
0.0
 30
0.0
  9
$EXTMIN
 10
0.0
 20
0.0
 30
0.0
  9
$EXTMAX
 10
4.011999999999999
 20
4.000000000000001
 30
0.0
  9
$LIMMIN
 10
0.0
 20
0.0
  9
$LIMMAX
 10
12.0
 20
9.0
  9
$ORTHOMODE
 70
     0
  9
$REGENMODE
 70
     1
  9
$FILLMODE
 70
     1
  9
$QTEXTMODE
 70
     0
  9
$MIRRTEXT
 70
     1
  9
$DRAGMODE
 70
     2
  9
$LTSCALE
 40
1.0
  9
$OSMODE
 70
    37
  9
$ATTMODE
 70
     1
  9
$TEXTSIZE
 40
0.2
  9
$TRACEWID
 40
0.05
  9
$TEXTSTYLE
  7
STANDARD
  9
$CLAYER
  8
0
  9
$CELTYPE
  6
CONTINUOUS
  9
$CECOLOR
 62
   256
  9
$DIMSCALE
 40
1.0
  9
$DIMASZ
 40
0.18
  9
$DIMEXO
 40
0.0625
  9
$DIMDLI
 40
0.38
  9
$DIMRND
 40
0.0
  9
$DIMDLE
 40
0.0
  9
$DIMEXE
 40
0.18
  9
$DIMTP
 40
0.0
  9
$DIMTM
 40
0.0
  9
$DIMTXT
 40
0.18
  9
$DIMCEN
 40
0.09
  9
$DIMTSZ
 40
0.0
  9
$DIMTOL
 70
     0
  9
$DIMLIM
 70
     0
  9
$DIMTIH
 70
     1
  9
$DIMTOH
 70
     1
  9
$DIMSE1
 70
     0
  9
$DIMSE2
 70
     0
  9
$DIMTAD
 70
     0
  9
$DIMZIN
 70
     0
  9
$DIMBLK
  1

  9
$DIMASO
 70
     1
  9
$DIMSHO
 70
     1
  9
$DIMPOST
  1

  9
$DIMAPOST
  1

  9
$DIMALT
 70
     0
  9
$DIMALTD
 70
     2
  9
$DIMALTF
 40
25.4
  9
$DIMLFAC
 40
1.0
  9
$DIMTOFL
 70
     0
  9
$DIMTVP
 40
0.0
  9
$DIMTIX
 70
     0
  9
$DIMSOXD
 70
     0
  9
$DIMSAH
 70
     0
  9
$DIMBLK1
  1

  9
$DIMBLK2
  1

  9
$DIMSTYLE
  2
STANDARD
  9
$DIMCLRD
 70
     0
  9
$DIMCLRE
 70
     0
  9
$DIMCLRT
 70
     0
  9
$DIMTFAC
 40
1.0
  9
$DIMGAP
 40
0.09
  9
$LUNITS
 70
     2
  9
$LUPREC
 70
     4
  9
$SKETCHINC
 40
0.1
  9
$FILLETRAD
 40
1.0
  9
$AUNITS
 70
     0
  9
$AUPREC
 70
     0
  9
$MENU
  1
.
  9
$ELEVATION
 40
0.0
  9
$PELEVATION
 40
0.0
  9
$THICKNESS
 40
0.0
  9
$LIMCHECK
 70
     0
  9
$CHAMFERA
 40
0.0
  9
$CHAMFERB
 40
0.0
  9
$SKPOLY
 70
     0
  9
$TDCREATE
 40
2453353.508792488
  9
$TDUPDATE
 40
4909157.864392593
  9
$TDINDWG
 40
4895786.051922963
  9
$TDUSRTIMER
 40
4895786.051922963
  9
$USRTIMER
 70
     1
  9
$ANGBASE
 50
0.0
  9
$ANGDIR
 70
     0
  9
$PDMODE
 70
     0
  9
$PDSIZE
 40
0.0
  9
$PLINEWID
 40
0.0
  9
$COORDS
 70
     1
  9
$SPLFRAME
 70
     0
  9
$SPLINETYPE
 70
     6
  9
$SPLINESEGS
 70
     8
  9
$ATTDIA
 70
     0
  9
$ATTREQ
 70
     1
  9
$HANDLING
 70
     1
  9
$HANDSEED
  5
FA8
  9
$SURFTAB1
 70
     6
  9
$SURFTAB2
 70
     6
  9
$SURFTYPE
 70
     6
  9
$SURFU
 70
     6
  9
$SURFV
 70
     6
  9
$UCSNAME
  2

  9
$UCSORG
 10
0.0
 20
0.0
 30
0.0
  9
$UCSXDIR
 10
1.0
 20
0.0
 30
0.0
  9
$UCSYDIR
 10
0.0
 20
1.0
 30
0.0
  9
$PUCSNAME
  2

  9
$PUCSORG
 10
0.0
 20
0.0
 30
0.0
  9
$PUCSXDIR
 10
1.0
 20
0.0
 30
0.0
  9
$PUCSYDIR
 10
0.0
 20
1.0
 30
0.0
  9
$USERI1
 70
     0
  9
$USERI2
 70
     0
  9
$USERI3
 70
     0
  9
$USERI4
 70
     0
  9
$USERI5
 70
     0
  9
$USERR1
 40
0.0
  9
$USERR2
 40
0.0
  9
$USERR3
 40
0.0
  9
$USERR4
 40
0.0
  9
$USERR5
 40
0.0
  9
$WORLDVIEW
 70
     1
  9
$SHADEDGE
 70
     3
  9
$SHADEDIF
 70
    70
  9
$TILEMODE
 70
     1
  9
$MAXACTVP
 70
    64
  9
$PLIMCHECK
 70
     0
  9
$PEXTMIN
 10
1.000000000000000E+20
 20
1.000000000000000E+20
 30
1.000000000000000E+20
  9
$PEXTMAX
 10
-1.000000000000000E+20
 20
-1.000000000000000E+20
 30
-1.000000000000000E+20
  9
$PLIMMIN
 10
0.0
 20
0.0
  9
$PLIMMAX
 10
12.0
 20
9.0
  9
$UNITMODE
 70
     0
  9
$VISRETAIN
 70
     1
  9
$PLINEGEN
 70
     0
  9
$PSLTSCALE
 70
     1
  0
ENDSEC
  0
SECTION
  2
TABLES
  0
TABLE
  2
VPORT
 70
     1
  0
VPORT
  2
*ACTIVE
 70
     0
 10
0.0
 20
0.0
 11
1.0
 21
1.0
 12
1.999744869945572
 22
1.998872071664621
 13
0.0
 23
0.0
 14
1.0
 24
1.0
 15
0.0
 25
0.0
 16
0.0
 26
0.0
 36
1.0
 17
0.0
 27
0.0
 37
0.0
 40
4.099431260856203
 41
1.440613026819923
 42
50.0
 43
0.0
 44
0.0
 50
0.0
 51
0.0
 71
    16
 72
   100
 73
     1
 74
     1
 75
     0
 76
     0
 77
     0
 78
     0
  0
ENDTAB
  0
TABLE
  2
LTYPE
 70
    16
  0
LTYPE
  2
CONTINUOUS
 70
     0
  3
Solid line
 72
    65
 73
     0
 40
0.0
  0
LTYPE
  2
HIDDEN
 70
     0
  3
Hidden __ __ __ __ __ __ __ __ __ __ __ __ __ _
 72
    65
 73
     2
 40
9.524999999999999
 49
6.349999999999999
 49
-3.174999999999999
  0
LTYPE
  2
PHANTOM2
 70
     0
  3
Phantom (.5x) ___ _ _ ___ _ _ ___ _ _ ___ _ _
 72
    65
 73
     6
 40
31.74999999999999
 49
15.875
 49
-3.174999999999999
 49
3.174999999999999
 49
-3.174999999999999
 49
3.174999999999999
 49
-3.174999999999999
  0
LTYPE
  2
CENTER
 70
     0
  3
Center ____ _ ____ _ ____ _ ____ _ ____ _ ____
 72
    65
 73
     4
 40
50.8
 49
31.75
 49
-6.349999999999999
 49
6.349999999999999
 49
-6.349999999999999
  0
LTYPE
  2
ASULTYPE
 70
     0
  3
Solid line
 72
    65
 73
     2
 40
3.0
 49
2.5
 49
0.5
  0
LTYPE
  2
ASVLTYPE
 70
     0
  3
__ __ __ __ __ __ __ __ __ __ __ __ __ __ __ __ __ __ __ __ __
 72
    65
 73
     2
 40
0.75
 49
0.5
 49
-0.25
  0
LTYPE
  2
AM_ISO02W050
 70
     0
  3
__ __ __ __ __ __ __ __ __ __ __ __ __ __ __
 72
    65
 73
     2
 40
7.5
 49
6.0
 49
-1.5
  0
LTYPE
  2
AM_ISO08W050
 70
     0
  3
____ . ____ . ____ . ____ . ____ . ____ . ____
 72
    65
 73
     4
 40
18.0
 49
12.0
 49
-1.5
 49
3.0
 49
-1.5
  0
LTYPE
  2
AM_ISO09W050
 70
     0
  3
_____ . . _____ . . _____ . . ____ .. ____
 72
    65
 73
     6
 40
22.5
 49
12.0
 49
-1.5
 49
3.0
 49
-1.5
 49
3.0
 49
-1.5
  0
LTYPE
  2
AMCONSTR
 70
     0
  3
_______________________
 72
    65
 73
     2
 40
9999.0
 49
9999.0
 49
0.0
  0
LTYPE
  2
AM_ISO02W050X2
 70
     0
  3
 _ _ _ _ _ _ _ _ _ _ _ _
 72
    65
 73
     2
 40
3.75
 49
3.0
 49
-0.75
  0
LTYPE
  2
AM_ISO08W050X2
 70
     0
  3
__ . __ . __ . __ . __ . __
 72
    65
 73
     4
 40
9.0
 49
6.0
 49
-0.75
 49
1.5
 49
-0.75
  0
LTYPE
  2
AMZIGZAG
 70
     0
  3
/\/-/\/-/\/-/\/-/\/-/\/
 72
    65
 73
     2
 40
11.0001
 49
0.0001
 49
-11.0
  0
LTYPE
  2
HIDDEN2
 70
     0
  3
Hidden (.5x) _ _ _ _ _ _ _ _ _ _ _ _ _ _ _ _ _
 72
    65
 73
     2
 40
0.1875
 49
0.125
 49
-0.0625
  0
LTYPE
  2
CENTER2
 70
     0
  3
Center (.5x) ___ _ ___ _ ___ _ ___ _ ___ _ ___
 72
    65
 73
     4
 40
1.125
 49
0.75
 49
-0.125
 49
0.125
 49
-0.125
  0
LTYPE
  2
AMZIGZAG2
 70
     0
  3
/\/-/\/-/\/-/\/-/\/-/\/
 72
    65
 73
     2
 40
0.4401000000000001
 49
0.0001
 49
-0.4400000000000001
  0
ENDTAB
  0
TABLE
  2
LAYER
 70
     2
  0
LAYER
  2
0
 70
     0
 62
     7
  6
CONTINUOUS
  0
LAYER
  2
DEFAULT
 70
     0
 62
    14
  6
CONTINUOUS
  0
ENDTAB
  0
TABLE
  2
STYLE
 70
     1
  0
STYLE
  2
STANDARD
 70
     0
 40
0.0
 41
1.0
 50
0.0
 71
     0
 42
0.2
  3
txt
  4

  0
STYLE
  2

 70
     1
 40
0.0
 41
1.0
 50
0.0
 71
     0
 42
0.2
  3
ltypeshp.shx
  4

  0
ENDTAB
  0
TABLE
  2
VIEW
 70
     0
  0
ENDTAB
  0
TABLE
  2
UCS
 70
     0
  0
ENDTAB
  0
TABLE
  2
APPID
 70
    11
  0
APPID
  2
ACAD
 70
     0
  0
APPID
  2
GENIUS_GENDIM_13
 70
     0
  0
APPID
  2
GENIUS_GENDTOL_13
 70
     0
  0
APPID
  2
GENIUS_GE3DTOL_13
 70
     0
  0
APPID
  2
MCAD_NO_VIS
 70
     0
  0
APPID
  2
ACAD_TEMP_GRAPHIC
 70
     0
  0
APPID
  2
AD_DRAW
 70
     0
  0
APPID
  2
ACATTRIBSERVICES
 70
     0
  0
APPID
  2
ASURF_PCURVE_APPNAME
 70
     0
  0
APPID
  2
DESIGNERASSEMBLIES
 70
     0
  0
APPID
  2
ACADM_DIM_EDIT
 70
     0
  0
ENDTAB
  0
TABLE
  2
DIMSTYLE
 70
     1
  0
DIMSTYLE
  2
STANDARD
 70
     0
  3

  4

  5

  6

  7

 40
1.0
 41
0.18
 42
0.0625
 43
0.38
 44
0.18
 45
0.0
 46
0.0
 47
0.0
 48
0.0
140
0.18
141
0.09
142
0.0
143
25.4
144
1.0
145
0.0
146
1.0
147
0.09
 71
     0
 72
     0
 73
     1
 74
     1
 75
     0
 76
     0
 77
     0
 78
     0
170
     0
171
     2
172
     0
173
     0
174
     0
175
     0
176
     0
177
     0
178
     0
  0
ENDTAB
  0
ENDSEC
  0
SECTION
  2
BLOCKS
  0
BLOCK
  8
0
  2
$MODEL_SPACE
 70
     0
 10
0.0
 20
0.0
 30
0.0
  3
$MODEL_SPACE
  1

  0
ENDBLK
  5
21
  8
0
  0
BLOCK
 67
     1
  8
0
  2
$PAPER_SPACE
 70
     0
 10
0.0
 20
0.0
 30
0.0
  3
$PAPER_SPACE
  1

  0
ENDBLK
  5
76
 67
     1
  8
0
  0
BLOCK
  8
0
  2
*U0
 70
     1
 10
0.0
 20
0.0
 30
0.0
  3
*U0
  1

  0
ENDBLK
  5
890
  8
0
  0
ENDSEC
  0
SECTION
  2
ENTITIES
  0
POLYLINE
  5
25
  8
DEFAULT
 66
     1
 10
0.0
 20
0.0
 30
0.0
 70
     1
  0
VERTEX
  5
899
  8
DEFAULT
 10
1.884171227371048
 20
0.3789003229695211
 30
0.0
  0
VERTEX
  5
89A
  8
DEFAULT
 10
1.88415894049327
 20
0.3941394894012864
 30
0.0
  0
VERTEX
  5
89B
  8
DEFAULT
 10
1.884123765669828
 20
0.4084267756226982
 30
0.0
 42
0.0050227912559
  0
VERTEX
  5
89C
  8
DEFAULT
 10
1.882825776647417
 20
0.5155764711270381
 30
0.0
 42
0.0035816335981
  0
VERTEX
  5
89D
  8
DEFAULT
 10
1.882039681783922
 20
0.5423934068042469
 30
0.0
 42
0.0095988882866
  0
VERTEX
  5
89E
  8
DEFAULT
 10
1.880081696039071
 20
0.5826231996338929
 30
0.0
  0
VERTEX
  5
89F
  8
DEFAULT
 10
1.879317212209974
 20
0.5927018708523475
 30
0.0
  0
VERTEX
  5
8A0
  8
DEFAULT
 10
1.878602723605732
 20
0.6002682772011534
 30
0.0
  0
VERTEX
  5
8A1
  8
DEFAULT
 10
1.877944391388778
 20
0.6059414600048918
 30
0.0
  0
VERTEX
  5
8A2
  8
DEFAULT
 10
1.877342307477274
 20
0.6102017894755915
 30
0.0
 42
0.0181144282432
  0
VERTEX
  5
8A3
  8
DEFAULT
 10
1.876119540480037
 20
0.616563027723262
 30
0.0
 42
0.0436231643215
  0
VERTEX
  5
8A4
  8
DEFAULT
 10
1.875169567136038
 20
0.6197219539397273
 30
0.0
 42
0.0754708117538
  0
VERTEX
  5
8A5
  8
DEFAULT
 10
1.874438099107905
 20
0.6212509428200465
 30
0.0
 42
0.2444587118934
  0
VERTEX
  5
8A6
  8
DEFAULT
 10
1.873096455109814
 20
0.6222910210654611
 30
0.0
 42
0.2149148521782
  0
VERTEX
  5
8A7
  8
DEFAULT
 10
1.872157547474483
 20
0.6217882726010899
 30
0.0
 42
0.0924975829725
  0
VERTEX
  5
8A8
  8
DEFAULT
 10
1.871174465031634
 20
0.6200680593604196
 30
0.0
 42
0.0415381250532
  0
VERTEX
  5
8A9
  8
DEFAULT
 10
1.870058253895343
 20
0.6163485584330849
 30
0.0
  0
VERTEX
  5
8AA
  8
DEFAULT
 10
1.869313206068506
 20
0.6126062321899349
 30
0.0
 42
0.0216049882542
  0
VERTEX
  5
8AB
  8
DEFAULT
 10
1.868738944172208
 20
0.6088975661227803
 30
0.0
 42
0.0151914936809
  0
VERTEX
  5
8AC
  8
DEFAULT
 10
1.867862826546484
 20
0.6015683805756265
 30
0.0
 42
0.0206361817201
  0
VERTEX
  5
8AD
  8
DEFAULT
 10
1.867516525348717
 20
0.5980089347781848
 30
0.0
  0
VERTEX
  5
8AE
  8
DEFAULT
 10
1.86721099606758
 20
0.5945014547082135
 30
0.0
  0
VERTEX
  5
8AF
  8
DEFAULT
 10
1.866938368763008
 20
0.5910468882255513
 30
0.0
 42
0.0053135958633
  0
VERTEX
  5
8B0
  8
DEFAULT
 10
1.865408588514049
 20
0.5638197660938779
 30
0.0
 42
0.0054684557796
  0
VERTEX
  5
8B1
  8
DEFAULT
 10
1.864042490369278
 20
0.5161181394263137
 30
0.0
  0
VERTEX
  5
8B2
  8
DEFAULT
 10
1.86388895763848
 20
0.5071709142505103
 30
0.0
 42
0.0037666888565
  0
VERTEX
  5
8B3
  8
DEFAULT
 10
1.863339000146364
 20
0.4400683663506404
 30
0.0
  0
VERTEX
  5
8B4
  8
DEFAULT
 10
1.863331577020458
 20
0.4358720557696731
 30
0.0
  0
VERTEX
  5
8B5
  8
DEFAULT
 10
1.863351437354697
 20
0.4044165549132949
 30
0.0
  0
VERTEX
  5
8B6
  8
DEFAULT
 10
1.863405781057997
 20
0.3886872186574061
 30
0.0
  0
VERTEX
  5
8B7
  8
DEFAULT
 10
1.863485983103526
 20
0.3729607279191787
 30
0.0
 42
0.0013046799444
  0
VERTEX
  5
8B8
  8
DEFAULT
 10
1.863591691722924
 20
0.3577245357001945
 30
0.0
  0
VERTEX
  5
8B9
  8
DEFAULT
 10
1.863880601818702
 20
0.3291605983691835
 30
0.0
 42
0.0048860935525
  0
VERTEX
  5
8BA
  8
DEFAULT
 10
1.866033088067803
 20
0.2291938187434289
 30
0.0
  0
VERTEX
  5
8BB
  8
DEFAULT
 10
1.866246110885807
 20
0.222942000622101
 30
0.0
  0
VERTEX
  5
8BC
  8
DEFAULT
 10
1.866457532378766
 20
0.2170796090916982
 30
0.0
  0
VERTEX
  5
8BD
  8
DEFAULT
 10
1.866666850829232
 20
0.2115828975692199
 30
0.0
  0
VERTEX
  5
8BE
  8
DEFAULT
 10
1.867564151947292
 20
0.1909815913627844
 30
0.0
  0
VERTEX
  5
8BF
  8
DEFAULT
 10
1.868389746574407
 20
0.1755303275565053
 30
0.0
  0
VERTEX
  5
8C0
  8
DEFAULT
 10
1.868746161968594
 20
0.1697323412240212
 30
0.0
 42
0.0095946491589
  0
VERTEX
  5
8C1
  8
DEFAULT
 10
1.870319621534073
 20
0.1494567568906071
 30
0.0
  0
VERTEX
  5
8C2
  8
DEFAULT
 10
1.870848631880141
 20
0.1443762911087288
 30
0.0
  0
VERTEX
  5
8C3
  8
DEFAULT
 10
1.871313993309893
 20
0.1405635880958943
 30
0.0
 42
0.0264587642768
  0
VERTEX
  5
8C4
  8
DEFAULT
 10
1.872212468364629
 20
0.1348546649387802
 30
0.0
 42
0.0411421581536
  0
VERTEX
  5
8C5
  8
DEFAULT
 10
1.872874092957209
 20
0.1319848337455568
 30
0.0
  0
VERTEX
  5
8C6
  8
DEFAULT
 10
1.873375387100104
 20
0.1305400257202981
 30
0.0
 42
0.0778693324895
  0
VERTEX
  5
8C7
  8
DEFAULT
 10
1.873779922163497
 20
0.1298248810490028
 30
0.0
 42
0.4215105174311001
  0
VERTEX
  5
8C8
  8
DEFAULT
 10
1.874560755364757
 20
0.1295698761030359
 30
0.0
 42
0.1281551292162
  0
VERTEX
  5
8C9
  8
DEFAULT
 10
1.875501570321272
 20
0.1313170615046769
 30
0.0
 42
0.0384625013335
  0
VERTEX
  5
8CA
  8
DEFAULT
 10
1.87698153982119
 20
0.1389366074965073
 30
0.0
  0
VERTEX
  5
8CB
  8
DEFAULT
 10
1.877851743812273
 20
0.1463923261221515
 30
0.0
 42
0.0105875266787
  0
VERTEX
  5
8CC
  8
DEFAULT
 10
1.879969083231196
 20
0.1753974325403726
 30
0.0
  0
VERTEX
  5
8CD
  8
DEFAULT
 10
1.880618269377456
 20
0.188105176869123
 30
0.0
 42
0.0069903637619
  0
VERTEX
  5
8CE
  8
DEFAULT
 10
1.88340548621359
 20
0.2834826476493723
 30
0.0
  0
VERTEX
  5
8CF
  8
DEFAULT
 10
1.883590409847183
 20
0.2954101118211898
 30
0.0
  0
VERTEX
  5
8D0
  8
DEFAULT
 10
1.883848868485365
 20
0.3162839624824618
 30
0.0
  0
VERTEX
  5
8D1
  8
DEFAULT
 10
1.884091760943494
 20
0.3475931576052253
 30
0.0
  0
VERTEX
  5
8D2
  8
DEFAULT
 10
1.884151454011008
 20
0.3632474671349803
 30
0.0
  0
SEQEND
  5
898
  8
DEFAULT
  0
POLYLINE
  5
61
  8
DEFAULT
 66
     1
 10
0.0
 20
0.0
 30
0.0
 70
     1
  0
VERTEX
  5
8D4
  8
DEFAULT
 10
2.048017636946522
 20
0.4560564527953228
 30
0.0
 42
0.0377343617455
  0
VERTEX
  5
8D5
  8
DEFAULT
 10
2.069386825852211
 20
0.4966858892069612
 30
0.0
 42
0.0260701382892
  0
VERTEX
  5
8D6
  8
DEFAULT
 10
2.076487676256288
 20
0.515546306903209
 30
0.0
 42
0.0535159851391
  0
VERTEX
  5
8D7
  8
DEFAULT
 10
2.084404959621775
 20
0.5523863089727282
 30
0.0
 42
0.1104391984037
  0
VERTEX
  5
8D8
  8
DEFAULT
 10
2.076669846271623
 20
0.617056830725341
 30
0.0
 42
0.0347145917942
  0
VERTEX
  5
8D9
  8
DEFAULT
 10
2.067125724418048
 20
0.6393723939074729
 30
0.0
 42
0.0224052809364
  0
VERTEX
  5
8DA
  8
DEFAULT
 10
2.056587306619459
 20
0.6577600580087833
 30
0.0
 42
0.016679165414
  0
VERTEX
  5
8DB
  8
DEFAULT
 10
2.046056785022905
 20
0.6730017603195373
 30
0.0
 42
0.0257259288901
  0
VERTEX
  5
8DC
  8
DEFAULT
 10
2.025416974524527
 20
0.6979744746443668
 30
0.0
 42
0.013195901496
  0
VERTEX
  5
8DD
  8
DEFAULT
 10
2.008570597371716
 20
0.7154791863037296
 30
0.0
  0
VERTEX
  5
8DE
  8
DEFAULT
 10
2.002019659591864
 20
0.7218112019558034
 30
0.0
 42
0.0238878324436
  0
VERTEX
  5
8DF
  8
DEFAULT
 10
1.953622170287261
 20
0.7632866145374249
 30
0.0
  0
VERTEX
  5
8E0
  8
DEFAULT
 10
1.888716503290354
 20
0.8142348326748312
 30
0.0
 42
-0.0157311563177
  0
VERTEX
  5
8E1
  8
DEFAULT
 10
1.878292901084609
 20
0.822901114435151
 30
0.0
 42
-0.0175274166445
  0
VERTEX
  5
8E2
  8
DEFAULT
 10
1.860920669167523
 20
0.839049468943636
 30
0.0
 42
-0.0056973004915
  0
VERTEX
  5
8E3
  8
DEFAULT
 10
1.848451489632587
 20
0.851735250639777
 30
0.0
 42
-0.0065667394165
  0
VERTEX
  5
8E4
  8
DEFAULT
 10
1.83939304732755
 20
0.8615330032832195
 30
0.0
  0
VERTEX
  5
8E5
  8
DEFAULT
 10
1.832777474080354
 20
0.8690454391559745
 30
0.0
 42
-0.0081030444544
  0
VERTEX
  5
8E6
  8
DEFAULT
 10
1.823202487862837
 20
0.880611434214181
 30
0.0
 42
-0.0104412723122
  0
VERTEX
  5
8E7
  8
DEFAULT
 10
1.818618472761287
 20
0.8865558062610425
 30
0.0
  0
VERTEX
  5
8E8
  8
DEFAULT
 10
1.814223307027946
 20
0.8926428982906003
 30
0.0
  0
VERTEX
  5
8E9
  8
DEFAULT
 10
1.810193269547194
 20
0.8985338693032041
 30
0.0
 42
-0.0149710406286
  0
VERTEX
  5
8EA
  8
DEFAULT
 10
1.802936003289132
 20
0.9097947628241369
 30
0.0
 42
-0.0244409852109
  0
VERTEX
  5
8EB
  8
DEFAULT
 10
1.797200022967194
 20
0.9200361955771114
 30
0.0
 42
-0.0550897059981
  0
VERTEX
  5
8EC
  8
DEFAULT
 10
1.78995955154211
 20
0.9392167195665182
 30
0.0
 42
-0.0272972086721
  0
VERTEX
  5
8ED
  8
DEFAULT
 10
1.788459502092311
 20
0.9467383549108188
 30
0.0
 42
-0.025025944467
  0
VERTEX
  5
8EE
  8
DEFAULT
 10
1.787206223787045
 20
0.9600859694882677
 30
0.0
 42
-0.0237437565717
  0
VERTEX
  5
8EF
  8
DEFAULT
 10
1.787339673995814
 20
0.9801827220769865
 30
0.0
  0
VERTEX
  5
8F0
  8
DEFAULT
 10
1.787865241126547
 20
0.9902200325462127
 30
0.0
  0
VERTEX
  5
8F1
  8
DEFAULT
 10
1.788188625971081
 20
0.9952351253362387
 30
0.0
  0
VERTEX
  5
8F2
  8
DEFAULT
 10
1.788539658103063
 20
1.000246504663865
 30
0.0
  0
VERTEX
  5
8F3
  8
DEFAULT
 10
1.793159987913082
 20
1.064121516107732
 30
0.0
  0
VERTEX
  5
8F4
  8
DEFAULT
 10
1.748050409080547
 20
1.092660018273542
 30
0.0
  0
VERTEX
  5
8F5
  8
DEFAULT
 10
1.740684742739333
 20
1.097179679397212
 30
0.0
  0
VERTEX
  5
8F6
  8
DEFAULT
 10
1.73414173208151
 20
1.100975271577664
 30
0.0
 42
0.0223680506123
  0
VERTEX
  5
8F7
  8
DEFAULT
 10
1.710564526595837
 20
1.113027629560195
 30
0.0
  0
VERTEX
  5
8F8
  8
DEFAULT
 10
1.704474511404919
 20
1.115669736127966
 30
0.0
 42
0.0239946875137
  0
VERTEX
  5
8F9
  8
DEFAULT
 10
1.695132977384791
 20
1.119149608219482
 30
0.0
 42
0.0209849393001
  0
VERTEX
  5
8FA
  8
DEFAULT
 10
1.690324334552075
 20
1.120503410817202
 30
0.0
 42
0.0103878582489
  0
VERTEX
  5
8FB
  8
DEFAULT
 10
1.687870632116548
 20
1.120983390084073
 30
0.0
 42
0.059078107117
  0
VERTEX
  5
8FC
  8
DEFAULT
 10
1.685376336748218
 20
1.121198482009303
 30
0.0
 42
0.1612349385579
  0
VERTEX
  5
8FD
  8
DEFAULT
 10
1.670277548830212
 20
1.115882169062006
 30
0.0
 42
0.0727363559617
  0
VERTEX
  5
8FE
  8
DEFAULT
 10
1.660370951655437
 20
1.105664825000938
 30
0.0
 42
0.0388375073357
  0
VERTEX
  5
8FF
  8
DEFAULT
 10
1.653497644949756
 20
1.094423586704508
 30
0.0
 42
0.0447973337839
  0
VERTEX
  5
900
  8
DEFAULT
 10
1.64437931750029
 20
1.071596792739899
 30
0.0
 42
0.044476378715
  0
VERTEX
  5
901
  8
DEFAULT
 10
1.635617388318535
 20
1.029601283824474
 30
0.0
 42
0.0514302062369
  0
VERTEX
  5
902
  8
DEFAULT
 10
1.634414629908284
 20
0.9653015537389499
 30
0.0
 42
0.018526860395
  0
VERTEX
  5
903
  8
DEFAULT
 10
1.636299039070187
 20
0.9492825025675784
 30
0.0
 42
0.0292336291523
  0
VERTEX
  5
904
  8
DEFAULT
 10
1.641081210847518
 20
0.9255619886981655
 30
0.0
 42
0.0327799000151
  0
VERTEX
  5
905
  8
DEFAULT
 10
1.648722483732417
 20
0.9026042366677193
 30
0.0
 42
0.0456045658323
  0
VERTEX
  5
906
  8
DEFAULT
 10
1.667685981775761
 20
0.8674450832177726
 30
0.0
  0
VERTEX
  5
907
  8
DEFAULT
 10
1.670103125953234
 20
0.8638141096621697
 30
0.0
  0
VERTEX
  5
908
  8
DEFAULT
 10
1.675018063847401
 20
0.8567792533522392
 30
0.0
 42
0.043140743878
  0
VERTEX
  5
909
  8
DEFAULT
 10
1.718642369388734
 20
0.806727332807835
 30
0.0
 42
0.0474346137225
  0
VERTEX
  5
90A
  8
DEFAULT
 10
1.796301129451596
 20
0.7445875728181745
 30
0.0
 42
0.0243798446967
  0
VERTEX
  5
90B
  8
DEFAULT
 10
1.839101187145141
 20
0.7191519835473235
 30
0.0
  0
VERTEX
  5
90C
  8
DEFAULT
 10
1.850161839885519
 20
0.7134340430252032
 30
0.0
 42
0.0204508165392
  0
VERTEX
  5
90D
  8
DEFAULT
 10
1.884171227371049
 20
0.6979934957605974
 30
0.0
 42
-0.0204074947523
  0
VERTEX
  5
90E
  8
DEFAULT
 10
1.894990961640803
 20
0.6930622504621753
 30
0.0
 42
-0.0511474233784
  0
VERTEX
  5
90F
  8
DEFAULT
 10
1.932240772891258
 20
0.6687547185731633
 30
0.0
 42
-0.057825524739
  0
VERTEX
  5
910
  8
DEFAULT
 10
1.979166671519689
 20
0.6213347454912986
 30
0.0
 42
-0.0396291477344
  0
VERTEX
  5
911
  8
DEFAULT
 10
1.997723235116622
 20
0.5933713106043788
 30
0.0
 42
-0.0147380085435
  0
VERTEX
  5
912
  8
DEFAULT
 10
2.001556490820108
 20
0.5858734009085718
 30
0.0
 42
-0.0634056917033
  0
VERTEX
  5
913
  8
DEFAULT
 10
2.00972789349552
 20
0.5620302791115801
 30
0.0
 42
-0.0441896325735
  0
VERTEX
  5
914
  8
DEFAULT
 10
2.01296864866612
 20
0.5252749289672265
 30
0.0
 42
-0.0106566172293
  0
VERTEX
  5
915
  8
DEFAULT
 10
2.012747281077741
 20
0.5114443189757245
 30
0.0
 42
-0.032185058776
  0
VERTEX
  5
916
  8
DEFAULT
 10
2.007579820608615
 20
0.4633542280001788
 30
0.0
  0
VERTEX
  5
917
  8
DEFAULT
 10
2.00705912936416
 20
0.4603741390140017
 30
0.0
 42
-0.0254212750646
  0
VERTEX
  5
918
  8
DEFAULT
 10
1.996736691422626
 20
0.4162205530795328
 30
0.0
 42
0.019870779724
  0
VERTEX
  5
919
  8
DEFAULT
 10
1.995793105390484
 20
0.4129331259979291
 30
0.0
  0
VERTEX
  5
91A
  8
DEFAULT
 10
1.993784125480291
 20
0.4054012471453766
 30
0.0
 42
0.0508937853367
  0
VERTEX
  5
91B
  8
DEFAULT
 10
1.992594180114076
 20
0.3985046382060604
 30
0.0
 42
0.0646800258124
  0
VERTEX
  5
91C
  8
DEFAULT
 10
1.992705469135204
 20
0.3968770519211771
 30
0.0
 42
0.4990562994846
  0
VERTEX
  5
91D
  8
DEFAULT
 10
1.994738627395694
 20
0.3955591299018027
 30
0.0
 42
0.0852968910992
  0
VERTEX
  5
91E
  8
DEFAULT
 10
1.998076329942224
 20
0.3971657640378514
 30
0.0
 42
0.022674606987
  0
VERTEX
  5
91F
  8
DEFAULT
 10
2.006886183332229
 20
0.4038825465931639
 30
0.0
 42
0.0395995552234
  0
VERTEX
  5
920
  8
DEFAULT
 10
2.018548908081662
 20
0.4157778761246325
 30
0.0
 42
0.0383400338086
  0
SEQEND
  5
8D3
  8
DEFAULT
  0
POLYLINE
  5
B0
  8
DEFAULT
 66
     1
 10
0.0
 20
0.0
 30
0.0
 70
     1
  0
VERTEX
  5
922
  8
DEFAULT
 10
1.735848521836832
 20
0.4694573192179403
 30
0.0
 42
-0.025453734889
  0
VERTEX
  5
923
  8
DEFAULT
 10
1.733021526855092
 20
0.5105100231069699
 30
0.0
 42
-0.0316399855428
  0
VERTEX
  5
924
  8
DEFAULT
 10
1.734495884866292
 20
0.5414982020333479
 30
0.0
 42
-0.0342159912525
  0
VERTEX
  5
925
  8
DEFAULT
 10
1.738562548675858
 20
0.5644777255846863
 30
0.0
 42
-0.0636816831639
  0
VERTEX
  5
926
  8
DEFAULT
 10
1.750909322237994
 20
0.597205580113002
 30
0.0
 42
-0.0651104685711
  0
VERTEX
  5
927
  8
DEFAULT
 10
1.771243829093793
 20
0.6256684077175772
 30
0.0
 42
0.0458799926594
  0
VERTEX
  5
928
  8
DEFAULT
 10
1.785393155523194
 20
0.6436693859677676
 30
0.0
 42
0.0372945879045
  0
VERTEX
  5
929
  8
DEFAULT
 10
1.789673304253077
 20
0.6516746884085359
 30
0.0
 42
0.0447490354472
  0
VERTEX
  5
92A
  8
DEFAULT
 10
1.792193635539289
 20
0.6593011824233884
 30
0.0
 42
0.1547658223812
  0
VERTEX
  5
92B
  8
DEFAULT
 10
1.791243453559481
 20
0.6731524044948906
 30
0.0
 42
0.1092205686471
  0
VERTEX
  5
92C
  8
DEFAULT
 10
1.78529738869948
 20
0.6814357016307145
 30
0.0
 42
0.0834152860688
  0
VERTEX
  5
92D
  8
DEFAULT
 10
1.772413748781987
 20
0.6893855621401812
 30
0.0
 42
0.0430742404085
  0
VERTEX
  5
92E
  8
DEFAULT
 10
1.758031807944583
 20
0.6941124448526175
 30
0.0
  0
VERTEX
  5
92F
  8
DEFAULT
 10
1.757029947096098
 20
0.694359851209585
 30
0.0
  0
VERTEX
  5
930
  8
DEFAULT
 10
1.756040683494057
 20
0.6945957579035081
 30
0.0
 42
0.0233823333737
  0
VERTEX
  5
931
  8
DEFAULT
 10
1.748188173996051
 20
0.6960796349153569
 30
0.0
 42
0.0917831478389
  0
VERTEX
  5
932
  8
DEFAULT
 10
1.734229476365289
 20
0.6956849591913594
 30
0.0
 42
0.0823061055558
  0
VERTEX
  5
933
  8
DEFAULT
 10
1.724686184539987
 20
0.691603959377048
 30
0.0
 42
0.0377041539887
  0
VERTEX
  5
934
  8
DEFAULT
 10
1.718472636693271
 20
0.6869686177105211
 30
0.0
 42
0.0260411338137
  0
VERTEX
  5
935
  8
DEFAULT
 10
1.71020032164437
 20
0.6788190907025152
 30
0.0
  0
VERTEX
  5
936
  8
DEFAULT
 10
1.706349096017684
 20
0.6744752987409686
 30
0.0
  0
VERTEX
  5
937
  8
DEFAULT
 10
1.702609909073945
 20
0.6700325588398237
 30
0.0
 42
0.0106111170006
  0
VERTEX
  5
938
  8
DEFAULT
 10
1.698285619370689
 20
0.6646581489499335
 30
0.0
  0
VERTEX
  5
939
  8
DEFAULT
 10
1.694401778921589
 20
0.659476023681981
 30
0.0
 42
0.0391658290094
  0
VERTEX
  5
93A
  8
DEFAULT
 10
1.687972578825871
 20
0.6491900889893542
 30
0.0
 42
0.0798836131959
  0
VERTEX
  5
93B
  8
DEFAULT
 10
1.681298918721572
 20
0.6291999606847966
 30
0.0
 42
0.0293238349462
  0
VERTEX
  5
93C
  8
DEFAULT
 10
1.679785523223219
 20
0.6135296920189344
 30
0.0
 42
0.0163061789609
  0
VERTEX
  5
93D
  8
DEFAULT
 10
1.67999024663311
 20
0.5899387906675875
 30
0.0
 42
0.0058814963731
  0
VERTEX
  5
93E
  8
DEFAULT
 10
1.681273237002271
 20
0.5663817138507684
 30
0.0
 42
0.0188122990681
  0
VERTEX
  5
93F
  8
DEFAULT
 10
1.684001444748986
 20
0.5375774329394645
 30
0.0
  0
VERTEX
  5
940
  8
DEFAULT
 10
1.684739599069724
 20
0.5321961366581163
 30
0.0
 42
0.0393268742538
  0
VERTEX
  5
941
  8
DEFAULT
 10
1.69343682970701
 20
0.4924116645774809
 30
0.0
  0
VERTEX
  5
942
  8
DEFAULT
 10
1.6950096858384
 20
0.4875587485953536
 30
0.0
 42
0.0571978704725
  0
VERTEX
  5
943
  8
DEFAULT
 10
1.710000891881905
 20
0.4552121061322909
 30
0.0
  0
VERTEX
  5
944
  8
DEFAULT
 10
1.711589555589649
 20
0.4526555493041137
 30
0.0
 42
0.0085174780305
  0
VERTEX
  5
945
  8
DEFAULT
 10
1.723927374881554
 20
0.4337606742864207
 30
0.0
 42
0.0089044311932
  0
VERTEX
  5
946
  8
DEFAULT
 10
1.730491848995743
 20
0.4245579431359598
 30
0.0
  0
VERTEX
  5
947
  8
DEFAULT
 10
1.733986824087448
 20
0.4200948839654579
 30
0.0
  0
VERTEX
  5
948
  8
DEFAULT
 10
1.735867195484
 20
0.4179567356061553
 30
0.0
 42
0.0211817317265
  0
VERTEX
  5
949
  8
DEFAULT
 10
1.736895014222505
 20
0.4169548004121697
 30
0.0
 42
0.1174245404266
  0
VERTEX
  5
94A
  8
DEFAULT
 10
1.738126270993345
 20
0.4162205530795328
 30
0.0
 42
0.2618891028872
  0
VERTEX
  5
94B
  8
DEFAULT
 10
1.738686371029853
 20
0.4168974729329814
 30
0.0
 42
0.0588799937741
  0
VERTEX
  5
94C
  8
DEFAULT
 10
1.739176591296203
 20
0.420167677955725
 30
0.0
 42
0.0294242707892
  0
VERTEX
  5
94D
  8
DEFAULT
 10
1.739282767486889
 20
0.4263495629991099
 30
0.0
  0
VERTEX
  5
94E
  8
DEFAULT
 10
1.739122877159398
 20
0.4317555260436298
 30
0.0
  0
VERTEX
  5
94F
  8
DEFAULT
 10
1.738576662590309
 20
0.4412031455820371
 30
0.0
  0
VERTEX
  5
950
  8
DEFAULT
 10
1.738312371705579
 20
0.4447423009577494
 30
0.0
  0
VERTEX
  5
951
  8
DEFAULT
 10
1.737789713068956
 20
0.4509308859595648
 30
0.0
  0
VERTEX
  5
952
  8
DEFAULT
 10
1.737353421236701
 20
0.4555698769149252
 30
0.0
  0
VERTEX
  5
953
  8
DEFAULT
 10
1.736636055754335
 20
0.4625182118493971
 30
0.0
 42
0.0108417311418
  0
SEQEND
  5
921
  8
DEFAULT
  0
POLYLINE
  5
E4
  8
DEFAULT
 66
     1
 10
0.0
 20
0.0
 30
0.0
 70
     1
  0
VERTEX
  5
955
  8
DEFAULT
 10
2.059368221687866
 20
0.8148042123188795
 30
0.0
 42
0.0445229817254
  0
VERTEX
  5
956
  8
DEFAULT
 10
2.094597025119532
 20
0.8524611590640551
 30
0.0
 42
0.040535996137
  0
VERTEX
  5
957
  8
DEFAULT
 10
2.115926855902979
 20
0.8848128386392524
 30
0.0
 42
0.0642238298825
  0
VERTEX
  5
958
  8
DEFAULT
 10
2.137115762069476
 20
0.9388425926023487
 30
0.0
 42
0.0606834985504
  0
VERTEX
  5
959
  8
DEFAULT
 10
2.143994423367752
 20
0.9964716359883638
 30
0.0
 42
0.096455383653
  0
VERTEX
  5
95A
  8
DEFAULT
 10
2.127096154903357
 20
1.0846111886131
 30
0.0
 42
0.0169378224115
  0
VERTEX
  5
95B
  8
DEFAULT
 10
2.120315516251447
 20
1.099953506635235
 30
0.0
 42
0.0146359836434
  0
VERTEX
  5
95C
  8
DEFAULT
 10
2.11305862109615
 20
1.11388056586709
 30
0.0
 42
0.0283068255983
  0
VERTEX
  5
95D
  8
DEFAULT
 10
2.097358094372361
 20
1.138758277247883
 30
0.0
 42
0.0370014242433
  0
VERTEX
  5
95E
  8
DEFAULT
 10
2.064625012128956
 20
1.178376365759758
 30
0.0
 42
0.0211693453062
  0
VERTEX
  5
95F
  8
DEFAULT
 10
2.036848437143974
 20
1.205066224783699
 30
0.0
  0
VERTEX
  5
960
  8
DEFAULT
 10
2.031402579776435
 20
1.209813352958925
 30
0.0
  0
VERTEX
  5
961
  8
DEFAULT
 10
2.026240611065165
 20
1.214192570592767
 30
0.0
 42
0.0192087814703
  0
VERTEX
  5
962
  8
DEFAULT
 10
1.985967134851084
 20
1.245095642041533
 30
0.0
  0
VERTEX
  5
963
  8
DEFAULT
 10
1.984669361895363
 20
1.246011274194692
 30
0.0
 42
0.0143741057215
  0
VERTEX
  5
964
  8
DEFAULT
 10
1.943589467304377
 20
1.27303988149525
 30
0.0
 42
-0.0344702565935
  0
VERTEX
  5
965
  8
DEFAULT
 10
1.848973898009633
 20
1.341197746216685
 30
0.0
 42
-0.0118870883868
  0
VERTEX
  5
966
  8
DEFAULT
 10
1.826901600375566
 20
1.360401327878964
 30
0.0
 42
-0.022693397904
  0
VERTEX
  5
967
  8
DEFAULT
 10
1.795698389666082
 20
1.391288777986293
 30
0.0
 42
-0.0187224290418
  0
VERTEX
  5
968
  8
DEFAULT
 10
1.781515521815759
 20
1.408098256716678
 30
0.0
  0
VERTEX
  5
969
  8
DEFAULT
 10
1.779854733096263
 20
1.410292768537849
 30
0.0
 42
-0.0193052982359
  0
VERTEX
  5
96A
  8
DEFAULT
 10
1.774333190664966
 20
1.418186943259248
 30
0.0
 42
-0.026355025202
  0
VERTEX
  5
96B
  8
DEFAULT
 10
1.769457446576643
 20
1.426491577002055
 30
0.0
 42
-0.0393197548466
  0
VERTEX
  5
96C
  8
DEFAULT
 10
1.761334081615065
 20
1.446335126256655
 30
0.0
 42
-0.0575147144902
  0
VERTEX
  5
96D
  8
DEFAULT
 10
1.754444941504833
 20
1.483101519542849
 30
0.0
 42
-0.0739233088773
  0
VERTEX
  5
96E
  8
DEFAULT
 10
1.758617589460889
 20
1.538951641874222
 30
0.0
 42
-0.0185063708105
  0
VERTEX
  5
96F
  8
DEFAULT
 10
1.762268456105769
 20
1.552540500675982
 30
0.0
 42
-0.034071128884
  0
VERTEX
  5
970
  8
DEFAULT
 10
1.76985700125991
 20
1.572233945762042
 30
0.0
 42
-0.0421605214905
  0
VERTEX
  5
971
  8
DEFAULT
 10
1.780226776788008
 20
1.590619755715635
 30
0.0
  0
VERTEX
  5
972
  8
DEFAULT
 10
1.786035370025014
 20
1.599212961938087
 30
0.0
 42
0.0132060078034
  0
VERTEX
  5
973
  8
DEFAULT
 10
1.787388248651309
 20
1.601254651816822
 30
0.0
  0
VERTEX
  5
974
  8
DEFAULT
 10
1.789998382439662
 20
1.605308221373494
 30
0.0
 42
0.0195570450988
  0
VERTEX
  5
975
  8
DEFAULT
 10
1.79464224156133
 20
1.613430755364535
 30
0.0
 42
0.061835944898
  0
VERTEX
  5
976
  8
DEFAULT
 10
1.797686055275734
 20
1.621534971330268
 30
0.0
 42
0.2115243441227999
  0
VERTEX
  5
977
  8
DEFAULT
 10
1.79495910798933
 20
1.63648009792255
 30
0.0
 42
0.06839198346
  0
VERTEX
  5
978
  8
DEFAULT
 10
1.786562550332267
 20
1.646005550587414
 30
0.0
 42
0.032482116914
  0
VERTEX
  5
979
  8
DEFAULT
 10
1.76904587577066
 20
1.659504947592267
 30
0.0
  0
VERTEX
  5
97A
  8
DEFAULT
 10
1.762188710636757
 20
1.664164119916903
 30
0.0
  0
VERTEX
  5
97B
  8
DEFAULT
 10
1.75004047858719
 20
1.672096985091461
 30
0.0
  0
VERTEX
  5
97C
  8
DEFAULT
 10
1.745456225174268
 20
1.67502746962347
 30
0.0
  0
VERTEX
  5
97D
  8
DEFAULT
 10
1.71321548883557
 20
1.695289458231892
 30
0.0
 42
0.0506163540215
  0
VERTEX
  5
97E
  8
DEFAULT
 10
1.712689970774879
 20
1.695618142159607
 30
0.0
 42
0.0507244262068
  0
VERTEX
  5
97F
  8
DEFAULT
 10
1.71216626137337
 20
1.695945486328651
 30
0.0
  0
VERTEX
  5
980
  8
DEFAULT
 10
1.703835618939824
 20
1.701111392623622
 30
0.0
 42
0.0097541257673
  0
VERTEX
  5
981
  8
DEFAULT
 10
1.687828596888328
 20
1.710554962178988
 30
0.0
  0
VERTEX
  5
982
  8
DEFAULT
 10
1.685981606753181
 20
1.711569700256569
 30
0.0
 42
0.0332157574056
  0
VERTEX
  5
983
  8
DEFAULT
 10
1.670953318482262
 20
1.718666527394492
 30
0.0
 42
0.0390751058004
  0
VERTEX
  5
984
  8
DEFAULT
 10
1.663978838287097
 20
1.720822766295332
 30
0.0
 42
0.1163625062353
  0
VERTEX
  5
985
  8
DEFAULT
 10
1.650537685648916
 20
1.721139650937786
 30
0.0
 42
0.1051757905046
  0
VERTEX
  5
986
  8
DEFAULT
 10
1.640346154157875
 20
1.716258847542458
 30
0.0
 42
0.0418981179541
  0
VERTEX
  5
987
  8
DEFAULT
 10
1.633198572722101
 20
1.709642702465745
 30
0.0
 42
0.00880756603
  0
VERTEX
  5
988
  8
DEFAULT
 10
1.630435576783029
 20
1.706414731413486
 30
0.0
 42
0.0269267539858
  0
VERTEX
  5
989
  8
DEFAULT
 10
1.621210259936526
 20
1.693447216835719
 30
0.0
 42
0.0159090850864
  0
VERTEX
  5
98A
  8
DEFAULT
 10
1.609010948648138
 20
1.672944113361692
 30
0.0
 42
0.004724784509
  0
VERTEX
  5
98B
  8
DEFAULT
 10
1.597483926555407
 20
1.65205534277604
 30
0.0
  0
VERTEX
  5
98C
  8
DEFAULT
 10
1.59354784909556
 20
1.644611139284529
 30
0.0
 42
0.0542213001612
  0
VERTEX
  5
98D
  8
DEFAULT
 10
1.569953198329371
 20
1.583909908578709
 30
0.0
 42
0.0441782077913
  0
VERTEX
  5
98E
  8
DEFAULT
 10
1.561497278868952
 20
1.535810923369278
 30
0.0
 42
0.0581229179555
  0
VERTEX
  5
98F
  8
DEFAULT
 10
1.563873095875478
 20
1.462755211015407
 30
0.0
 42
0.0138124983535
  0
VERTEX
  5
990
  8
DEFAULT
 10
1.566927658580417
 20
1.444714562252396
 30
0.0
 42
0.0309005209261
  0
VERTEX
  5
991
  8
DEFAULT
 10
1.580719123998722
 20
1.391626297016343
 30
0.0
 42
0.0093717883535
  0
VERTEX
  5
992
  8
DEFAULT
 10
1.587661925256849
 20
1.371018439053309
 30
0.0
 42
0.0139169804632
  0
VERTEX
  5
993
  8
DEFAULT
 10
1.594440325624327
 20
1.353225306522827
 30
0.0
 42
0.0335818999645
  0
VERTEX
  5
994
  8
DEFAULT
 10
1.608972705463443
 20
1.323255491045087
 30
0.0
 42
0.0287614407075
  0
VERTEX
  5
995
  8
DEFAULT
 10
1.622600877957937
 20
1.302345308095248
 30
0.0
 42
0.0147904274107
  0
VERTEX
  5
996
  8
DEFAULT
 10
1.634103078018481
 20
1.28758729193681
 30
0.0
  0
VERTEX
  5
997
  8
DEFAULT
 10
1.638623142698651
 20
1.282218724116251
 30
0.0
 42
0.0133415649817
  0
VERTEX
  5
998
  8
DEFAULT
 10
1.655029475325719
 20
1.263952460711344
 30
0.0
  0
VERTEX
  5
999
  8
DEFAULT
 10
1.659234330877597
 20
1.259479597874169
 30
0.0
  0
VERTEX
  5
99A
  8
DEFAULT
 10
1.672002909382418
 20
1.246210402152775
 30
0.0
 42
0.0177201718002
  0
VERTEX
  5
99B
  8
DEFAULT
 10
1.70281014335648
 20
1.21695526913049
 30
0.0
 42
0.0260518895938
  0
VERTEX
  5
99C
  8
DEFAULT
 10
1.752607919374099
 20
1.177191475760635
 30
0.0
  0
VERTEX
  5
99D
  8
DEFAULT
 10
1.759121175312591
 20
1.172590497175603
 30
0.0
 42
0.0140494318735
  0
VERTEX
  5
99E
  8
DEFAULT
 10
1.782455984247615
 20
1.157296850935081
 30
0.0
 42
0.0097381039489
  0
VERTEX
  5
99F
  8
DEFAULT
 10
1.794478052701441
 20
1.150216245843759
 30
0.0
 42
0.0159678836133
  0
VERTEX
  5
9A0
  8
DEFAULT
 10
1.797526953014902
 20
1.148518009251144
 30
0.0
  0
VERTEX
  5
9A1
  8
DEFAULT
 10
1.799826504090164
 20
1.147265179396272
 30
0.0
  0
VERTEX
  5
9A2
  8
DEFAULT
 10
1.806780789520832
 20
1.143631986182817
 30
0.0
  0
VERTEX
  5
9A3
  8
DEFAULT
 10
1.814619785907096
 20
1.139612737201776
 30
0.0
 42
-0.0136264256816
  0
VERTEX
  5
9A4
  8
DEFAULT
 10
1.844536999128902
 20
1.123023035981381
 30
0.0
  0
VERTEX
  5
9A5
  8
DEFAULT
 10
1.851015556140505
 20
1.119137810065481
 30
0.0
 42
-0.030373092067
  0
VERTEX
  5
9A6
  8
DEFAULT
 10
1.899277718132949
 20
1.085841513680134
 30
0.0
 42
-0.0151871803797
  0
VERTEX
  5
9A7
  8
DEFAULT
 10
1.916491008850689
 20
1.071407577060482
 30
0.0
 42
-0.0352223251833
  0
VERTEX
  5
9A8
  8
DEFAULT
 10
1.944207092737844
 20
1.043094508517028
 30
0.0
 42
-0.0415695806444
  0
VERTEX
  5
9A9
  8
DEFAULT
 10
1.96181532631649
 20
1.018547309094618
 30
0.0
 42
-0.0464738541132
  0
VERTEX
  5
9AA
  8
DEFAULT
 10
1.971800906887311
 20
0.9979187565228873
 30
0.0
 42
-0.0479725172238
  0
VERTEX
  5
9AB
  8
DEFAULT
 10
1.976378350876463
 20
0.9812361085505871
 30
0.0
 42
-0.0908857148996
  0
VERTEX
  5
9AC
  8
DEFAULT
 10
1.976318105501002
 20
0.9553154071587059
 30
0.0
 42
-0.0980027100095
  0
VERTEX
  5
9AD
  8
DEFAULT
 10
1.966473371682282
 20
0.9313375023348859
 30
0.0
 42
0.0404503409421
  0
VERTEX
  5
9AE
  8
DEFAULT
 10
1.961766717173709
 20
0.9222885016326126
 30
0.0
 42
0.034852404959
  0
VERTEX
  5
9AF
  8
DEFAULT
 10
1.956114313876503
 20
0.9054106195059908
 30
0.0
 42
0.0613542328395
  0
VERTEX
  5
9B0
  8
DEFAULT
 10
1.949246101885011
 20
0.8526038573222178
 30
0.0
 42
0.0250924237984
  0
VERTEX
  5
9B1
  8
DEFAULT
 10
1.950201677604996
 20
0.8301324444015998
 30
0.0
 42
0.0388635151271
  0
VERTEX
  5
9B2
  8
DEFAULT
 10
1.953388441552058
 20
0.8100055999325078
 30
0.0
 42
0.0606674034747
  0
VERTEX
  5
9B3
  8
DEFAULT
 10
1.959626190925138
 20
0.7926968855764569
 30
0.0
 42
0.1075101640281
  0
VERTEX
  5
9B4
  8
DEFAULT
 10
1.969619363779118
 20
0.7803070512233729
 30
0.0
 42
0.1226251071069
  0
VERTEX
  5
9B5
  8
DEFAULT
 10
1.981834539714297
 20
0.7749575014735133
 30
0.0
 42
0.0769630362395
  0
VERTEX
  5
9B6
  8
DEFAULT
 10
1.993167551091589
 20
0.7749126432732095
 30
0.0
 42
0.0399294810061
  0
VERTEX
  5
9B7
  8
DEFAULT
 10
2.002715570461235
 20
0.7772161311171986
 30
0.0
 42
0.0466833229737
  0
VERTEX
  5
9B8
  8
DEFAULT
 10
2.018334666804264
 20
0.7842133365021607
 30
0.0
 42
0.0340536307741
  0
VERTEX
  5
9B9
  8
DEFAULT
 10
2.039691247003365
 20
0.7983799303266009
 30
0.0
 42
0.0226762037426
  0
SEQEND
  5
954
  8
DEFAULT
  0
POLYLINE
  5
14B
  8
DEFAULT
 66
     1
 10
0.0
 20
0.0
 30
0.0
 70
     1
  0
VERTEX
  5
9BB
  8
DEFAULT
 10
1.907063355779991
 20
0.8853020282698849
 30
0.0
 42
0.0085259992564
  0
VERTEX
  5
9BC
  8
DEFAULT
 10
1.907287875943318
 20
0.9193824479243687
 30
0.0
 42
0.0077551019961
  0
VERTEX
  5
9BD
  8
DEFAULT
 10
1.906918411953858
 20
0.9323711109362363
 30
0.0
 42
0.007019419477
  0
VERTEX
  5
9BE
  8
DEFAULT
 10
1.906646383552365
 20
0.9380952440096987
 30
0.0
 42
0.0126031793359
  0
VERTEX
  5
9BF
  8
DEFAULT
 10
1.906318279654446
 20
0.9434791669011289
 30
0.0
 42
0.0023622186482
  0
VERTEX
  5
9C0
  8
DEFAULT
 10
1.905476761688286
 20
0.9536022522462515
 30
0.0
 42
0.0228671629667
  0
VERTEX
  5
9C1
  8
DEFAULT
 10
1.903029837341456
 20
0.9713683099690285
 30
0.0
 42
0.0241287284123
  0
VERTEX
  5
9C2
  8
DEFAULT
 10
1.899876490768732
 20
0.9847417563633143
 30
0.0
 42
0.0422215536874
  0
VERTEX
  5
9C3
  8
DEFAULT
 10
1.896220361433302
 20
0.9945823108873227
 30
0.0
 42
0.0347025627447
  0
VERTEX
  5
9C4
  8
DEFAULT
 10
1.892301426242942
 20
1.001534383757225
 30
0.0
 42
0.110751686133
  0
VERTEX
  5
9C5
  8
DEFAULT
 10
1.883618617849004
 20
1.009798784192487
 30
0.0
 42
0.1341223005581
  0
VERTEX
  5
9C6
  8
DEFAULT
 10
1.871997432495039
 20
1.012740345009347
 30
0.0
 42
0.2345589666473
  0
VERTEX
  5
9C7
  8
DEFAULT
 10
1.86961558258105
 20
1.011313064207955
 30
0.0
 42
0.0831035314549
  0
VERTEX
  5
9C8
  8
DEFAULT
 10
1.867409452788142
 20
1.006720015694002
 30
0.0
 42
0.0356475013306
  0
VERTEX
  5
9C9
  8
DEFAULT
 10
1.865244798588937
 20
0.9971895401612236
 30
0.0
 42
0.0233020399045
  0
VERTEX
  5
9CA
  8
DEFAULT
 10
1.863325116373018
 20
0.9790079210395239
 30
0.0
  0
VERTEX
  5
9CB
  8
DEFAULT
 10
1.863200268541858
 20
0.977009552525388
 30
0.0
 42
0.0076033283417
  0
VERTEX
  5
9CC
  8
DEFAULT
 10
1.862593327730533
 20
0.9612711466673422
 30
0.0
 42
0.0119636931593
  0
VERTEX
  5
9CD
  8
DEFAULT
 10
1.862501205031592
 20
0.9543774817583464
 30
0.0
 42
0.0219056888889
  0
VERTEX
  5
9CE
  8
DEFAULT
 10
1.864474128635638
 20
0.9027248739944129
 30
0.0
 42
0.0211508890094
  0
VERTEX
  5
9CF
  8
DEFAULT
 10
1.86757625186495
 20
0.876949128269495
 30
0.0
  0
VERTEX
  5
9D0
  8
DEFAULT
 10
1.868759807641152
 20
0.8705297904112666
 30
0.0
 42
0.0269924919361
  0
VERTEX
  5
9D1
  8
DEFAULT
 10
1.871148301419797
 20
0.8610152030276168
 30
0.0
 42
0.0428931725138
  0
VERTEX
  5
9D2
  8
DEFAULT
 10
1.872869104835723
 20
0.8563953361380711
 30
0.0
 42
0.0870326131377
  0
VERTEX
  5
9D3
  8
DEFAULT
 10
1.875494567187841
 20
0.8522222853401885
 30
0.0
 42
0.0235006115863
  0
VERTEX
  5
9D4
  8
DEFAULT
 10
1.883004866311513
 20
0.8454314679702923
 30
0.0
 42
0.0845953771366
  0
VERTEX
  5
9D5
  8
DEFAULT
 10
1.890935098896895
 20
0.8407516197103937
 30
0.0
 42
0.1077842886615
  0
VERTEX
  5
9D6
  8
DEFAULT
 10
1.894702473249638
 20
0.8402115330602308
 30
0.0
 42
0.229566198679
  0
VERTEX
  5
9D7
  8
DEFAULT
 10
1.900187111283587
 20
0.8435877150738937
 30
0.0
 42
0.058334549055
  0
VERTEX
  5
9D8
  8
DEFAULT
 10
1.902615036394967
 20
0.8483767500738323
 30
0.0
 42
0.0428735176602
  0
VERTEX
  5
9D9
  8
DEFAULT
 10
1.904870390970317
 20
0.8574343606346258
 30
0.0
  0
VERTEX
  5
9DA
  8
DEFAULT
 10
1.905396034118374
 20
0.8608918120073884
 30
0.0
 42
0.0230553308463
  0
VERTEX
  5
9DB
  8
DEFAULT
 10
1.906542795015262
 20
0.8730764761917146
 30
0.0
  0
VERTEX
  5
9DC
  8
DEFAULT
 10
1.906858416961219
 20
0.8791882267536394
 30
0.0
  0
VERTEX
  5
9DD
  8
DEFAULT
 10
1.906972879476037
 20
0.8822465730050744
 30
0.0
  0
VERTEX
  5
9DE
  8
DEFAULT
 10
1.907020928211075
 20
0.8837751795439029
 30
0.0
  0
SEQEND
  5
9BA
  8
DEFAULT
  0
POLYLINE
  5
171
  8
DEFAULT
 66
     1
 10
0.0
 20
0.0
 30
0.0
 70
     1
  0
VERTEX
  5
9E0
  8
DEFAULT
 10
2.120943924716293
 20
1.248646559981857
 30
0.0
 42
0.0725767651335
  0
VERTEX
  5
9E1
  8
DEFAULT
 10
2.175337534701337
 20
1.293718963500101
 30
0.0
 42
0.049541490078
  0
VERTEX
  5
9E2
  8
DEFAULT
 10
2.206656991644736
 20
1.336376191448177
 30
0.0
 42
0.0648360966385
  0
VERTEX
  5
9E3
  8
DEFAULT
 10
2.237557059315248
 20
1.409276880615853
 30
0.0
 42
0.0530876810241
  0
VERTEX
  5
9E4
  8
DEFAULT
 10
2.250688390420373
 20
1.487357207967637
 30
0.0
  0
VERTEX
  5
9E5
  8
DEFAULT
 10
2.251802335563911
 20
1.506352665340225
 30
0.0
  0
VERTEX
  5
9E6
  8
DEFAULT
 10
2.252172101090994
 20
1.514685188660832
 30
0.0
  0
VERTEX
  5
9E7
  8
DEFAULT
 10
2.252409049015933
 20
1.522501075699624
 30
0.0
 42
0.0322620398336
  0
VERTEX
  5
9E8
  8
DEFAULT
 10
2.251503935231484
 20
1.551818036558227
 30
0.0
 42
0.0380643620471
  0
VERTEX
  5
9E9
  8
DEFAULT
 10
2.247584580891297
 20
1.573452652696211
 30
0.0
  0
VERTEX
  5
9EA
  8
DEFAULT
 10
2.246479007101487
 20
1.577421920762614
 30
0.0
  0
VERTEX
  5
9EB
  8
DEFAULT
 10
2.246203870090015
 20
1.578349224201063
 30
0.0
 42
0.0314697514775
  0
VERTEX
  5
9EC
  8
DEFAULT
 10
2.235319614108101
 20
1.606714512495804
 30
0.0
  0
VERTEX
  5
9ED
  8
DEFAULT
 10
2.232169174005131
 20
1.613622899043329
 30
0.0
  0
VERTEX
  5
9EE
  8
DEFAULT
 10
2.227286864705465
 20
1.623918819740318
 30
0.0
  0
VERTEX
  5
9EF
  8
DEFAULT
 10
2.224799001961799
 20
1.629044928082205
 30
0.0
 42
0.0161493872409
  0
VERTEX
  5
9F0
  8
DEFAULT
 10
2.223547309037817
 20
1.63160331744234
 30
0.0
 42
0.0217862487657
  0
VERTEX
  5
9F1
  8
DEFAULT
 10
2.222292194735521
 20
1.634157699159193
 30
0.0
 42
0.0100143167097
  0
VERTEX
  5
9F2
  8
DEFAULT
 10
2.22079041883828
 20
1.637181076249727
 30
0.0
 42
0.0094556515554
  0
VERTEX
  5
9F3
  8
DEFAULT
 10
2.208504421870173
 20
1.660260223014912
 30
0.0
  0
VERTEX
  5
9F4
  8
DEFAULT
 10
2.206081370336468
 20
1.664525751435963
 30
0.0
  0
VERTEX
  5
9F5
  8
DEFAULT
 10
2.203777582304116
 20
1.668505794282662
 30
0.0
 42
0.0053806828458
  0
VERTEX
  5
9F6
  8
DEFAULT
 10
2.199372642247427
 20
1.675919350117103
 30
0.0
 42
0.0109155024928
  0
VERTEX
  5
9F7
  8
DEFAULT
 10
2.191383132053419
 20
1.688726562938915
 30
0.0
  0
VERTEX
  5
9F8
  8
DEFAULT
 10
2.185125787664407
 20
1.698167704125374
 30
0.0
  0
VERTEX
  5
9F9
  8
DEFAULT
 10
2.180252107626943
 20
1.705124648587765
 30
0.0
  0
VERTEX
  5
9FA
  8
DEFAULT
 10
2.178373867859281
 20
1.707701289766354
 30
0.0
 42
0.013537483147
  0
VERTEX
  5
9FB
  8
DEFAULT
 10
2.175010091570272
 20
1.712150159860823
 30
0.0
  0
VERTEX
  5
9FC
  8
DEFAULT
 10
2.172406379530375
 20
1.715427196333425
 30
0.0
 42
0.0330912337188
  0
VERTEX
  5
9FD
  8
DEFAULT
 10
2.163918060873279
 20
1.724666004532274
 30
0.0
 42
0.0166055722547
  0
VERTEX
  5
9FE
  8
DEFAULT
 10
2.160557700456788
 20
1.727615640901094
 30
0.0
 42
0.0153096168706
  0
VERTEX
  5
9FF
  8
DEFAULT
 10
2.132890806153804
 20
1.749392335873966
 30
0.0
  0
VERTEX
  5
A00
  8
DEFAULT
 10
2.129804818161203
 20
1.751696042349762
 30
0.0
  0
VERTEX
  5
A01
  8
DEFAULT
 10
2.117592994181328
 20
1.760681752812059
 30
0.0
  0
VERTEX
  5
A02
  8
DEFAULT
 10
2.106073620408993
 20
1.769005582672838
 30
0.0
 42
0.0038266004444
  0
VERTEX
  5
A03
  8
DEFAULT
 10
2.062435998686298
 20
1.7996103313786
 30
0.0
  0
VERTEX
  5
A04
  8
DEFAULT
 10
2.054190424556958
 20
1.805260649883194
 30
0.0
 42
0.0039950336066
  0
VERTEX
  5
A05
  8
DEFAULT
 10
2.023115877918522
 20
1.826215131078847
 30
0.0
  0
VERTEX
  5
A06
  8
DEFAULT
 10
1.999637980769737
 20
1.841673768551197
 30
0.0
  0
VERTEX
  5
A07
  8
DEFAULT
 10
1.981913681878269
 20
1.853091696805443
 30
0.0
  0
VERTEX
  5
A08
  8
DEFAULT
 10
1.975235166353603
 20
1.857325349425073
 30
0.0
 42
0.0459524835572
  0
VERTEX
  5
A09
  8
DEFAULT
 10
1.974501281477431
 20
1.857787947659359
 30
0.0
 42
0.0460371390217
  0
VERTEX
  5
A0A
  8
DEFAULT
 10
1.973778634314166
 20
1.858242926797095
 30
0.0
 42
0.0461138295319
  0
VERTEX
  5
A0B
  8
DEFAULT
 10
1.973067149999364
 20
1.858690350944236
 30
0.0
 42
0.0461912321952
  0
VERTEX
  5
A0C
  8
DEFAULT
 10
1.972366492630289
 20
1.859130447944744
 30
0.0
 42
0.0462601863435
  0
VERTEX
  5
A0D
  8
DEFAULT
 10
1.971676614239257
 20
1.859563264204593
 30
0.0
 42
0.0463334946891
  0
VERTEX
  5
A0E
  8
DEFAULT
 10
1.970997092752998
 20
1.859989080374208
 30
0.0
  0
VERTEX
  5
A0F
  8
DEFAULT
 10
1.965653865009541
 20
1.863319083569095
 30
0.0
  0
VERTEX
  5
A10
  8
DEFAULT
 10
1.956266388194855
 20
1.869079899404511
 30
0.0
  0
VERTEX
  5
A11
  8
DEFAULT
 10
1.949186273898249
 20
1.873330977865454
 30
0.0
  0
VERTEX
  5
A12
  8
DEFAULT
 10
1.943843181565837
 20
1.876469898925019
 30
0.0
  0
VERTEX
  5
A13
  8
DEFAULT
 10
1.939813577167564
 20
1.878787059529658
 30
0.0
 42
0.0132675271751
  0
VERTEX
  5
A14
  8
DEFAULT
 10
1.927554489857043
 20
1.885417911065232
 30
0.0
  0
VERTEX
  5
A15
  8
DEFAULT
 10
1.924112708848726
 20
1.887183069506413
 30
0.0
 42
-0.006887463761
  0
VERTEX
  5
A16
  8
DEFAULT
 10
1.910963923838346
 20
1.894366597842924
 30
0.0
  0
VERTEX
  5
A17
  8
DEFAULT
 10
1.899594608481516
 20
1.900893369469518
 30
0.0
 42
-0.01366727143
  0
VERTEX
  5
A18
  8
DEFAULT
 10
1.821693916902757
 20
1.949374163638115
 30
0.0
 42
-0.0117858258916
  0
VERTEX
  5
A19
  8
DEFAULT
 10
1.793139724410849
 20
1.969080529909096
 30
0.0
 42
-0.0261253242259
  0
VERTEX
  5
A1A
  8
DEFAULT
 10
1.772821378520834
 20
1.98552104855718
 30
0.0
 42
-0.036050147617
  0
VERTEX
  5
A1B
  8
DEFAULT
 10
1.759292420912165
 20
1.999736539029047
 30
0.0
 42
-0.0564041560484
  0
VERTEX
  5
A1C
  8
DEFAULT
 10
1.743628782635654
 20
2.02457515186752
 30
0.0
  0
VERTEX
  5
A1D
  8
DEFAULT
 10
1.740507202910624
 20
2.031223437219563
 30
0.0
 42
-0.0259163428684
  0
VERTEX
  5
A1E
  8
DEFAULT
 10
1.739393847148947
 20
2.033743812170289
 30
0.0
  0
VERTEX
  5
A1F
  8
DEFAULT
 10
1.737508820046786
 20
2.038181105297026
 30
0.0
 42
-0.0205113482217
  0
VERTEX
  5
A20
  8
DEFAULT
 10
1.736140916547539
 20
2.041526987663029
 30
0.0
 42
-0.011953982599
  0
VERTEX
  5
A21
  8
DEFAULT
 10
1.73221592121225
 20
2.051633917620461
 30
0.0
 42
-0.0374825759977
  0
VERTEX
  5
A22
  8
DEFAULT
 10
1.715787508950971
 20
2.106440889043178
 30
0.0
 42
-0.0466580803911
  0
VERTEX
  5
A23
  8
DEFAULT
 10
1.710553960514403
 20
2.149385552795285
 30
0.0
 42
-0.0472439634725
  0
VERTEX
  5
A24
  8
DEFAULT
 10
1.712827889357414
 20
2.181851839241417
 30
0.0
 42
-0.0805790806556001
  0
VERTEX
  5
A25
  8
DEFAULT
 10
1.728473606627726
 20
2.227957259932733
 30
0.0
 42
-0.0374353464153
  0
VERTEX
  5
A26
  8
DEFAULT
 10
1.741350831838675
 20
2.248674684938601
 30
0.0
 42
-0.0182862577133
  0
VERTEX
  5
A27
  8
DEFAULT
 10
1.743153097071712
 20
2.251137715628305
 30
0.0
 42
-0.0240731220179
  0
VERTEX
  5
A28
  8
DEFAULT
 10
1.756748935963095
 20
2.26759155398398
 30
0.0
 42
0.0105527183952
  0
VERTEX
  5
A29
  8
DEFAULT
 10
1.762233740493947
 20
2.274019461439393
 30
0.0
 42
0.070382434472
  0
VERTEX
  5
A2A
  8
DEFAULT
 10
1.770521946070853
 20
2.287555138938844
 30
0.0
 42
0.0653128181575
  0
VERTEX
  5
A2B
  8
DEFAULT
 10
1.772309415842016
 20
2.294090066191365
 30
0.0
 42
0.1425038154356
  0
VERTEX
  5
A2C
  8
DEFAULT
 10
1.77057317803925
 20
2.306201710216425
 30
0.0
 42
0.077959912131
  0
VERTEX
  5
A2D
  8
DEFAULT
 10
1.76489408415935
 20
2.314868935588644
 30
0.0
 42
0.0568060794046
  0
VERTEX
  5
A2E
  8
DEFAULT
 10
1.751441095693179
 20
2.326777839115858
 30
0.0
 42
0.0217311245324
  0
VERTEX
  5
A2F
  8
DEFAULT
 10
1.740256018431619
 20
2.334261429737239
 30
0.0
 42
0.0046457865158
  0
VERTEX
  5
A30
  8
DEFAULT
 10
1.731590716935982
 20
2.339428014779063
 30
0.0
  0
VERTEX
  5
A31
  8
DEFAULT
 10
1.729946059216301
 20
2.34036720767057
 30
0.0
 42
0.0094912510255
  0
VERTEX
  5
A32
  8
DEFAULT
 10
1.704884699116489
 20
2.353672947996589
 30
0.0
  0
VERTEX
  5
A33
  8
DEFAULT
 10
1.643272026378452
 20
2.384735881819933
 30
0.0
  0
VERTEX
  5
A34
  8
DEFAULT
 10
1.605218935185016
 20
2.341352619333941
 30
0.0
  0
VERTEX
  5
A35
  8
DEFAULT
 10
1.600220742976962
 20
2.335569831008636
 30
0.0
 42
0.0359673210552
  0
VERTEX
  5
A36
  8
DEFAULT
 10
1.599620002206408
 20
2.33486278723311
 30
0.0
 42
0.0358538387947
  0
VERTEX
  5
A37
  8
DEFAULT
 10
1.599023033381287
 20
2.334157476049413
 30
0.0
 42
0.0181600387061
  0
VERTEX
  5
A38
  8
DEFAULT
 10
1.580830067017595
 20
2.311068352746679
 30
0.0
 42
0.0456982894478
  0
VERTEX
  5
A39
  8
DEFAULT
 10
1.55418395391734
 20
2.267098709405545
 30
0.0
 42
0.0388150301959
  0
VERTEX
  5
A3A
  8
DEFAULT
 10
1.540167940475274
 20
2.231201014147353
 30
0.0
 42
0.0471055098289
  0
VERTEX
  5
A3B
  8
DEFAULT
 10
1.52902249860734
 20
2.174589147343845
 30
0.0
 42
0.0152138456077
  0
VERTEX
  5
A3C
  8
DEFAULT
 10
1.52687220766924
 20
2.14580931617313
 30
0.0
  0
VERTEX
  5
A3D
  8
DEFAULT
 10
1.526593984740572
 20
2.13859736643422
 30
0.0
 42
0.0061162586967
  0
VERTEX
  5
A3E
  8
DEFAULT
 10
1.526259359899173
 20
2.116953360982615
 30
0.0
 42
0.0120522477376
  0
VERTEX
  5
A3F
  8
DEFAULT
 10
1.526261215747034
 20
2.11442858044823
 30
0.0
 42
0.0039790333367
  0
VERTEX
  5
A40
  8
DEFAULT
 10
1.526310570099602
 20
2.104487039068693
 30
0.0
  0
VERTEX
  5
A41
  8
DEFAULT
 10
1.526361919427829
 20
2.09982506300375
 30
0.0
  0
VERTEX
  5
A42
  8
DEFAULT
 10
1.526528133501124
 20
2.090792541398577
 30
0.0
 42
0.0193456154393
  0
VERTEX
  5
A43
  8
DEFAULT
 10
1.528479028413582
 20
2.056963688245457
 30
0.0
 42
0.0602511994416
  0
VERTEX
  5
A44
  8
DEFAULT
 10
1.539370981300379
 20
2.007379651262697
 30
0.0
 42
0.0131090378784
  0
VERTEX
  5
A45
  8
DEFAULT
 10
1.541525856609816
 20
2.001407997127195
 30
0.0
 42
0.0016616651197
  0
VERTEX
  5
A46
  8
DEFAULT
 10
1.543520967304087
 20
1.996222474885811
 30
0.0
 42
0.0176192954305
  0
VERTEX
  5
A47
  8
DEFAULT
 10
1.559301133937924
 20
1.96069231341594
 30
0.0
 42
0.0447433383958
  0
VERTEX
  5
A48
  8
DEFAULT
 10
1.597182839308163
 20
1.897430886605129
 30
0.0
  0
VERTEX
  5
A49
  8
DEFAULT
 10
1.601282430050145
 20
1.89186115615459
 30
0.0
  0
VERTEX
  5
A4A
  8
DEFAULT
 10
1.605330972291879
 20
1.886527532920014
 30
0.0
 42
0.0503637113013
  0
VERTEX
  5
A4B
  8
DEFAULT
 10
1.676738914886187
 20
1.811415520285265
 30
0.0
 42
0.0463852780778
  0
VERTEX
  5
A4C
  8
DEFAULT
 10
1.761081655267172
 20
1.75119453814091
 30
0.0
 42
-0.0157944319479
  0
VERTEX
  5
A4D
  8
DEFAULT
 10
1.899736274464324
 20
1.664595528000143
 30
0.0
  0
VERTEX
  5
A4E
  8
DEFAULT
 10
1.91665662113195
 20
1.653054613980975
 30
0.0
 42
-0.014776374193
  0
VERTEX
  5
A4F
  8
DEFAULT
 10
1.974541116131655
 20
1.610754590183864
 30
0.0
  0
VERTEX
  5
A50
  8
DEFAULT
 10
1.981571856776325
 20
1.605165534250339
 30
0.0
  0
VERTEX
  5
A51
  8
DEFAULT
 10
1.987661984046667
 20
1.60019695834192
 30
0.0
 42
-0.0054742744208
  0
VERTEX
  5
A52
  8
DEFAULT
 10
1.998151170639343
 20
1.591282088822017
 30
0.0
 42
-0.021221439616
  0
VERTEX
  5
A53
  8
DEFAULT
 10
2.013239648548653
 20
1.577179208397194
 30
0.0
  0
VERTEX
  5
A54
  8
DEFAULT
 10
2.016816394159954
 20
1.573441393636017
 30
0.0
 42
-0.0461544181289
  0
VERTEX
  5
A55
  8
DEFAULT
 10
2.026430669948973
 20
1.561282715508263
 30
0.0
 42
-0.0443032922014
  0
VERTEX
  5
A56
  8
DEFAULT
 10
2.034868443008696
 20
1.543731791608528
 30
0.0
 42
-0.0385566239974
  0
VERTEX
  5
A57
  8
DEFAULT
 10
2.04324194410644
 20
1.515775414444654
 30
0.0
 42
-0.0190402129098
  0
VERTEX
  5
A58
  8
DEFAULT
 10
2.045775119559885
 20
1.50138713036879
 30
0.0
 42
-0.0116281421775
  0
VERTEX
  5
A59
  8
DEFAULT
 10
2.046527446678747
 20
1.494117909920735
 30
0.0
 42
-0.0206691805199
  0
VERTEX
  5
A5A
  8
DEFAULT
 10
2.046817889166579
 20
1.48681261570685
 30
0.0
 42
-0.0194118260817
  0
VERTEX
  5
A5B
  8
DEFAULT
 10
2.046707436795998
 20
1.482048784988088
 30
0.0
 42
-0.0320437758708
  0
VERTEX
  5
A5C
  8
DEFAULT
 10
2.044558015072764
 20
1.463733996007248
 30
0.0
 42
-0.0362998619385
  0
VERTEX
  5
A5D
  8
DEFAULT
 10
2.036447938066441
 20
1.43253665622999
 30
0.0
 42
-0.0155478810429
  0
VERTEX
  5
A5E
  8
DEFAULT
 10
2.032366029615644
 20
1.421139147919796
 30
0.0
 42
-0.0397093041725
  0
VERTEX
  5
A5F
  8
DEFAULT
 10
2.014177410800604
 20
1.382898636752457
 30
0.0
 42
-0.0115566483
  0
VERTEX
  5
A60
  8
DEFAULT
 10
2.008576809805212
 20
1.373866157176524
 30
0.0
  0
VERTEX
  5
A61
  8
DEFAULT
 10
2.006343523159737
 20
1.370560335580454
 30
0.0
 42
-0.0244636508246
  0
VERTEX
  5
A62
  8
DEFAULT
 10
1.997859166662408
 20
1.359488491919197
 30
0.0
 42
-0.0444330888141
  0
VERTEX
  5
A63
  8
DEFAULT
 10
1.987999196467784
 20
1.349618484506068
 30
0.0
 42
0.0658734183497
  0
VERTEX
  5
A64
  8
DEFAULT
 10
1.978123052421987
 20
1.339269233530116
 30
0.0
 42
0.0916822057092
  0
VERTEX
  5
A65
  8
DEFAULT
 10
1.972751121247875
 20
1.328124860926509
 30
0.0
 42
0.0910174671728
  0
VERTEX
  5
A66
  8
DEFAULT
 10
1.972022219818632
 20
1.317595642296399
 30
0.0
 42
0.0620150170939
  0
VERTEX
  5
A67
  8
DEFAULT
 10
1.974253003968259
 20
1.308796983593564
 30
0.0
 42
0.0698617679638
  0
VERTEX
  5
A68
  8
DEFAULT
 10
1.982147836885554
 20
1.295188525521014
 30
0.0
 42
0.031192338136
  0
VERTEX
  5
A69
  8
DEFAULT
 10
1.989871706442684
 20
1.286305028517999
 30
0.0
 42
0.0297157384333
  0
VERTEX
  5
A6A
  8
DEFAULT
 10
2.002939281801535
 20
1.274457993942036
 30
0.0
 42
0.0186177114274
  0
VERTEX
  5
A6B
  8
DEFAULT
 10
2.009891185654247
 20
1.269024973912169
 30
0.0
 42
0.0081540330419
  0
VERTEX
  5
A6C
  8
DEFAULT
 10
2.017032447117499
 20
1.263847951180604
 30
0.0
 42
0.0018542080299
  0
VERTEX
  5
A6D
  8
DEFAULT
 10
2.028735849674771
 20
1.255740911705011
 30
0.0
 42
0.0213410825659
  0
VERTEX
  5
A6E
  8
DEFAULT
 10
2.0499848738984
 20
1.242190051005043
 30
0.0
 42
0.0189199825438
  0
VERTEX
  5
A6F
  8
DEFAULT
 10
2.0542030030627
 20
1.239870817364675
 30
0.0
 42
0.0233839304885
  0
VERTEX
  5
A70
  8
DEFAULT
 10
2.062377837196012
 20
1.236006854066192
 30
0.0
 42
0.0833444486298
  0
VERTEX
  5
A71
  8
DEFAULT
 10
2.077718266389386
 20
1.232204019450738
 30
0.0
 42
0.0784719615848
  0
VERTEX
  5
A72
  8
DEFAULT
 10
2.089431762395214
 20
1.2333465874955
 30
0.0
  0
VERTEX
  5
A73
  8
DEFAULT
 10
2.090497116729006
 20
1.233624068819795
 30
0.0
 42
0.0549360033006
  0
VERTEX
  5
A74
  8
DEFAULT
 10
2.106199021396735
 20
1.240164031555679
 30
0.0
 42
0.0157756971088
  0
SEQEND
  5
9DF
  8
DEFAULT
  0
POLYLINE
  5
208
  8
DEFAULT
 66
     1
 10
0.0
 20
0.0
 30
0.0
 70
     1
  0
VERTEX
  5
A76
  8
DEFAULT
 10
1.927664361374478
 20
1.414035474967217
 30
0.0
  0
VERTEX
  5
A77
  8
DEFAULT
 10
1.92791041248293
 20
1.424968555700961
 30
0.0
  0
VERTEX
  5
A78
  8
DEFAULT
 10
1.927967459284466
 20
1.427539268098272
 30
0.0
  0
VERTEX
  5
A79
  8
DEFAULT
 10
1.928023232313902
 20
1.430071648734998
 30
0.0
  0
VERTEX
  5
A7A
  8
DEFAULT
 10
1.928439237655673
 20
1.45001402364072
 30
0.0
  0
VERTEX
  5
A7B
  8
DEFAULT
 10
1.928744030370117
 20
1.467586261560057
 30
0.0
  0
VERTEX
  5
A7C
  8
DEFAULT
 10
1.928920725548799
 20
1.483089566429639
 30
0.0
  0
VERTEX
  5
A7D
  8
DEFAULT
 10
1.928951987573295
 20
1.496783841738959
 30
0.0
  0
VERTEX
  5
A7E
  8
DEFAULT
 10
1.928909239408622
 20
1.502834823017161
 30
0.0
  0
VERTEX
  5
A7F
  8
DEFAULT
 10
1.928688732227787
 20
1.514229658373481
 30
0.0
  0
VERTEX
  5
A80
  8
DEFAULT
 10
1.928512256894047
 20
1.519262386619076
 30
0.0
  0
VERTEX
  5
A81
  8
DEFAULT
 10
1.927988037307165
 20
1.528731597893989
 30
0.0
 42
0.0061177311596
  0
VERTEX
  5
A82
  8
DEFAULT
 10
1.927224305511913
 20
1.537057263206444
 30
0.0
 42
0.0332101455191
  0
VERTEX
  5
A83
  8
DEFAULT
 10
1.924625677332176
 20
1.551535679370618
 30
0.0
 42
0.0622429933564
  0
VERTEX
  5
A84
  8
DEFAULT
 10
1.920590778348595
 20
1.561880767733018
 30
0.0
 42
0.1185295760928
  0
VERTEX
  5
A85
  8
DEFAULT
 10
1.90934079935942
 20
1.573951891928137
 30
0.0
 42
0.0223545771107
  0
VERTEX
  5
A86
  8
DEFAULT
 10
1.90230741624898
 20
1.578270476742469
 30
0.0
  0
VERTEX
  5
A87
  8
DEFAULT
 10
1.90049581799129
 20
1.579263595152045
 30
0.0
  0
VERTEX
  5
A88
  8
DEFAULT
 10
1.897762432064127
 20
1.58071714154848
 30
0.0
  0
VERTEX
  5
A89
  8
DEFAULT
 10
1.895017033385034
 20
1.582145621904192
 30
0.0
  0
VERTEX
  5
A8A
  8
DEFAULT
 10
1.862479576913029
 20
1.598971374522667
 30
0.0
  0
VERTEX
  5
A8B
  8
DEFAULT
 10
1.862479576913029
 20
1.48523433191895
 30
0.0
  0
VERTEX
  5
A8C
  8
DEFAULT
 10
1.862506757585031
 20
1.467766838597838
 30
0.0
  0
VERTEX
  5
A8D
  8
DEFAULT
 10
1.862513994888597
 20
1.465848421379458
 30
0.0
 42
0.0057369881978
  0
VERTEX
  5
A8E
  8
DEFAULT
 10
1.862835970232336
 20
1.435652651612713
 30
0.0
  0
VERTEX
  5
A8F
  8
DEFAULT
 10
1.863132930327759
 20
1.424235095739014
 30
0.0
 42
0.0096203173066
  0
VERTEX
  5
A90
  8
DEFAULT
 10
1.864162088622683
 20
1.404195193934605
 30
0.0
 42
0.0131631278017
  0
VERTEX
  5
A91
  8
DEFAULT
 10
1.864845108000709
 20
1.396637834796346
 30
0.0
 42
0.0202971952468
  0
VERTEX
  5
A92
  8
DEFAULT
 10
1.866788912918916
 20
1.383467545748765
 30
0.0
 42
0.0396029374642
  0
VERTEX
  5
A93
  8
DEFAULT
 10
1.869332652961524
 20
1.373770775212779
 30
0.0
 42
0.0776329633066
  0
VERTEX
  5
A94
  8
DEFAULT
 10
1.87614309443267
 20
1.360393092577089
 30
0.0
 42
0.051331412
  0
VERTEX
  5
A95
  8
DEFAULT
 10
1.886280499181482
 20
1.349323264849911
 30
0.0
 42
0.0550395938108
  0
VERTEX
  5
A96
  8
DEFAULT
 10
1.900527283119678
 20
1.338585693837854
 30
0.0
 42
0.0566026263567
  0
VERTEX
  5
A97
  8
DEFAULT
 10
1.908893916501952
 20
1.33476091521989
 30
0.0
 42
0.0679565412792
  0
VERTEX
  5
A98
  8
DEFAULT
 10
1.913558541582601
 20
1.33388899937035
 30
0.0
 42
0.2084880683653
  0
VERTEX
  5
A99
  8
DEFAULT
 10
1.918073488694487
 20
1.335343449700399
 30
0.0
 42
0.091588953566
  0
VERTEX
  5
A9A
  8
DEFAULT
 10
1.919352119283353
 20
1.337513539516144
 30
0.0
 42
0.0489506469221
  0
VERTEX
  5
A9B
  8
DEFAULT
 10
1.921884748830972
 20
1.346834977328051
 30
0.0
 42
0.0163171307351
  0
VERTEX
  5
A9C
  8
DEFAULT
 10
1.923295075669746
 20
1.355158657407798
 30
0.0
  0
VERTEX
  5
A9D
  8
DEFAULT
 10
1.92380392583526
 20
1.358815801248633
 30
0.0
  0
VERTEX
  5
A9E
  8
DEFAULT
 10
1.924237437573725
 20
1.362251305432229
 30
0.0
 42
0.0233710887839
  0
SEQEND
  5
A75
  8
DEFAULT
  0
POLYLINE
  5
233
  8
DEFAULT
 66
     1
 10
0.0
 20
0.0
 30
0.0
 70
     1
  0
VERTEX
  5
AA0
  8
DEFAULT
 10
2.176652588631741
 20
1.863875715077763
 30
0.0
 42
0.026888580034
  0
VERTEX
  5
AA1
  8
DEFAULT
 10
2.207729541962784
 20
1.889238632966201
 30
0.0
 42
0.0550534226626
  0
VERTEX
  5
AA2
  8
DEFAULT
 10
2.254215531376851
 20
1.941740645707414
 30
0.0
 42
0.0874024944561
  0
VERTEX
  5
AA3
  8
DEFAULT
 10
2.298254429105012
 20
2.036802890112686
 30
0.0
  0
VERTEX
  5
AA4
  8
DEFAULT
 10
2.299098334460951
 20
2.039977042978193
 30
0.0
 42
0.0339046313802
  0
VERTEX
  5
AA5
  8
DEFAULT
 10
2.308465618642232
 20
2.089957257295564
 30
0.0
  0
VERTEX
  5
AA6
  8
DEFAULT
 10
2.309180001875783
 20
2.096275107615318
 30
0.0
 42
0.0237676286595
  0
VERTEX
  5
AA7
  8
DEFAULT
 10
2.311718348286463
 20
2.140705054355005
 30
0.0
 42
0.0138049362798
  0
VERTEX
  5
AA8
  8
DEFAULT
 10
2.311211639916526
 20
2.169695104941418
 30
0.0
 42
0.0409262881654
  0
VERTEX
  5
AA9
  8
DEFAULT
 10
2.305720820295506
 20
2.212862797446691
 30
0.0
 42
0.0622276501003
  0
VERTEX
  5
AAA
  8
DEFAULT
 10
2.291382625337958
 20
2.253944696801263
 30
0.0
 42
0.030942165204
  0
VERTEX
  5
AAB
  8
DEFAULT
 10
2.27872584721113
 20
2.274956180353459
 30
0.0
 42
0.0130492855498
  0
VERTEX
  5
AAC
  8
DEFAULT
 10
2.277216702331179
 20
2.277174960835936
 30
0.0
  0
VERTEX
  5
AAD
  8
DEFAULT
 10
2.274202718466491
 20
2.281511770890839
 30
0.0
  0
VERTEX
  5
AAE
  8
DEFAULT
 10
2.26822660089835
 20
2.289813453428213
 30
0.0
 42
0.0133982216666
  0
VERTEX
  5
AAF
  8
DEFAULT
 10
2.244678723303887
 20
2.320083712240728
 30
0.0
  0
VERTEX
  5
AB0
  8
DEFAULT
 10
2.240104144012269
 20
2.325640824522173
 30
0.0
 42
0.0037110179628
  0
VERTEX
  5
AB1
  8
DEFAULT
 10
2.231409457341274
 20
2.335966853180241
 30
0.0
  0
VERTEX
  5
AB2
  8
DEFAULT
 10
2.227558050503804
 20
2.340445744866402
 30
0.0
 42
0.0311297373793
  0
VERTEX
  5
AB3
  8
DEFAULT
 10
2.226649559379216
 20
2.341493855249421
 30
0.0
 42
0.0148228202929
  0
VERTEX
  5
AB4
  8
DEFAULT
 10
2.197169351673306
 20
2.373645227009703
 30
0.0
 42
0.0081706095853
  0
VERTEX
  5
AB5
  8
DEFAULT
 10
2.18941206339311
 20
2.381371167626216
 30
0.0
  0
VERTEX
  5
AB6
  8
DEFAULT
 10
2.183428742766814
 20
2.38701915726988
 30
0.0
 42
0.0160669833742
  0
VERTEX
  5
AB7
  8
DEFAULT
 10
2.178809989640364
 20
2.391129474744248
 30
0.0
  0
VERTEX
  5
AB8
  8
DEFAULT
 10
2.17523950706736
 20
2.394104172261692
 30
0.0
 42
0.0259263044168
  0
VERTEX
  5
AB9
  8
DEFAULT
 10
2.172475541431724
 20
2.396241486432208
 30
0.0
 42
0.0219045385017
  0
VERTEX
  5
ABA
  8
DEFAULT
 10
2.170331716419017
 20
2.397764304215305
 30
0.0
 42
0.0333461480611
  0
VERTEX
  5
ABB
  8
DEFAULT
 10
2.16695415244074
 20
2.399804376077292
 30
0.0
 42
0.1026476007663
  0
VERTEX
  5
ABC
  8
DEFAULT
 10
2.163192386209499
 20
2.401004590840911
 30
0.0
 42
-0.0672877202509
  0
VERTEX
  5
ABD
  8
DEFAULT
 10
2.160531426139302
 20
2.401768780909351
 30
0.0
 42
-0.0227828161326
  0
VERTEX
  5
ABE
  8
DEFAULT
 10
2.150871513061297
 20
2.406331730268817
 30
0.0
 42
-0.0086963662664
  0
VERTEX
  5
ABF
  8
DEFAULT
 10
2.134424675842085
 20
2.415201376838415
 30
0.0
  0
VERTEX
  5
AC0
  8
DEFAULT
 10
2.128316701512221
 20
2.418640238550299
 30
0.0
 42
-0.0322021722302
  0
VERTEX
  5
AC1
  8
DEFAULT
 10
2.126981997723699
 20
2.419399067835094
 30
0.0
  0
VERTEX
  5
AC2
  8
DEFAULT
 10
2.116687343659061
 20
2.425328509517259
 30
0.0
  0
VERTEX
  5
AC3
  8
DEFAULT
 10
2.101342979742946
 20
2.434382925722096
 30
0.0
  0
VERTEX
  5
AC4
  8
DEFAULT
 10
2.086095976683841
 20
2.443606109217883
 30
0.0
  0
VERTEX
  5
AC5
  8
DEFAULT
 10
2.080304356046253
 20
2.447042838566712
 30
0.0
 42
0.0112420589072
  0
VERTEX
  5
AC6
  8
DEFAULT
 10
2.074620664527802
 20
2.450245645999332
 30
0.0
 42
0.0190984377817
  0
VERTEX
  5
AC7
  8
DEFAULT
 10
2.029328061403541
 20
2.472623632876069
 30
0.0
 42
0.0277395141932
  0
VERTEX
  5
AC8
  8
DEFAULT
 10
1.887968769776972
 20
2.527017690687873
 30
0.0
 42
-0.0051322741722
  0
VERTEX
  5
AC9
  8
DEFAULT
 10
1.868155979652868
 20
2.533451202206312
 30
0.0
 42
-0.014841022398
  0
VERTEX
  5
ACA
  8
DEFAULT
 10
1.794737574316159
 20
2.560220283078641
 30
0.0
  0
VERTEX
  5
ACB
  8
DEFAULT
 10
1.791332247120013
 20
2.561595805099396
 30
0.0
  0
VERTEX
  5
ACC
  8
DEFAULT
 10
1.787985001370071
 20
2.562961422267606
 30
0.0
 42
-0.0114395958702
  0
VERTEX
  5
ACD
  8
DEFAULT
 10
1.781408210643068
 20
2.56568496418472
 30
0.0
 42
-0.0073853843595
  0
VERTEX
  5
ACE
  8
DEFAULT
 10
1.775057028806515
 20
2.56836772900922
 30
0.0
 42
-0.0087149553789
  0
VERTEX
  5
ACF
  8
DEFAULT
 10
1.76280461775961
 20
2.573698311594234
 30
0.0
  0
VERTEX
  5
AD0
  8
DEFAULT
 10
1.751389017938831
 20
2.57886281349464
 30
0.0
 42
-0.0170837286041
  0
VERTEX
  5
AD1
  8
DEFAULT
 10
1.709348237010519
 20
2.599857033418187
 30
0.0
  0
VERTEX
  5
AD2
  8
DEFAULT
 10
1.701625569100974
 20
2.604119122824685
 30
0.0
 42
-0.0351902734549
  0
VERTEX
  5
AD3
  8
DEFAULT
 10
1.646202033128787
 20
2.640188768118094
 30
0.0
 42
-0.0264369771239
  0
VERTEX
  5
AD4
  8
DEFAULT
 10
1.620936579316126
 20
2.661604109879438
 30
0.0
 42
-0.0139824593209
  0
VERTEX
  5
AD5
  8
DEFAULT
 10
1.609254713698681
 20
2.673353238014969
 30
0.0
 42
-0.0027561391812
  0
VERTEX
  5
AD6
  8
DEFAULT
 10
1.603713017389287
 20
2.679513521834711
 30
0.0
  0
VERTEX
  5
AD7
  8
DEFAULT
 10
1.601026004812521
 20
2.682668174982647
 30
0.0
 42
-0.0379755555468
  0
VERTEX
  5
AD8
  8
DEFAULT
 10
1.600361829357306
 20
2.68346670573758
 30
0.0
 42
-0.0198215490873
  0
VERTEX
  5
AD9
  8
DEFAULT
 10
1.598398523352706
 20
2.685873727486761
 30
0.0
  0
VERTEX
  5
ADA
  8
DEFAULT
 10
1.596168116232466
 20
2.688679570356668
 30
0.0
  0
VERTEX
  5
ADB
  8
DEFAULT
 10
1.591943460433557
 20
2.69419370694202
 30
0.0
 42
-0.0143608604974
  0
VERTEX
  5
ADC
  8
DEFAULT
 10
1.584494492863952
 20
2.704875769630878
 30
0.0
 42
-0.091285987321
  0
VERTEX
  5
ADD
  8
DEFAULT
 10
1.566844752634656
 20
2.746657271048195
 30
0.0
 42
-0.0279915493615
  0
VERTEX
  5
ADE
  8
DEFAULT
 10
1.5630221367805
 20
2.769028857241361
 30
0.0
 42
-0.0160322618886
  0
VERTEX
  5
ADF
  8
DEFAULT
 10
1.562686824683947
 20
2.771845359443815
 30
0.0
 42
-0.0092064736588
  0
VERTEX
  5
AE0
  8
DEFAULT
 10
1.560884721072937
 20
2.791620316908095
 30
0.0
 42
-0.0087471161902
  0
VERTEX
  5
AE1
  8
DEFAULT
 10
1.560281246603542
 20
2.80079611635594
 30
0.0
 42
-0.0135459405487
  0
VERTEX
  5
AE2
  8
DEFAULT
 10
1.559587725936056
 20
2.818526407981926
 30
0.0
 42
-0.0141873201173
  0
VERTEX
  5
AE3
  8
DEFAULT
 10
1.559617387670382
 20
2.82731988093138
 30
0.0
 42
-0.0392339322689
  0
VERTEX
  5
AE4
  8
DEFAULT
 10
1.561081664441863
 20
2.843271574407033
 30
0.0
 42
-0.0628205224369
  0
VERTEX
  5
AE5
  8
DEFAULT
 10
1.563085738522052
 20
2.849895001218079
 30
0.0
 42
-0.1521390223297
  0
VERTEX
  5
AE6
  8
DEFAULT
 10
1.566814499426165
 20
2.854464451313821
 30
0.0
 42
-0.1759558286938
  0
VERTEX
  5
AE7
  8
DEFAULT
 10
1.571417178029308
 20
2.855201317669749
 30
0.0
 42
-0.1031350053145
  0
VERTEX
  5
AE8
  8
DEFAULT
 10
1.578541906036461
 20
2.85200373773917
 30
0.0
 42
-0.0404516995389
  0
VERTEX
  5
AE9
  8
DEFAULT
 10
1.587497167361949
 20
2.844543815599012
 30
0.0
 42
-0.0032114337053
  0
VERTEX
  5
AEA
  8
DEFAULT
 10
1.591607832246677
 20
2.840411528075748
 30
0.0
  0
VERTEX
  5
AEB
  8
DEFAULT
 10
1.595574836883601
 20
2.836143683733993
 30
0.0
 42
0.0906835974248
  0
VERTEX
  5
AEC
  8
DEFAULT
 10
1.618040714046805
 20
2.819168446321447
 30
0.0
 42
0.0581589942986
  0
VERTEX
  5
AED
  8
DEFAULT
 10
1.640912106179567
 20
2.810776217778921
 30
0.0
 42
0.0420772610618
  0
VERTEX
  5
AEE
  8
DEFAULT
 10
1.661903835392985
 20
2.807474487569475
 30
0.0
 42
0.0569964807738
  0
VERTEX
  5
AEF
  8
DEFAULT
 10
1.698976939825268
 20
2.809032592494271
 30
0.0
 42
0.081885646842
  0
VERTEX
  5
AF0
  8
DEFAULT
 10
1.751800025640032
 20
2.826326360142051
 30
0.0
 42
0.0478530191504
  0
VERTEX
  5
AF1
  8
DEFAULT
 10
1.77523158922097
 20
2.841556821357974
 30
0.0
 42
0.0584237584622
  0
VERTEX
  5
AF2
  8
DEFAULT
 10
1.794977614062153
 20
2.861329625061005
 30
0.0
 42
0.0474701088651
  0
VERTEX
  5
AF3
  8
DEFAULT
 10
1.805827162771944
 20
2.877692432205821
 30
0.0
 42
0.0705203976819
  0
VERTEX
  5
AF4
  8
DEFAULT
 10
1.811208082603593
 20
2.892000707484401
 30
0.0
 42
0.092834381625
  0
VERTEX
  5
AF5
  8
DEFAULT
 10
1.8115376731023
 20
2.903616622807529
 30
0.0
 42
0.1695279085519
  0
VERTEX
  5
AF6
  8
DEFAULT
 10
1.803081032917877
 20
2.918530922958021
 30
0.0
 42
0.052754485919
  0
VERTEX
  5
AF7
  8
DEFAULT
 10
1.796144722225782
 20
2.923622391499002
 30
0.0
  0
VERTEX
  5
AF8
  8
DEFAULT
 10
1.794270824843141
 20
2.924681339326935
 30
0.0
 42
0.0194221595843
  0
VERTEX
  5
AF9
  8
DEFAULT
 10
1.788431746518255
 20
2.927437998951818
 30
0.0
 42
0.064867216751
  0
VERTEX
  5
AFA
  8
DEFAULT
 10
1.726371725321885
 20
2.944024247780935
 30
0.0
 42
0.1845468023092
  0
VERTEX
  5
AFB
  8
DEFAULT
 10
1.542708229001905
 20
2.900036065561168
 30
0.0
 42
0.0400350070765
  0
VERTEX
  5
AFC
  8
DEFAULT
 10
1.513131067711827
 20
2.876088649523576
 30
0.0
 42
0.0804599176981
  0
VERTEX
  5
AFD
  8
DEFAULT
 10
1.472783471405448
 20
2.82323341801632
 30
0.0
 42
0.131810036662
  0
VERTEX
  5
AFE
  8
DEFAULT
 10
1.450682113172903
 20
2.726712174453046
 30
0.0
 42
0.0591970474887
  0
VERTEX
  5
AFF
  8
DEFAULT
 10
1.458314673926551
 20
2.677492965892749
 30
0.0
 42
0.0516226640583
  0
VERTEX
  5
B00
  8
DEFAULT
 10
1.47648475710664
 20
2.631117667689614
 30
0.0
  0
VERTEX
  5
B01
  8
DEFAULT
 10
1.47973559564698
 20
2.624882362954815
 30
0.0
 42
0.0410783780434
  0
VERTEX
  5
B02
  8
DEFAULT
 10
1.509455837522809
 20
2.578250549635936
 30
0.0
 42
0.0395649095606
  0
VERTEX
  5
B03
  8
DEFAULT
 10
1.541661970565619
 20
2.542449919042203
 30
0.0
 42
0.0269544180789
  0
VERTEX
  5
B04
  8
DEFAULT
 10
1.57352027111995
 20
2.515052273212278
 30
0.0
 42
0.0048674003931
  0
VERTEX
  5
B05
  8
DEFAULT
 10
1.58819909120309
 20
2.50401813622728
 30
0.0
 42
0.0115198095906
  0
VERTEX
  5
B06
  8
DEFAULT
 10
1.595200834960147
 20
2.49900998772854
 30
0.0
 42
0.0183220084716
  0
VERTEX
  5
B07
  8
DEFAULT
 10
1.651284135621011
 20
2.462947228196828
 30
0.0
  0
VERTEX
  5
B08
  8
DEFAULT
 10
1.656663399064009
 20
2.459761706064599
 30
0.0
 42
0.0125947305443
  0
VERTEX
  5
B09
  8
DEFAULT
 10
1.741495084534686
 20
2.413007384993318
 30
0.0
 42
0.004888369731
  0
VERTEX
  5
B0A
  8
DEFAULT
 10
1.827858135604523
 20
2.369142965255805
 30
0.0
  0
VERTEX
  5
B0B
  8
DEFAULT
 10
1.863081249295335
 20
2.35160546296298
 30
0.0
  0
VERTEX
  5
B0C
  8
DEFAULT
 10
1.878488338164566
 20
2.343878221981774
 30
0.0
  0
VERTEX
  5
B0D
  8
DEFAULT
 10
1.907334376502421
 20
2.329272781672274
 30
0.0
  0
VERTEX
  5
B0E
  8
DEFAULT
 10
1.932522908294121
 20
2.316304953340651
 30
0.0
  0
VERTEX
  5
B0F
  8
DEFAULT
 10
1.954490717806391
 20
2.304745843292447
 30
0.0
  0
VERTEX
  5
B10
  8
DEFAULT
 10
1.964073495618582
 20
2.29960179844395
 30
0.0
  0
VERTEX
  5
B11
  8
DEFAULT
 10
1.981955752934165
 20
2.289774669054044
 30
0.0
  0
VERTEX
  5
B12
  8
DEFAULT
 10
1.989736956290268
 20
2.285379910016548
 30
0.0
 42
-0.0100104003837
  0
VERTEX
  5
B13
  8
DEFAULT
 10
2.018515439248489
 20
2.26816040295264
 30
0.0
  0
VERTEX
  5
B14
  8
DEFAULT
 10
2.021172584850334
 20
2.266463476152346
 30
0.0
 42
-0.0111576979636
  0
VERTEX
  5
B15
  8
DEFAULT
 10
2.031355195991934
 20
2.259715726589965
 30
0.0
 42
-0.0133472257605
  0
VERTEX
  5
B16
  8
DEFAULT
 10
2.040085647710565
 20
2.253540601005983
 30
0.0
 42
-0.0449250986427
  0
VERTEX
  5
B17
  8
DEFAULT
 10
2.068371275521975
 20
2.2290669059066
 30
0.0
 42
-0.0147020946032
  0
VERTEX
  5
B18
  8
DEFAULT
 10
2.074613724942355
 20
2.222079926006697
 30
0.0
 42
-0.0385607248952
  0
VERTEX
  5
B19
  8
DEFAULT
 10
2.090934089596102
 20
2.199236789858734
 30
0.0
 42
-0.0674737565118
  0
VERTEX
  5
B1A
  8
DEFAULT
 10
2.104712045259011
 20
2.168254172319186
 30
0.0
 42
-0.0495976486071
  0
VERTEX
  5
B1B
  8
DEFAULT
 10
2.110132561847063
 20
2.139285101015857
 30
0.0
 42
-0.0713777541659
  0
VERTEX
  5
B1C
  8
DEFAULT
 10
2.106912991068053
 20
2.088106691530491
 30
0.0
 42
-0.0430316876641
  0
VERTEX
  5
B1D
  8
DEFAULT
 10
2.095886500154212
 20
2.05129999314698
 30
0.0
 42
-0.0584661985697
  0
VERTEX
  5
B1E
  8
DEFAULT
 10
2.068440829102916
 20
2.00073859589896
 30
0.0
 42
-0.0549861395147
  0
VERTEX
  5
B1F
  8
DEFAULT
 10
2.030368251462814
 20
1.957604381912245
 30
0.0
  0
VERTEX
  5
B20
  8
DEFAULT
 10
2.026072146230155
 20
1.953645586614371
 30
0.0
 42
0.0236305611538
  0
VERTEX
  5
B21
  8
DEFAULT
 10
2.010452403292588
 20
1.937915276730104
 30
0.0
 42
0.0427024403461
  0
VERTEX
  5
B22
  8
DEFAULT
 10
1.999841687300941
 20
1.924087069870259
 30
0.0
 42
0.0872190885618
  0
VERTEX
  5
B23
  8
DEFAULT
 10
1.994609034616276
 20
1.911785331185379
 30
0.0
 42
0.2037784376868
  0
VERTEX
  5
B24
  8
DEFAULT
 10
1.998447752945193
 20
1.892555540664119
 30
0.0
 42
0.0409011676435
  0
VERTEX
  5
B25
  8
DEFAULT
 10
2.004514432802438
 20
1.884822593070387
 30
0.0
  0
VERTEX
  5
B26
  8
DEFAULT
 10
2.007975080094303
 20
1.881333087113264
 30
0.0
  0
VERTEX
  5
B27
  8
DEFAULT
 10
2.011609544110506
 20
1.878021048459381
 30
0.0
 42
0.0341518907527
  0
VERTEX
  5
B28
  8
DEFAULT
 10
2.034174732197122
 20
1.861352900416394
 30
0.0
  0
VERTEX
  5
B29
  8
DEFAULT
 10
2.038611391277971
 20
1.858520400077019
 30
0.0
 42
0.0272942906312
  0
VERTEX
  5
B2A
  8
DEFAULT
 10
2.073159416217997
 20
1.83944767447911
 30
0.0
  0
VERTEX
  5
B2B
  8
DEFAULT
 10
2.077637311051554
 20
1.837343646575681
 30
0.0
 42
0.0164690273468
  0
VERTEX
  5
B2C
  8
DEFAULT
 10
2.08557076380935
 20
1.833861638384449
 30
0.0
 42
0.0208988760251
  0
VERTEX
  5
B2D
  8
DEFAULT
 10
2.097757663685228
 20
1.829311879834825
 30
0.0
 42
0.0116219485445
  0
VERTEX
  5
B2E
  8
DEFAULT
 10
2.104032618749282
 20
1.827558910785877
 30
0.0
 42
0.0493107453936
  0
VERTEX
  5
B2F
  8
DEFAULT
 10
2.110480190275013
 20
1.826610708951854
 30
0.0
 42
0.0758908052531
  0
VERTEX
  5
B30
  8
DEFAULT
 10
2.115206200685363
 20
1.827504420691613
 30
0.0
 42
0.0381266004361
  0
VERTEX
  5
B31
  8
DEFAULT
 10
2.123515491579279
 20
1.830862013887092
 30
0.0
 42
0.0184594798808
  0
VERTEX
  5
B32
  8
DEFAULT
 10
2.137381572693631
 20
1.838144443623919
 30
0.0
 42
0.0268317344019
  0
SEQEND
  5
A9F
  8
DEFAULT
  0
POLYLINE
  5
2DD
  8
DEFAULT
 66
     1
 10
0.0
 20
0.0
 30
0.0
 70
     1
  0
VERTEX
  5
B34
  8
DEFAULT
 10
1.954362294650431
 20
2.066630630364548
 30
0.0
  0
VERTEX
  5
B35
  8
DEFAULT
 10
1.95660521555575
 20
2.107946446374069
 30
0.0
  0
VERTEX
  5
B36
  8
DEFAULT
 10
1.956706855411306
 20
2.109903355546336
 30
0.0
  0
VERTEX
  5
B37
  8
DEFAULT
 10
1.957475377165797
 20
2.125306632854236
 30
0.0
 42
0.0055812645425
  0
VERTEX
  5
B38
  8
DEFAULT
 10
1.958081851986767
 20
2.138861790370884
 30
0.0
  0
VERTEX
  5
B39
  8
DEFAULT
 10
1.958524879309245
 20
2.150796899604432
 30
0.0
 42
0.00563621689
  0
VERTEX
  5
B3A
  8
DEFAULT
 10
1.958907734275015
 20
2.171831189321214
 30
0.0
  0
VERTEX
  5
B3B
  8
DEFAULT
 10
1.958882339236201
 20
2.175841802181929
 30
0.0
 42
0.0159098567207
  0
VERTEX
  5
B3C
  8
DEFAULT
 10
1.958230624030621
 20
2.190899864524481
 30
0.0
 42
0.0303569196529
  0
VERTEX
  5
B3D
  8
DEFAULT
 10
1.956613510003055
 20
2.202211560082445
 30
0.0
 42
0.0526965562587
  0
VERTEX
  5
B3E
  8
DEFAULT
 10
1.954020224076506
 20
2.21041910848114
 30
0.0
 42
0.1008451611957
  0
VERTEX
  5
B3F
  8
DEFAULT
 10
1.946633088866385
 20
2.22091801164808
 30
0.0
 42
0.0278843606232
  0
VERTEX
  5
B40
  8
DEFAULT
 10
1.936774089808823
 20
2.229138559673913
 30
0.0
 42
0.0265754118093
  0
VERTEX
  5
B41
  8
DEFAULT
 10
1.920462670564174
 20
2.240612204120726
 30
0.0
 42
0.0198567965249
  0
VERTEX
  5
B42
  8
DEFAULT
 10
1.907344306651815
 20
2.248159556422146
 30
0.0
 42
0.0594116417688
  0
VERTEX
  5
B43
  8
DEFAULT
 10
1.885954990508103
 20
2.256475756003919
 30
0.0
 42
0.0773634427526
  0
VERTEX
  5
B44
  8
DEFAULT
 10
1.874152732364178
 20
2.257699133145826
 30
0.0
 42
0.0840850281149
  0
VERTEX
  5
B45
  8
DEFAULT
 10
1.868232927379627
 20
2.256432088634856
 30
0.0
 42
0.1205665591675
  0
VERTEX
  5
B46
  8
DEFAULT
 10
1.863277307923503
 20
2.252952086999282
 30
0.0
 42
0.0847959404602
  0
VERTEX
  5
B47
  8
DEFAULT
 10
1.862352699585757
 20
2.250709062934471
 30
0.0
 42
0.0080189335759
  0
VERTEX
  5
B48
  8
DEFAULT
 10
1.861864363456716
 20
2.248390035564921
 30
0.0
 42
0.014734170447
  0
VERTEX
  5
B49
  8
DEFAULT
 10
1.861233887899738
 20
2.243774147642087
 30
0.0
  0
VERTEX
  5
B4A
  8
DEFAULT
 10
1.860814747093016
 20
2.239282872039244
 30
0.0
 42
0.0155048726146
  0
VERTEX
  5
B4B
  8
DEFAULT
 10
1.859560177052747
 20
2.204375703752973
 30
0.0
  0
VERTEX
  5
B4C
  8
DEFAULT
 10
1.859491030162702
 20
2.191279242812238
 30
0.0
  0
VERTEX
  5
B4D
  8
DEFAULT
 10
1.859501039489409
 20
2.185547291959697
 30
0.0
  0
VERTEX
  5
B4E
  8
DEFAULT
 10
1.859715879691211
 20
2.164063426467019
 30
0.0
 42
0.0032921661036
  0
VERTEX
  5
B4F
  8
DEFAULT
 10
1.86003365931801
 20
2.147952096761444
 30
0.0
  0
VERTEX
  5
B50
  8
DEFAULT
 10
1.860183573791304
 20
2.141908185879713
 30
0.0
 42
0.005822612604
  0
VERTEX
  5
B51
  8
DEFAULT
 10
1.860830211316228
 20
2.120765887290208
 30
0.0
  0
VERTEX
  5
B52
  8
DEFAULT
 10
1.861657596540009
 20
2.09963174540874
 30
0.0
  0
VERTEX
  5
B53
  8
DEFAULT
 10
1.862557137872614
 20
2.079100978555814
 30
0.0
  0
VERTEX
  5
B54
  8
DEFAULT
 10
1.863379226610115
 20
2.06107394882123
 30
0.0
  0
VERTEX
  5
B55
  8
DEFAULT
 10
1.864152650156796
 20
2.04523673175346
 30
0.0
  0
VERTEX
  5
B56
  8
DEFAULT
 10
1.864242153184591
 20
2.043494478657865
 30
0.0
  0
VERTEX
  5
B57
  8
DEFAULT
 10
1.864331371938672
 20
2.041778532123542
 30
0.0
  0
VERTEX
  5
B58
  8
DEFAULT
 10
1.864420350503176
 20
2.040088372219299
 30
0.0
  0
VERTEX
  5
B59
  8
DEFAULT
 10
1.865167736602778
 20
2.026782832512306
 30
0.0
 42
0.0015222860719
  0
VERTEX
  5
B5A
  8
DEFAULT
 10
1.865921639702978
 20
2.015077205758169
 30
0.0
 42
0.007835797872
  0
VERTEX
  5
B5B
  8
DEFAULT
 10
1.867653358176667
 20
1.994486084228214
 30
0.0
  0
VERTEX
  5
B5C
  8
DEFAULT
 10
1.868080418901525
 20
1.990570367817211
 30
0.0
 42
0.0181743872375
  0
VERTEX
  5
B5D
  8
DEFAULT
 10
1.870215954506456
 20
1.975910787918219
 30
0.0
 42
0.0314084518705
  0
VERTEX
  5
B5E
  8
DEFAULT
 10
1.872871774075452
 20
1.964975622268404
 30
0.0
 42
0.041145915926
  0
VERTEX
  5
B5F
  8
DEFAULT
 10
1.876111193877145
 20
1.957125459917313
 30
0.0
 42
0.1064756883103
  0
VERTEX
  5
B60
  8
DEFAULT
 10
1.884271758157789
 20
1.947431953865075
 30
0.0
 42
0.0293400595474
  0
VERTEX
  5
B61
  8
DEFAULT
 10
1.886836568168153
 20
1.945562607879989
 30
0.0
 42
0.0187062245804
  0
VERTEX
  5
B62
  8
DEFAULT
 10
1.890869190842354
 20
1.943046296595555
 30
0.0
 42
0.0198383629622
  0
VERTEX
  5
B63
  8
DEFAULT
 10
1.895017033385034
 20
1.9407194085843
 30
0.0
  0
VERTEX
  5
B64
  8
DEFAULT
 10
1.901106864923557
 20
1.937425659357172
 30
0.0
  0
VERTEX
  5
B65
  8
DEFAULT
 10
1.90722572945772
 20
1.93424624213787
 30
0.0
 42
0.0392282247562
  0
VERTEX
  5
B66
  8
DEFAULT
 10
1.919553368953319
 20
1.928956981592549
 30
0.0
 42
0.0388502595163
  0
VERTEX
  5
B67
  8
DEFAULT
 10
1.925321597790837
 20
1.927663998045631
 30
0.0
 42
0.0896071847026
  0
VERTEX
  5
B68
  8
DEFAULT
 10
1.930688690337839
 20
1.927953514560144
 30
0.0
 42
0.1882173096074
  0
VERTEX
  5
B69
  8
DEFAULT
 10
1.93824903544544
 20
1.933701313051679
 30
0.0
 42
0.061083315817
  0
VERTEX
  5
B6A
  8
DEFAULT
 10
1.941887040322724
 20
1.94136490579714
 30
0.0
 42
0.024301339182
  0
VERTEX
  5
B6B
  8
DEFAULT
 10
1.944040210563567
 20
1.948965986981084
 30
0.0
 42
0.0172007918639
  0
VERTEX
  5
B6C
  8
DEFAULT
 10
1.946660941225959
 20
1.963516035984019
 30
0.0
 42
0.0029950644066
  0
VERTEX
  5
B6D
  8
DEFAULT
 10
1.948221102433652
 20
1.976350316696778
 30
0.0
  0
VERTEX
  5
B6E
  8
DEFAULT
 10
1.949296697265576
 20
1.987610959512172
 30
0.0
 42
0.0054049970073
  0
VERTEX
  5
B6F
  8
DEFAULT
 10
1.950820507005255
 20
2.007345852851984
 30
0.0
  0
VERTEX
  5
B70
  8
DEFAULT
 10
1.951319982041636
 20
2.01475492537261
 30
0.0
  0
VERTEX
  5
B71
  8
DEFAULT
 10
1.952136110337797
 20
2.027721746570884
 30
0.0
  0
SEQEND
  5
B33
  8
DEFAULT
  0
POLYLINE
  5
31D
  8
DEFAULT
 66
     1
 10
0.0
 20
0.0
 30
0.0
 70
     1
  0
VERTEX
  5
B73
  8
DEFAULT
 10
2.20212429582222
 20
2.456667369274786
 30
0.0
 42
0.0355902169299
  0
VERTEX
  5
B74
  8
DEFAULT
 10
2.240560296760911
 20
2.480369469215911
 30
0.0
 42
0.0499359289008
  0
VERTEX
  5
B75
  8
DEFAULT
 10
2.299535240846121
 20
2.532756274515685
 30
0.0
 42
0.0683507054376
  0
VERTEX
  5
B76
  8
DEFAULT
 10
2.367414341893923
 20
2.629556146931927
 30
0.0
 42
0.0410115536237
  0
VERTEX
  5
B77
  8
DEFAULT
 10
2.390106143029199
 20
2.684438604204606
 30
0.0
  0
VERTEX
  5
B78
  8
DEFAULT
 10
2.391204018821592
 20
2.687993385910792
 30
0.0
 42
0.0127771131732
  0
VERTEX
  5
B79
  8
DEFAULT
 10
2.394928669436985
 20
2.701429972736574
 30
0.0
 42
0.0434752651383
  0
VERTEX
  5
B7A
  8
DEFAULT
 10
2.401874288516703
 20
2.742647749291814
 30
0.0
 42
0.011896553538
  0
VERTEX
  5
B7B
  8
DEFAULT
 10
2.403718771975431
 20
2.771737787643447
 30
0.0
 42
0.0345034361636
  0
VERTEX
  5
B7C
  8
DEFAULT
 10
2.403760519828975
 20
2.773116710559383
 30
0.0
 42
0.0375391196835
  0
VERTEX
  5
B7D
  8
DEFAULT
 10
2.402970466810089
 20
2.794778107532028
 30
0.0
 42
0.055455925895
  0
VERTEX
  5
B7E
  8
DEFAULT
 10
2.399099785201501
 20
2.810567101968392
 30
0.0
 42
0.0431271017317
  0
VERTEX
  5
B7F
  8
DEFAULT
 10
2.393869947526132
 20
2.821538301717621
 30
0.0
 42
0.0263917548815
  0
VERTEX
  5
B80
  8
DEFAULT
 10
2.383776071234815
 20
2.836692398730539
 30
0.0
  0
VERTEX
  5
B81
  8
DEFAULT
 10
2.37827244959449
 20
2.843945123234079
 30
0.0
  0
VERTEX
  5
B82
  8
DEFAULT
 10
2.372646312795686
 20
2.851105924721821
 30
0.0
 42
0.0424838430073
  0
VERTEX
  5
B83
  8
DEFAULT
 10
2.335210178763206
 20
2.891360139448507
 30
0.0
 42
0.0435367075388
  0
VERTEX
  5
B84
  8
DEFAULT
 10
2.302163513798223
 20
2.916217423437028
 30
0.0
 42
0.0776915802487
  0
VERTEX
  5
B85
  8
DEFAULT
 10
2.245158721129868
 20
2.940281235040752
 30
0.0
  0
VERTEX
  5
B86
  8
DEFAULT
 10
2.243275184467814
 20
2.940748726082823
 30
0.0
 42
0.0316036622389
  0
VERTEX
  5
B87
  8
DEFAULT
 10
2.213697093290446
 20
2.945915547217711
 30
0.0
 42
0.0134314552905
  0
VERTEX
  5
B88
  8
DEFAULT
 10
2.206222817585044
 20
2.946639151821889
 30
0.0
  0
VERTEX
  5
B89
  8
DEFAULT
 10
2.200606902820652
 20
2.947045820332763
 30
0.0
  0
VERTEX
  5
B8A
  8
DEFAULT
 10
2.196387663398582
 20
2.947277662266066
 30
0.0
 42
0.0155655532895
  0
VERTEX
  5
B8B
  8
DEFAULT
 10
2.183722104058325
 20
2.947616965719971
 30
0.0
 42
0.0261585715514
  0
VERTEX
  5
B8C
  8
DEFAULT
 10
2.146717363672536
 20
2.945880209821691
 30
0.0
  0
VERTEX
  5
B8D
  8
DEFAULT
 10
2.139744164451231
 20
2.945073545929413
 30
0.0
  0
VERTEX
  5
B8E
  8
DEFAULT
 10
2.133214765097509
 20
2.944163195820553
 30
0.0
 42
0.0269516150369
  0
VERTEX
  5
B8F
  8
DEFAULT
 10
2.108939651860017
 20
2.939267965106224
 30
0.0
 42
0.0200933959114
  0
VERTEX
  5
B90
  8
DEFAULT
 10
2.104412879799417
 20
2.938045208971011
 30
0.0
 42
0.0220703191006
  0
VERTEX
  5
B91
  8
DEFAULT
 10
2.100190101775799
 20
2.936798831149661
 30
0.0
 42
0.007697078792
  0
VERTEX
  5
B92
  8
DEFAULT
 10
2.092347727402222
 20
2.934177927984296
 30
0.0
 42
0.0318778285699
  0
VERTEX
  5
B93
  8
DEFAULT
 10
2.078965285254867
 20
2.928539181859069
 30
0.0
 42
0.0351826184775
  0
VERTEX
  5
B94
  8
DEFAULT
 10
2.069391228411257
 20
2.923184220842413
 30
0.0
 42
0.0707409448404
  0
VERTEX
  5
B95
  8
DEFAULT
 10
2.056713616816535
 20
2.912621751503081
 30
0.0
 42
0.0594090946926
  0
VERTEX
  5
B96
  8
DEFAULT
 10
2.051912688060126
 20
2.905820003184614
 30
0.0
 42
0.0755727934598
  0
VERTEX
  5
B97
  8
DEFAULT
 10
2.049075424115966
 20
2.897991087227011
 30
0.0
 42
0.0711544957278
  0
VERTEX
  5
B98
  8
DEFAULT
 10
2.048973247368475
 20
2.894097104862454
 30
0.0
 42
0.0582066052541
  0
VERTEX
  5
B99
  8
DEFAULT
 10
2.05057916024703
 20
2.887055629422452
 30
0.0
 42
0.0392692720394
  0
VERTEX
  5
B9A
  8
DEFAULT
 10
2.05557169039899
 20
2.87550162711307
 30
0.0
 42
0.0599295533602
  0
VERTEX
  5
B9B
  8
DEFAULT
 10
2.077156531807998
 20
2.844653211622929
 30
0.0
 42
0.0078017193559
  0
VERTEX
  5
B9C
  8
DEFAULT
 10
2.079425204513678
 20
2.842135292124249
 30
0.0
  0
VERTEX
  5
B9D
  8
DEFAULT
 10
2.083898479418348
 20
2.837322526071481
 30
0.0
 42
0.0140339489403
  0
VERTEX
  5
B9E
  8
DEFAULT
 10
2.092717379161271
 20
2.828699320446231
 30
0.0
 42
0.0368693100298
  0
VERTEX
  5
B9F
  8
DEFAULT
 10
2.101146571927515
 20
2.821956605358038
 30
0.0
 42
0.0674983921127
  0
VERTEX
  5
BA0
  8
DEFAULT
 10
2.117844054144244
 20
2.813316513304282
 30
0.0
 42
0.0323084831565
  0
VERTEX
  5
BA1
  8
DEFAULT
 10
2.131390954134813
 20
2.809583495165661
 30
0.0
 42
0.02446278874
  0
VERTEX
  5
BA2
  8
DEFAULT
 10
2.152220697951427
 20
2.806490309459324
 30
0.0
 42
0.007411462764
  0
VERTEX
  5
BA3
  8
DEFAULT
 10
2.162703856518001
 20
2.805494596957303
 30
0.0
  0
VERTEX
  5
BA4
  8
DEFAULT
 10
2.173203184062985
 20
2.804674851705976
 30
0.0
  0
VERTEX
  5
BA5
  8
DEFAULT
 10
2.186192002461692
 20
2.803812483655852
 30
0.0
 42
0.0163304280609
  0
VERTEX
  5
BA6
  8
DEFAULT
 10
2.189049002965653
 20
2.803651007434739
 30
0.0
 42
0.019734471099
  0
VERTEX
  5
BA7
  8
DEFAULT
 10
2.211216533703001
 20
2.803114577240249
 30
0.0
 42
0.0166443584021
  0
VERTEX
  5
BA8
  8
DEFAULT
 10
2.219573570532246
 20
2.803517263842199
 30
0.0
 42
0.0492063939208
  0
VERTEX
  5
BA9
  8
DEFAULT
 10
2.234029949876261
 20
2.805873028840589
 30
0.0
 42
0.0836538980271
  0
VERTEX
  5
BAA
  8
DEFAULT
 10
2.253916951557558
 20
2.814973219338366
 30
0.0
 42
0.0236735022433
  0
VERTEX
  5
BAB
  8
DEFAULT
 10
2.258420364751349
 20
2.818077537908601
 30
0.0
 42
0.0135731628179
  0
VERTEX
  5
BAC
  8
DEFAULT
 10
2.27128186372475
 20
2.828269327737394
 30
0.0
 42
-0.0209404771714
  0
VERTEX
  5
BAD
  8
DEFAULT
 10
2.273646421771573
 20
2.830245244993237
 30
0.0
 42
-0.0143398944177
  0
VERTEX
  5
BAE
  8
DEFAULT
 10
2.291819004941891
 20
2.844518553810704
 30
0.0
  0
VERTEX
  5
BAF
  8
DEFAULT
 10
2.296513122284566
 20
2.847907572782647
 30
0.0
  0
VERTEX
  5
BB0
  8
DEFAULT
 10
2.30009190001279
 20
2.850376381058921
 30
0.0
  0
VERTEX
  5
BB1
  8
DEFAULT
 10
2.302817571423978
 20
2.852167880513849
 30
0.0
 42
-0.0205769762478
  0
VERTEX
  5
BB2
  8
DEFAULT
 10
2.307018048934107
 20
2.854695787436133
 30
0.0
  0
VERTEX
  5
BB3
  8
DEFAULT
 10
2.309211001908518
 20
2.855810622469736
 30
0.0
 42
-0.0867166975739
  0
VERTEX
  5
BB4
  8
DEFAULT
 10
2.311563244598326
 20
2.856528827728818
 30
0.0
 42
-0.2854381757272999
  0
VERTEX
  5
BB5
  8
DEFAULT
 10
2.313158667327091
 20
2.855297357069654
 30
0.0
 42
-0.0758733450446
  0
VERTEX
  5
BB6
  8
DEFAULT
 10
2.31412374305101
 20
2.851784119285971
 30
0.0
 42
-0.0388737664672
  0
VERTEX
  5
BB7
  8
DEFAULT
 10
2.314437862822348
 20
2.848294337911733
 30
0.0
  0
VERTEX
  5
BB8
  8
DEFAULT
 10
2.314507291767164
 20
2.844905752353108
 30
0.0
 42
-0.0242802621916
  0
VERTEX
  5
BB9
  8
DEFAULT
 10
2.314443376253741
 20
2.841628339911798
 30
0.0
 42
-0.0112978273054
  0
VERTEX
  5
BBA
  8
DEFAULT
 10
2.313508764185521
 20
2.828962346784954
 30
0.0
  0
VERTEX
  5
BBB
  8
DEFAULT
 10
2.312880019033482
 20
2.823443679531544
 30
0.0
 42
-0.0251483232612
  0
VERTEX
  5
BBC
  8
DEFAULT
 10
2.305664188845186
 20
2.782414273029321
 30
0.0
 42
-0.0107727057493
  0
VERTEX
  5
BBD
  8
DEFAULT
 10
2.303232289378779
 20
2.772270747693514
 30
0.0
 42
-0.0169931052141
  0
VERTEX
  5
BBE
  8
DEFAULT
 10
2.29894510514059
 20
2.757222614267996
 30
0.0
  0
VERTEX
  5
BBF
  8
DEFAULT
 10
2.298335493141303
 20
2.755361995199209
 30
0.0
 42
-0.0358498733848
  0
VERTEX
  5
BC0
  8
DEFAULT
 10
2.293255821341598
 20
2.742647749291814
 30
0.0
 42
-0.0367639441289
  0
VERTEX
  5
BC1
  8
DEFAULT
 10
2.27368244820199
 20
2.710234118365693
 30
0.0
 42
-0.0226079926757
  0
VERTEX
  5
BC2
  8
DEFAULT
 10
2.253392223821033
 20
2.684095323183377
 30
0.0
 42
-0.0320080232304
  0
VERTEX
  5
BC3
  8
DEFAULT
 10
2.212954271427005
 20
2.64271946952192
 30
0.0
 42
-0.0449797104499
  0
VERTEX
  5
BC4
  8
DEFAULT
 10
2.143575317356596
 20
2.590653917218856
 30
0.0
 42
-0.0246875693142
  0
VERTEX
  5
BC5
  8
DEFAULT
 10
2.105498386284349
 20
2.56973235454483
 30
0.0
 42
-0.034917058288
  0
VERTEX
  5
BC6
  8
DEFAULT
 10
2.06524317739147
 20
2.553396961976208
 30
0.0
 42
0.0277165159996
  0
VERTEX
  5
BC7
  8
DEFAULT
 10
2.048655639384363
 20
2.547065048352367
 30
0.0
 42
0.0236423798874
  0
VERTEX
  5
BC8
  8
DEFAULT
 10
2.04495021990231
 20
2.545268670624987
 30
0.0
 42
0.0304322113504
  0
VERTEX
  5
BC9
  8
DEFAULT
 10
2.038110244887663
 20
2.541206238101014
 30
0.0
 42
0.0510057278126
  0
VERTEX
  5
BCA
  8
DEFAULT
 10
2.03256647697594
 20
2.5363876904672
 30
0.0
 42
0.101497975015
  0
VERTEX
  5
BCB
  8
DEFAULT
 10
2.029210590785953
 20
2.530772966493892
 30
0.0
 42
0.2057297413242
  0
VERTEX
  5
BCC
  8
DEFAULT
 10
2.030498183281097
 20
2.519631381644623
 30
0.0
 42
0.0710275749131
  0
VERTEX
  5
BCD
  8
DEFAULT
 10
2.036008200776944
 20
2.512007007930392
 30
0.0
  0
VERTEX
  5
BCE
  8
DEFAULT
 10
2.038880747413293
 20
2.509092164823042
 30
0.0
 42
0.033839486884
  0
VERTEX
  5
BCF
  8
DEFAULT
 10
2.050791555662641
 20
2.499433534215251
 30
0.0
 42
0.0206518394537
  0
VERTEX
  5
BD0
  8
DEFAULT
 10
2.07014273119752
 20
2.487042867578318
 30
0.0
  0
VERTEX
  5
BD1
  8
DEFAULT
 10
2.080131746178749
 20
2.481362864553212
 30
0.0
  0
VERTEX
  5
BD2
  8
DEFAULT
 10
2.090241695356978
 20
2.475904722919387
 30
0.0
  0
VERTEX
  5
BD3
  8
DEFAULT
 10
2.10331235274213
 20
2.469068067582742
 30
0.0
  0
VERTEX
  5
BD4
  8
DEFAULT
 10
2.114905036312757
 20
2.463184510334329
 30
0.0
  0
VERTEX
  5
BD5
  8
DEFAULT
 10
2.120047702603539
 20
2.460662540236195
 30
0.0
  0
VERTEX
  5
BD6
  8
DEFAULT
 10
2.124910093928075
 20
2.458348283347075
 30
0.0
 42
0.0215811716843
  0
VERTEX
  5
BD7
  8
DEFAULT
 10
2.143564398282384
 20
2.450506084411913
 30
0.0
  0
VERTEX
  5
BD8
  8
DEFAULT
 10
2.147192210503802
 20
2.449274975120244
 30
0.0
 42
0.0469049844977
  0
VERTEX
  5
BD9
  8
DEFAULT
 10
2.161186669233252
 20
2.446061879617503
 30
0.0
 42
0.1110612687797
  0
VERTEX
  5
BDA
  8
DEFAULT
 10
2.182499749683893
 20
2.448104291163852
 30
0.0
 42
0.0265436422782
  0
VERTEX
  5
BDB
  8
DEFAULT
 10
2.192496663826696
 20
2.451963470770397
 30
0.0
 42
0.0113721192686
  0
SEQEND
  5
B72
  8
DEFAULT
  0
POLYLINE
  5
3A1
  8
DEFAULT
 66
     1
 10
0.0
 20
0.0
 30
0.0
 70
     1
  0
VERTEX
  5
BDD
  8
DEFAULT
 10
1.9724821792555
 20
2.555557461045386
 30
0.0
  0
VERTEX
  5
BDE
  8
DEFAULT
 10
1.973683909426216
 20
2.567122041950158
 30
0.0
  0
VERTEX
  5
BDF
  8
DEFAULT
 10
1.974197813309589
 20
2.572732248258009
 30
0.0
 42
0.0070664547287
  0
VERTEX
  5
BE0
  8
DEFAULT
 10
1.975936982097771
 20
2.594838122425149
 30
0.0
 42
0.0299169604117
  0
VERTEX
  5
BE1
  8
DEFAULT
 10
1.976028724758041
 20
2.596135880185979
 30
0.0
 42
0.0319650402856
  0
VERTEX
  5
BE2
  8
DEFAULT
 10
1.97611925997178
 20
2.597428997504547
 30
0.0
  0
VERTEX
  5
BE3
  8
DEFAULT
 10
1.977463632176327
 20
2.618010157683352
 30
0.0
  0
VERTEX
  5
BE4
  8
DEFAULT
 10
1.979674227839944
 20
2.656619894776443
 30
0.0
  0
VERTEX
  5
BE5
  8
DEFAULT
 10
1.980566772984269
 20
2.673517434667992
 30
0.0
  0
VERTEX
  5
BE6
  8
DEFAULT
 10
1.983700918564177
 20
2.736883922340851
 30
0.0
  0
VERTEX
  5
BE7
  8
DEFAULT
 10
1.984822456900867
 20
2.760649980926831
 30
0.0
  0
VERTEX
  5
BE8
  8
DEFAULT
 10
1.988626845916294
 20
2.843836090604704
 30
0.0
  0
VERTEX
  5
BE9
  8
DEFAULT
 10
1.99232622812423
 20
2.927026643679822
 30
0.0
  0
VERTEX
  5
BEA
  8
DEFAULT
 10
1.993147283114147
 20
2.945473595418607
 30
0.0
  0
VERTEX
  5
BEB
  8
DEFAULT
 10
1.99636643809854
 20
3.014631900410139
 30
0.0
  0
VERTEX
  5
BEC
  8
DEFAULT
 10
1.997634940893916
 20
3.040564237381114
 30
0.0
  0
VERTEX
  5
BED
  8
DEFAULT
 10
1.999948872619384
 20
3.085939852464945
 30
0.0
  0
VERTEX
  5
BEE
  8
DEFAULT
 10
2.001781116965446
 20
3.119968812583143
 30
0.0
  0
VERTEX
  5
BEF
  8
DEFAULT
 10
2.002495726904744
 20
3.132728250058253
 30
0.0
 42
-0.0030247214795
  0
VERTEX
  5
BF0
  8
DEFAULT
 10
2.003793973141611
 20
3.15505556236812
 30
0.0
  0
VERTEX
  5
BF1
  8
DEFAULT
 10
2.005917357493148
 20
3.188533295704851
 30
0.0
  0
VERTEX
  5
BF2
  8
DEFAULT
 10
2.007142180847977
 20
3.205265411888409
 30
0.0
  0
VERTEX
  5
BF3
  8
DEFAULT
 10
2.00748743450611
 20
3.209447286655387
 30
0.0
  0
VERTEX
  5
BF4
  8
DEFAULT
 10
2.007765737882345
 20
3.212582341782332
 30
0.0
 42
-0.0034371858914
  0
VERTEX
  5
BF5
  8
DEFAULT
 10
2.008238170794687
 20
3.21727816033815
 30
0.0
 42
-0.0324069660426
  0
VERTEX
  5
BF6
  8
DEFAULT
 10
2.008957294101454
 20
3.221942971437995
 30
0.0
 42
0.0415608921691
  0
VERTEX
  5
BF7
  8
DEFAULT
 10
2.010208248633323
 20
3.230686375429892
 30
0.0
  0
VERTEX
  5
BF8
  8
DEFAULT
 10
2.010874173962392
 20
3.238931326638236
 30
0.0
  0
VERTEX
  5
BF9
  8
DEFAULT
 10
2.011807404447995
 20
3.254413296025606
 30
0.0
  0
VERTEX
  5
BFA
  8
DEFAULT
 10
2.01214591463502
 20
3.261193605712859
 30
0.0
  0
VERTEX
  5
BFB
  8
DEFAULT
 10
2.013192467249037
 20
3.28661887730346
 30
0.0
 42
0.003517445292
  0
VERTEX
  5
BFC
  8
DEFAULT
 10
2.014327594382134
 20
3.324772174102822
 30
0.0
  0
VERTEX
  5
BFD
  8
DEFAULT
 10
2.01438505736454
 20
3.32715834863218
 30
0.0
 42
0.0024232856977
  0
VERTEX
  5
BFE
  8
DEFAULT
 10
2.015077587254273
 20
3.362938564909959
 30
0.0
  0
VERTEX
  5
BFF
  8
DEFAULT
 10
2.017000242734283
 20
3.491008979137625
 30
0.0
  0
VERTEX
  5
C00
  8
DEFAULT
 10
1.942697505807456
 20
3.498485776250741
 30
0.0
  0
VERTEX
  5
C01
  8
DEFAULT
 10
1.923332050424723
 20
3.500308067830688
 30
0.0
 42
0.005016279121
  0
VERTEX
  5
C02
  8
DEFAULT
 10
1.916060624266612
 20
3.500923825960179
 30
0.0
  0
VERTEX
  5
C03
  8
DEFAULT
 10
1.903327619581589
 20
3.501898572927963
 30
0.0
  0
VERTEX
  5
C04
  8
DEFAULT
 10
1.900937301882126
 20
3.502064806607836
 30
0.0
  0
VERTEX
  5
C05
  8
DEFAULT
 10
1.891974415314057
 20
3.502630292712634
 30
0.0
 42
0.0102013495396
  0
VERTEX
  5
C06
  8
DEFAULT
 10
1.878509662942289
 20
3.50323410751637
 30
0.0
  0
VERTEX
  5
C07
  8
DEFAULT
 10
1.871756326015061
 20
3.503318994552576
 30
0.0
 42
0.0266749139977
  0
VERTEX
  5
C08
  8
DEFAULT
 10
1.868373465523481
 20
3.503218174372458
 30
0.0
 42
0.0487994758004
  0
VERTEX
  5
C09
  8
DEFAULT
 10
1.866678109205306
 20
3.503069511933559
 30
0.0
 42
0.0951972271744
  0
VERTEX
  5
C0A
  8
DEFAULT
 10
1.865043015072907
 20
3.502610665835932
 30
0.0
 42
0.0614662763444
  0
VERTEX
  5
C0B
  8
DEFAULT
 10
1.864612911826556
 20
3.499043191209361
 30
0.0
  0
VERTEX
  5
C0C
  8
DEFAULT
 10
1.864235411505239
 20
3.491925673234105
 30
0.0
 42
0.0034023784414
  0
VERTEX
  5
C0D
  8
DEFAULT
 10
1.862602465571777
 20
3.435823960472171
 30
0.0
  0
VERTEX
  5
C0E
  8
DEFAULT
 10
1.86232789882088
 20
3.423547788650268
 30
0.0
  0
VERTEX
  5
C0F
  8
DEFAULT
 10
1.861371727301151
 20
3.375981774843167
 30
0.0
  0
VERTEX
  5
C10
  8
DEFAULT
 10
1.861179232865065
 20
3.36557382635301
 30
0.0
  0
VERTEX
  5
C11
  8
DEFAULT
 10
1.86081931285619
 20
3.345411391208204
 30
0.0
  0
VERTEX
  5
C12
  8
DEFAULT
 10
1.860737191825425
 20
3.340685155899605
 30
0.0
  0
VERTEX
  5
C13
  8
DEFAULT
 10
1.859534933779116
 20
3.266261635233144
 30
0.0
  0
VERTEX
  5
C14
  8
DEFAULT
 10
1.858723329345197
 20
3.210439734476654
 30
0.0
  0
VERTEX
  5
C15
  8
DEFAULT
 10
1.85762008823322
 20
3.126709698253105
 30
0.0
  0
VERTEX
  5
C16
  8
DEFAULT
 10
1.856636210711816
 20
3.042977410974136
 30
0.0
  0
VERTEX
  5
C17
  8
DEFAULT
 10
1.856596013782752
 20
3.039339910382963
 30
0.0
  0
VERTEX
  5
C18
  8
DEFAULT
 10
1.856556335818131
 20
3.03573088391096
 30
0.0
  0
VERTEX
  5
C19
  8
DEFAULT
 10
1.855432729708
 20
2.921218083594824
 30
0.0
  0
VERTEX
  5
C1A
  8
DEFAULT
 10
1.855105959954805
 20
2.878266353887805
 30
0.0
 42
0.0038291772236
  0
VERTEX
  5
C1B
  8
DEFAULT
 10
1.855044193584507
 20
2.86886707884565
 30
0.0
  0
VERTEX
  5
C1C
  8
DEFAULT
 10
1.854845840767962
 20
2.832451981535498
 30
0.0
  0
VERTEX
  5
C1D
  8
DEFAULT
 10
1.854737948487542
 20
2.800584358373157
 30
0.0
  0
VERTEX
  5
C1E
  8
DEFAULT
 10
1.854724387459978
 20
2.793610992476262
 30
0.0
  0
VERTEX
  5
C1F
  8
DEFAULT
 10
1.854715181406021
 20
2.786854853509874
 30
0.0
 42
0.0044949810811
  0
VERTEX
  5
C20
  8
DEFAULT
 10
1.855355053995061
 20
2.6821520102041
 30
0.0
 42
0.0081259314515
  0
VERTEX
  5
C21
  8
DEFAULT
 10
1.856920627512976
 20
2.629716356248515
 30
0.0
  0
VERTEX
  5
C22
  8
DEFAULT
 10
1.857673401043048
 20
2.616568863384494
 30
0.0
  0
VERTEX
  5
C23
  8
DEFAULT
 10
1.858437872247522
 20
2.60670141366931
 30
0.0
  0
VERTEX
  5
C24
  8
DEFAULT
 10
1.858790729206861
 20
2.602995697965477
 30
0.0
 42
0.0194233385828
  0
VERTEX
  5
C25
  8
DEFAULT
 10
1.86052041446071
 20
2.590080854076285
 30
0.0
 42
0.0361632842587
  0
VERTEX
  5
C26
  8
DEFAULT
 10
1.861997606008102
 20
2.583670217085901
 30
0.0
 42
0.0524752915122
  0
VERTEX
  5
C27
  8
DEFAULT
 10
1.863158799528415
 20
2.580557302158022
 30
0.0
 42
0.1346158320373
  0
VERTEX
  5
C28
  8
DEFAULT
 10
1.86516479990633
 20
2.577905496784214
 30
0.0
  0
VERTEX
  5
C29
  8
DEFAULT
 10
1.867801921191367
 20
2.576291656894931
 30
0.0
 42
0.0158733201005
  0
VERTEX
  5
C2A
  8
DEFAULT
 10
1.870412275335682
 20
2.574823827657536
 30
0.0
  0
VERTEX
  5
C2B
  8
DEFAULT
 10
1.875559804319236
 20
2.572155291245919
 30
0.0
 42
0.009627558694
  0
VERTEX
  5
C2C
  8
DEFAULT
 10
1.885397368296966
 20
2.567538986503883
 30
0.0
  0
VERTEX
  5
C2D
  8
DEFAULT
 10
1.894128381712391
 20
2.563769564799364
 30
0.0
  0
VERTEX
  5
C2E
  8
DEFAULT
 10
1.897974833949179
 20
2.562181386333562
 30
0.0
  0
VERTEX
  5
C2F
  8
DEFAULT
 10
1.901593910460686
 20
2.560722443587581
 30
0.0
 42
0.0075962576967
  0
VERTEX
  5
C30
  8
DEFAULT
 10
1.915258037253176
 20
2.555496935441037
 30
0.0
  0
VERTEX
  5
C31
  8
DEFAULT
 10
1.925604568444479
 20
2.551833627485174
 30
0.0
  0
VERTEX
  5
C32
  8
DEFAULT
 10
1.929509252261204
 20
2.550523037115363
 30
0.0
  0
VERTEX
  5
C33
  8
DEFAULT
 10
1.936373340298568
 20
2.548331599679812
 30
0.0
  0
VERTEX
  5
C34
  8
DEFAULT
 10
1.941556703486654
 20
2.546792145587827
 30
0.0
 42
0.0175069640375
  0
VERTEX
  5
C35
  8
DEFAULT
 10
1.949399771904089
 20
2.544733546191808
 30
0.0
 42
0.0375491591984
  0
VERTEX
  5
C36
  8
DEFAULT
 10
1.957380475610527
 20
2.543294201009319
 30
0.0
 42
0.4050832285092
  0
SEQEND
  5
BDC
  8
DEFAULT
  0
POLYLINE
  5
3FD
  8
DEFAULT
 66
     1
 10
0.0
 20
0.0
 30
0.0
 70
     1
  0
VERTEX
  5
C38
  8
DEFAULT
 10
2.476731109927061
 20
2.915957828076582
 30
0.0
 42
0.0123906932581
  0
VERTEX
  5
C39
  8
DEFAULT
 10
2.510265490789017
 20
2.952928638963161
 30
0.0
  0
VERTEX
  5
C3A
  8
DEFAULT
 10
2.518351438655374
 20
2.962438722503582
 30
0.0
  0
VERTEX
  5
C3B
  8
DEFAULT
 10
2.52432070944775
 20
2.969654317460993
 30
0.0
 42
0.0048976494823
  0
VERTEX
  5
C3C
  8
DEFAULT
 10
2.533058488614473
 20
2.980650854558987
 30
0.0
  0
VERTEX
  5
C3D
  8
DEFAULT
 10
2.53727439030936
 20
2.986265522869508
 30
0.0
 42
0.0266789412541
  0
VERTEX
  5
C3E
  8
DEFAULT
 10
2.539318939653276
 20
2.989122800221045
 30
0.0
  0
VERTEX
  5
C3F
  8
DEFAULT
 10
2.541291790351029
 20
2.992027463484408
 30
0.0
 42
0.0087612271194
  0
VERTEX
  5
C40
  8
DEFAULT
 10
2.544971276777633
 20
2.997733204467103
 30
0.0
 42
0.0190484710724
  0
VERTEX
  5
C41
  8
DEFAULT
 10
2.546632467764673
 20
3.00045707793609
 30
0.0
 42
0.0335193951399
  0
VERTEX
  5
C42
  8
DEFAULT
 10
2.549525057961123
 20
3.005913501390431
 30
0.0
 42
0.0567828335151
  0
VERTEX
  5
C43
  8
DEFAULT
 10
2.551380643681347
 20
3.011324886645961
 30
0.0
 42
0.1408303009783
  0
VERTEX
  5
C44
  8
DEFAULT
 10
2.550702435348499
 20
3.021670107988375
 30
0.0
 42
0.0628586918746
  0
VERTEX
  5
C45
  8
DEFAULT
 10
2.546785139915172
 20
3.029600201097906
 30
0.0
 42
0.0327783527891
  0
VERTEX
  5
C46
  8
DEFAULT
 10
2.537584361380557
 20
3.041970590112136
 30
0.0
 42
0.0140205035563
  0
VERTEX
  5
C47
  8
DEFAULT
 10
2.522314326870422
 20
3.059317144412356
 30
0.0
  0
VERTEX
  5
C48
  8
DEFAULT
 10
2.506648636063384
 20
3.076305488897083
 30
0.0
 42
0.0056330944491
  0
VERTEX
  5
C49
  8
DEFAULT
 10
2.477026220404583
 20
3.107404788717876
 30
0.0
  0
VERTEX
  5
C4A
  8
DEFAULT
 10
2.469464458670917
 20
3.115034734986855
 30
0.0
  0
VERTEX
  5
C4B
  8
DEFAULT
 10
2.463732420239538
 20
3.120700716423857
 30
0.0
  0
VERTEX
  5
C4C
  8
DEFAULT
 10
2.461565679881273
 20
3.122808747805994
 30
0.0
  0
VERTEX
  5
C4D
  8
DEFAULT
 10
2.45387260225889
 20
3.130071864573841
 30
0.0
 42
0.0173896025521
  0
VERTEX
  5
C4E
  8
DEFAULT
 10
2.449905037275694
 20
3.13358199397878
 30
0.0
 42
0.0090042973016
  0
VERTEX
  5
C4F
  8
DEFAULT
 10
2.447850554770426
 20
3.135255049762657
 30
0.0
 42
0.0664723093086
  0
VERTEX
  5
C50
  8
DEFAULT
 10
2.445637009331891
 20
3.136717337813729
 30
0.0
 42
0.1492890579583
  0
VERTEX
  5
C51
  8
DEFAULT
 10
2.443379430892195
 20
3.136675214152114
 30
0.0
 42
0.0333432009458
  0
VERTEX
  5
C52
  8
DEFAULT
 10
2.439388453183411
 20
3.13514221024856
 30
0.0
 42
0.0348885163572
  0
VERTEX
  5
C53
  8
DEFAULT
 10
2.425732666054651
 20
3.126870898889007
 30
0.0
  0
VERTEX
  5
C54
  8
DEFAULT
 10
2.423273425721401
 20
3.125160941905424
 30
0.0
  0
VERTEX
  5
C55
  8
DEFAULT
 10
2.418719652374527
 20
3.121882608225317
 30
0.0
  0
VERTEX
  5
C56
  8
DEFAULT
 10
2.410889441753338
 20
3.115959213441339
 30
0.0
 42
0.0055320548483
  0
VERTEX
  5
C57
  8
DEFAULT
 10
2.399411605045985
 20
3.10672699955731
 30
0.0
  0
VERTEX
  5
C58
  8
DEFAULT
 10
2.396586943268101
 20
3.104363373304861
 30
0.0
  0
VERTEX
  5
C59
  8
DEFAULT
 10
2.388219822183779
 20
3.097154637334551
 30
0.0
 42
-0.0080969162216
  0
VERTEX
  5
C5A
  8
DEFAULT
 10
2.366488128312418
 20
3.078743037359183
 30
0.0
 42
-0.0155656715286
  0
VERTEX
  5
C5B
  8
DEFAULT
 10
2.346690724605808
 20
3.063521780800624
 30
0.0
 42
-0.0373674591527
  0
VERTEX
  5
C5C
  8
DEFAULT
 10
2.309592889843467
 20
3.040387239426912
 30
0.0
 42
-0.0068405896498
  0
VERTEX
  5
C5D
  8
DEFAULT
 10
2.302233048467629
 20
3.036757494298853
 30
0.0
 42
-0.070571904218
  0
VERTEX
  5
C5E
  8
DEFAULT
 10
2.243597091126626
 20
3.018771863179154
 30
0.0
  0
VERTEX
  5
C5F
  8
DEFAULT
 10
2.23980485271304
 20
3.018173668971226
 30
0.0
  0
VERTEX
  5
C60
  8
DEFAULT
 10
2.232675701837814
 20
3.017191995094868
 30
0.0
 42
-0.0182357913047
  0
VERTEX
  5
C61
  8
DEFAULT
 10
2.207596900743811
 20
3.014996620320638
 30
0.0
  0
VERTEX
  5
C62
  8
DEFAULT
 10
2.206023386776397
 20
3.014914079746283
 30
0.0
  0
VERTEX
  5
C63
  8
DEFAULT
 10
2.194228993182653
 20
3.01446455258278
 30
0.0
  0
VERTEX
  5
C64
  8
DEFAULT
 10
2.182431123335957
 20
3.014275581089157
 30
0.0
 42
-0.0095477870192
  0
VERTEX
  5
C65
  8
DEFAULT
 10
2.130834029083263
 20
3.015100025356457
 30
0.0
 42
-0.008060548298
  0
VERTEX
  5
C66
  8
DEFAULT
 10
2.117941397844619
 20
3.015671827735854
 30
0.0
  0
VERTEX
  5
C67
  8
DEFAULT
 10
2.113108148198616
 20
3.015933204133647
 30
0.0
  0
VERTEX
  5
C68
  8
DEFAULT
 10
2.104655341082558
 20
3.01646605226226
 30
0.0
 42
-0.0449957766408
  0
VERTEX
  5
C69
  8
DEFAULT
 10
2.103068989673376
 20
3.016578607619867
 30
0.0
 42
-0.0036089234966
  0
VERTEX
  5
C6A
  8
DEFAULT
 10
2.091199782176345
 20
3.017595249349842
 30
0.0
 42
-0.0967327002603
  0
VERTEX
  5
C6B
  8
DEFAULT
 10
2.090456416302977
 20
3.017672410902815
 30
0.0
  0
VERTEX
  5
C6C
  8
DEFAULT
 10
2.084908550802323
 20
3.018328147417367
 30
0.0
 42
-0.0141109256002
  0
VERTEX
  5
C6D
  8
DEFAULT
 10
2.08214605600253
 20
3.018729523584887
 30
0.0
  0
VERTEX
  5
C6E
  8
DEFAULT
 10
2.07939588934299
 20
3.019216071658803
 30
0.0
  0
VERTEX
  5
C6F
  8
DEFAULT
 10
2.075932787244784
 20
3.019882302417742
 30
0.0
  0
VERTEX
  5
C70
  8
DEFAULT
 10
2.07259989047023
 20
3.020448873702903
 30
0.0
 42
0.03604895459
  0
VERTEX
  5
C71
  8
DEFAULT
 10
2.066157140237402
 20
3.02110426469165
 30
0.0
 42
0.0797766148813
  0
VERTEX
  5
C72
  8
DEFAULT
 10
2.060488762425702
 20
3.020454609744346
 30
0.0
 42
0.1407296655411
  0
VERTEX
  5
C73
  8
DEFAULT
 10
2.056521718862195
 20
3.01779689809054
 30
0.0
 42
0.084485787517
  0
VERTEX
  5
C74
  8
DEFAULT
 10
2.054583004011043
 20
3.014281747121136
 30
0.0
 42
0.0616214601453
  0
VERTEX
  5
C75
  8
DEFAULT
 10
2.053079442776169
 20
3.007489142952961
 30
0.0
  0
VERTEX
  5
C76
  8
DEFAULT
 10
2.052805337420087
 20
3.00489575922014
 30
0.0
 42
0.0234697127295
  0
VERTEX
  5
C77
  8
DEFAULT
 10
2.052362948836986
 20
2.995791752710163
 30
0.0
  0
VERTEX
  5
C78
  8
DEFAULT
 10
2.052281335877978
 20
2.986678615186794
 30
0.0
  0
VERTEX
  5
C79
  8
DEFAULT
 10
2.052291424264861
 20
2.978537826157252
 30
0.0
  0
VERTEX
  5
C7A
  8
DEFAULT
 10
2.052342622156207
 20
2.974711599475975
 30
0.0
 42
0.0041997228006
  0
VERTEX
  5
C7B
  8
DEFAULT
 10
2.052394212473171
 20
2.972843415718685
 30
0.0
 42
0.0408089603596
  0
VERTEX
  5
C7C
  8
DEFAULT
 10
2.052471036239842
 20
2.970999855993502
 30
0.0
  0
VERTEX
  5
C7D
  8
DEFAULT
 10
2.052520954240404
 20
2.970091932753967
 30
0.0
  0
VERTEX
  5
C7E
  8
DEFAULT
 10
2.052827850747532
 20
2.966508035403061
 30
0.0
 42
0.0590212023835
  0
VERTEX
  5
C7F
  8
DEFAULT
 10
2.054340941779549
 20
2.959800381634362
 30
0.0
 42
0.1379118742435
  0
VERTEX
  5
C80
  8
DEFAULT
 10
2.057862241367047
 20
2.954912076752333
 30
0.0
 42
0.1061074771917
  0
VERTEX
  5
C81
  8
DEFAULT
 10
2.062666023732225
 20
2.952771364814799
 30
0.0
 42
0.0699131901083
  0
VERTEX
  5
C82
  8
DEFAULT
 10
2.072286171198701
 20
2.952286799046592
 30
0.0
 42
0.0313099944035
  0
VERTEX
  5
C83
  8
DEFAULT
 10
2.088892792030755
 20
2.954661043844481
 30
0.0
 42
0.0066601709699
  0
VERTEX
  5
C84
  8
DEFAULT
 10
2.11347471397312
 20
2.959989988941209
 30
0.0
  0
VERTEX
  5
C85
  8
DEFAULT
 10
2.119600839877167
 20
2.961415819019335
 30
0.0
  0
VERTEX
  5
C86
  8
DEFAULT
 10
2.137961866022664
 20
2.965741538791332
 30
0.0
 42
-0.0407842039396
  0
VERTEX
  5
C87
  8
DEFAULT
 10
2.16734666854424
 20
2.970066797351392
 30
0.0
 42
-0.054339424169
  0
VERTEX
  5
C88
  8
DEFAULT
 10
2.219098257681642
 20
2.967593677985717
 30
0.0
 42
-0.0662548645173
  0
VERTEX
  5
C89
  8
DEFAULT
 10
2.293452470555423
 20
2.945525009490672
 30
0.0
 42
-0.0117709711201
  0
VERTEX
  5
C8A
  8
DEFAULT
 10
2.30226127851506
 20
2.941397493314239
 30
0.0
 42
-0.0292337022245
  0
VERTEX
  5
C8B
  8
DEFAULT
 10
2.331855445769206
 20
2.924587352264997
 30
0.0
 42
-0.0377689223981
  0
VERTEX
  5
C8C
  8
DEFAULT
 10
2.358951840779079
 20
2.903985675681151
 30
0.0
 42
0.0274810312623
  0
VERTEX
  5
C8D
  8
DEFAULT
 10
2.385148284955192
 20
2.883268002081718
 30
0.0
 42
0.0256920586807
  0
VERTEX
  5
C8E
  8
DEFAULT
 10
2.399248705839303
 20
2.8741910152989
 30
0.0
  0
VERTEX
  5
C8F
  8
DEFAULT
 10
2.402936841819383
 20
2.872155565542857
 30
0.0
  0
VERTEX
  5
C90
  8
DEFAULT
 10
2.405763443637026
 20
2.870736389783644
 30
0.0
 42
0.0223447678885
  0
VERTEX
  5
C91
  8
DEFAULT
 10
2.41013559645991
 20
2.868888388068943
 30
0.0
 42
0.0683883389693
  0
VERTEX
  5
C92
  8
DEFAULT
 10
2.414763881533245
 20
2.867826148418686
 30
0.0
 42
0.1037214988988
  0
VERTEX
  5
C93
  8
DEFAULT
 10
2.419620852253859
 20
2.869053086210513
 30
0.0
 42
0.0376019754319
  0
VERTEX
  5
C94
  8
DEFAULT
 10
2.42777075293652
 20
2.873519346343563
 30
0.0
 42
0.0275027230644
  0
VERTEX
  5
C95
  8
DEFAULT
 10
2.4409214994825
 20
2.883029138026322
 30
0.0
 42
0.0194990759945
  0
VERTEX
  5
C96
  8
DEFAULT
 10
2.459371640214376
 20
2.898902354755261
 30
0.0
 42
0.0042818314545
  0
VERTEX
  5
C97
  8
DEFAULT
 10
2.463807551327974
 20
2.903066444842198
 30
0.0
  0
VERTEX
  5
C98
  8
DEFAULT
 10
2.470342405875333
 20
2.909439748020078
 30
0.0
  0
VERTEX
  5
C99
  8
DEFAULT
 10
2.473556351679506
 20
2.912681968142198
 30
0.0
  0
VERTEX
  5
C9A
  8
DEFAULT
 10
2.475149168466708
 20
2.914316211526749
 30
0.0
  0
SEQEND
  5
C37
  8
DEFAULT
  0
POLYLINE
  5
462
  8
DEFAULT
 66
     1
 10
0.0
 20
0.0
 30
0.0
 70
     1
  0
VERTEX
  5
C9C
  8
DEFAULT
 10
1.514426977601301
 20
2.914992119310698
 30
0.0
 42
-0.0354627972436
  0
VERTEX
  5
C9D
  8
DEFAULT
 10
1.518020738565494
 20
2.918457785007883
 30
0.0
 42
-0.0212604759954
  0
VERTEX
  5
C9E
  8
DEFAULT
 10
1.525535038619021
 20
2.923993894010654
 30
0.0
 42
-0.0172416716892
  0
VERTEX
  5
C9F
  8
DEFAULT
 10
1.539431205247662
 20
2.932543341592037
 30
0.0
  0
VERTEX
  5
CA0
  8
DEFAULT
 10
1.544766545590769
 20
2.935536321814356
 30
0.0
 42
-0.0229716035286
  0
VERTEX
  5
CA1
  8
DEFAULT
 10
1.5832495507443
 20
2.954294840491012
 30
0.0
  0
VERTEX
  5
CA2
  8
DEFAULT
 10
1.586916087104875
 20
2.955858049818355
 30
0.0
 42
-0.0122497747989
  0
VERTEX
  5
CA3
  8
DEFAULT
 10
1.601240583484307
 20
2.961622248920022
 30
0.0
 42
-0.0325149232053
  0
VERTEX
  5
CA4
  8
DEFAULT
 10
1.627005151347192
 20
2.969779604998661
 30
0.0
 42
-0.061011901931
  0
VERTEX
  5
CA5
  8
DEFAULT
 10
1.667189515329221
 20
2.974382546227719
 30
0.0
 42
-0.0154300513041
  0
VERTEX
  5
CA6
  8
DEFAULT
 10
1.687407936040396
 20
2.97375205750513
 30
0.0
 42
-0.015351299839
  0
VERTEX
  5
CA7
  8
DEFAULT
 10
1.692456739924552
 20
2.973421279389603
 30
0.0
 42
-0.0098536583681
  0
VERTEX
  5
CA8
  8
DEFAULT
 10
1.707574994876592
 20
2.972165928942219
 30
0.0
  0
VERTEX
  5
CA9
  8
DEFAULT
 10
1.718786268301758
 20
2.971001992762619
 30
0.0
  0
VERTEX
  5
CAA
  8
DEFAULT
 10
1.72857891636846
 20
2.96980222416712
 30
0.0
 42
-0.0154658511475
  0
VERTEX
  5
CAB
  8
DEFAULT
 10
1.76266699820491
 20
2.964271974993137
 30
0.0
 42
-0.0098296384797
  0
VERTEX
  5
CAC
  8
DEFAULT
 10
1.771132104730036
 20
2.962498649150095
 30
0.0
 42
-0.0478198509708
  0
VERTEX
  5
CAD
  8
DEFAULT
 10
1.772715805843847
 20
2.96214210756871
 30
0.0
  0
VERTEX
  5
CAE
  8
DEFAULT
 10
1.778629392826899
 20
2.960724417179846
 30
0.0
  0
VERTEX
  5
CAF
  8
DEFAULT
 10
1.783040427189786
 20
2.959555825118005
 30
0.0
  0
VERTEX
  5
CB0
  8
DEFAULT
 10
1.786328192591937
 20
2.958599870618927
 30
0.0
 42
-0.0436461582295
  0
VERTEX
  5
CB1
  8
DEFAULT
 10
1.795918727595034
 20
2.954936507062061
 30
0.0
  0
VERTEX
  5
CB2
  8
DEFAULT
 10
1.799661793665513
 20
2.953034256904727
 30
0.0
 42
0.0351478178898
  0
VERTEX
  5
CB3
  8
DEFAULT
 10
1.807115884536024
 20
2.950036948691105
 30
0.0
 42
0.0773104138262
  0
VERTEX
  5
CB4
  8
DEFAULT
 10
1.814182265836249
 20
2.948800098635637
 30
0.0
 42
0.2771467327315
  0
VERTEX
  5
CB5
  8
DEFAULT
 10
1.8245171711554
 20
2.954400924102932
 30
0.0
 42
0.0796338725197
  0
VERTEX
  5
CB6
  8
DEFAULT
 10
1.827694953886694
 20
2.962239141900011
 30
0.0
 42
0.042656838806
  0
VERTEX
  5
CB7
  8
DEFAULT
 10
1.829535077489959
 20
2.974738099846044
 30
0.0
 42
0.0223702493174
  0
VERTEX
  5
CB8
  8
DEFAULT
 10
1.829942158871071
 20
2.987368511472567
 30
0.0
  0
VERTEX
  5
CB9
  8
DEFAULT
 10
1.829942158871071
 20
3.016980518698909
 30
0.0
  0
VERTEX
  5
CBA
  8
DEFAULT
 10
1.740464163180563
 20
3.016689218908018
 30
0.0
  0
VERTEX
  5
CBB
  8
DEFAULT
 10
1.731568993007621
 20
3.016692616001626
 30
0.0
 42
-0.0054133497243
  0
VERTEX
  5
CBC
  8
DEFAULT
 10
1.723229045049014
 20
3.01676242929037
 30
0.0
  0
VERTEX
  5
CBD
  8
DEFAULT
 10
1.719316549435185
 20
3.016821010053207
 30
0.0
 42
-0.0151393048815
  0
VERTEX
  5
CBE
  8
DEFAULT
 10
1.689024391792571
 20
3.018042010038665
 30
0.0
 42
-0.0076108917257
  0
VERTEX
  5
CBF
  8
DEFAULT
 10
1.677680060168843
 20
3.018984850820533
 30
0.0
 42
-0.0403289406729
  0
VERTEX
  5
CC0
  8
DEFAULT
 10
1.638437625615442
 20
3.025733559353437
 30
0.0
 42
-0.0446074349286
  0
VERTEX
  5
CC1
  8
DEFAULT
 10
1.601010959828332
 20
3.039323865971445
 30
0.0
 42
-0.0357331530324
  0
VERTEX
  5
CC2
  8
DEFAULT
 10
1.578813919075796
 20
3.05170420638958
 30
0.0
 42
-0.0123807804471
  0
VERTEX
  5
CC3
  8
DEFAULT
 10
1.569589178236037
 20
3.057887299249517
 30
0.0
 42
-0.0106758991554
  0
VERTEX
  5
CC4
  8
DEFAULT
 10
1.55287652340626
 20
3.070307313148597
 30
0.0
 42
-0.0136524507115
  0
VERTEX
  5
CC5
  8
DEFAULT
 10
1.538792331007782
 20
3.081865990133875
 30
0.0
 42
-0.0324558624856
  0
VERTEX
  5
CC6
  8
DEFAULT
 10
1.49305568277573
 20
3.126249865166435
 30
0.0
 42
-0.012551726107
  0
VERTEX
  5
CC7
  8
DEFAULT
 10
1.48255612029668
 20
3.138261853652875
 30
0.0
 42
-0.0146080987366
  0
VERTEX
  5
CC8
  8
DEFAULT
 10
1.467758115678918
 20
3.157077302308291
 30
0.0
  0
VERTEX
  5
CC9
  8
DEFAULT
 10
1.46428515390013
 20
3.161954931618621
 30
0.0
 42
-0.0211934848561
  0
VERTEX
  5
CCA
  8
DEFAULT
 10
1.454638464121105
 20
3.17709890583175
 30
0.0
 42
0.0170164298152
  0
VERTEX
  5
CCB
  8
DEFAULT
 10
1.451272474337521
 20
3.182490012786056
 30
0.0
 42
0.0771607861595
  0
VERTEX
  5
CCC
  8
DEFAULT
 10
1.447323149170782
 20
3.186759722233403
 30
0.0
 42
0.1696272779074
  0
VERTEX
  5
CCD
  8
DEFAULT
 10
1.442607027921445
 20
3.188324961174918
 30
0.0
 42
0.0967356967242
  0
VERTEX
  5
CCE
  8
DEFAULT
 10
1.438398726666794
 20
3.18731644500803
 30
0.0
 42
0.0631835860369
  0
VERTEX
  5
CCF
  8
DEFAULT
 10
1.431615800957395
 20
3.183122026639375
 30
0.0
  0
VERTEX
  5
CD0
  8
DEFAULT
 10
1.428903950720772
 20
3.180945817022401
 30
0.0
 42
0.0105252296977
  0
VERTEX
  5
CD1
  8
DEFAULT
 10
1.426438180467131
 20
3.17881408680808
 30
0.0
 42
0.0182012342125
  0
VERTEX
  5
CD2
  8
DEFAULT
 10
1.409029387636266
 20
3.16166268955463
 30
0.0
  0
VERTEX
  5
CD3
  8
DEFAULT
 10
1.400621077873526
 20
3.152798476841859
 30
0.0
 42
0.0074377956263
  0
VERTEX
  5
CD4
  8
DEFAULT
 10
1.392275021895609
 20
3.143872744405569
 30
0.0
 42
0.018581830863
  0
VERTEX
  5
CD5
  8
DEFAULT
 10
1.364502226813512
 20
3.11171528356921
 30
0.0
  0
VERTEX
  5
CD6
  8
DEFAULT
 10
1.357983870562333
 20
3.103284517797071
 30
0.0
 42
0.019539768259
  0
VERTEX
  5
CD7
  8
DEFAULT
 10
1.348769922720685
 20
3.090195888794001
 30
0.0
  0
VERTEX
  5
CD8
  8
DEFAULT
 10
1.346640550268257
 20
3.086786662168156
 30
0.0
 42
0.0331181322378
  0
VERTEX
  5
CD9
  8
DEFAULT
 10
1.34373247645309
 20
3.081494166199379
 30
0.0
  0
VERTEX
  5
CDA
  8
DEFAULT
 10
1.34309943655955
 20
3.080117149020256
 30
0.0
 42
0.0980170551933
  0
VERTEX
  5
CDB
  8
DEFAULT
 10
1.341880503941216
 20
3.075747791988706
 30
0.0
 42
0.0548841462568
  0
VERTEX
  5
CDC
  8
DEFAULT
 10
1.343229078742045
 20
3.065394581424914
 30
0.0
 42
0.0446804972404
  0
VERTEX
  5
CDD
  8
DEFAULT
 10
1.349530117170165
 20
3.04700676543251
 30
0.0
 42
0.0335394909626
  0
VERTEX
  5
CDE
  8
DEFAULT
 10
1.365369219259658
 20
3.017010392709974
 30
0.0
 42
0.0328289410783
  0
VERTEX
  5
CDF
  8
DEFAULT
 10
1.394927756068286
 20
2.975639234041597
 30
0.0
 42
0.017085643617
  0
VERTEX
  5
CE0
  8
DEFAULT
 10
1.411794485222837
 20
2.956586543793097
 30
0.0
 42
0.0259236288815
  0
VERTEX
  5
CE1
  8
DEFAULT
 10
1.430225197410945
 20
2.939037841007644
 30
0.0
 42
0.0126000268092
  0
VERTEX
  5
CE2
  8
DEFAULT
 10
1.44839474589609
 20
2.924002838465826
 30
0.0
  0
VERTEX
  5
CE3
  8
DEFAULT
 10
1.452031879792077
 20
2.92116607278124
 30
0.0
 42
0.0242353998922
  0
VERTEX
  5
CE4
  8
DEFAULT
 10
1.466234077742974
 20
2.911046188123177
 30
0.0
 42
0.0380183952328
  0
VERTEX
  5
CE5
  8
DEFAULT
 10
1.478124377979092
 20
2.904507382555429
 30
0.0
 42
0.0630960144973
  0
VERTEX
  5
CE6
  8
DEFAULT
 10
1.488064848858465
 20
2.901501299997601
 30
0.0
 42
0.1809573318309
  0
VERTEX
  5
CE7
  8
DEFAULT
 10
1.503125462351429
 20
2.904575592762931
 30
0.0
 42
0.0591273948064
  0
VERTEX
  5
CE8
  8
DEFAULT
 10
1.509198170390254
 20
2.909324416207002
 30
0.0
 42
0.021462552027
  0
SEQEND
  5
C9B
  8
DEFAULT
  0
POLYLINE
  5
4B1
  8
DEFAULT
 66
     1
 10
0.0
 20
0.0
 30
0.0
 70
     1
  0
VERTEX
  5
CEA
  8
DEFAULT
 10
2.723834765885415
 20
3.036645176086911
 30
0.0
 42
0.050058816423
  0
VERTEX
  5
CEB
  8
DEFAULT
 10
2.733321038993158
 20
3.041239738524989
 30
0.0
 42
0.0656265838425
  0
VERTEX
  5
CEC
  8
DEFAULT
 10
2.736881979117095
 20
3.044079917003411
 30
0.0
 42
0.1012641164957
  0
VERTEX
  5
CED
  8
DEFAULT
 10
2.739186258896168
 20
3.04744845183841
 30
0.0
 42
0.2061104268298
  0
VERTEX
  5
CEE
  8
DEFAULT
 10
2.73890243130689
 20
3.054454092177373
 30
0.0
 42
0.0661029785492
  0
VERTEX
  5
CEF
  8
DEFAULT
 10
2.735777142635732
 20
3.059419085966721
 30
0.0
 42
0.0380835324011
  0
VERTEX
  5
CF0
  8
DEFAULT
 10
2.732312413066629
 20
3.063167208161389
 30
0.0
  0
VERTEX
  5
CF1
  8
DEFAULT
 10
2.72901005888595
 20
3.066171853837022
 30
0.0
 42
0.0165721032931
  0
VERTEX
  5
CF2
  8
DEFAULT
 10
2.725998938887968
 20
3.068650595057101
 30
0.0
 42
0.0196557644044
  0
VERTEX
  5
CF3
  8
DEFAULT
 10
2.714934668174735
 20
3.076653149729796
 30
0.0
  0
VERTEX
  5
CF4
  8
DEFAULT
 10
2.709224843914708
 20
3.080399277530619
 30
0.0
  0
VERTEX
  5
CF5
  8
DEFAULT
 10
2.703445817315488
 20
3.084034118138126
 30
0.0
 42
-0.0387825875897
  0
VERTEX
  5
CF6
  8
DEFAULT
 10
2.69028252256584
 20
3.094112823288836
 30
0.0
 42
-0.0163633591346
  0
VERTEX
  5
CF7
  8
DEFAULT
 10
2.679708066041424
 20
3.104010248033026
 30
0.0
  0
VERTEX
  5
CF8
  8
DEFAULT
 10
2.675247568474002
 20
3.108510024261627
 30
0.0
 42
-0.0240079434383
  0
VERTEX
  5
CF9
  8
DEFAULT
 10
2.643941257350463
 20
3.144234114961935
 30
0.0
 42
-0.0210693001047
  0
VERTEX
  5
CFA
  8
DEFAULT
 10
2.615846359405792
 20
3.18253103205112
 30
0.0
  0
VERTEX
  5
CFB
  8
DEFAULT
 10
2.60773275129377
 20
3.1946581056022
 30
0.0
 42
0.0072257746712
  0
VERTEX
  5
CFC
  8
DEFAULT
 10
2.600500239148266
 20
3.205273752481434
 30
0.0
 42
0.0134164552306
  0
VERTEX
  5
CFD
  8
DEFAULT
 10
2.58733408397017
 20
3.223676600616851
 30
0.0
  0
VERTEX
  5
CFE
  8
DEFAULT
 10
2.58205616498786
 20
3.230479294609963
 30
0.0
 42
0.0292395654801
  0
VERTEX
  5
CFF
  8
DEFAULT
 10
2.572048223230301
 20
3.24182915242172
 30
0.0
 42
0.0401786013675
  0
VERTEX
  5
D00
  8
DEFAULT
 10
2.56340130133231
 20
3.249305181979901
 30
0.0
 42
0.1030501428935
  0
VERTEX
  5
D01
  8
DEFAULT
 10
2.547843267508778
 20
3.256344633687107
 30
0.0
 42
0.0364041489792
  0
VERTEX
  5
D02
  8
DEFAULT
 10
2.539379024098139
 20
3.257547381391686
 30
0.0
 42
0.0264525645496
  0
VERTEX
  5
D03
  8
DEFAULT
 10
2.535110135163243
 20
3.257764811488648
 30
0.0
  0
VERTEX
  5
D04
  8
DEFAULT
 10
2.530833397686912
 20
3.257823996116738
 30
0.0
 42
0.0438499861877
  0
VERTEX
  5
D05
  8
DEFAULT
 10
2.507086495220808
 20
3.255964872987546
 30
0.0
 42
0.032685071534
  0
VERTEX
  5
D06
  8
DEFAULT
 10
2.496672755171496
 20
3.253427361888657
 30
0.0
 42
0.0485411990755
  0
VERTEX
  5
D07
  8
DEFAULT
 10
2.487498834031705
 20
3.249565583340288
 30
0.0
 42
0.0683569137059
  0
VERTEX
  5
D08
  8
DEFAULT
 10
2.480052784452549
 20
3.244277728913839
 30
0.0
 42
0.1517665598334
  0
VERTEX
  5
D09
  8
DEFAULT
 10
2.471832750015011
 20
3.230070676310235
 30
0.0
 42
0.0913735470396
  0
VERTEX
  5
D0A
  8
DEFAULT
 10
2.471491811565121
 20
3.216329295568166
 30
0.0
 42
0.0449251379378
  0
VERTEX
  5
D0B
  8
DEFAULT
 10
2.474382881955211
 20
3.204808743873503
 30
0.0
 42
0.0460498896262
  0
VERTEX
  5
D0C
  8
DEFAULT
 10
2.483159518261129
 20
3.186066631351789
 30
0.0
 42
0.0187579370691
  0
VERTEX
  5
D0D
  8
DEFAULT
 10
2.491491098486636
 20
3.172989447403851
 30
0.0
 42
0.0143977433118
  0
VERTEX
  5
D0E
  8
DEFAULT
 10
2.498357421524075
 20
3.163607531046168
 30
0.0
 42
0.024612617882
  0
VERTEX
  5
D0F
  8
DEFAULT
 10
2.521021398490194
 20
3.1371083251584
 30
0.0
 42
0.0100277742051
  0
VERTEX
  5
D10
  8
DEFAULT
 10
2.536704848037373
 20
3.120873357110917
 30
0.0
 42
0.0227149350377
  0
VERTEX
  5
D11
  8
DEFAULT
 10
2.565782043865064
 20
3.094081768736213
 30
0.0
 42
0.0231869338448
  0
VERTEX
  5
D12
  8
DEFAULT
 10
2.589406695472527
 20
3.076078495600286
 30
0.0
 42
0.021228190955
  0
VERTEX
  5
D13
  8
DEFAULT
 10
2.608324669415793
 20
3.064294454083793
 30
0.0
  0
VERTEX
  5
D14
  8
DEFAULT
 10
2.615686940053872
 20
3.060332260513714
 30
0.0
 42
0.0594793738322
  0
VERTEX
  5
D15
  8
DEFAULT
 10
2.670492778265812
 20
3.040203452991768
 30
0.0
 42
-0.0041347341156
  0
VERTEX
  5
D16
  8
DEFAULT
 10
2.687732053214059
 20
3.035908171491702
 30
0.0
 42
-0.0105298439899
  0
VERTEX
  5
D17
  8
DEFAULT
 10
2.689884602248099
 20
3.03535569831894
 30
0.0
  0
VERTEX
  5
D18
  8
DEFAULT
 10
2.69364675931097
 20
3.034377920980654
 30
0.0
  0
VERTEX
  5
D19
  8
DEFAULT
 10
2.69927783836469
 20
3.03287147417805
 30
0.0
  0
VERTEX
  5
D1A
  8
DEFAULT
 10
2.700684452116302
 20
3.032481370932071
 30
0.0
 42
-0.0233482668481
  0
VERTEX
  5
D1B
  8
DEFAULT
 10
2.704854586145915
 20
3.031172045002519
 30
0.0
 42
0.1051553181321
  0
VERTEX
  5
D1C
  8
DEFAULT
 10
2.706105172792502
 20
3.031131739650021
 30
0.0
 42
0.0397911973704
  0
VERTEX
  5
D1D
  8
DEFAULT
 10
2.715084026811139
 20
3.033527151255322
 30
0.0
 42
0.007010481417
  0
SEQEND
  5
CE9
  8
DEFAULT
  0
POLYLINE
  5
4E7
  8
DEFAULT
 66
     1
 10
0.0
 20
0.0
 30
0.0
 70
     1
  0
VERTEX
  5
D1F
  8
DEFAULT
 10
1.79339729348152
 20
3.079429967379815
 30
0.0
 42
0.0722615037723
  0
VERTEX
  5
D20
  8
DEFAULT
 10
1.803420479238914
 20
3.082737430530286
 30
0.0
 42
0.157892060238
  0
VERTEX
  5
D21
  8
DEFAULT
 10
1.816769720968947
 20
3.096098604308091
 30
0.0
 42
0.0622718697376
  0
VERTEX
  5
D22
  8
DEFAULT
 10
1.822427733217868
 20
3.111119852980706
 30
0.0
 42
0.0380233936871
  0
VERTEX
  5
D23
  8
DEFAULT
 10
1.82694092156997
 20
3.138701270072807
 30
0.0
 42
0.0183808301697
  0
VERTEX
  5
D24
  8
DEFAULT
 10
1.829280195429298
 20
3.180524925386059
 30
0.0
  0
VERTEX
  5
D25
  8
DEFAULT
 10
1.829407895343909
 20
3.185760666710863
 30
0.0
 42
0.0036580846709
  0
VERTEX
  5
D26
  8
DEFAULT
 10
1.82969337989576
 20
3.204082065609509
 30
0.0
  0
VERTEX
  5
D27
  8
DEFAULT
 10
1.829733084875713
 20
3.208664446284381
 30
0.0
  0
VERTEX
  5
D28
  8
DEFAULT
 10
1.829756045469693
 20
3.212101838915851
 30
0.0
  0
VERTEX
  5
D29
  8
DEFAULT
 10
1.829794087882374
 20
3.222408820523118
 30
0.0
  0
VERTEX
  5
D2A
  8
DEFAULT
 10
1.829942158871071
 20
3.311720529380487
 30
0.0
  0
VERTEX
  5
D2B
  8
DEFAULT
 10
1.764974081470419
 20
3.304929939268193
 30
0.0
  0
VERTEX
  5
D2C
  8
DEFAULT
 10
1.70000604249982
 20
3.298139502876107
 30
0.0
  0
VERTEX
  5
D2D
  8
DEFAULT
 10
1.65109304146347
 20
3.347052388622301
 30
0.0
 42
-0.0295787985227
  0
VERTEX
  5
D2E
  8
DEFAULT
 10
1.624505289597246
 20
3.376448653028731
 30
0.0
 42
-0.021437519636
  0
VERTEX
  5
D2F
  8
DEFAULT
 10
1.622146700546178
 20
3.37951124528397
 30
0.0
 42
-0.0265932687343
  0
VERTEX
  5
D30
  8
DEFAULT
 10
1.613677953970075
 20
3.391913656648236
 30
0.0
 42
-0.0339320231455
  0
VERTEX
  5
D31
  8
DEFAULT
 10
1.60757118717075
 20
3.403673068206178
 30
0.0
 42
-0.0447829490891
  0
VERTEX
  5
D32
  8
DEFAULT
 10
1.603935856827228
 20
3.414717524543096
 30
0.0
 42
-0.1100474859928
  0
VERTEX
  5
D33
  8
DEFAULT
 10
1.603703792415809
 20
3.434874882474298
 30
0.0
 42
-0.0752448464876
  0
VERTEX
  5
D34
  8
DEFAULT
 10
1.609034352553467
 20
3.44888115559294
 30
0.0
 42
-0.0623121667945
  0
VERTEX
  5
D35
  8
DEFAULT
 10
1.622405131333868
 20
3.466815846658348
 30
0.0
  0
VERTEX
  5
D36
  8
DEFAULT
 10
1.626307422475734
 20
3.470829346844995
 30
0.0
  0
VERTEX
  5
D37
  8
DEFAULT
 10
1.627809168568794
 20
3.472297284530909
 30
0.0
  0
VERTEX
  5
D38
  8
DEFAULT
 10
1.633194120665815
 20
3.477286952395254
 30
0.0
  0
VERTEX
  5
D39
  8
DEFAULT
 10
1.638752037433081
 20
3.48208506000262
 30
0.0
 42
0.0484004588744
  0
VERTEX
  5
D3A
  8
DEFAULT
 10
1.669702768956428
 20
3.513114864424035
 30
0.0
 42
0.0944835381288
  0
VERTEX
  5
D3B
  8
DEFAULT
 10
1.701201153513041
 20
3.570615821281343
 30
0.0
 42
0.0241686027773
  0
VERTEX
  5
D3C
  8
DEFAULT
 10
1.705526610251927
 20
3.586494594300682
 30
0.0
 42
0.0560242547677
  0
VERTEX
  5
D3D
  8
DEFAULT
 10
1.710638177427076
 20
3.635494021292081
 30
0.0
 42
0.0041028550662
  0
VERTEX
  5
D3E
  8
DEFAULT
 10
1.710426337674631
 20
3.649300848448716
 30
0.0
  0
VERTEX
  5
D3F
  8
DEFAULT
 10
1.710135346738282
 20
3.655352765155164
 30
0.0
 42
0.0487465541061
  0
VERTEX
  5
D40
  8
DEFAULT
 10
1.706812846173933
 20
3.677807843008392
 30
0.0
 42
0.0580876888533
  0
VERTEX
  5
D41
  8
DEFAULT
 10
1.700677632273442
 20
3.693653716331558
 30
0.0
 42
0.0350837044279
  0
VERTEX
  5
D42
  8
DEFAULT
 10
1.694109728937565
 20
3.704541920885523
 30
0.0
 42
0.0355862898151
  0
VERTEX
  5
D43
  8
DEFAULT
 10
1.693431651517635
 20
3.705524172708766
 30
0.0
 42
0.0243899546623
  0
VERTEX
  5
D44
  8
DEFAULT
 10
1.682118145667779
 20
3.720109856779519
 30
0.0
  0
VERTEX
  5
D45
  8
DEFAULT
 10
1.676103754050533
 20
3.727109501857917
 30
0.0
  0
VERTEX
  5
D46
  8
DEFAULT
 10
1.669966385659608
 20
3.734005769204977
 30
0.0
  0
VERTEX
  5
D47
  8
DEFAULT
 10
1.664646877859219
 20
3.739742329640109
 30
0.0
 42
0.0630524802933
  0
VERTEX
  5
D48
  8
DEFAULT
 10
1.617874962462314
 20
3.778023940240476
 30
0.0
 42
0.0483666584908
  0
VERTEX
  5
D49
  8
DEFAULT
 10
1.577279864475914
 20
3.798058614456207
 30
0.0
 42
0.031224878835
  0
VERTEX
  5
D4A
  8
DEFAULT
 10
1.544848112203446
 20
3.807998863322497
 30
0.0
 42
0.0371884586084
  0
VERTEX
  5
D4B
  8
DEFAULT
 10
1.49462804642747
 20
3.815858237976296
 30
0.0
 42
0.0270085682836
  0
VERTEX
  5
D4C
  8
DEFAULT
 10
1.443816523169144
 20
3.817169438412296
 30
0.0
 42
0.0095285925837
  0
VERTEX
  5
D4D
  8
DEFAULT
 10
1.432770669501433
 20
3.816825591930731
 30
0.0
 42
0.0253040718187
  0
VERTEX
  5
D4E
  8
DEFAULT
 10
1.430179116340384
 20
3.816723128107004
 30
0.0
  0
VERTEX
  5
D4F
  8
DEFAULT
 10
1.419985682728875
 20
3.816213297202729
 30
0.0
  0
VERTEX
  5
D50
  8
DEFAULT
 10
1.410443351357796
 20
3.815538309178851
 30
0.0
 42
0.0161574578806
  0
VERTEX
  5
D51
  8
DEFAULT
 10
1.392613523282095
 20
3.813542694721
 30
0.0
 42
0.0209824112078
  0
VERTEX
  5
D52
  8
DEFAULT
 10
1.377169383486961
 20
3.810765872484624
 30
0.0
  0
VERTEX
  5
D53
  8
DEFAULT
 10
1.373821328796582
 20
3.810012731901762
 30
0.0
  0
VERTEX
  5
D54
  8
DEFAULT
 10
1.370590069763472
 20
3.809232404574849
 30
0.0
 42
0.025169630789
  0
VERTEX
  5
D55
  8
DEFAULT
 10
1.346005497011885
 20
3.801629344315551
 30
0.0
 42
0.0150306191528
  0
VERTEX
  5
D56
  8
DEFAULT
 10
1.336992906528984
 20
3.798192019770776
 30
0.0
 42
0.013031296018
  0
VERTEX
  5
D57
  8
DEFAULT
 10
1.321432842810417
 20
3.791649739895028
 30
0.0
  0
VERTEX
  5
D58
  8
DEFAULT
 10
1.309897542316774
 20
3.786429962364812
 30
0.0
 42
0.0075066458908
  0
VERTEX
  5
D59
  8
DEFAULT
 10
1.275706491522318
 20
3.769904663857701
 30
0.0
 42
0.0082411105096
  0
VERTEX
  5
D5A
  8
DEFAULT
 10
1.236867093295284
 20
3.749807858115334
 30
0.0
  0
VERTEX
  5
D5B
  8
DEFAULT
 10
1.222435818507162
 20
3.742015595777613
 30
0.0
  0
VERTEX
  5
D5C
  8
DEFAULT
 10
1.209861274313474
 20
3.735101427737775
 30
0.0
  0
VERTEX
  5
D5D
  8
DEFAULT
 10
1.198897202616896
 20
3.728979482030984
 30
0.0
  0
VERTEX
  5
D5E
  8
DEFAULT
 10
1.179804828681308
 20
3.718103021722049
 30
0.0
 42
0.0344187685629
  0
VERTEX
  5
D5F
  8
DEFAULT
 10
1.178911038120719
 20
3.7175867005561
 30
0.0
 42
0.034675179013
  0
VERTEX
  5
D60
  8
DEFAULT
 10
1.178031273204815
 20
3.717077819379853
 30
0.0
  0
VERTEX
  5
D61
  8
DEFAULT
 10
1.164249350657694
 20
3.709014758418394
 30
0.0
 42
0.0131042469784
  0
VERTEX
  5
D62
  8
DEFAULT
 10
1.123566298385416
 20
3.683723812871631
 30
0.0
  0
VERTEX
  5
D63
  8
DEFAULT
 10
0.9717248988994697
 20
3.582097885729814
 30
0.0
  0
VERTEX
  5
D64
  8
DEFAULT
 10
0.9423723465479231
 20
3.562547020177348
 30
0.0
  0
VERTEX
  5
D65
  8
DEFAULT
 10
0.9147667348687089
 20
3.544350190217759
 30
0.0
  0
VERTEX
  5
D66
  8
DEFAULT
 10
0.8887904305868875
 20
3.527433077174397
 30
0.0
  0
VERTEX
  5
D67
  8
DEFAULT
 10
0.8643373102995569
 20
3.511724994515879
 30
0.0
 42
-0.0086807687922
  0
VERTEX
  5
D68
  8
DEFAULT
 10
0.7715064647726614
 20
3.454625034869223
 30
0.0
 42
-0.0039963987349
  0
VERTEX
  5
D69
  8
DEFAULT
 10
0.7626922192625699
 20
3.449454577173571
 30
0.0
 42
-0.0168699920745
  0
VERTEX
  5
D6A
  8
DEFAULT
 10
0.6232939796027847
 20
3.37433714114167
 30
0.0
  0
VERTEX
  5
D6B
  8
DEFAULT
 10
0.6055303081876045
 20
3.365604420332471
 30
0.0
 42
-0.0089902663319
  0
VERTEX
  5
D6C
  8
DEFAULT
 10
0.4797679355124993
 20
3.307444110101955
 30
0.0
  0
VERTEX
  5
D6D
  8
DEFAULT
 10
0.4365144128806029
 20
3.288250067125472
 30
0.0
  0
VERTEX
  5
D6E
  8
DEFAULT
 10
0.4672499226645797
 20
3.272146107735577
 30
0.0
 42
0.0362039579688
  0
VERTEX
  5
D6F
  8
DEFAULT
 10
0.4927803276422087
 20
3.261294074594783
 30
0.0
 42
0.0525688969275
  0
VERTEX
  5
D70
  8
DEFAULT
 10
0.5400431944025437
 20
3.250899628306358
 30
0.0
 42
0.0603526227142
  0
VERTEX
  5
D71
  8
DEFAULT
 10
0.6124552495358052
 20
3.251565437023765
 30
0.0
 42
0.0551237305448
  0
VERTEX
  5
D72
  8
DEFAULT
 10
0.6828601513619118
 20
3.268524459675683
 30
0.0
  0
VERTEX
  5
D73
  8
DEFAULT
 10
0.691532794139501
 20
3.271789082155808
 30
0.0
 42
0.0104964346064
  0
VERTEX
  5
D74
  8
DEFAULT
 10
0.7083931005313985
 20
3.278736342904458
 30
0.0
  0
VERTEX
  5
D75
  8
DEFAULT
 10
0.7124432439905105
 20
3.280499556192057
 30
0.0
  0
VERTEX
  5
D76
  8
DEFAULT
 10
0.7134473338879769
 20
3.280941556679644
 30
0.0
 42
0.0102510430837
  0
VERTEX
  5
D77
  8
DEFAULT
 10
0.7451461498760491
 20
3.295715970255812
 30
0.0
 42
0.007810900754
  0
VERTEX
  5
D78
  8
DEFAULT
 10
0.7744343744278873
 20
3.310446657345476
 30
0.0
  0
VERTEX
  5
D79
  8
DEFAULT
 10
0.7880522789589707
 20
3.317564360980946
 30
0.0
 42
0.0077277017381
  0
VERTEX
  5
D7A
  8
DEFAULT
 10
0.8403053352729742
 20
3.346118466569938
 30
0.0
  0
VERTEX
  5
D7B
  8
DEFAULT
 10
0.86294839875149
 20
3.359011665018342
 30
0.0
 42
0.0153868684045
  0
VERTEX
  5
D7C
  8
DEFAULT
 10
1.029175387139492
 20
3.461746643180084
 30
0.0
 42
0.0123896880848
  0
VERTEX
  5
D7D
  8
DEFAULT
 10
1.109499188529787
 20
3.517677931270454
 30
0.0
  0
VERTEX
  5
D7E
  8
DEFAULT
 10
1.119317191301773
 20
3.525024163888683
 30
0.0
 42
0.0075537463997
  0
VERTEX
  5
D7F
  8
DEFAULT
 10
1.136287755389146
 20
3.53817006630515
 30
0.0
 42
0.0148673073881
  0
VERTEX
  5
D80
  8
DEFAULT
 10
1.160933764129582
 20
3.55891849601822
 30
0.0
 42
0.0213132965131
  0
VERTEX
  5
D81
  8
DEFAULT
 10
1.172535576126951
 20
3.570142678058313
 30
0.0
  0
VERTEX
  5
D82
  8
DEFAULT
 10
1.175277567789036
 20
3.573108924967902
 30
0.0
 42
0.0065741663136
  0
VERTEX
  5
D83
  8
DEFAULT
 10
1.179178134760577
 20
3.57774965728835
 30
0.0
 42
0.0242892835103
  0
VERTEX
  5
D84
  8
DEFAULT
 10
1.182630866554151
 20
3.58273486383457
 30
0.0
 42
-0.0187332153226
  0
VERTEX
  5
D85
  8
DEFAULT
 10
1.190060515391059
 20
3.594293001908764
 30
0.0
 42
-0.0260766134713
  0
VERTEX
  5
D86
  8
DEFAULT
 10
1.194279785566047
 20
3.599784302141518
 30
0.0
  0
VERTEX
  5
D87
  8
DEFAULT
 10
1.196433641516911
 20
3.602220483177308
 30
0.0
 42
-0.0538157399794
  0
VERTEX
  5
D88
  8
DEFAULT
 10
1.201111317172525
 20
3.606471882569586
 30
0.0
 42
-0.0934862421646
  0
VERTEX
  5
D89
  8
DEFAULT
 10
1.206134133262531
 20
3.608993983337289
 30
0.0
 42
-0.1717790098077
  0
VERTEX
  5
D8A
  8
DEFAULT
 10
1.210783736352162
 20
3.608576235440307
 30
0.0
 42
-0.1130192966171
  0
VERTEX
  5
D8B
  8
DEFAULT
 10
1.213864635026901
 20
3.606041657995767
 30
0.0
 42
-0.0783995895056
  0
VERTEX
  5
D8C
  8
DEFAULT
 10
1.217275973481797
 20
3.599616100519356
 30
0.0
 42
-0.0486898973743
  0
VERTEX
  5
D8D
  8
DEFAULT
 10
1.22026572987472
 20
3.587341528265331
 30
0.0
 42
-0.0241967130885
  0
VERTEX
  5
D8E
  8
DEFAULT
 10
1.22212544757176
 20
3.568507226219168
 30
0.0
  0
VERTEX
  5
D8F
  8
DEFAULT
 10
1.222473882620823
 20
3.559051794445877
 30
0.0
 42
-0.0121343489099
  0
VERTEX
  5
D90
  8
DEFAULT
 10
1.222576522497221
 20
3.549588867495971
 30
0.0
 42
0.0556675047145
  0
VERTEX
  5
D91
  8
DEFAULT
 10
1.227910016020076
 20
3.502554634602442
 30
0.0
 42
0.0897401004782
  0
VERTEX
  5
D92
  8
DEFAULT
 10
1.260502438394046
 20
3.426935757422423
 30
0.0
 42
0.1202069330416
  0
VERTEX
  5
D93
  8
DEFAULT
 10
1.350640464658724
 20
3.34357074652927
 30
0.0
 42
0.0618313792747
  0
VERTEX
  5
D94
  8
DEFAULT
 10
1.407979264351476
 20
3.320293167213165
 30
0.0
 42
0.0642143572175
  0
VERTEX
  5
D95
  8
DEFAULT
 10
1.469318820680673
 20
3.312113553517883
 30
0.0
 42
-0.0494846129223
  0
VERTEX
  5
D96
  8
DEFAULT
 10
1.488102786541752
 20
3.310401701478066
 30
0.0
 42
-0.0478260876987
  0
VERTEX
  5
D97
  8
DEFAULT
 10
1.497421638951621
 20
3.307746958629099
 30
0.0
 42
-0.0675125384915
  0
VERTEX
  5
D98
  8
DEFAULT
 10
1.501829383548928
 20
3.305391857778476
 30
0.0
 42
-0.0791399701613
  0
VERTEX
  5
D99
  8
DEFAULT
 10
1.503684340039205
 20
3.303619274120803
 30
0.0
 42
-0.168746177612
  0
VERTEX
  5
D9A
  8
DEFAULT
 10
1.504567709441151
 20
3.301207220172677
 30
0.0
 42
-0.2254345141991
  0
VERTEX
  5
D9B
  8
DEFAULT
 10
1.500647285095349
 20
3.293278670348644
 30
0.0
 42
-0.1754984413805
  0
VERTEX
  5
D9C
  8
DEFAULT
 10
1.492293842710851
 20
3.290361414158688
 30
0.0
 42
0.2037025409236
  0
VERTEX
  5
D9D
  8
DEFAULT
 10
1.487992051430861
 20
3.288633647195029
 30
0.0
 42
0.0938630315899
  0
VERTEX
  5
D9E
  8
DEFAULT
 10
1.485751302538982
 20
3.285270615823923
 30
0.0
 42
0.0756183540996
  0
VERTEX
  5
D9F
  8
DEFAULT
 10
1.483913294953917
 20
3.277871063737578
 30
0.0
 42
0.0494806262133
  0
VERTEX
  5
DA0
  8
DEFAULT
 10
1.483774981681252
 20
3.263711430555204
 30
0.0
 42
0.037155844806
  0
VERTEX
  5
DA1
  8
DEFAULT
 10
1.487545043475825
 20
3.239285466481533
 30
0.0
 42
0.017492339375
  0
VERTEX
  5
DA2
  8
DEFAULT
 10
1.492284312330442
 20
3.221356068415623
 30
0.0
 42
0.0331095562119
  0
VERTEX
  5
DA3
  8
DEFAULT
 10
1.501970340828775
 20
3.195281316008022
 30
0.0
 42
0.0156126637403
  0
VERTEX
  5
DA4
  8
DEFAULT
 10
1.504924136478737
 20
3.188975052405568
 30
0.0
 42
0.0384720263865
  0
VERTEX
  5
DA5
  8
DEFAULT
 10
1.515478923402907
 20
3.170965584891445
 30
0.0
 42
0.0249853336313
  0
VERTEX
  5
DA6
  8
DEFAULT
 10
1.522618187118545
 20
3.161714998708872
 30
0.0
 42
0.0484172677902
  0
VERTEX
  5
DA7
  8
DEFAULT
 10
1.553974189862871
 20
3.131251965778212
 30
0.0
 42
0.0542633389874
  0
VERTEX
  5
DA8
  8
DEFAULT
 10
1.609129273385172
 20
3.095942648781046
 30
0.0
 42
0.0293230685673
  0
VERTEX
  5
DA9
  8
DEFAULT
 10
1.639286606336929
 20
3.082991189096325
 30
0.0
 42
0.0381851121986
  0
VERTEX
  5
DAA
  8
DEFAULT
 10
1.670898890860938
 20
3.074178616123031
 30
0.0
  0
VERTEX
  5
DAB
  8
DEFAULT
 10
1.678510599612162
 20
3.072773447801156
 30
0.0
 42
0.0303349692215
  0
VERTEX
  5
DAC
  8
DEFAULT
 10
1.707303516883437
 20
3.069208166445008
 30
0.0
 42
0.0319996121436
  0
VERTEX
  5
DAD
  8
DEFAULT
 10
1.729045447637033
 20
3.069371286767413
 30
0.0
 42
0.0239616699489
  0
VERTEX
  5
DAE
  8
DEFAULT
 10
1.761372053849961
 20
3.073431382915292
 30
0.0
  0
VERTEX
  5
DAF
  8
DEFAULT
 10
1.763381687466673
 20
3.073772422748038
 30
0.0
  0
VERTEX
  5
DB0
  8
DEFAULT
 10
1.778409779206582
 20
3.07649996152235
 30
0.0
  0
VERTEX
  5
DB1
  8
DEFAULT
 10
1.782160087161637
 20
3.077218092982303
 30
0.0
 42
0.0138538656225
  0
VERTEX
  5
DB2
  8
DEFAULT
 10
1.784972013026636
 20
3.077763863083938
 30
0.0
 42
0.0042375820663
  0
SEQEND
  5
D1E
  8
DEFAULT
  0
POLYLINE
  5
57D
  8
DEFAULT
 66
     1
 10
0.0
 20
0.0
 30
0.0
 70
     1
  0
VERTEX
  5
DB4
  8
DEFAULT
 10
2.979598480244703
 20
3.073195152673316
 30
0.0
 42
0.0860878459562
  0
VERTEX
  5
DB5
  8
DEFAULT
 10
2.978940792836814
 20
3.075806036818731
 30
0.0
 42
0.0587632968864
  0
VERTEX
  5
DB6
  8
DEFAULT
 10
2.976311318731633
 20
3.080014079364203
 30
0.0
 42
0.0378758718352
  0
VERTEX
  5
DB7
  8
DEFAULT
 10
2.970451816729954
 20
3.086372058000563
 30
0.0
 42
0.0524177301161
  0
VERTEX
  5
DB8
  8
DEFAULT
 10
2.949772494491219
 20
3.101918772397538
 30
0.0
  0
VERTEX
  5
DB9
  8
DEFAULT
 10
2.938341539547944
 20
3.108921072710786
 30
0.0
  0
VERTEX
  5
DBA
  8
DEFAULT
 10
2.927670221826615
 20
3.115563618682609
 30
0.0
 42
-0.0046631482755
  0
VERTEX
  5
DBB
  8
DEFAULT
 10
2.907802304533321
 20
3.128239899737269
 30
0.0
 42
-0.0089482890431
  0
VERTEX
  5
DBC
  8
DEFAULT
 10
2.873565929420035
 20
3.151251584664424
 30
0.0
 42
-0.0187879701309
  0
VERTEX
  5
DBD
  8
DEFAULT
 10
2.824036237948256
 20
3.188345320326304
 30
0.0
 42
-0.0115282453893
  0
VERTEX
  5
DBE
  8
DEFAULT
 10
2.800453843611473
 20
3.208391589810321
 30
0.0
 42
-0.0044600268722
  0
VERTEX
  5
DBF
  8
DEFAULT
 10
2.794719834763823
 20
3.213585131390363
 30
0.0
  0
VERTEX
  5
DC0
  8
DEFAULT
 10
2.78625082977103
 20
3.221525672154707
 30
0.0
  0
VERTEX
  5
DC1
  8
DEFAULT
 10
2.777958536044095
 20
3.229646352135159
 30
0.0
  0
VERTEX
  5
DC2
  8
DEFAULT
 10
2.752278979473284
 20
3.255348914943413
 30
0.0
  0
VERTEX
  5
DC3
  8
DEFAULT
 10
2.749780300584298
 20
3.257836486251134
 30
0.0
 42
0.0040683774381
  0
VERTEX
  5
DC4
  8
DEFAULT
 10
2.740029506460985
 20
3.267477872597489
 30
0.0
  0
VERTEX
  5
DC5
  8
DEFAULT
 10
2.731257679178242
 20
3.276000266770455
 30
0.0
  0
VERTEX
  5
DC6
  8
DEFAULT
 10
2.723315847002481
 20
3.28349420455328
 30
0.0
 42
0.0192985486652
  0
VERTEX
  5
DC7
  8
DEFAULT
 10
2.708608090486657
 20
3.296228092954789
 30
0.0
  0
VERTEX
  5
DC8
  8
DEFAULT
 10
2.705625850298249
 20
3.298493670449309
 30
0.0
  0
VERTEX
  5
DC9
  8
DEFAULT
 10
2.702746038972396
 20
3.300524816448606
 30
0.0
 42
0.0339366877713
  0
VERTEX
  5
DCA
  8
DEFAULT
 10
2.69706903699013
 20
3.303945913969815
 30
0.0
 42
0.1039288926834
  0
VERTEX
  5
DCB
  8
DEFAULT
 10
2.686017600561394
 20
3.307360759343772
 30
0.0
 42
0.0896466029
  0
VERTEX
  5
DCC
  8
DEFAULT
 10
2.677526044200236
 20
3.306279415510545
 30
0.0
 42
0.0546703935744
  0
VERTEX
  5
DCD
  8
DEFAULT
 10
2.66594180454816
 20
3.300936689077654
 30
0.0
  0
VERTEX
  5
DCE
  8
DEFAULT
 10
2.654937945882785
 20
3.294480769816452
 30
0.0
 42
0.0637270822506
  0
VERTEX
  5
DCF
  8
DEFAULT
 10
2.634794172885987
 20
3.278939344030792
 30
0.0
 42
0.0465664624451
  0
VERTEX
  5
DD0
  8
DEFAULT
 10
2.626480952856661
 20
3.269097258776845
 30
0.0
 42
0.0969135069539
  0
VERTEX
  5
DD1
  8
DEFAULT
 10
2.626027667590151
 20
3.268419207268781
 30
0.0
 42
0.0553016007898
  0
VERTEX
  5
DD2
  8
DEFAULT
 10
2.623100956900465
 20
3.263070438829895
 30
0.0
 42
0.0961985470225
  0
VERTEX
  5
DD3
  8
DEFAULT
 10
2.621686612772827
 20
3.25713644406411
 30
0.0
 42
0.0821164307929
  0
VERTEX
  5
DD4
  8
DEFAULT
 10
2.622350505547823
 20
3.253119114819758
 30
0.0
 42
0.0547306032491
  0
VERTEX
  5
DD5
  8
DEFAULT
 10
2.625517454546363
 20
3.245889861554345
 30
0.0
 42
0.0381082476963
  0
VERTEX
  5
DD6
  8
DEFAULT
 10
2.633934390397312
 20
3.233248222789801
 30
0.0
 42
0.0263642227513
  0
VERTEX
  5
DD7
  8
DEFAULT
 10
2.652389954313447
 20
3.211658815024192
 30
0.0
  0
VERTEX
  5
DD8
  8
DEFAULT
 10
2.654518081157694
 20
3.209395899505974
 30
0.0
 42
0.0197509627352
  0
VERTEX
  5
DD9
  8
DEFAULT
 10
2.689643260288133
 20
3.175380396093186
 30
0.0
  0
VERTEX
  5
DDA
  8
DEFAULT
 10
2.696493889084337
 20
3.16928006409017
 30
0.0
  0
VERTEX
  5
DDB
  8
DEFAULT
 10
2.702978075577683
 20
3.163633501128375
 30
0.0
 42
0.0079892160125
  0
VERTEX
  5
DDC
  8
DEFAULT
 10
2.715297072021168
 20
3.1532281103499
 30
0.0
 42
0.0208025020031
  0
VERTEX
  5
DDD
  8
DEFAULT
 10
2.760072770706581
 20
3.118878272484942
 30
0.0
 42
0.007260839331
  0
VERTEX
  5
DDE
  8
DEFAULT
 10
2.771738841878675
 20
3.110917255394402
 30
0.0
  0
VERTEX
  5
DDF
  8
DEFAULT
 10
2.780645679903887
 20
3.105180271773169
 30
0.0
  0
VERTEX
  5
DE0
  8
DEFAULT
 10
2.787431002204431
 20
3.101039135234346
 30
0.0
 42
0.025226410084
  0
VERTEX
  5
DE1
  8
DEFAULT
 10
2.808476147435673
 20
3.089857577572625
 30
0.0
 42
0.0259824659487
  0
VERTEX
  5
DE2
  8
DEFAULT
 10
2.828853685171081
 20
3.081903216378561
 30
0.0
 42
0.0116890152829
  0
VERTEX
  5
DE3
  8
DEFAULT
 10
2.847184732962851
 20
3.076339746234517
 30
0.0
 42
0.0102869533051
  0
VERTEX
  5
DE4
  8
DEFAULT
 10
2.86347655882645
 20
3.072285005282916
 30
0.0
 42
0.0341094281431
  0
VERTEX
  5
DE5
  8
DEFAULT
 10
2.921613517396789
 20
3.0632430528578
 30
0.0
 42
0.0313876665915
  0
VERTEX
  5
DE6
  8
DEFAULT
 10
2.951593027171961
 20
3.062466203293576
 30
0.0
 42
0.0442841724508
  0
VERTEX
  5
DE7
  8
DEFAULT
 10
2.966958884607387
 20
3.064268861756171
 30
0.0
 42
0.0623672878773
  0
VERTEX
  5
DE8
  8
DEFAULT
 10
2.974625336074763
 20
3.066825160074678
 30
0.0
 42
0.0868887866087
  0
VERTEX
  5
DE9
  8
DEFAULT
 10
2.978020713996172
 20
3.069301183753528
 30
0.0
 42
0.1894876535673
  0
SEQEND
  5
DB3
  8
DEFAULT
  0
POLYLINE
  5
5B5
  8
DEFAULT
 66
     1
 10
0.0
 20
0.0
 30
0.0
 70
     1
  0
VERTEX
  5
DEB
  8
DEFAULT
 10
1.266665860320697
 20
3.106503515979806
 30
0.0
 42
0.0261621355326
  0
VERTEX
  5
DEC
  8
DEFAULT
 10
1.269755570151002
 20
3.108124645623222
 30
0.0
  0
VERTEX
  5
DED
  8
DEFAULT
 10
1.27563559004963
 20
3.111463315284026
 30
0.0
  0
VERTEX
  5
DEE
  8
DEFAULT
 10
1.281051386904564
 20
3.114755059604561
 30
0.0
 42
0.0229017646591
  0
VERTEX
  5
DEF
  8
DEFAULT
 10
1.319996785637178
 20
3.14196184371308
 30
0.0
 42
0.0186588274082
  0
VERTEX
  5
DF0
  8
DEFAULT
 10
1.356737946178415
 20
3.172078058024277
 30
0.0
 42
0.0102175468176
  0
VERTEX
  5
DF1
  8
DEFAULT
 10
1.383012238742507
 20
3.196556312020884
 30
0.0
 42
0.0071290119011
  0
VERTEX
  5
DF2
  8
DEFAULT
 10
1.394125906292181
 20
3.207846756254068
 30
0.0
 42
0.018518024629
  0
VERTEX
  5
DF3
  8
DEFAULT
 10
1.403931673651976
 20
3.218753945633708
 30
0.0
  0
VERTEX
  5
DF4
  8
DEFAULT
 10
1.40810833278183
 20
3.223863954727506
 30
0.0
 42
0.0219738223187
  0
VERTEX
  5
DF5
  8
DEFAULT
 10
1.415382119026287
 20
3.23408317403733
 30
0.0
 42
0.0476158826116
  0
VERTEX
  5
DF6
  8
DEFAULT
 10
1.420595582724808
 20
3.244150527724247
 30
0.0
 42
0.0870502194146
  0
VERTEX
  5
DF7
  8
DEFAULT
 10
1.422803976616388
 20
3.253867061261444
 30
0.0
 42
0.2327340085541
  0
VERTEX
  5
DF8
  8
DEFAULT
 10
1.416086346043696
 20
3.268881779894817
 30
0.0
 42
0.068981228232
  0
VERTEX
  5
DF9
  8
DEFAULT
 10
1.405977454411833
 20
3.275316033395218
 30
0.0
 42
0.0448459298843
  0
VERTEX
  5
DFA
  8
DEFAULT
 10
1.389080644490644
 20
3.281257213548376
 30
0.0
 42
0.0295688782644
  0
VERTEX
  5
DFB
  8
DEFAULT
 10
1.387997792569021
 20
3.281545286377204
 30
0.0
  0
VERTEX
  5
DFC
  8
DEFAULT
 10
1.383926625698522
 20
3.282563960698396
 30
0.0
 42
0.0003493501908
  0
VERTEX
  5
DFD
  8
DEFAULT
 10
1.377782051087981
 20
3.283938913647677
 30
0.0
  0
VERTEX
  5
DFE
  8
DEFAULT
 10
1.37160388145701
 20
3.285164633575134
 30
0.0
 42
0.0149162417353
  0
VERTEX
  5
DFF
  8
DEFAULT
 10
1.362700485866902
 20
3.286742859639985
 30
0.0
  0
VERTEX
  5
E00
  8
DEFAULT
 10
1.358504545721085
 20
3.287357423096337
 30
0.0
 42
0.0176535374672
  0
VERTEX
  5
E01
  8
DEFAULT
 10
1.35033139040235
 20
3.288033408574743
 30
0.0
 42
0.0946315734588
  0
VERTEX
  5
E02
  8
DEFAULT
 10
1.33531107739476
 20
3.285767296567619
 30
0.0
 42
0.0583508705176
  0
VERTEX
  5
E03
  8
DEFAULT
 10
1.323702819732545
 20
3.279801550715992
 30
0.0
  0
VERTEX
  5
E04
  8
DEFAULT
 10
1.321353370468788
 20
3.278198625307386
 30
0.0
 42
0.0326327778989
  0
VERTEX
  5
E05
  8
DEFAULT
 10
1.304413512914867
 20
3.264144112311705
 30
0.0
  0
VERTEX
  5
E06
  8
DEFAULT
 10
1.301391329297396
 20
3.261332189756552
 30
0.0
  0
VERTEX
  5
E07
  8
DEFAULT
 10
1.295799874520587
 20
3.255987947127823
 30
0.0
 42
0.0065749209701
  0
VERTEX
  5
E08
  8
DEFAULT
 10
1.25774778255353
 20
3.217474824632188
 30
0.0
 42
-0.0013615547738
  0
VERTEX
  5
E09
  8
DEFAULT
 10
1.254694814524609
 20
3.214339804021583
 30
0.0
  0
VERTEX
  5
E0A
  8
DEFAULT
 10
1.248755167394671
 20
3.208294125969339
 30
0.0
  0
VERTEX
  5
E0B
  8
DEFAULT
 10
1.243157307812794
 20
3.202657814775901
 30
0.0
  0
VERTEX
  5
E0C
  8
DEFAULT
 10
1.237882977443121
 20
3.197399245924504
 30
0.0
 42
-0.0038557961102
  0
VERTEX
  5
E0D
  8
DEFAULT
 10
1.217887354123784
 20
3.177900133182421
 30
0.0
  0
VERTEX
  5
E0E
  8
DEFAULT
 10
1.20265683088558
 20
3.163515535274611
 30
0.0
  0
VERTEX
  5
E0F
  8
DEFAULT
 10
1.19107967461313
 20
3.15288565054998
 30
0.0
  0
VERTEX
  5
E10
  8
DEFAULT
 10
1.182290657624019
 20
3.145029897669259
 30
0.0
 42
-0.0498151449851
  0
VERTEX
  5
E11
  8
DEFAULT
 10
1.181874029258669
 20
3.144662941602774
 30
0.0
 42
-0.0707650139962
  0
VERTEX
  5
E12
  8
DEFAULT
 10
1.181054909587842
 20
3.14394306876633
 30
0.0
 42
-0.0708750739696
  0
VERTEX
  5
E13
  8
DEFAULT
 10
1.180260389482757
 20
3.14324687411
 30
0.0
 42
-0.0709654241574
  0
VERTEX
  5
E14
  8
DEFAULT
 10
1.179489792809206
 20
3.14257363569865
 30
0.0
 42
-0.0083707022023
  0
VERTEX
  5
E15
  8
DEFAULT
 10
1.167420093690866
 20
3.132343654707466
 30
0.0
 42
-0.0273932131789
  0
VERTEX
  5
E16
  8
DEFAULT
 10
1.154790177264736
 20
3.12281645799014
 30
0.0
  0
VERTEX
  5
E17
  8
DEFAULT
 10
1.149055808350939
 20
3.118992336688847
 30
0.0
  0
VERTEX
  5
E18
  8
DEFAULT
 10
1.143801603793449
 20
3.115245452367887
 30
0.0
 42
0.0248622063042
  0
VERTEX
  5
E19
  8
DEFAULT
 10
1.134455951112961
 20
3.107531269143505
 30
0.0
 42
0.0674997566437
  0
VERTEX
  5
E1A
  8
DEFAULT
 10
1.128007199670635
 20
3.099879837768419
 30
0.0
 42
0.0596361741332
  0
VERTEX
  5
E1B
  8
DEFAULT
 10
1.126415994714628
 20
3.096262342055144
 30
0.0
 42
0.2198186655083
  0
VERTEX
  5
E1C
  8
DEFAULT
 10
1.127322716219783
 20
3.089679083087813
 30
0.0
 42
0.098954538992
  0
VERTEX
  5
E1D
  8
DEFAULT
 10
1.13073172038971
 20
3.086280363528373
 30
0.0
 42
0.0653721882241
  0
VERTEX
  5
E1E
  8
DEFAULT
 10
1.137114470764645
 20
3.083006361953605
 30
0.0
 42
0.028432690396
  0
VERTEX
  5
E1F
  8
DEFAULT
 10
1.143944371250749
 20
3.080819213744046
 30
0.0
 42
0.0563803014703
  0
VERTEX
  5
E20
  8
DEFAULT
 10
1.159794876973416
 20
3.078597836049243
 30
0.0
 42
0.0219378748508
  0
VERTEX
  5
E21
  8
DEFAULT
 10
1.166772241328837
 20
3.078527370878152
 30
0.0
 42
0.0377872962982
  0
VERTEX
  5
E22
  8
DEFAULT
 10
1.192756924025953
 20
3.081272882436617
 30
0.0
 42
0.0215565690951
  0
VERTEX
  5
E23
  8
DEFAULT
 10
1.211873680495624
 20
3.085550234386303
 30
0.0
 42
0.0511397976327
  0
SEQEND
  5
DEA
  8
DEFAULT
  0
POLYLINE
  5
5F0
  8
DEFAULT
 66
     1
 10
0.0
 20
0.0
 30
0.0
 70
     1
  0
VERTEX
  5
E25
  8
DEFAULT
 10
2.247491471290429
 20
3.085418676036062
 30
0.0
  0
VERTEX
  5
E26
  8
DEFAULT
 10
2.253827921177697
 20
3.087150494126173
 30
0.0
 42
0.0617683355715
  0
VERTEX
  5
E27
  8
DEFAULT
 10
2.300210287626349
 20
3.107759690809087
 30
0.0
 42
0.0738440540154
  0
VERTEX
  5
E28
  8
DEFAULT
 10
2.359051423055503
 20
3.155816753696768
 30
0.0
 42
0.0403988642937
  0
VERTEX
  5
E29
  8
DEFAULT
 10
2.382442668351421
 20
3.185949113587932
 30
0.0
 42
0.0526875821149
  0
VERTEX
  5
E2A
  8
DEFAULT
 10
2.399921926606831
 20
3.219858410150722
 30
0.0
 42
0.0095662386502
  0
VERTEX
  5
E2B
  8
DEFAULT
 10
2.405668945823594
 20
3.235630156097797
 30
0.0
  0
VERTEX
  5
E2C
  8
DEFAULT
 10
2.406180536673705
 20
3.237143906925353
 30
0.0
  0
VERTEX
  5
E2D
  8
DEFAULT
 10
2.406668300057081
 20
3.238614825647639
 30
0.0
  0
VERTEX
  5
E2E
  8
DEFAULT
 10
2.407132994206095
 20
3.240045231569077
 30
0.0
 42
0.0183636994923
  0
VERTEX
  5
E2F
  8
DEFAULT
 10
2.410328837384972
 20
3.251246527380354
 30
0.0
  0
VERTEX
  5
E30
  8
DEFAULT
 10
2.411259502097192
 20
3.255564876899577
 30
0.0
  0
VERTEX
  5
E31
  8
DEFAULT
 10
2.411873278027477
 20
3.259394917481152
 30
0.0
 42
0.0970020008108
  0
VERTEX
  5
E32
  8
DEFAULT
 10
2.411352862347377
 20
3.272926470116512
 30
0.0
 42
0.1109932944083
  0
VERTEX
  5
E33
  8
DEFAULT
 10
2.404869987896633
 20
3.284818455670596
 30
0.0
  0
VERTEX
  5
E34
  8
DEFAULT
 10
2.401831104303003
 20
3.288622659178796
 30
0.0
  0
VERTEX
  5
E35
  8
DEFAULT
 10
2.399649361738086
 20
3.291572319634197
 30
0.0
 42
-0.0311804418244
  0
VERTEX
  5
E36
  8
DEFAULT
 10
2.396622993705421
 20
3.296202652532649
 30
0.0
 42
-0.018849783825
  0
VERTEX
  5
E37
  8
DEFAULT
 10
2.395310592795727
 20
3.298728744662661
 30
0.0
 42
-0.068250476143
  0
VERTEX
  5
E38
  8
DEFAULT
 10
2.394809837976876
 20
3.300152814525715
 30
0.0
  0
VERTEX
  5
E39
  8
DEFAULT
 10
2.39473306968242
 20
3.300978840299937
 30
0.0
 42
-0.3891850761531
  0
VERTEX
  5
E3A
  8
DEFAULT
 10
2.395308014615423
 20
3.301577301569286
 30
0.0
  0
VERTEX
  5
E3B
  8
DEFAULT
 10
2.406188160712108
 20
3.302000137681398
 30
0.0
  0
VERTEX
  5
E3C
  8
DEFAULT
 10
2.444274272820085
 20
3.303186466490467
 30
0.0
  0
VERTEX
  5
E3D
  8
DEFAULT
 10
2.463319947594924
 20
3.303744882532962
 30
0.0
  0
VERTEX
  5
E3E
  8
DEFAULT
 10
2.482363341424951
 20
3.30428873385776
 30
0.0
  0
VERTEX
  5
E3F
  8
DEFAULT
 10
2.499574600716854
 20
3.304860871750241
 30
0.0
  0
VERTEX
  5
E40
  8
DEFAULT
 10
2.507120888846158
 20
3.305191543390826
 30
0.0
 42
0.0145384744807
  0
VERTEX
  5
E41
  8
DEFAULT
 10
2.510662682506565
 20
3.305371435128156
 30
0.0
 42
0.0103261857871
  0
VERTEX
  5
E42
  8
DEFAULT
 10
2.514093943011206
 20
3.305564084391152
 30
0.0
  0
VERTEX
  5
E43
  8
DEFAULT
 10
2.51741614453211
 20
3.30577047076273
 30
0.0
  0
VERTEX
  5
E44
  8
DEFAULT
 10
2.523851891421809
 20
3.306237028665482
 30
0.0
  0
VERTEX
  5
E45
  8
DEFAULT
 10
2.526868252301612
 20
3.306491761749469
 30
0.0
 42
0.0287830272967
  0
VERTEX
  5
E46
  8
DEFAULT
 10
2.550096744735226
 20
3.309674798860796
 30
0.0
 42
0.075926711899
  0
VERTEX
  5
E47
  8
DEFAULT
 10
2.583113257959996
 20
3.321548370461038
 30
0.0
 42
0.0268185308578
  0
VERTEX
  5
E48
  8
DEFAULT
 10
2.585038946331997
 20
3.322604817982275
 30
0.0
 42
0.0188467111609
  0
VERTEX
  5
E49
  8
DEFAULT
 10
2.599032175481365
 20
3.331266141533368
 30
0.0
  0
VERTEX
  5
E4A
  8
DEFAULT
 10
2.605815134472134
 20
3.33592535798329
 30
0.0
  0
VERTEX
  5
E4B
  8
DEFAULT
 10
2.61251312888293
 20
3.340703244512385
 30
0.0
 42
0.1299137511935
  0
VERTEX
  5
E4C
  8
DEFAULT
 10
2.691599806680005
 20
3.437462470984204
 30
0.0
 42
0.07266167646
  0
VERTEX
  5
E4D
  8
DEFAULT
 10
2.70929512639571
 20
3.498249471426445
 30
0.0
 42
0.0409447988757
  0
VERTEX
  5
E4E
  8
DEFAULT
 10
2.71088358485051
 20
3.529993265880725
 30
0.0
 42
0.0470034254003
  0
VERTEX
  5
E4F
  8
DEFAULT
 10
2.706775166403142
 20
3.561506795088633
 30
0.0
 42
-0.0460700983224
  0
VERTEX
  5
E50
  8
DEFAULT
 10
2.705514242117008
 20
3.569790752955676
 30
0.0
 42
-0.0455880607405
  0
VERTEX
  5
E51
  8
DEFAULT
 10
2.705591997654162
 20
3.573313741745359
 30
0.0
 42
-0.0682051966853
  0
VERTEX
  5
E52
  8
DEFAULT
 10
2.706319400797992
 20
3.576387466285618
 30
0.0
 42
-0.2904648467166
  0
VERTEX
  5
E53
  8
DEFAULT
 10
2.710369204488668
 20
3.579678719385413
 30
0.0
 42
-0.1116920317406
  0
VERTEX
  5
E54
  8
DEFAULT
 10
2.714477197972969
 20
3.579028651412774
 30
0.0
 42
-0.0731181562366
  0
VERTEX
  5
E55
  8
DEFAULT
 10
2.721037196019585
 20
3.575169992683354
 30
0.0
 42
-0.0385873614156
  0
VERTEX
  5
E56
  8
DEFAULT
 10
2.726003593634856
 20
3.570790894772544
 30
0.0
 42
-0.0593360315277
  0
VERTEX
  5
E57
  8
DEFAULT
 10
2.740150691319345
 20
3.552546770035883
 30
0.0
 42
-0.0462055136031
  0
VERTEX
  5
E58
  8
DEFAULT
 10
2.75038508933329
 20
3.531853782997263
 30
0.0
 42
0.0346398720981
  0
VERTEX
  5
E59
  8
DEFAULT
 10
2.755478292220769
 20
3.521052844083628
 30
0.0
 42
0.0268304678503
  0
VERTEX
  5
E5A
  8
DEFAULT
 10
2.761488434277867
 20
3.511228008528629
 30
0.0
 42
0.0175998663075
  0
VERTEX
  5
E5B
  8
DEFAULT
 10
2.764661348749394
 20
3.506651208386495
 30
0.0
 42
0.0207695294572
  0
VERTEX
  5
E5C
  8
DEFAULT
 10
2.778273240170621
 20
3.489501028819004
 30
0.0
 42
0.0223607217979
  0
VERTEX
  5
E5D
  8
DEFAULT
 10
2.806598720573259
 20
3.459876013926174
 30
0.0
  0
VERTEX
  5
E5E
  8
DEFAULT
 10
2.807407095016215
 20
3.459097234439401
 30
0.0
 42
0.0181174141173
  0
VERTEX
  5
E5F
  8
DEFAULT
 10
2.860858596514873
 20
3.41178119374687
 30
0.0
  0
VERTEX
  5
E60
  8
DEFAULT
 10
2.871191201960201
 20
3.403274260165965
 30
0.0
  0
VERTEX
  5
E61
  8
DEFAULT
 10
2.876058627309504
 20
3.399315865221254
 30
0.0
 42
0.0053132335049
  0
VERTEX
  5
E62
  8
DEFAULT
 10
2.914202144958014
 20
3.369171688376711
 30
0.0
 42
0.003529894043
  0
VERTEX
  5
E63
  8
DEFAULT
 10
2.943194405883945
 20
3.347061842840513
 30
0.0
 42
0.022535237806
  0
VERTEX
  5
E64
  8
DEFAULT
 10
2.945928167382407
 20
3.34500522450465
 30
0.0
  0
VERTEX
  5
E65
  8
DEFAULT
 10
2.967167098461933
 20
3.329168529172892
 30
0.0
  0
VERTEX
  5
E66
  8
DEFAULT
 10
2.9751605046366
 20
3.323267749841421
 30
0.0
  0
VERTEX
  5
E67
  8
DEFAULT
 10
2.989180569954141
 20
3.31298811569394
 30
0.0
  0
VERTEX
  5
E68
  8
DEFAULT
 10
3.010281628602185
 20
3.297667970858138
 30
0.0
  0
VERTEX
  5
E69
  8
DEFAULT
 10
3.031460026987706
 20
3.282452009955062
 30
0.0
 42
0.0175800913522
  0
VERTEX
  5
E6A
  8
DEFAULT
 10
3.07524955673933
 20
3.253539719682392
 30
0.0
 42
0.0072034044572
  0
VERTEX
  5
E6B
  8
DEFAULT
 10
3.095105867334133
 20
3.241890502305759
 30
0.0
 42
0.0311075358819
  0
VERTEX
  5
E6C
  8
DEFAULT
 10
3.172791311432862
 20
3.204104829451847
 30
0.0
 42
0.012795015649
  0
VERTEX
  5
E6D
  8
DEFAULT
 10
3.203267967659201
 20
3.192519247957087
 30
0.0
 42
0.0265711709827
  0
VERTEX
  5
E6E
  8
DEFAULT
 10
3.258122963236027
 20
3.176390456378274
 30
0.0
 42
0.0252773421294
  0
VERTEX
  5
E6F
  8
DEFAULT
 10
3.300498017196974
 20
3.168557101119557
 30
0.0
  0
VERTEX
  5
E70
  8
DEFAULT
 10
3.308552861656004
 20
3.167593553273073
 30
0.0
  0
VERTEX
  5
E71
  8
DEFAULT
 10
3.316127467752251
 20
3.16685807583703
 30
0.0
 42
0.0222588748088
  0
VERTEX
  5
E72
  8
DEFAULT
 10
3.344654676357498
 20
3.165742070881357
 30
0.0
 42
0.0522827631319
  0
VERTEX
  5
E73
  8
DEFAULT
 10
3.387268861077923
 20
3.1703740377745
 30
0.0
 42
0.0405438585293
  0
VERTEX
  5
E74
  8
DEFAULT
 10
3.407849033507474
 20
3.176649635658714
 30
0.0
 42
0.0507026415472
  0
VERTEX
  5
E75
  8
DEFAULT
 10
3.42698834340709
 20
3.186487136849818
 30
0.0
 42
0.019775633383
  0
VERTEX
  5
E76
  8
DEFAULT
 10
3.436554506744184
 20
3.19321039492822
 30
0.0
 42
0.0263573469399
  0
VERTEX
  5
E77
  8
DEFAULT
 10
3.444640487641189
 20
3.199992528502778
 30
0.0
 42
0.0534087020405
  0
VERTEX
  5
E78
  8
DEFAULT
 10
3.451069450421947
 20
3.207210414802097
 30
0.0
 42
0.0935405587075
  0
VERTEX
  5
E79
  8
DEFAULT
 10
3.45474414183856
 20
3.214856708422887
 30
0.0
 42
0.1433438155021
  0
VERTEX
  5
E7A
  8
DEFAULT
 10
3.454446634835488
 20
3.221932109771602
 30
0.0
 42
0.0985647619923
  0
VERTEX
  5
E7B
  8
DEFAULT
 10
3.451449615396259
 20
3.227063842449565
 30
0.0
 42
0.076926977283
  0
VERTEX
  5
E7C
  8
DEFAULT
 10
3.443545610471095
 20
3.233563299673602
 30
0.0
 42
0.0420419162647
  0
VERTEX
  5
E7D
  8
DEFAULT
 10
3.429775172947392
 20
3.24021378046789
 30
0.0
  0
VERTEX
  5
E7E
  8
DEFAULT
 10
3.426196494369583
 20
3.241560679887878
 30
0.0
 42
0.0034547360927
  0
VERTEX
  5
E7F
  8
DEFAULT
 10
3.423491449770823
 20
3.242514339720016
 30
0.0
 42
0.020697669312
  0
VERTEX
  5
E80
  8
DEFAULT
 10
3.419410499883303
 20
3.243865549131904
 30
0.0
  0
VERTEX
  5
E81
  8
DEFAULT
 10
3.415300765543532
 20
3.245136660461601
 30
0.0
 42
-0.0170309727996
  0
VERTEX
  5
E82
  8
DEFAULT
 10
3.396732364897622
 20
3.251282871887495
 30
0.0
 42
-0.0154213129192
  0
VERTEX
  5
E83
  8
DEFAULT
 10
3.361602954576298
 20
3.265373147552037
 30
0.0
 42
-0.0080638564237
  0
VERTEX
  5
E84
  8
DEFAULT
 10
3.357545905996115
 20
3.26716157560419
 30
0.0
 42
-0.0089694842927
  0
VERTEX
  5
E85
  8
DEFAULT
 10
3.349527431640079
 20
3.270778569763416
 30
0.0
  0
VERTEX
  5
E86
  8
DEFAULT
 10
3.347559112117879
 20
3.271682404974886
 30
0.0
  0
VERTEX
  5
E87
  8
DEFAULT
 10
3.345600915625305
 20
3.272587603940521
 30
0.0
  0
VERTEX
  5
E88
  8
DEFAULT
 10
3.343651479021261
 20
3.273494604220835
 30
0.0
  0
VERTEX
  5
E89
  8
DEFAULT
 10
3.328212683277169
 20
3.280872640899265
 30
0.0
 42
-0.0128902105194
  0
VERTEX
  5
E8A
  8
DEFAULT
 10
3.269458144962716
 20
3.311573515337775
 30
0.0
  0
VERTEX
  5
E8B
  8
DEFAULT
 10
3.256796874878047
 20
3.318638451914308
 30
0.0
 42
-0.0049617144527
  0
VERTEX
  5
E8C
  8
DEFAULT
 10
3.232428241204806
 20
3.332610632326034
 30
0.0
 42
-0.0104859215314
  0
VERTEX
  5
E8D
  8
DEFAULT
 10
3.142639994839051
 20
3.387667427350467
 30
0.0
 42
-0.0065214318842
  0
VERTEX
  5
E8E
  8
DEFAULT
 10
3.07665235224277
 20
3.431080822891336
 30
0.0
  0
VERTEX
  5
E8F
  8
DEFAULT
 10
3.052161866532351
 20
3.447740392866772
 30
0.0
  0
VERTEX
  5
E90
  8
DEFAULT
 10
3.041486708900465
 20
3.455089185932124
 30
0.0
  0
VERTEX
  5
E91
  8
DEFAULT
 10
3.02153615443837
 20
3.468960931454591
 30
0.0
  0
VERTEX
  5
E92
  8
DEFAULT
 10
3.004149257596182
 20
3.481193367165425
 30
0.0
 42
-0.0083348792859
  0
VERTEX
  5
E93
  8
DEFAULT
 10
2.88407885771694
 20
3.569122593698274
 30
0.0
  0
VERTEX
  5
E94
  8
DEFAULT
 10
2.880273215373251
 20
3.572000021740204
 30
0.0
  0
VERTEX
  5
E95
  8
DEFAULT
 10
2.876494405591489
 20
3.574852995331388
 30
0.0
  0
VERTEX
  5
E96
  8
DEFAULT
 10
2.87274239400401
 20
3.577681511724301
 30
0.0
  0
VERTEX
  5
E97
  8
DEFAULT
 10
2.869016729665819
 20
3.580485882671325
 30
0.0
 42
0.0036676732088
  0
VERTEX
  5
E98
  8
DEFAULT
 10
2.809548867907821
 20
3.624563459604144
 30
0.0
  0
VERTEX
  5
E99
  8
DEFAULT
 10
2.806261410907613
 20
3.626955911338013
 30
0.0
 42
0.0057510814337
  0
VERTEX
  5
E9A
  8
DEFAULT
 10
2.753685751585313
 20
3.664386461189466
 30
0.0
  0
VERTEX
  5
E9B
  8
DEFAULT
 10
2.742025284463576
 20
3.67243833482248
 30
0.0
 42
0.0075748354003
  0
VERTEX
  5
E9C
  8
DEFAULT
 10
2.696279311034047
 20
3.702889732684185
 30
0.0
  0
VERTEX
  5
E9D
  8
DEFAULT
 10
2.693741042478036
 20
3.704518235538081
 30
0.0
 42
0.009546807231
  0
VERTEX
  5
E9E
  8
DEFAULT
 10
2.652970093721441
 20
3.729592750116978
 30
0.0
 42
0.0125835790019
  0
VERTEX
  5
E9F
  8
DEFAULT
 10
2.616303841598982
 20
3.750049733067697
 30
0.0
 42
0.0131421900413
  0
VERTEX
  5
EA0
  8
DEFAULT
 10
2.583289698401646
 20
3.766324856808214
 30
0.0
 42
0.0340084458924
  0
VERTEX
  5
EA1
  8
DEFAULT
 10
2.523091423545578
 20
3.789350204541249
 30
0.0
 42
0.0331893977027
  0
VERTEX
  5
EA2
  8
DEFAULT
 10
2.475935282640707
 20
3.800170906393999
 30
0.0
 42
0.0525746662868
  0
VERTEX
  5
EA3
  8
DEFAULT
 10
2.403559418819146
 20
3.803585033737757
 30
0.0
  0
VERTEX
  5
EA4
  8
DEFAULT
 10
2.394516010548789
 20
3.802978074177761
 30
0.0
 42
0.0156371213316
  0
VERTEX
  5
EA5
  8
DEFAULT
 10
2.363000593771015
 20
3.799366813776982
 30
0.0
  0
VERTEX
  5
EA6
  8
DEFAULT
 10
2.355165369922541
 20
3.798146007884964
 30
0.0
 42
0.0114009638393
  0
VERTEX
  5
EA7
  8
DEFAULT
 10
2.331759966050304
 20
3.793852119912791
 30
0.0
 42
0.049822263382
  0
VERTEX
  5
EA8
  8
DEFAULT
 10
2.321858518244746
 20
3.790756919720706
 30
0.0
 42
0.037473909418
  0
VERTEX
  5
EA9
  8
DEFAULT
 10
2.304692294981844
 20
3.781830095389218
 30
0.0
 42
0.0212166428574
  0
VERTEX
  5
EAA
  8
DEFAULT
 10
2.290713721169902
 20
3.772328898738284
 30
0.0
 42
0.0472391191626
  0
VERTEX
  5
EAB
  8
DEFAULT
 10
2.247004943903192
 20
3.732592287376131
 30
0.0
  0
VERTEX
  5
EAC
  8
DEFAULT
 10
2.242081836914183
 20
3.727052039255809
 30
0.0
 42
0.0072467847123
  0
VERTEX
  5
EAD
  8
DEFAULT
 10
2.239972413294156
 20
3.724588095734776
 30
0.0
 42
0.0289512843308
  0
VERTEX
  5
EAE
  8
DEFAULT
 10
2.225209551281452
 20
3.705268725699608
 30
0.0
 42
0.0492415801375
  0
VERTEX
  5
EAF
  8
DEFAULT
 10
2.21335298043999
 20
3.684039976905893
 30
0.0
 42
0.0839209159447
  0
VERTEX
  5
EB0
  8
DEFAULT
 10
2.199194089464878
 20
3.623282500900493
 30
0.0
 42
0.0595434347171
  0
VERTEX
  5
EB1
  8
DEFAULT
 10
2.20186527039262
 20
3.576607483783113
 30
0.0
 42
0.0795884969531
  0
VERTEX
  5
EB2
  8
DEFAULT
 10
2.225037739704392
 20
3.510670729852233
 30
0.0
 42
0.0692171739099
  0
VERTEX
  5
EB3
  8
DEFAULT
 10
2.266522724568465
 20
3.454428450660222
 30
0.0
  0
VERTEX
  5
EB4
  8
DEFAULT
 10
2.307033148549395
 20
3.41268799601871
 30
0.0
  0
VERTEX
  5
EB5
  8
DEFAULT
 10
2.282692437776598
 20
3.376925028458391
 30
0.0
 42
-0.0132630478454
  0
VERTEX
  5
EB6
  8
DEFAULT
 10
2.274501857158753
 20
3.365502615825465
 30
0.0
  0
VERTEX
  5
EB7
  8
DEFAULT
 10
2.27045257911956
 20
3.360289790217625
 30
0.0
 42
-0.0166118636082
  0
VERTEX
  5
EB8
  8
DEFAULT
 10
2.262204664831356
 20
3.350503449455153
 30
0.0
 42
-0.0296064771714
  0
VERTEX
  5
EB9
  8
DEFAULT
 10
2.245201017499001
 20
3.333541070001849
 30
0.0
 42
-0.0192268271324
  0
VERTEX
  5
EBA
  8
DEFAULT
 10
2.237094411111981
 20
3.326829050303264
 30
0.0
 42
-0.0671457504876
  0
VERTEX
  5
EBB
  8
DEFAULT
 10
2.203164723876183
 20
3.306855347151556
 30
0.0
 42
-0.1032435884329
  0
VERTEX
  5
EBC
  8
DEFAULT
 10
2.145462867684666
 20
3.296035229652892
 30
0.0
 42
-0.0405223674852
  0
VERTEX
  5
EBD
  8
DEFAULT
 10
2.116166107495599
 20
3.298766916198526
 30
0.0
 42
-0.0314234539306
  0
VERTEX
  5
EBE
  8
DEFAULT
 10
2.087530263068507
 20
3.305519840559779
 30
0.0
  0
VERTEX
  5
EBF
  8
DEFAULT
 10
2.057704238884968
 20
3.314404637902289
 30
0.0
  0
VERTEX
  5
EC0
  8
DEFAULT
 10
2.057704238884968
 20
3.20508078713063
 30
0.0
  0
VERTEX
  5
EC1
  8
DEFAULT
 10
2.057704238884968
 20
3.095756936358977
 30
0.0
  0
VERTEX
  5
EC2
  8
DEFAULT
 10
2.0929531660755
 20
3.08557919836147
 30
0.0
 42
0.0736596603952
  0
VERTEX
  5
EC3
  8
DEFAULT
 10
2.170211312737599
 20
3.074934443745217
 30
0.0
 42
0.0180884094527
  0
VERTEX
  5
EC4
  8
DEFAULT
 10
2.189733969928272
 20
3.075761045179295
 30
0.0
  0
VERTEX
  5
EC5
  8
DEFAULT
 10
2.197033149034174
 20
3.076405129839941
 30
0.0
 42
0.0359025581055
  0
SEQEND
  5
E24
  8
DEFAULT
  0
POLYLINE
  5
693
  8
DEFAULT
 66
     1
 10
0.0
 20
0.0
 30
0.0
 70
     1
  0
VERTEX
  5
EC7
  8
DEFAULT
 10
3.157667352315296
 20
3.101720050600881
 30
0.0
 42
0.1148468842045
  0
VERTEX
  5
EC8
  8
DEFAULT
 10
3.167033580324784
 20
3.108201001684811
 30
0.0
 42
0.149930345888
  0
VERTEX
  5
EC9
  8
DEFAULT
 10
3.174621634157928
 20
3.124083334069009
 30
0.0
 42
0.0517128913101
  0
VERTEX
  5
ECA
  8
DEFAULT
 10
3.174692636402251
 20
3.12907060216257
 30
0.0
 42
0.1724812670237
  0
VERTEX
  5
ECB
  8
DEFAULT
 10
3.171627128570127
 20
3.135939898526273
 30
0.0
 42
0.2008251843979
  0
VERTEX
  5
ECC
  8
DEFAULT
 10
3.16455716882074
 20
3.13852001467274
 30
0.0
 42
-0.0764508483075
  0
VERTEX
  5
ECD
  8
DEFAULT
 10
3.161569593964791
 20
3.139093802248154
 30
0.0
 42
-0.0402059207301
  0
VERTEX
  5
ECE
  8
DEFAULT
 10
3.150624397478877
 20
3.143922300530882
 30
0.0
  0
VERTEX
  5
ECF
  8
DEFAULT
 10
3.14934021498558
 20
3.144590134453113
 30
0.0
  0
VERTEX
  5
ED0
  8
DEFAULT
 10
3.144275447268887
 20
3.147330122507502
 30
0.0
 42
-0.0102389463369
  0
VERTEX
  5
ED1
  8
DEFAULT
 10
3.124744756655613
 20
3.158853731476437
 30
0.0
  0
VERTEX
  5
ED2
  8
DEFAULT
 10
3.115728013470728
 20
3.164481923347824
 30
0.0
  0
VERTEX
  5
ED3
  8
DEFAULT
 10
3.107051016368113
 20
3.170018726668317
 30
0.0
  0
VERTEX
  5
ED4
  8
DEFAULT
 10
3.090353647440237
 20
3.180930241532307
 30
0.0
  0
VERTEX
  5
ED5
  8
DEFAULT
 10
3.074813564888303
 20
3.191324954649342
 30
0.0
  0
VERTEX
  5
ED6
  8
DEFAULT
 10
3.06755766706582
 20
3.196244268256835
 30
0.0
  0
VERTEX
  5
ED7
  8
DEFAULT
 10
3.053549696879936
 20
3.205845711747625
 30
0.0
 42
-0.0047708000241
  0
VERTEX
  5
ED8
  8
DEFAULT
 10
3.001513391164762
 20
3.242545894752589
 30
0.0
  0
VERTEX
  5
ED9
  8
DEFAULT
 10
2.98217910274558
 20
3.256562474281092
 30
0.0
 42
-0.007410360936
  0
VERTEX
  5
EDA
  8
DEFAULT
 10
2.915343350393456
 20
3.30675400256337
 30
0.0
  0
VERTEX
  5
EDB
  8
DEFAULT
 10
2.898890597319165
 20
3.319639088432702
 30
0.0
  0
VERTEX
  5
EDC
  8
DEFAULT
 10
2.886644823700702
 20
3.32942587527637
 30
0.0
  0
VERTEX
  5
EDD
  8
DEFAULT
 10
2.882078417878775
 20
3.333127496803257
 30
0.0
 42
-0.0120915841526
  0
VERTEX
  5
EDE
  8
DEFAULT
 10
2.85069889922438
 20
3.359738187075377
 30
0.0
  0
VERTEX
  5
EDF
  8
DEFAULT
 10
2.844599104130279
 20
3.365191500877404
 30
0.0
  0
VERTEX
  5
EE0
  8
DEFAULT
 10
2.833059348216676
 20
3.375402002599872
 30
0.0
  0
VERTEX
  5
EE1
  8
DEFAULT
 10
2.827926154508031
 20
3.379887966890711
 30
0.0
  0
VERTEX
  5
EE2
  8
DEFAULT
 10
2.818183747507622
 20
3.388278048395987
 30
0.0
  0
VERTEX
  5
EE3
  8
DEFAULT
 10
2.809444272494975
 20
3.39562623432526
 30
0.0
  0
VERTEX
  5
EE4
  8
DEFAULT
 10
2.801563975586226
 20
3.402057910366303
 30
0.0
 42
0.007583136157
  0
VERTEX
  5
EE5
  8
DEFAULT
 10
2.794423072055288
 20
3.407674716205455
 30
0.0
 42
0.0172872106884
  0
VERTEX
  5
EE6
  8
DEFAULT
 10
2.781248063894083
 20
3.417265301443409
 30
0.0
 42
0.0311611822925
  0
VERTEX
  5
EE7
  8
DEFAULT
 10
2.770151230025873
 20
3.424083134141457
 30
0.0
 42
0.0409567879856
  0
VERTEX
  5
EE8
  8
DEFAULT
 10
2.760704093538435
 20
3.428237306318958
 30
0.0
 42
0.0876289515753
  0
VERTEX
  5
EE9
  8
DEFAULT
 10
2.752847880216192
 20
3.429540194853022
 30
0.0
 42
0.2245607466344
  0
VERTEX
  5
EEA
  8
DEFAULT
 10
2.742359851512026
 20
3.424422114213332
 30
0.0
 42
0.0562173064421
  0
VERTEX
  5
EEB
  8
DEFAULT
 10
2.739117888111147
 20
3.419544716635283
 30
0.0
 42
0.031379694348
  0
VERTEX
  5
EEC
  8
DEFAULT
 10
2.737842775543586
 20
3.416907144637881
 30
0.0
 42
0.0247649014383
  0
VERTEX
  5
EED
  8
DEFAULT
 10
2.736728048186912
 20
3.414201217729303
 30
0.0
 42
0.0422568847387
  0
VERTEX
  5
EEE
  8
DEFAULT
 10
2.731307876775113
 20
3.396255414591666
 30
0.0
 42
0.0577831124396
  0
VERTEX
  5
EEF
  8
DEFAULT
 10
2.729624900869561
 20
3.379995626385551
 30
0.0
 42
0.1018077895161
  0
VERTEX
  5
EF0
  8
DEFAULT
 10
2.735693586206488
 20
3.352411185358663
 30
0.0
 42
0.0441658729337
  0
VERTEX
  5
EF1
  8
DEFAULT
 10
2.745888721122216
 20
3.333996365075415
 30
0.0
  0
VERTEX
  5
EF2
  8
DEFAULT
 10
2.748119800875079
 20
3.330742466251638
 30
0.0
  0
VERTEX
  5
EF3
  8
DEFAULT
 10
2.752490991013087
 20
3.324783234854163
 30
0.0
 42
0.0238361552509
  0
VERTEX
  5
EF4
  8
DEFAULT
 10
2.769164454629199
 20
3.305016621569566
 30
0.0
  0
VERTEX
  5
EF5
  8
DEFAULT
 10
2.769711246989478
 20
3.304418998691879
 30
0.0
 42
0.0099160300607
  0
VERTEX
  5
EF6
  8
DEFAULT
 10
2.787085288991284
 20
3.286374719038944
 30
0.0
 42
0.0292934296723
  0
VERTEX
  5
EF7
  8
DEFAULT
 10
2.86635979792032
 20
3.216283177764397
 30
0.0
 42
0.024022187393
  0
VERTEX
  5
EF8
  8
DEFAULT
 10
2.931433123376064
 20
3.170103277991159
 30
0.0
  0
VERTEX
  5
EF9
  8
DEFAULT
 10
2.944194874493492
 20
3.16213544646871
 30
0.0
 42
0.0327316435694
  0
VERTEX
  5
EFA
  8
DEFAULT
 10
2.945704696670811
 20
3.161216294522703
 30
0.0
 42
0.021156791273
  0
VERTEX
  5
EFB
  8
DEFAULT
 10
2.994746917240828
 20
3.134135776911031
 30
0.0
 42
0.034687937183
  0
VERTEX
  5
EFC
  8
DEFAULT
 10
2.995932196365189
 20
3.13355022955443
 30
0.0
 42
0.019538363538
  0
VERTEX
  5
EFD
  8
DEFAULT
 10
3.03422077802017
 20
3.116554747029495
 30
0.0
 42
0.0352791458945
  0
VERTEX
  5
EFE
  8
DEFAULT
 10
3.035141021070642
 20
3.116194902057772
 30
0.0
 42
0.0232928736283
  0
VERTEX
  5
EFF
  8
DEFAULT
 10
3.064739332529733
 20
3.106005334594682
 30
0.0
 42
0.011796139657
  0
VERTEX
  5
F00
  8
DEFAULT
 10
3.070401897075496
 20
3.104389264003395
 30
0.0
 42
0.0212156828896
  0
VERTEX
  5
F01
  8
DEFAULT
 10
3.091924495500546
 20
3.099393142139034
 30
0.0
  0
VERTEX
  5
F02
  8
DEFAULT
 10
3.093969767757339
 20
3.099022588732252
 30
0.0
 42
0.0177895049857
  0
VERTEX
  5
F03
  8
DEFAULT
 10
3.101918694755089
 20
3.097775826350321
 30
0.0
 42
0.0244837377127
  0
VERTEX
  5
F04
  8
DEFAULT
 10
3.115941952340837
 20
3.096411814467372
 30
0.0
 42
0.0412147040503
  0
VERTEX
  5
F05
  8
DEFAULT
 10
3.137080022640676
 20
3.096895885592177
 30
0.0
 42
0.0630726189756
  0
SEQEND
  5
EC6
  8
DEFAULT
  0
POLYLINE
  5
6D4
  8
DEFAULT
 66
     1
 10
0.0
 20
0.0
 30
0.0
 70
     1
  0
VERTEX
  5
F07
  8
DEFAULT
 10
1.081742988552726
 20
3.143640434743838
 30
0.0
  0
VERTEX
  5
F08
  8
DEFAULT
 10
1.086156201835996
 20
3.145960297646907
 30
0.0
 42
0.0163823130582
  0
VERTEX
  5
F09
  8
DEFAULT
 10
1.119364848123905
 20
3.165723130932738
 30
0.0
  0
VERTEX
  5
F0A
  8
DEFAULT
 10
1.12548002952432
 20
3.16961037753189
 30
0.0
 42
0.0091371107067
  0
VERTEX
  5
F0B
  8
DEFAULT
 10
1.170683638170938
 20
3.199762743566923
 30
0.0
 42
0.0098044091489
  0
VERTEX
  5
F0C
  8
DEFAULT
 10
1.214837286561942
 20
3.231435347895815
 30
0.0
  0
VERTEX
  5
F0D
  8
DEFAULT
 10
1.298963397980758
 20
3.294270672724521
 30
0.0
  0
VERTEX
  5
F0E
  8
DEFAULT
 10
1.264065260300951
 20
3.330276402920608
 30
0.0
 42
0.0197873423584
  0
VERTEX
  5
F0F
  8
DEFAULT
 10
1.243652181161673
 20
3.349894355727356
 30
0.0
  0
VERTEX
  5
F10
  8
DEFAULT
 10
1.240981994245164
 20
3.35223773012362
 30
0.0
  0
VERTEX
  5
F11
  8
DEFAULT
 10
1.238618905432171
 20
3.354260307071533
 30
0.0
 42
0.0185557664997
  0
VERTEX
  5
F12
  8
DEFAULT
 10
1.230101801391171
 20
3.361039523951722
 30
0.0
  0
VERTEX
  5
F13
  8
DEFAULT
 10
1.227875397982883
 20
3.362624835877312
 30
0.0
  0
VERTEX
  5
F14
  8
DEFAULT
 10
1.226164342592379
 20
3.363759452996317
 30
0.0
 42
0.0373980844267
  0
VERTEX
  5
F15
  8
DEFAULT
 10
1.223493490846653
 20
3.365307983547177
 30
0.0
 42
0.1063165139951
  0
VERTEX
  5
F16
  8
DEFAULT
 10
1.220563786976335
 20
3.366282133116693
 30
0.0
 42
0.0892068415353
  0
VERTEX
  5
F17
  8
DEFAULT
 10
1.218064178729833
 20
3.365431213116409
 30
0.0
 42
0.0387331956646
  0
VERTEX
  5
F18
  8
DEFAULT
 10
1.209496698309973
 20
3.359998677964291
 30
0.0
  0
VERTEX
  5
F19
  8
DEFAULT
 10
1.205903048759332
 20
3.357396521420549
 30
0.0
  0
VERTEX
  5
F1A
  8
DEFAULT
 10
1.202575412989123
 20
3.354901119934057
 30
0.0
 42
0.0128910185489
  0
VERTEX
  5
F1B
  8
DEFAULT
 10
1.178340649963824
 20
3.335292678443159
 30
0.0
  0
VERTEX
  5
F1C
  8
DEFAULT
 10
1.166527885978106
 20
3.325119512069144
 30
0.0
  0
VERTEX
  5
F1D
  8
DEFAULT
 10
1.154878681673498
 20
3.314764496905187
 30
0.0
 42
-0.0121420556055
  0
VERTEX
  5
F1E
  8
DEFAULT
 10
1.105257976134247
 20
3.27205610312849
 30
0.0
 42
-0.018903859403
  0
VERTEX
  5
F1F
  8
DEFAULT
 10
1.027063375000388
 20
3.212629846834164
 30
0.0
 42
-0.0138830272795
  0
VERTEX
  5
F20
  8
DEFAULT
 10
0.9860508538882358
 20
3.185570830495686
 30
0.0
 42
-0.01817470318
  0
VERTEX
  5
F21
  8
DEFAULT
 10
0.9834343978060113
 20
3.183958007928493
 30
0.0
 42
-0.0196789880472
  0
VERTEX
  5
F22
  8
DEFAULT
 10
0.9432968062718149
 20
3.161353152952528
 30
0.0
 42
0.0112524290919
  0
VERTEX
  5
F23
  8
DEFAULT
 10
0.9353130070406786
 20
3.157227843847093
 30
0.0
  0
VERTEX
  5
F24
  8
DEFAULT
 10
0.9312977747948993
 20
3.15506890313107
 30
0.0
 42
0.0215081729986
  0
VERTEX
  5
F25
  8
DEFAULT
 10
0.9154118652280217
 20
3.145616265131111
 30
0.0
 42
0.0201620376061
  0
VERTEX
  5
F26
  8
DEFAULT
 10
0.9089622015312876
 20
3.140984291891045
 30
0.0
 42
0.0354219844261
  0
VERTEX
  5
F27
  8
DEFAULT
 10
0.9032226897097068
 20
3.135775649387649
 30
0.0
 42
0.1084532675587
  0
VERTEX
  5
F28
  8
DEFAULT
 10
0.8995365784371138
 20
3.129979000918263
 30
0.0
 42
0.2283818917026
  0
VERTEX
  5
F29
  8
DEFAULT
 10
0.9001456552966558
 20
3.124560678033705
 30
0.0
 42
0.1054248885585
  0
VERTEX
  5
F2A
  8
DEFAULT
 10
0.90330023842792
 20
3.121487063258555
 30
0.0
 42
0.0662272911621
  0
VERTEX
  5
F2B
  8
DEFAULT
 10
0.9101882106894791
 20
3.118275233715644
 30
0.0
 42
0.0357206122971
  0
VERTEX
  5
F2C
  8
DEFAULT
 10
0.9212130691714854
 20
3.115486874318772
 30
0.0
  0
VERTEX
  5
F2D
  8
DEFAULT
 10
0.9268197218759009
 20
3.114525090348081
 30
0.0
  0
VERTEX
  5
F2E
  8
DEFAULT
 10
0.9324510002578302
 20
3.11373904922917
 30
0.0
 42
0.0081231385999
  0
VERTEX
  5
F2F
  8
DEFAULT
 10
0.9420829446313248
 20
3.112683219725978
 30
0.0
 42
0.0384319215467
  0
VERTEX
  5
F30
  8
DEFAULT
 10
0.9783801834247538
 20
3.112074506289768
 30
0.0
 42
0.0629602687649
  0
VERTEX
  5
F31
  8
DEFAULT
 10
1.031707435585946
 20
3.122471443696963
 30
0.0
  0
VERTEX
  5
F32
  8
DEFAULT
 10
1.034936242021006
 20
3.123536929340108
 30
0.0
 42
0.036767061902
  0
SEQEND
  5
F06
  8
DEFAULT
  0
POLYLINE
  5
702
  8
DEFAULT
 66
     1
 10
0.0
 20
0.0
 30
0.0
 70
     1
  0
VERTEX
  5
F34
  8
DEFAULT
 10
0.9026250145043462
 20
3.202154261843528
 30
0.0
  0
VERTEX
  5
F35
  8
DEFAULT
 10
0.9075807989680299
 20
3.204597449621657
 30
0.0
 42
0.0089387466012
  0
VERTEX
  5
F36
  8
DEFAULT
 10
0.9267531826386658
 20
3.214862231375012
 30
0.0
  0
VERTEX
  5
F37
  8
DEFAULT
 10
0.931202267269697
 20
3.21735031250796
 30
0.0
  0
VERTEX
  5
F38
  8
DEFAULT
 10
0.9486197411486607
 20
3.227315298235333
 30
0.0
 42
0.0062077098222
  0
VERTEX
  5
F39
  8
DEFAULT
 10
1.013158754384634
 20
3.266002412915681
 30
0.0
  0
VERTEX
  5
F3A
  8
DEFAULT
 10
1.037164284586542
 20
3.280839699328081
 30
0.0
  0
VERTEX
  5
F3B
  8
DEFAULT
 10
1.042406713318593
 20
3.284105799042974
 30
0.0
  0
VERTEX
  5
F3C
  8
DEFAULT
 10
1.052548503025257
 20
3.290449772783631
 30
0.0
 42
0.004950169819
  0
VERTEX
  5
F3D
  8
DEFAULT
 10
1.128095509615221
 20
3.338835949525618
 30
0.0
  0
VERTEX
  5
F3E
  8
DEFAULT
 10
1.137467595845657
 20
3.345010401150767
 30
0.0
  0
VERTEX
  5
F3F
  8
DEFAULT
 10
1.141560252459383
 20
3.347723435632213
 30
0.0
  0
VERTEX
  5
F40
  8
DEFAULT
 10
1.156855917607337
 20
3.357972996887656
 30
0.0
  0
VERTEX
  5
F41
  8
DEFAULT
 10
1.168264724707188
 20
3.365767179634971
 30
0.0
  0
VERTEX
  5
F42
  8
DEFAULT
 10
1.172523118998767
 20
3.368722252236933
 30
0.0
  0
VERTEX
  5
F43
  8
DEFAULT
 10
1.179938055047773
 20
3.37395184652744
 30
0.0
  0
VERTEX
  5
F44
  8
DEFAULT
 10
1.185454600283739
 20
3.377940744531541
 30
0.0
 42
0.0166660285686
  0
VERTEX
  5
F45
  8
DEFAULT
 10
1.193599848817693
 20
3.384115668298262
 30
0.0
  0
VERTEX
  5
F46
  8
DEFAULT
 10
1.197545553717482
 20
3.387393198581321
 30
0.0
 42
0.0272262579141
  0
VERTEX
  5
F47
  8
DEFAULT
 10
1.199421494659537
 20
3.389160196412321
 30
0.0
 42
0.0408168721181
  0
VERTEX
  5
F48
  8
DEFAULT
 10
1.200285698196998
 20
3.390128801800222
 30
0.0
 42
0.1354857380647
  0
VERTEX
  5
F49
  8
DEFAULT
 10
1.20088491046925
 20
3.391282380434524
 30
0.0
 42
0.049416213433
  0
VERTEX
  5
F4A
  8
DEFAULT
 10
1.199814663668149
 20
3.398353129588234
 30
0.0
 42
0.0162788936467
  0
VERTEX
  5
F4B
  8
DEFAULT
 10
1.196171231009555
 20
3.411226037107928
 30
0.0
 42
0.0155984547269
  0
VERTEX
  5
F4C
  8
DEFAULT
 10
1.188398992879889
 20
3.433307254008683
 30
0.0
  0
VERTEX
  5
F4D
  8
DEFAULT
 10
1.186831639507175
 20
3.437410051316616
 30
0.0
 42
0.0056527662811
  0
VERTEX
  5
F4E
  8
DEFAULT
 10
1.180711725128308
 20
3.45270299951121
 30
0.0
 42
0.0101215740957
  0
VERTEX
  5
F4F
  8
DEFAULT
 10
1.170756638307466
 20
3.475337698684405
 30
0.0
  0
VERTEX
  5
F50
  8
DEFAULT
 10
1.168055821311665
 20
3.48092138115868
 30
0.0
 42
0.0214974296911
  0
VERTEX
  5
F51
  8
DEFAULT
 10
1.16593615445024
 20
3.485071419876598
 30
0.0
 42
0.023412840439
  0
VERTEX
  5
F52
  8
DEFAULT
 10
1.162499271444995
 20
3.491179291184397
 30
0.0
 42
0.0303796966081
  0
VERTEX
  5
F53
  8
DEFAULT
 10
1.160529613814961
 20
3.494117284046514
 30
0.0
  0
VERTEX
  5
F54
  8
DEFAULT
 10
1.159377267159682
 20
3.495486851422964
 30
0.0
 42
0.1748160646646
  0
VERTEX
  5
F55
  8
DEFAULT
 10
1.157859124322955
 20
3.496431882144619
 30
0.0
 42
0.0759689005468
  0
VERTEX
  5
F56
  8
DEFAULT
 10
1.155221915427575
 20
3.495359884007762
 30
0.0
 42
0.0154175657009
  0
VERTEX
  5
F57
  8
DEFAULT
 10
1.152788665925247
 20
3.493990517219885
 30
0.0
 42
0.0134843632172
  0
VERTEX
  5
F58
  8
DEFAULT
 10
1.134352530830318
 20
3.482013010435776
 30
0.0
 42
0.0071933141459
  0
VERTEX
  5
F59
  8
DEFAULT
 10
1.071613948393415
 20
3.437490305996711
 30
0.0
  0
VERTEX
  5
F5A
  8
DEFAULT
 10
1.04060287954121
 20
3.414735582038042
 30
0.0
  0
VERTEX
  5
F5B
  8
DEFAULT
 10
1.009748667963559
 20
3.391767521405533
 30
0.0
  0
VERTEX
  5
F5C
  8
DEFAULT
 10
0.9918747404582811
 20
3.378551667190045
 30
0.0
 42
-0.0206493011205
  0
VERTEX
  5
F5D
  8
DEFAULT
 10
0.8531731975582244
 20
3.286114762135542
 30
0.0
  0
VERTEX
  5
F5E
  8
DEFAULT
 10
0.835239306659314
 20
3.275398139220216
 30
0.0
 42
-0.0164246185045
  0
VERTEX
  5
F5F
  8
DEFAULT
 10
0.7711834088987609
 20
3.240096509908197
 30
0.0
 42
-0.0171997455011
  0
VERTEX
  5
F60
  8
DEFAULT
 10
0.7379342388490208
 20
3.224599531068034
 30
0.0
 42
-0.0218879032957
  0
VERTEX
  5
F61
  8
DEFAULT
 10
0.720707571152211
 20
3.218143365042752
 30
0.0
  0
VERTEX
  5
F62
  8
DEFAULT
 10
0.716292324075736
 20
3.216807876282342
 30
0.0
 42
-0.016337395545
  0
VERTEX
  5
F63
  8
DEFAULT
 10
0.7095670888036386
 20
3.215193545118486
 30
0.0
 42
-0.0448794603823
  0
VERTEX
  5
F64
  8
DEFAULT
 10
0.7026882517592347
 20
3.214440733630744
 30
0.0
 42
0.0456569819902
  0
VERTEX
  5
F65
  8
DEFAULT
 10
0.6974048794524231
 20
3.214056703396786
 30
0.0
 42
0.0765269333537
  0
VERTEX
  5
F66
  8
DEFAULT
 10
0.6928793878227471
 20
3.212602974871454
 30
0.0
 42
0.4163886976556001
  0
VERTEX
  5
F67
  8
DEFAULT
 10
0.6905351888492365
 20
3.205863729319579
 30
0.0
 42
0.0882390967253
  0
VERTEX
  5
F68
  8
DEFAULT
 10
0.6934681335824121
 20
3.201231873978786
 30
0.0
 42
0.0578626873007
  0
VERTEX
  5
F69
  8
DEFAULT
 10
0.7006247499564321
 20
3.194987958828694
 30
0.0
 42
0.0487531473712
  0
VERTEX
  5
F6A
  8
DEFAULT
 10
0.7130306345680714
 20
3.188057982833851
 30
0.0
 42
0.0119962533036
  0
VERTEX
  5
F6B
  8
DEFAULT
 10
0.7196187957270276
 20
3.185391427241388
 30
0.0
 42
0.0159040632637
  0
VERTEX
  5
F6C
  8
DEFAULT
 10
0.7212952770576429
 20
3.184798423550412
 30
0.0
  0
VERTEX
  5
F6D
  8
DEFAULT
 10
0.726380532271902
 20
3.183191529347443
 30
0.0
 42
0.0084528504414
  0
VERTEX
  5
F6E
  8
DEFAULT
 10
0.7373746309162466
 20
3.180218671378007
 30
0.0
 42
0.0447835270742
  0
VERTEX
  5
F6F
  8
DEFAULT
 10
0.779486923907896
 20
3.173303139310339
 30
0.0
 42
0.0815093354384
  0
VERTEX
  5
F70
  8
DEFAULT
 10
0.8429776639682172
 20
3.179533000173147
 30
0.0
 42
0.0157192174967
  0
VERTEX
  5
F71
  8
DEFAULT
 10
0.8506747584528001
 20
3.181668361607173
 30
0.0
 42
0.0247630968587
  0
VERTEX
  5
F72
  8
DEFAULT
 10
0.8770544738721579
 20
3.190886711466125
 30
0.0
  0
VERTEX
  5
F73
  8
DEFAULT
 10
0.8835187139016966
 20
3.193542909853148
 30
0.0
  0
VERTEX
  5
F74
  8
DEFAULT
 10
0.8859305476638056
 20
3.194569395110325
 30
0.0
 42
0.0117560236905
  0
VERTEX
  5
F75
  8
DEFAULT
 10
0.8943165970033209
 20
3.198279081432087
 30
0.0
  0
SEQEND
  5
F33
  8
DEFAULT
  0
POLYLINE
  5
746
  8
DEFAULT
 66
     1
 10
0.0
 20
0.0
 30
0.0
 70
     1
  0
VERTEX
  5
F77
  8
DEFAULT
 10
2.048099761966723
 20
3.582851691191347
 30
0.0
 42
0.0601405685346
  0
VERTEX
  5
F78
  8
DEFAULT
 10
2.069027134323655
 20
3.614797047282341
 30
0.0
 42
0.0601220125313
  0
VERTEX
  5
F79
  8
DEFAULT
 10
2.080198485432706
 20
3.646489260716741
 30
0.0
 42
0.1172659660109
  0
VERTEX
  5
F7A
  8
DEFAULT
 10
2.079355311717839
 20
3.704984199062353
 30
0.0
 42
0.1817792939695
  0
VERTEX
  5
F7B
  8
DEFAULT
 10
2.029673667964134
 20
3.77576073257197
 30
0.0
 42
0.0818858475393
  0
VERTEX
  5
F7C
  8
DEFAULT
 10
1.990041809735095
 20
3.794265990451167
 30
0.0
 42
0.0698876787029
  0
VERTEX
  5
F7D
  8
DEFAULT
 10
1.946698842776847
 20
3.80011471954657
 30
0.0
  0
VERTEX
  5
F7E
  8
DEFAULT
 10
1.940334069551395
 20
3.800080385986529
 30
0.0
  0
VERTEX
  5
F7F
  8
DEFAULT
 10
1.934355694303162
 20
3.799967020885879
 30
0.0
  0
VERTEX
  5
F80
  8
DEFAULT
 10
1.928745120979472
 20
3.799758980429051
 30
0.0
 42
0.014113711021
  0
VERTEX
  5
F81
  8
DEFAULT
 10
1.918238227211505
 20
3.798964436748132
 30
0.0
 42
0.052315432797
  0
VERTEX
  5
F82
  8
DEFAULT
 10
1.900172264413987
 20
3.795287647094025
 30
0.0
 42
0.0471173469509
  0
VERTEX
  5
F83
  8
DEFAULT
 10
1.887571273207898
 20
3.789659415869255
 30
0.0
 42
0.0496333348025
  0
VERTEX
  5
F84
  8
DEFAULT
 10
1.870951693608074
 20
3.777430603839968
 30
0.0
 42
0.0167808193837
  0
VERTEX
  5
F85
  8
DEFAULT
 10
1.855972100990649
 20
3.763238932982955
 30
0.0
  0
VERTEX
  5
F86
  8
DEFAULT
 10
1.851597360480277
 20
3.758809790500366
 30
0.0
 42
0.0288284711103
  0
VERTEX
  5
F87
  8
DEFAULT
 10
1.836109059639074
 20
3.74130507433676
 30
0.0
 42
0.0520371843868
  0
VERTEX
  5
F88
  8
DEFAULT
 10
1.826844977420893
 20
3.726357674559799
 30
0.0
 42
0.0454999436093
  0
VERTEX
  5
F89
  8
DEFAULT
 10
1.822455769817724
 20
3.71395595098078
 30
0.0
 42
0.0436810374939
  0
VERTEX
  5
F8A
  8
DEFAULT
 10
1.819632307924335
 20
3.694472590992434
 30
0.0
 42
0.0268538366005
  0
VERTEX
  5
F8B
  8
DEFAULT
 10
1.819484504975442
 20
3.692014542308873
 30
0.0
  0
VERTEX
  5
F8C
  8
DEFAULT
 10
1.819176603918286
 20
3.683405624771765
 30
0.0
  0
VERTEX
  5
F8D
  8
DEFAULT
 10
1.819114635864773
 20
3.679098058287148
 30
0.0
  0
VERTEX
  5
F8E
  8
DEFAULT
 10
1.819096352857087
 20
3.674793053187442
 30
0.0
  0
VERTEX
  5
F8F
  8
DEFAULT
 10
1.819136436283293
 20
3.667934534389547
 30
0.0
 42
0.0068879734047
  0
VERTEX
  5
F90
  8
DEFAULT
 10
1.819575847763629
 20
3.655055987777188
 30
0.0
 42
0.0279681791207
  0
VERTEX
  5
F91
  8
DEFAULT
 10
1.820735799641958
 20
3.643809118187462
 30
0.0
 42
0.0734836843725
  0
VERTEX
  5
F92
  8
DEFAULT
 10
1.826313156964623
 20
3.624890415219897
 30
0.0
 42
0.0457168114922
  0
VERTEX
  5
F93
  8
DEFAULT
 10
1.833976774984242
 20
3.612322249788421
 30
0.0
 42
0.032507592552
  0
VERTEX
  5
F94
  8
DEFAULT
 10
1.848477266369402
 20
3.595729751376575
 30
0.0
  0
VERTEX
  5
F95
  8
DEFAULT
 10
1.856273505344014
 20
3.587944163739397
 30
0.0
  0
VERTEX
  5
F96
  8
DEFAULT
 10
1.860230860434474
 20
3.584111725068088
 30
0.0
  0
VERTEX
  5
F97
  8
DEFAULT
 10
1.864211888347614
 20
3.580305623414778
 30
0.0
 42
0.0082299493726
  0
VERTEX
  5
F98
  8
DEFAULT
 10
1.874445759079506
 20
3.570665258408114
 30
0.0
 42
0.007556180605
  0
VERTEX
  5
F99
  8
DEFAULT
 10
1.883613855781145
 20
3.562372340648375
 30
0.0
 42
0.0104865061018
  0
VERTEX
  5
F9A
  8
DEFAULT
 10
1.885667893267389
 20
3.560596118970545
 30
0.0
 42
0.018785041962
  0
VERTEX
  5
F9B
  8
DEFAULT
 10
1.89386674516947
 20
3.553988208438084
 30
0.0
  0
VERTEX
  5
F9C
  8
DEFAULT
 10
1.89762352054301
 20
3.551304671069438
 30
0.0
 42
0.0706101082283
  0
VERTEX
  5
F9D
  8
DEFAULT
 10
1.913032781999384
 20
3.543521079345721
 30
0.0
 42
0.0578401059662
  0
VERTEX
  5
F9E
  8
DEFAULT
 10
1.92566812749081
 20
3.541039464746531
 30
0.0
 42
0.0360626425489
  0
VERTEX
  5
F9F
  8
DEFAULT
 10
1.944932674603411
 20
3.541056133742417
 30
0.0
  0
VERTEX
  5
FA0
  8
DEFAULT
 10
1.947337549570117
 20
3.541212018632383
 30
0.0
  0
VERTEX
  5
FA1
  8
DEFAULT
 10
1.955741283848317
 20
3.541878319807725
 30
0.0
  0
VERTEX
  5
FA2
  8
DEFAULT
 10
1.964132635671252
 20
3.542654356840551
 30
0.0
 42
0.0192592867681
  0
VERTEX
  5
FA3
  8
DEFAULT
 10
1.987982069302039
 20
3.545755129144344
 30
0.0
 42
0.035828707711
  0
VERTEX
  5
FA4
  8
DEFAULT
 10
2.005575796658354
 20
3.550152083588153
 30
0.0
 42
0.094075760283
  0
VERTEX
  5
FA5
  8
DEFAULT
 10
2.029236263284737
 20
3.563381662601568
 30
0.0
 42
0.0279809749658
  0
VERTEX
  5
FA6
  8
DEFAULT
 10
2.039111715434443
 20
3.572688503275845
 30
0.0
  0
VERTEX
  5
FA7
  8
DEFAULT
 10
2.040274978967613
 20
3.573925558133538
 30
0.0
 42
0.012483498729
  0
SEQEND
  5
F76
  8
DEFAULT
  0
LINE
  5
868
  8
0
  6
CONTINUOUS
 10
0.0
 20
0.0
 30
0.0
 11
0.0
 21
3.0
 31
0.0
  0
LINE
  5
869
  8
0
  6
CONTINUOUS
 10
1.0
 20
4.0
 30
0.0
 11
3.0
 21
4.0
 31
0.0
  0
LINE
  5
86A
  8
0
  6
CONTINUOUS
 10
4.0
 20
3.0
 30
0.0
 11
4.0
 21
0.0
 31
0.0
  0
LINE
  5
86C
  8
0
  6
CONTINUOUS
 10
0.012
 20
0.0
 30
0.0
 11
4.011999999999999
 21
0.0
 31
0.0
  0
ARC
  5
86F
  8
0
  6
CONTINUOUS
 10
3.0
 20
3.0
 30
0.0
 40
1.0
 50
0.0
 51
90.0
  0
ARC
  5
870
  8
0
  6
CONTINUOUS
 10
1.0
 20
3.0
 30
0.0
 40
1.0
 50
90.0
 51
180.0
  0
ENDSEC
  0
EOF
