  0
SECTION
  2
HEADER
  9
$ACADVER
  1
AC1009
  9
$INSBASE
 10
0.0
 20
0.0
 30
0.0
  9
$EXTMIN
 10
-22.623545180133529
 20
-0.4819471778980028
 30
0.0
  9
$EXTMAX
 10
50.262368273690832
 20
31.38407349476978
 30
0.0
  9
$LIMMIN
 10
0.0
 20
0.0
  9
$LIMMAX
 10
12.0
 20
9.0
  9
$ORTHOMODE
 70
     0
  9
$REGENMODE
 70
     1
  9
$FILLMODE
 70
     1
  9
$QTEXTMODE
 70
     0
  9
$MIRRTEXT
 70
     0
  9
$DRAGMODE
 70
     2
  9
$LTSCALE
 40
1.0
  9
$OSMODE
 70
    37
  9
$ATTMODE
 70
     1
  9
$TEXTSIZE
 40
0.2
  9
$TRACEWID
 40
0.05
  9
$TEXTSTYLE
  7
STANDARD
  9
$CLAYER
  8
0
  9
$CELTYPE
  6
CONTINUOUS
  9
$CECOLOR
 62
   256
  9
$DIMSCALE
 40
1.0
  9
$DIMASZ
 40
0.18
  9
$DIMEXO
 40
0.0625
  9
$DIMDLI
 40
0.38
  9
$DIMRND
 40
0.0
  9
$DIMDLE
 40
0.0
  9
$DIMEXE
 40
0.18
  9
$DIMTP
 40
0.0
  9
$DIMTM
 40
0.0
  9
$DIMTXT
 40
0.18
  9
$DIMCEN
 40
0.09
  9
$DIMTSZ
 40
0.0
  9
$DIMTOL
 70
     0
  9
$DIMLIM
 70
     0
  9
$DIMTIH
 70
     1
  9
$DIMTOH
 70
     1
  9
$DIMSE1
 70
     0
  9
$DIMSE2
 70
     0
  9
$DIMTAD
 70
     0
  9
$DIMZIN
 70
     0
  9
$DIMBLK
  1

  9
$DIMASO
 70
     1
  9
$DIMSHO
 70
     1
  9
$DIMPOST
  1

  9
$DIMAPOST
  1

  9
$DIMALT
 70
     0
  9
$DIMALTD
 70
     2
  9
$DIMALTF
 40
25.399999999999999
  9
$DIMLFAC
 40
1.0
  9
$DIMTOFL
 70
     0
  9
$DIMTVP
 40
0.0
  9
$DIMTIX
 70
     0
  9
$DIMSOXD
 70
     0
  9
$DIMSAH
 70
     0
  9
$DIMBLK1
  1

  9
$DIMBLK2
  1

  9
$DIMSTYLE
  2
STANDARD
  9
$DIMCLRD
 70
     0
  9
$DIMCLRE
 70
     0
  9
$DIMCLRT
 70
     0
  9
$DIMTFAC
 40
1.0
  9
$DIMGAP
 40
0.09
  9
$LUNITS
 70
     2
  9
$LUPREC
 70
     4
  9
$SKETCHINC
 40
0.1
  9
$FILLETRAD
 40
0.0
  9
$AUNITS
 70
     0
  9
$AUPREC
 70
     0
  9
$MENU
  1
.
  9
$ELEVATION
 40
0.0
  9
$PELEVATION
 40
0.0
  9
$THICKNESS
 40
0.0
  9
$LIMCHECK
 70
     0
  9
$BLIPMODE
 70
     0
  9
$CHAMFERA
 40
0.0
  9
$CHAMFERB
 40
0.0
  9
$SKPOLY
 70
     0
  9
$TDCREATE
 40
2455255.5785291782
  9
$TDUPDATE
 40
2455263.042066331
  9
$TDINDWG
 40
0.0788570602
  9
$TDUSRTIMER
 40
0.078856875
  9
$USRTIMER
 70
     1
  9
$ANGBASE
 50
0.0
  9
$ANGDIR
 70
     0
  9
$PDMODE
 70
     0
  9
$PDSIZE
 40
0.0
  9
$PLINEWID
 40
0.0
  9
$COORDS
 70
     2
  9
$SPLFRAME
 70
     0
  9
$SPLINETYPE
 70
     6
  9
$SPLINESEGS
 70
     8
  9
$ATTDIA
 70
     0
  9
$ATTREQ
 70
     1
  9
$HANDLING
 70
     1
  9
$HANDSEED
  5
25DD
  9
$SURFTAB1
 70
     6
  9
$SURFTAB2
 70
     6
  9
$SURFTYPE
 70
     6
  9
$SURFU
 70
     6
  9
$SURFV
 70
     6
  9
$UCSNAME
  2

  9
$UCSORG
 10
0.0
 20
0.0
 30
0.0
  9
$UCSXDIR
 10
1.0
 20
0.0
 30
0.0
  9
$UCSYDIR
 10
0.0
 20
1.0
 30
0.0
  9
$PUCSNAME
  2

  9
$PUCSORG
 10
0.0
 20
0.0
 30
0.0
  9
$PUCSXDIR
 10
1.0
 20
0.0
 30
0.0
  9
$PUCSYDIR
 10
0.0
 20
1.0
 30
0.0
  9
$USERI1
 70
     0
  9
$USERI2
 70
     0
  9
$USERI3
 70
     0
  9
$USERI4
 70
     0
  9
$USERI5
 70
     0
  9
$USERR1
 40
0.0
  9
$USERR2
 40
0.0
  9
$USERR3
 40
0.0
  9
$USERR4
 40
0.0
  9
$USERR5
 40
0.0
  9
$WORLDVIEW
 70
     1
  9
$SHADEDGE
 70
     3
  9
$SHADEDIF
 70
    70
  9
$TILEMODE
 70
     1
  9
$MAXACTVP
 70
    64
  9
$PLIMCHECK
 70
     0
  9
$PEXTMIN
 10
1.0000000000000000E+020
 20
1.0000000000000000E+020
 30
1.0000000000000000E+020
  9
$PEXTMAX
 10
-1.0000000000000000E+020
 20
-1.0000000000000000E+020
 30
-1.0000000000000000E+020
  9
$PLIMMIN
 10
0.0
 20
0.0
  9
$PLIMMAX
 10
12.0
 20
9.0
  9
$UNITMODE
 70
     0
  9
$VISRETAIN
 70
     1
  9
$PLINEGEN
 70
     0
  9
$PSLTSCALE
 70
     1
  0
ENDSEC
  0
SECTION
  2
TABLES
  0
TABLE
  2
VPORT
 70
     2
  0
VPORT
  2
*ACTIVE
 70
     0
 10
0.0
 20
0.0
 11
1.0
 21
1.0
 12
-29.875330726574699
 22
32.965407538883717
 13
0.0
 23
0.0
 14
1.0
 24
1.0
 15
0.0
 25
0.0
 16
0.0
 26
0.0
 36
1.0
 17
0.0
 27
0.0
 37
0.0
 40
89.876688643332287
 41
1.9051008303677339
 42
50.0
 43
0.0
 44
0.0
 50
0.0
 51
0.0
 71
     0
 72
   100
 73
     1
 74
     1
 75
     0
 76
     0
 77
     0
 78
     0
  0
ENDTAB
  0
TABLE
  2
LTYPE
 70
     5
  0
LTYPE
  2
CONTINUOUS
 70
     0
  3
CONTINUOUS
 72
    65
 73
     0
 40
0.0
  0
LTYPE
  2
DASHED
 70
     0
  3
DASHED
 72
    65
 73
     2
 40
0.75
 49
0.5
 49
-0.25
  0
LTYPE
  2
DOT
 70
     0
  3
DOT
 72
    65
 73
     2
 40
0.25
 49
0.0
 49
-0.25
  0
LTYPE
  2
CENTRE
 70
     0
  3
CENTRE
 72
    65
 73
     4
 40
2.0
 49
1.25
 49
-0.25
 49
0.25
 49
-0.25
  0
LTYPE
  2
DASHDOT
 70
     0
  3
DASHDOT
 72
    65
 73
     4
 40
1.0
 49
0.5
 49
-0.25
 49
0.0
 49
-0.25
  0
ENDTAB
  0
TABLE
  2
LAYER
 70
     9
  0
LAYER
  2
0
 70
     0
 62
     7
  6
CONTINUOUS
  0
LAYER
  2
WHITE
 70
     0
 62
     7
  6
CONTINUOUS
  0
LAYER
  2
BLUE
 70
     0
 62
     5
  6
CONTINUOUS
  0
LAYER
  2
GREEN
 70
     0
 62
     3
  6
CONTINUOUS
  0
LAYER
  2
CYAN
 70
     0
 62
     4
  6
CONTINUOUS
  0
LAYER
  2
RED
 70
     0
 62
     1
  6
CONTINUOUS
  0
LAYER
  2
MAGENTA
 70
     0
 62
     6
  6
CONTINUOUS
  0
LAYER
  2
YELLOW
 70
     0
 62
     2
  6
CONTINUOUS
  0
LAYER
  2
SHEET
 70
     0
 62
     3
  6
CONTINUOUS
  0
ENDTAB
  0
TABLE
  2
STYLE
 70
     1
  0
STYLE
  2
STANDARD
 70
     0
 40
0.0
 41
1.0
 50
0.0
 71
     0
 42
0.2
  3
txt
  4

  0
ENDTAB
  0
TABLE
  2
VIEW
 70
     0
  0
ENDTAB
  0
TABLE
  2
UCS
 70
     0
  0
ENDTAB
  0
TABLE
  2
APPID
 70
     1
  0
APPID
  2
ACAD
 70
     0
  0
ENDTAB
  0
TABLE
  2
DIMSTYLE
 70
     1
  0
DIMSTYLE
  2
STANDARD
 70
     0
  3

  4

  5

  6

  7

 40
1.0
 41
0.18
 42
0.0625
 43
0.38
 44
0.18
 45
0.0
 46
0.0
 47
0.0
 48
0.0
140
0.18
141
0.09
142
0.0
143
25.399999999999999
144
1.0
145
0.0
146
1.0
147
0.09
 71
     0
 72
     0
 73
     1
 74
     1
 75
     0
 76
     0
 77
     0
 78
     0
170
     0
171
     2
172
     0
173
     0
174
     0
175
     0
176
     0
177
     0
178
     0
  0
ENDTAB
  0
ENDSEC
  0
SECTION
  2
BLOCKS
  0
BLOCK
  8
0
  2
$MODEL_SPACE
 70
     0
 10
0.0
 20
0.0
 30
0.0
  3
$MODEL_SPACE
  1

  0
ENDBLK
  5
1DA3
  8
0
  0
BLOCK
 67
     1
  8
0
  2
$PAPER_SPACE
 70
     0
 10
0.0
 20
0.0
 30
0.0
  3
$PAPER_SPACE
  1

  0
ENDBLK
  5
1D9F
 67
     1
  8
0
  0
ENDSEC
  0
SECTION
  2
ENTITIES
  0
LINE
  5
7D7
  8
CYAN
 10
3.7317768165829288
 20
14.022846624266361
 30
0.0
 11
3.7567758807496872
 21
14.022846624266361
 31
0.0
  0
POLYLINE
  5
898
  8
CYAN
 66
     1
 10
0.0
 20
0.0
 30
0.0
 70
     1
  0
VERTEX
  5
1DBF
  8
CYAN
 10
6.700415681748451
 20
12.60414972649491
 30
0.0
 42
0.0010549149376087
  0
VERTEX
  5
1DC0
  8
CYAN
 10
6.9441565438876882
 20
13.24787559294867
 30
0.0
 42
0.0018855244862628
  0
VERTEX
  5
1DC1
  8
CYAN
 10
7.1941471781521154
 20
13.916600539361021
 30
0.0
 42
0.0413534449255615
  0
VERTEX
  5
1DC2
  8
CYAN
 10
7.4378880534558389
 20
14.879064507420781
 30
0.0
  0
VERTEX
  5
1DC3
  8
CYAN
 10
7.4753866498114228
 20
15.097806319484
 30
0.0
 42
-0.0028653062126732
  0
VERTEX
  5
1DC4
  8
CYAN
 10
7.5003857159934491
 20
15.24780071620423
 30
0.0
  0
VERTEX
  5
1DC5
  8
CYAN
 10
7.7503763561997951
 20
16.316510703086319
 30
0.0
 42
-0.2265043137617923
  0
VERTEX
  5
1DC6
  8
CYAN
 10
8.4565999199469211
 20
17.19772772102877
 30
0.0
 42
0.3153091310494334
  0
VERTEX
  5
1DC7
  8
CYAN
 10
8.562845943880605
 20
17.385220702896572
 30
0.0
  0
VERTEX
  5
1DC8
  8
CYAN
 10
8.51909758159921
 20
17.77270619738891
 30
0.0
  0
VERTEX
  5
1DC9
  8
CYAN
 10
7.7128777622129423
 20
17.278974680090339
 30
0.0
 42
-1.018326052771175
  0
VERTEX
  5
1DCA
  8
CYAN
 10
7.6128815011674851
 20
17.435218828451241
 30
0.0
  0
VERTEX
  5
1DCB
  8
CYAN
 10
8.4191013622984219
 20
17.92895042077037
 30
0.0
  0
VERTEX
  5
1DCC
  8
CYAN
 10
8.3316046379014335
 20
18.10394386956434
 30
0.0
 42
0.3830223412816811
  0
VERTEX
  5
1DCD
  8
CYAN
 10
7.9441191394660917
 20
18.260188019660319
 30
0.0
  0
VERTEX
  5
1DCE
  8
CYAN
 10
6.4691743574786349
 20
17.728957907502469
 30
0.0
  0
VERTEX
  5
1DCF
  8
CYAN
 10
5.4817113228916128
 20
17.553964458335152
 30
0.0
  0
VERTEX
  5
1DD0
  8
CYAN
 10
4.9254821451812019
 20
17.56646399041853
 30
0.0
  0
VERTEX
  5
1DD1
  8
CYAN
 10
4.4754989901795179
 20
17.56646399041853
 30
0.0
  0
VERTEX
  5
1DD2
  8
CYAN
 10
4.019266069136151
 20
17.585213288543581
 30
0.0
  0
VERTEX
  5
1DD3
  8
CYAN
 10
3.7442763633017928
 20
17.622711884793731
 30
0.0
  0
VERTEX
  5
1DD4
  8
CYAN
 10
3.2067964837164502
 20
17.78520580187767
 30
0.0
  0
VERTEX
  5
1DD5
  8
CYAN
 10
2.6755663701728021
 20
17.916450888753161
 30
0.0
  0
VERTEX
  5
1DD6
  8
CYAN
 10
2.3193297057964699
 20
17.997697847295139
 30
0.0
  0
VERTEX
  5
1DD7
  8
CYAN
 10
1.9318442107469349
 20
18.06644527383618
 30
0.0
 42
0.1863990810624708
  0
VERTEX
  5
1DD8
  8
CYAN
 10
1.4006140976360331
 20
17.95394948498301
 30
0.0
  0
VERTEX
  5
1DD9
  8
CYAN
 10
1.144373689467286
 20
17.791455567614701
 30
0.0
 42
0.3647065171858332
  0
VERTEX
  5
1DDA
  8
CYAN
 10
0.756888197098319
 20
16.572751186996928
 30
0.0
  0
VERTEX
  5
1DDB
  8
CYAN
 10
0.9131323460556748
 20
16.197765229508079
 30
0.0
 42
-0.2440944690407394
  0
VERTEX
  5
1DDC
  8
CYAN
 10
0.8881332832088219
 20
15.85402809756796
 30
0.0
  0
VERTEX
  5
1DDD
  8
CYAN
 10
0.6131435758786369
 20
15.41654447226745
 30
0.0
 42
0.2405031263728703
  0
VERTEX
  5
1DDE
  8
CYAN
 10
0.5693952142172665
 20
14.96656131806553
 30
0.0
  0
VERTEX
  5
1DDF
  8
CYAN
 10
0.7631379622068271
 20
14.48532933112655
 30
0.0
 42
-0.22402637929116
  0
VERTEX
  5
1DE0
  8
CYAN
 10
0.7381388973255315
 20
14.06659500900143
 30
0.0
  0
VERTEX
  5
1DE1
  8
CYAN
 10
0.4693989572376229
 20
13.585363023253381
 30
0.0
 42
0.2572741822753933
  0
VERTEX
  5
1DE2
  8
CYAN
 10
0.4693989572891267
 20
13.2478756570596
 30
0.0
  0
VERTEX
  5
1DE3
  8
CYAN
 10
0.6318928741982754
 20
12.93538735529088
 30
0.0
  0
VERTEX
  5
1DE4
  8
CYAN
 10
0.6506421723052913
 20
12.897888759076841
 30
0.0
 42
-0.0069175063430817
  0
VERTEX
  5
1DE5
  8
CYAN
 10
0.6693914704239427
 20
12.829141332647639
 30
0.0
 42
-0.0362769825393688
  0
VERTEX
  5
1DE6
  8
CYAN
 10
0.694390534835753
 20
12.72914507504583
 30
0.0
  0
VERTEX
  5
1DE7
  8
CYAN
 10
0.6943905348798697
 20
12.679146946500749
 30
0.0
  0
VERTEX
  5
1DE8
  8
CYAN
 10
0.6881407688390251
 20
12.622899052133119
 30
0.0
 42
-0.0373183866755425
  0
VERTEX
  5
1DE9
  8
CYAN
 10
0.6443924064585478
 20
12.52915256134653
 30
0.0
  0
VERTEX
  5
1DEA
  8
CYAN
 10
0.4194008290067269
 20
12.13541730081964
 30
0.0
 42
0.3013349101212859
  0
VERTEX
  5
1DEB
  8
CYAN
 10
0.4631491911952975
 20
11.435443504169569
 30
0.0
  0
VERTEX
  5
1DEC
  8
CYAN
 10
0.6131435758827304
 20
11.23545099126034
 30
0.0
 42
-0.3333333333385935
  0
VERTEX
  5
1DED
  8
CYAN
 10
0.6131435758854892
 20
10.89796362500482
 30
0.0
  0
VERTEX
  5
1DEE
  8
CYAN
 10
0.4506496587056484
 20
10.685471579461099
 30
0.0
 42
0.3182826123835945
  0
VERTEX
  5
1DEF
  8
CYAN
 10
0.4381501265926577
 20
9.9417494207213881
 30
0.0
  0
VERTEX
  5
1DF0
  8
CYAN
 10
0.6131435754935625
 20
9.67925924736452
 30
0.0
 42
-0.2610951553006048
  0
VERTEX
  5
1DF1
  8
CYAN
 10
0.6443924056289238
 20
9.3605211790800649
 30
0.0
  0
VERTEX
  5
1DF2
  8
CYAN
 10
0.5131473184969512
 20
9.0417831103451753
 30
0.0
 42
0.2233907975504476
  0
VERTEX
  5
1DF3
  8
CYAN
 10
0.5381463840331985
 20
8.4480553350396246
 30
0.0
  0
VERTEX
  5
1DF4
  8
CYAN
 10
0.8006365566102331
 20
7.9480740539478569
 30
0.0
 42
-0.2241111555152088
  0
VERTEX
  5
1DF5
  8
CYAN
 10
0.8068863223728039
 20
7.6855838804495331
 30
0.0
  0
VERTEX
  5
1DF6
  8
CYAN
 10
0.6193933423093588
 20
7.2543500263245724
 30
0.0
 42
0.3236994655835091
  0
VERTEX
  5
1DF7
  8
CYAN
 10
0.7756374921026064
 20
6.5543762270882091
 30
0.0
  0
VERTEX
  5
1DF8
  8
CYAN
 10
0.9256318769670449
 20
6.4168813742801829
 30
0.0
 42
-0.361004432416965
  0
VERTEX
  5
1DF9
  8
CYAN
 10
1.0131286012296701
 20
5.835653132501986
 30
0.0
  0
VERTEX
  5
1DFA
  8
CYAN
 10
0.7693877247705309
 20
5.4481676365855192
 30
0.0
 42
0.7599449348913865
  0
VERTEX
  5
1DFB
  8
CYAN
 10
1.5256094171600161
 20
4.629448286752436
 30
0.0
  0
VERTEX
  5
1DFC
  8
CYAN
 10
2.206833915001106
 20
4.9856849507620913
 30
0.0
 42
0.0223282682865497
  0
VERTEX
  5
1DFD
  8
CYAN
 10
2.3693278325978522
 20
5.0856812077550444
 30
0.0
 42
0.0069250051031793
  0
VERTEX
  5
1DFE
  8
CYAN
 10
2.531821748769969
 20
5.2044267618896951
 30
0.0
 42
0.0101888337540437
  0
VERTEX
  5
1DFF
  8
CYAN
 10
2.6318180050599751
 20
5.2856737201534649
 30
0.0
  0
VERTEX
  5
1E00
  8
CYAN
 10
2.7630630916683381
 20
5.3919197426401793
 30
0.0
  0
VERTEX
  5
1E01
  8
CYAN
 10
2.769312857647324
 20
5.398169508619155
 30
0.0
 42
0.0048316150430925
  0
VERTEX
  5
1E02
  8
CYAN
 10
2.8568095822197521
 20
5.4669169350665179
 30
0.0
  0
VERTEX
  5
1E03
  8
CYAN
 10
2.9630556043153078
 20
5.5731629572613324
 30
0.0
 42
0.0101048391322156
  0
VERTEX
  5
1E04
  8
CYAN
 10
3.2255457778265071
 20
5.8356531307523571
 30
0.0
 42
0.0063908529277536
  0
VERTEX
  5
1E05
  8
CYAN
 10
3.6192810371584332
 20
6.2731367522691368
 30
0.0
 42
0.0024690970149107
  0
VERTEX
  5
1E06
  8
CYAN
 10
3.7130275273069362
 20
6.3793827744272722
 30
0.0
  0
VERTEX
  5
1E07
  8
CYAN
 10
3.856772143603834
 20
6.5418766884785269
 30
0.0
 42
0.0107607334230966
  0
VERTEX
  5
1E08
  8
CYAN
 10
4.0005167627309568
 20
6.7231199039196143
 30
0.0
 42
0.0056713731727581
  0
VERTEX
  5
1E09
  8
CYAN
 10
4.2567571696578179
 20
7.0606072691492328
 30
0.0
 42
0.024553319984818
  0
VERTEX
  5
1E0A
  8
CYAN
 10
4.5754952369015092
 20
7.5293397214085989
 30
0.0
 42
0.0194109556254396
  0
VERTEX
  5
1E0B
  8
CYAN
 10
4.9192323744203392
 20
8.1543163365956861
 30
0.0
 42
0.0076477218478015
  0
VERTEX
  5
1E0C
  8
CYAN
 10
5.1817225382835908
 20
8.6980459621685782
 30
0.0
 42
0.0079817314912258
  0
VERTEX
  5
1E0D
  8
CYAN
 10
5.4192136486067666
 20
9.2292760773504678
 30
0.0
 42
0.0048951466510902
  0
VERTEX
  5
1E0E
  8
CYAN
 10
5.831698206097502
 20
10.22923864117468
 30
0.0
 42
0.0080961126154605
  0
VERTEX
  5
1E0F
  8
CYAN
 10
6.069189311308083
 20
10.83546593652235
 30
0.0
 42
0.0074939874463073
  0
VERTEX
  5
1E10
  8
CYAN
 10
6.3316794824061651
 20
11.58543785432442
 30
0.0
 42
-0.0096821238122989
  0
VERTEX
  5
1E11
  8
CYAN
 10
6.5316719939951557
 20
12.16666609096341
 30
0.0
  0
VERTEX
  5
1E12
  8
CYAN
 10
6.5926719687096202
 20
12.32481417417466
 30
0.0
  0
SEQEND
  5
1E13
  8
CYAN
  0
POLYLINE
  5
8EC
  8
CYAN
 66
     1
 10
0.0
 20
0.0
 30
0.0
 70
     1
  0
VERTEX
  5
1E14
  8
CYAN
 10
4.2005093807380192
 20
17.2102272678856
 30
0.0
 42
-0.0071590769910906
  0
VERTEX
  5
1E15
  8
CYAN
 10
4.1255121755526787
 20
17.222726801677009
 30
0.0
 42
-0.0025627809356387
  0
VERTEX
  5
1E16
  8
CYAN
 10
3.9317694250683282
 20
17.247725866413852
 30
0.0
  0
VERTEX
  5
1E17
  8
CYAN
 10
3.76927548641856
 20
17.266475167434091
 30
0.0
  0
VERTEX
  5
1E18
  8
CYAN
 10
3.656779697585085
 20
17.285224465572998
 30
0.0
 42
0.0044883994876967
  0
VERTEX
  5
1E19
  8
CYAN
 10
3.531784376762352
 20
17.297723997653911
 30
0.0
 42
-0.0032441272917723
  0
VERTEX
  5
1E1A
  8
CYAN
 10
3.3755402304589261
 20
17.31647329532225
 30
0.0
 42
-0.005905509352812
  0
VERTEX
  5
1E1B
  8
CYAN
 10
3.1880472352357541
 20
17.34147236124296
 30
0.0
 42
-0.0060023797585145
  0
VERTEX
  5
1E1C
  8
CYAN
 10
3.0005542443853082
 20
17.372721192847902
 30
0.0
 42
-0.0048565906701473
  0
VERTEX
  5
1E1D
  8
CYAN
 10
2.856809616658091
 20
17.397720258581032
 30
0.0
 42
-0.0037702382373605
  0
VERTEX
  5
1E1E
  8
CYAN
 10
2.675566392689249
 20
17.435218856446959
 30
0.0
 42
-0.0030296506290049
  0
VERTEX
  5
1E1F
  8
CYAN
 10
2.463074335934035
 20
17.478967221179921
 30
0.0
 42
-0.0042636918855315
  0
VERTEX
  5
1E20
  8
CYAN
 10
2.319329694823653
 20
17.510216056078331
 30
0.0
  0
VERTEX
  5
1E21
  8
CYAN
 10
2.2568320247001949
 20
17.528965356405092
 30
0.0
  0
VERTEX
  5
1E22
  8
CYAN
 10
2.0880883364179441
 20
17.57271372027483
 30
0.0
 42
-0.013051685389883
  0
VERTEX
  5
1E23
  8
CYAN
 10
2.006841378120507
 20
17.5977127843712
 30
0.0
 42
0.0116263354141323
  0
VERTEX
  5
1E24
  8
CYAN
 10
1.906845119763366
 20
17.622711849112331
 30
0.0
 42
0.0481010551073555
  0
VERTEX
  5
1E25
  8
CYAN
 10
1.819348396387358
 20
17.641461146981442
 30
0.0
 42
0.053575236416661
  0
VERTEX
  5
1E26
  8
CYAN
 10
1.7381014378316071
 20
17.635211380877418
 30
0.0
  0
VERTEX
  5
1E27
  8
CYAN
 10
1.6881033098855931
 20
17.622711848877149
 30
0.0
 42
0.0194493213793751
  0
VERTEX
  5
1E28
  8
CYAN
 10
1.6006065851870199
 20
17.59771278467009
 30
0.0
 42
0.0207308874542351
  0
VERTEX
  5
1E29
  8
CYAN
 10
1.481861031028588
 20
17.547714656518359
 30
0.0
  0
VERTEX
  5
1E2A
  8
CYAN
 10
1.3756150096162241
 20
17.50396629481093
 30
0.0
 42
0.1385902761938879
  0
VERTEX
  5
1E2B
  8
CYAN
 10
1.3193671156987621
 20
17.466467699199988
 30
0.0
  0
VERTEX
  5
1E2C
  8
CYAN
 10
1.2568694547652111
 20
17.391470506090752
 30
0.0
  0
VERTEX
  5
1E2D
  8
CYAN
 10
1.225620624556764
 20
17.335222611715551
 30
0.0
  0
VERTEX
  5
1E2E
  8
CYAN
 10
1.1943717941696801
 20
17.172728693702709
 30
0.0
 42
0.0105221585256173
  0
VERTEX
  5
1E2F
  8
CYAN
 10
1.1881221579263621
 20
17.135230072532121
 30
0.0
 42
0.0364151019294911
  0
VERTEX
  5
1E30
  8
CYAN
 10
1.2006216900374991
 20
17.003984985513011
 30
0.0
 42
0.2826929840242893
  0
VERTEX
  5
1E31
  8
CYAN
 10
1.4006142021261061
 20
16.747744579188019
 30
0.0
 42
0.1406544140943837
  0
VERTEX
  5
1E32
  8
CYAN
 10
3.6192811475576221
 20
16.59150042783962
 30
0.0
 42
0.0243931830442359
  0
VERTEX
  5
1E33
  8
CYAN
 10
3.8255234266950562
 20
16.628999024023539
 30
0.0
  0
VERTEX
  5
1E34
  8
CYAN
 10
4.0005168759851069
 20
16.672747386359841
 30
0.0
  0
VERTEX
  5
1E35
  8
CYAN
 10
4.4754990951535421
 20
16.785243175110239
 30
0.0
  0
VERTEX
  5
1E36
  8
CYAN
 10
4.750488800987906
 20
16.853990601568839
 30
0.0
  0
VERTEX
  5
1E37
  8
CYAN
 10
4.7629883330712808
 20
16.853990601568839
 30
0.0
  0
VERTEX
  5
1E38
  8
CYAN
 10
4.7879873972507641
 20
16.86649013365858
 30
0.0
 42
-0.0032062696961803
  0
VERTEX
  5
1E39
  8
CYAN
 10
4.9192324834097008
 20
16.91023849571647
 30
0.0
  0
VERTEX
  5
1E3A
  8
CYAN
 10
5.0004794487031052
 20
16.9352375620836
 30
0.0
 42
0.7566205204271915
  0
VERTEX
  5
1E3B
  8
CYAN
 10
4.9942296831994177
 20
17.178978437921181
 30
0.0
  0
VERTEX
  5
1E3C
  8
CYAN
 10
4.9317320229246064
 20
17.19772773601245
 30
0.0
  0
VERTEX
  5
1E3D
  8
CYAN
 10
4.8879836606327762
 20
17.19772773601245
 30
0.0
  0
VERTEX
  5
1E3E
  8
CYAN
 10
4.8629845964751084
 20
17.20397750205187
 30
0.0
 42
0.0428592259529859
  0
VERTEX
  5
1E3F
  8
CYAN
 10
4.7754878716353213
 20
17.197727735971451
 30
0.0
 42
-0.0345946661996227
  0
VERTEX
  5
1E40
  8
CYAN
 10
4.6754916155573421
 20
17.191477970012102
 30
0.0
  0
VERTEX
  5
1E41
  8
CYAN
 10
4.6004944221746129
 20
17.197727736067598
 30
0.0
  0
VERTEX
  5
1E42
  8
CYAN
 10
4.5254972295587361
 20
17.197727736067598
 30
0.0
 42
-0.0029127409787249
  0
VERTEX
  5
1E43
  8
CYAN
 10
4.2692568220103917
 20
17.210227268143459
 30
0.0
 42
-0.0117505165997468
  0
SEQEND
  5
1E44
  8
CYAN
  0
POLYLINE
  5
91C
  8
CYAN
 66
     1
 10
0.0
 20
0.0
 30
0.0
 70
     1
  0
VERTEX
  5
1E45
  8
CYAN
 10
1.6193559077854101
 20
15.991522945469971
 30
0.0
 42
0.4177068302485275
  0
VERTEX
  5
1E46
  8
CYAN
 10
1.2068713500997721
 20
15.385295640076411
 30
0.0
 42
0.4513947921646177
  0
VERTEX
  5
1E47
  8
CYAN
 10
1.881846082995382
 20
14.991560379633331
 30
0.0
 42
0.0575658444371898
  0
VERTEX
  5
1E48
  8
CYAN
 10
4.4692492260188237
 20
16.229014057120619
 30
0.0
 42
0.821397590179364
  0
VERTEX
  5
1E49
  8
CYAN
 10
4.3692529659045363
 20
16.491504228764281
 30
0.0
  0
SEQEND
  5
1E4A
  8
CYAN
  0
POLYLINE
  5
921
  8
CYAN
 66
     1
 10
0.0
 20
0.0
 30
0.0
 70
     1
  0
VERTEX
  5
1E4B
  8
CYAN
 10
3.7567758807496872
 20
14.022846624266361
 30
0.0
  0
VERTEX
  5
1E4C
  8
CYAN
 10
3.800524243041516
 20
14.02909639030805
 30
0.0
  0
VERTEX
  5
1E4D
  8
CYAN
 10
3.844272605333348
 20
14.04159592239143
 30
0.0
  0
VERTEX
  5
1E4E
  8
CYAN
 10
3.8942707336658762
 20
14.05409545447456
 30
0.0
 42
0.0246778073090697
  0
VERTEX
  5
1E4F
  8
CYAN
 10
4.013016288506801
 20
14.097843816787149
 30
0.0
 42
0.0403144197222918
  0
VERTEX
  5
1E50
  8
CYAN
 10
4.0755139488902961
 20
14.13534241304982
 30
0.0
 42
0.0622577481368716
  0
VERTEX
  5
1E51
  8
CYAN
 10
4.138011609136405
 20
14.185340541265029
 30
0.0
 42
0.0714869599907736
  0
VERTEX
  5
1E52
  8
CYAN
 10
5.1442239418459472
 20
15.285299364601499
 30
0.0
 42
0.0241941979393866
  0
VERTEX
  5
1E53
  8
CYAN
 10
5.2879685600219313
 20
15.46654257868301
 30
0.0
 42
0.0119161426135011
  0
VERTEX
  5
1E54
  8
CYAN
 10
5.5692080316512644
 20
15.86652760497312
 30
0.0
 42
0.0149873037968461
  0
VERTEX
  5
1E55
  8
CYAN
 10
5.7692005442509053
 20
16.191515438066411
 30
0.0
 42
-0.0170064420998657
  0
VERTEX
  5
1E56
  8
CYAN
 10
5.9379442266647571
 20
16.466505142661632
 30
0.0
 42
-0.0398534862616538
  0
VERTEX
  5
1E57
  8
CYAN
 10
6.0441902514165982
 20
16.597750232622079
 30
0.0
  0
VERTEX
  5
1E58
  8
CYAN
 10
6.1629358067451907
 20
16.797742746523038
 30
0.0
  0
VERTEX
  5
1E59
  8
CYAN
 10
6.1816851048702652
 20
16.8289915767315
 30
0.0
  0
VERTEX
  5
1E5A
  8
CYAN
 10
6.1816851048702652
 20
16.87898970506502
 30
0.0
  0
VERTEX
  5
1E5B
  8
CYAN
 10
6.1754353388285743
 20
16.92273806735685
 30
0.0
  0
VERTEX
  5
1E5C
  8
CYAN
 10
6.1629358067451907
 20
16.94773713152361
 30
0.0
  0
VERTEX
  5
1E5D
  8
CYAN
 10
6.1316869765417668
 20
16.960236663604981
 30
0.0
 42
0.0920700034788455
  0
VERTEX
  5
1E5E
  8
CYAN
 10
6.0816888482104741
 20
16.953986897566342
 30
0.0
  0
VERTEX
  5
1E5F
  8
CYAN
 10
6.0379404859885968
 20
16.947737131545669
 30
0.0
  0
VERTEX
  5
1E60
  8
CYAN
 10
6.0129414218269801
 20
16.935237599464848
 30
0.0
 42
0.0083327547098316
  0
VERTEX
  5
1E61
  8
CYAN
 10
5.93794422932804
 20
16.91023853529877
 30
0.0
  0
VERTEX
  5
1E62
  8
CYAN
 10
5.900445634513968
 20
16.891489237676669
 30
0.0
 42
0.0321555586069638
  0
VERTEX
  5
1E63
  8
CYAN
 10
5.8254484419667998
 20
16.853990641395139
 30
0.0
 42
0.0167804712046025
  0
VERTEX
  5
1E64
  8
CYAN
 10
5.7067028874506596
 20
16.766493916942679
 30
0.0
  0
VERTEX
  5
1E65
  8
CYAN
 10
5.6129563982417956
 20
16.69774649159859
 30
0.0
  0
VERTEX
  5
1E66
  8
CYAN
 10
5.4067141188660282
 20
16.547752106598018
 30
0.0
  0
VERTEX
  5
1E67
  8
CYAN
 10
5.2879685643939407
 20
16.460255382250178
 30
0.0
 42
0.0233004590504515
  0
VERTEX
  5
1E68
  8
CYAN
 10
5.1942220737076257
 20
16.38525818974577
 30
0.0
 42
-0.0157293314249224
  0
VERTEX
  5
1E69
  8
CYAN
 10
5.0567272215827161
 20
16.266512635615459
 30
0.0
 42
-0.0327642408096216
  0
VERTEX
  5
1E6A
  8
CYAN
 10
4.8754840029133133
 20
16.141517312587009
 30
0.0
 42
0.0290577538934792
  0
VERTEX
  5
1E6B
  8
CYAN
 10
4.6817412581157587
 20
16.010272227166489
 30
0.0
 42
0.0113072664203386
  0
VERTEX
  5
1E6C
  8
CYAN
 10
4.550496172070523
 20
15.904026205054411
 30
0.0
 42
0.0076400961535523
  0
VERTEX
  5
1E6D
  8
CYAN
 10
4.3817524913326817
 20
15.76028158810357
 30
0.0
 42
0.0135704571717186
  0
VERTEX
  5
1E6E
  8
CYAN
 10
4.2630069401071538
 20
15.647785802422989
 30
0.0
 42
0.0287148579575421
  0
VERTEX
  5
1E6F
  8
CYAN
 10
4.2192585799445039
 20
15.59778767623372
 30
0.0
 42
0.0431399035848796
  0
VERTEX
  5
1E70
  8
CYAN
 10
4.163010685787123
 20
15.504041185860221
 30
0.0
 42
0.0189694767876999
  0
VERTEX
  5
1E71
  8
CYAN
 10
4.0505148971590401
 20
15.29154914067721
 30
0.0
  0
VERTEX
  5
1E72
  8
CYAN
 10
3.9942670040208972
 20
15.16655382242457
 30
0.0
  0
VERTEX
  5
1E73
  8
CYAN
 10
3.9567684077707592
 20
15.07280733179922
 30
0.0
  0
VERTEX
  5
1E74
  8
CYAN
 10
3.8005242565898749
 20
14.710320901059569
 30
0.0
 42
0.0056797458683986
  0
VERTEX
  5
1E75
  8
CYAN
 10
3.7630256601538679
 20
14.62907394208314
 30
0.0
 42
0.0241633500560195
  0
VERTEX
  5
1E76
  8
CYAN
 10
3.7317768315666942
 20
14.54782698716833
 30
0.0
 42
0.0153677906890628
  0
VERTEX
  5
1E77
  8
CYAN
 10
3.7005280016018611
 20
14.416581901042999
 30
0.0
  0
VERTEX
  5
1E78
  8
CYAN
 10
3.6880284698861039
 20
14.37283354054518
 30
0.0
  0
VERTEX
  5
1E79
  8
CYAN
 10
3.6817787038444201
 20
14.341584710336731
 30
0.0
  0
VERTEX
  5
1E7A
  8
CYAN
 10
3.6755289378027221
 20
14.316585646169971
 30
0.0
  0
VERTEX
  5
1E7B
  8
CYAN
 10
3.6567796396676009
 20
14.254087985719559
 30
0.0
 42
0.0380456706915419
  0
VERTEX
  5
1E7C
  8
CYAN
 10
3.644280107592857
 20
14.154091729131149
 30
0.0
 42
0.0655071580165696
  0
VERTEX
  5
1E7D
  8
CYAN
 10
3.6442801075716869
 20
14.09159406935785
 30
0.0
  0
VERTEX
  5
1E7E
  8
CYAN
 10
3.6630294057193402
 20
14.04784570717139
 30
0.0
  0
VERTEX
  5
1E7F
  8
CYAN
 10
3.7067777680111762
 20
14.029096409046319
 30
0.0
  0
VERTEX
  5
1E80
  8
CYAN
 10
3.7317768165829288
 20
14.022846624266361
 30
0.0
  0
SEQEND
  5
1E81
  8
CYAN
  0
POLYLINE
  5
956
  8
CYAN
 66
     1
 10
0.0
 20
0.0
 30
0.0
 70
     1
  0
VERTEX
  5
1E82
  8
CYAN
 10
6.3379292711987052
 20
16.391507974448459
 30
0.0
  0
VERTEX
  5
1E83
  8
CYAN
 10
6.287931142931364
 20
16.329010314108761
 30
0.0
  0
VERTEX
  5
1E84
  8
CYAN
 10
6.2504325466812238
 20
16.27901218577524
 30
0.0
  0
VERTEX
  5
1E85
  8
CYAN
 10
6.1941846523060118
 20
16.185265695149891
 30
0.0
  0
VERTEX
  5
1E86
  8
CYAN
 10
5.9816926068885534
 20
15.860277860982009
 30
0.0
  0
VERTEX
  5
1E87
  8
CYAN
 10
5.6754540708457411
 20
15.36029657764681
 30
0.0
  0
VERTEX
  5
1E88
  8
CYAN
 10
5.3442164706361721
 20
14.929062720770199
 30
0.0
  0
VERTEX
  5
1E89
  8
CYAN
 10
4.9442314439680164
 20
14.479079565768521
 30
0.0
  0
VERTEX
  5
1E8A
  8
CYAN
 10
4.5004980549376006
 20
14.0040973465247
 30
0.0
 42
-0.0565682849436672
  0
VERTEX
  5
1E8B
  8
CYAN
 10
3.644280107223111
 20
13.210377059256031
 30
0.0
  0
VERTEX
  5
1E8C
  8
CYAN
 10
3.031803034714569
 20
12.79789250018996
 30
0.0
  0
VERTEX
  5
1E8D
  8
CYAN
 10
2.644317540129788
 20
12.554151624564049
 30
0.0
  0
VERTEX
  5
1E8E
  8
CYAN
 10
2.1880846190864158
 20
12.30416098289645
 30
0.0
  0
VERTEX
  5
1E8F
  8
CYAN
 10
1.769350294293188
 20
12.022921511020391
 30
0.0
  0
VERTEX
  5
1E90
  8
CYAN
 10
1.475611290333757
 20
11.891676424144899
 30
0.0
  0
VERTEX
  5
1E91
  8
CYAN
 10
1.3193671392915061
 20
11.79792993351955
 30
0.0
  0
VERTEX
  5
1E92
  8
CYAN
 10
1.194371818457707
 20
11.691683910810831
 30
0.0
  0
VERTEX
  5
1E93
  8
CYAN
 10
1.106875093874047
 20
11.566688589977019
 30
0.0
  0
VERTEX
  5
1E94
  8
CYAN
 10
1.0506271994763161
 20
11.454192801181559
 30
0.0
 42
0.1384952841132269
  0
VERTEX
  5
1E95
  8
CYAN
 10
1.0443774335243181
 20
11.38544537438737
 30
0.0
  0
VERTEX
  5
1E96
  8
CYAN
 10
1.0631267315852551
 20
11.27919935202735
 30
0.0
 42
0.187093060416586
  0
VERTEX
  5
1E97
  8
CYAN
 10
1.2131211165498541
 20
11.047958008631181
 30
0.0
  0
VERTEX
  5
1E98
  8
CYAN
 10
1.3443662038883999
 20
10.99795988046999
 30
0.0
  0
VERTEX
  5
1E99
  8
CYAN
 10
1.488110822847271
 20
10.99795988046999
 30
0.0
  0
VERTEX
  5
1E9A
  8
CYAN
 10
1.638105207847828
 20
11.03545847672013
 30
0.0
  0
VERTEX
  5
1E9B
  8
CYAN
 10
1.825598189098528
 20
11.09170637109534
 30
0.0
  0
VERTEX
  5
1E9C
  8
CYAN
 10
2.3068301743086561
 20
11.316697948596181
 30
0.0
  0
VERTEX
  5
1E9D
  8
CYAN
 10
3.19429695222864
 20
11.960423850890241
 30
0.0
  0
VERTEX
  5
1E9E
  8
CYAN
 10
3.9255195791063668
 20
12.62914881735108
 30
0.0
  0
VERTEX
  5
1E9F
  8
CYAN
 10
4.594244545567201
 20
13.297873783811911
 30
0.0
  0
VERTEX
  5
1EA0
  8
CYAN
 10
5.194222085569435
 20
13.94784945214767
 30
0.0
  0
VERTEX
  5
1EA1
  8
CYAN
 10
5.6754540707795691
 20
14.63532371673357
 30
0.0
  0
VERTEX
  5
1EA2
  8
CYAN
 10
5.9816926068223788
 20
15.21655195861074
 30
0.0
  0
VERTEX
  5
1EA3
  8
CYAN
 10
6.3754278674488507
 20
15.791530434446219
 30
0.0
  0
VERTEX
  5
1EA4
  8
CYAN
 10
6.5316720184910988
 20
16.166516396947621
 30
0.0
  0
VERTEX
  5
1EA5
  8
CYAN
 10
6.5629208486831878
 20
16.235263823370222
 30
0.0
 42
0.9211279051518394
  0
SEQEND
  5
1EA6
  8
CYAN
  0
POLYLINE
  5
97A
  8
CYAN
 66
     1
 10
0.0
 20
0.0
 30
0.0
 70
     1
  0
VERTEX
  5
1EA7
  8
CYAN
 10
3.0568020967968459
 20
14.079094536563691
 30
0.0
  0
VERTEX
  5
1EA8
  8
CYAN
 10
1.26311925992031
 20
13.191627767104681
 30
0.0
 42
0.5490219200404929
  0
VERTEX
  5
1EA9
  8
CYAN
 10
1.1943718167528301
 20
12.554151623088909
 30
0.0
 42
0.2879698899668149
  0
VERTEX
  5
1EAA
  8
CYAN
 10
1.5943568432072259
 20
12.504153494524161
 30
0.0
 42
0.1235448810357613
  0
VERTEX
  5
1EAB
  8
CYAN
 10
3.2630443745440401
 20
13.82910389277119
 30
0.0
 42
0.7945155580868685
  0
SEQEND
  5
1EAC
  8
CYAN
  0
POLYLINE
  5
97F
  8
CYAN
 66
     1
 10
0.0
 20
0.0
 30
0.0
 70
     5
 75
     6
  0
VERTEX
  5
9B7
  8
CYAN
 10
2.738064003292461
 20
14.90406362079101
 30
0.0
 70
    16
  0
VERTEX
  5
9EE
  8
CYAN
 10
2.4453666416321802
 20
14.772818540652979
 30
0.0
 70
     8
  0
VERTEX
  5
9EF
  8
CYAN
 10
2.4072780615915881
 20
14.75643528380728
 30
0.0
 70
     8
  0
VERTEX
  5
9F0
  8
CYAN
 10
2.368969762890818
 20
14.740186299130819
 30
0.0
 70
     8
  0
VERTEX
  5
9F1
  8
CYAN
 10
2.330710290221814
 20
14.72420585896727
 30
0.0
 70
     8
  0
VERTEX
  5
9F2
  8
CYAN
 10
2.2927681882765181
 20
14.708628235660269
 30
0.0
 70
     8
  0
VERTEX
  5
9F3
  8
CYAN
 10
2.255412001746874
 20
14.693587701553501
 30
0.0
 70
     8
  0
VERTEX
  5
9F4
  8
CYAN
 10
2.2189102753248231
 20
14.67921852899064
 30
0.0
 70
     8
  0
VERTEX
  5
9F5
  8
CYAN
 10
2.183531553702311
 20
14.66565499031536
 30
0.0
 70
     8
  0
VERTEX
  5
9F6
  8
CYAN
 10
2.1495443815712769
 20
14.653031357871299
 30
0.0
 70
     8
  0
VERTEX
  5
9F7
  8
CYAN
 10
2.117150167454104
 20
14.641443249845141
 30
0.0
 70
     8
  0
VERTEX
  5
9F8
  8
CYAN
 10
2.086281775194915
 20
14.63083166779545
 30
0.0
 70
     8
  0
VERTEX
  5
9F9
  8
CYAN
 10
2.056804932468276
 20
14.62109895912384
 30
0.0
 70
     8
  0
VERTEX
  5
9FA
  8
CYAN
 10
2.028585366948747
 20
14.61214747123188
 30
0.0
 70
     8
  0
VERTEX
  5
9FB
  8
CYAN
 10
2.0014888063108951
 20
14.60387955152116
 30
0.0
 70
     8
  0
VERTEX
  5
9FC
  8
CYAN
 10
1.9753809782292779
 20
14.596197547393251
 30
0.0
 70
     8
  0
VERTEX
  5
9FD
  8
CYAN
 10
1.9501276103784631
 20
14.589003806249741
 30
0.0
 70
     8
  0
VERTEX
  5
9FE
  8
CYAN
 10
1.925594430433011
 20
14.582200675492221
 30
0.0
 70
     8
  0
VERTEX
  5
9FF
  8
CYAN
 10
1.9016512349266159
 20
14.5757006746681
 30
0.0
 70
     8
  0
VERTEX
  5
A00
  8
CYAN
 10
1.8781840958295071
 20
14.569457011908121
 30
0.0
 70
     8
  0
VERTEX
  5
A01
  8
CYAN
 10
1.8550831539710411
 20
14.563433067488839
 30
0.0
 70
     8
  0
VERTEX
  5
A02
  8
CYAN
 10
1.832238550180576
 20
14.557592221686839
 30
0.0
 70
     8
  0
VERTEX
  5
A03
  8
CYAN
 10
1.8095404252874701
 20
14.551897854778691
 30
0.0
 70
     8
  0
VERTEX
  5
A04
  8
CYAN
 10
1.7868789201210811
 20
14.546313347040959
 30
0.0
 70
     8
  0
VERTEX
  5
A05
  8
CYAN
 10
1.7641441755107681
 20
14.54080207875022
 30
0.0
 70
     8
  0
VERTEX
  5
A06
  8
CYAN
 10
1.741226332285889
 20
14.535327430183029
 30
0.0
 70
     8
  0
VERTEX
  5
A07
  8
CYAN
 10
1.7180724952900741
 20
14.529864988190489
 30
0.0
 70
     8
  0
VERTEX
  5
A08
  8
CYAN
 10
1.6948576254240411
 20
14.524439165921679
 30
0.0
 70
     8
  0
VERTEX
  5
A09
  8
CYAN
 10
1.6718136476027841
 20
14.51908658310019
 30
0.0
 70
     8
  0
VERTEX
  5
A0A
  8
CYAN
 10
1.64917248674129
 20
14.513843859449651
 30
0.0
 70
     8
  0
VERTEX
  5
A0B
  8
CYAN
 10
1.6271660677545541
 20
14.50874761469364
 30
0.0
 70
     8
  0
VERTEX
  5
A0C
  8
CYAN
 10
1.606026315557562
 20
14.50383446855578
 30
0.0
 70
     8
  0
VERTEX
  5
A0D
  8
CYAN
 10
1.585985155065309
 20
14.49914104075966
 30
0.0
 70
     8
  0
VERTEX
  5
A0E
  8
CYAN
 10
1.567274511192785
 20
14.494703951028891
 30
0.0
 70
     8
  0
VERTEX
  5
A0F
  8
CYAN
 10
1.5500591726953401
 20
14.490549646941581
 30
0.0
 70
     8
  0
VERTEX
  5
A10
  8
CYAN
 10
1.5342353836897591
 20
14.48666388749392
 30
0.0
 70
     8
  0
VERTEX
  5
A11
  8
CYAN
 10
1.5196322521331891
 20
14.4830222595366
 30
0.0
 70
     8
  0
VERTEX
  5
A12
  8
CYAN
 10
1.5060788859827761
 20
14.47960034992032
 30
0.0
 70
     8
  0
VERTEX
  5
A13
  8
CYAN
 10
1.4934043931956651
 20
14.476373745495771
 30
0.0
 70
     8
  0
VERTEX
  5
A14
  8
CYAN
 10
1.481437881729001
 20
14.47331803311365
 30
0.0
 70
     8
  0
VERTEX
  5
A15
  8
CYAN
 10
1.4700084595399321
 20
14.470408799624661
 30
0.0
 70
     8
  0
VERTEX
  5
A16
  8
CYAN
 10
1.4589452345856011
 20
14.46762163187948
 30
0.0
 70
     8
  0
VERTEX
  5
A17
  8
CYAN
 10
1.4481057968289961
 20
14.464934151157699
 30
0.0
 70
     8
  0
VERTEX
  5
A18
  8
CYAN
 10
1.437461664256463
 20
14.46233211645438
 30
0.0
 70
     8
  0
VERTEX
  5
A19
  8
CYAN
 10
1.4270128368601911
 20
14.45980332119346
 30
0.0
 70
     8
  0
VERTEX
  5
A1A
  8
CYAN
 10
1.416759314632366
 20
14.457335558798871
 30
0.0
 70
     8
  0
VERTEX
  5
A1B
  8
CYAN
 10
1.406701097565175
 20
14.45491662269456
 30
0.0
 70
     8
  0
VERTEX
  5
A1C
  8
CYAN
 10
1.3968381856508081
 20
14.45253430630447
 30
0.0
 70
     8
  0
VERTEX
  5
A1D
  8
CYAN
 10
1.387170578881449
 20
14.45017640305254
 30
0.0
 70
     8
  0
VERTEX
  5
A1E
  8
CYAN
 10
1.3776982772492881
 20
14.44783070636271
 30
0.0
 70
     8
  0
VERTEX
  5
A1F
  8
CYAN
 10
1.3684192463208651
 20
14.44548297523067
 30
0.0
 70
     8
  0
VERTEX
  5
A20
  8
CYAN
 10
1.3593233139601331
 20
14.44311083093918
 30
0.0
 70
     8
  0
VERTEX
  5
A21
  8
CYAN
 10
1.3503982736053961
 20
14.440689860342721
 30
0.0
 70
     8
  0
VERTEX
  5
A22
  8
CYAN
 10
1.341631918694961
 20
14.43819565029583
 30
0.0
 70
     8
  0
VERTEX
  5
A23
  8
CYAN
 10
1.333012042667135
 20
14.43560378765298
 30
0.0
 70
     8
  0
VERTEX
  5
A24
  8
CYAN
 10
1.32452643896022
 20
14.432889859268689
 30
0.0
 70
     8
  0
VERTEX
  5
A25
  8
CYAN
 10
1.3161629010125251
 20
14.43002945199745
 30
0.0
 70
     8
  0
VERTEX
  5
A26
  8
CYAN
 10
1.3079092222623561
 20
14.42699815269378
 30
0.0
 70
     8
  0
VERTEX
  5
A27
  8
CYAN
 10
1.2997572650031031
 20
14.4237817203567
 30
0.0
 70
     8
  0
VERTEX
  5
A28
  8
CYAN
 10
1.2917151669485121
 20
14.42040660256338
 30
0.0
 70
     8
  0
VERTEX
  5
A29
  8
CYAN
 10
1.283795134667413
 20
14.41690941903553
 30
0.0
 70
     8
  0
VERTEX
  5
A2A
  8
CYAN
 10
1.276009374728639
 20
14.41332678949483
 30
0.0
 70
     8
  0
VERTEX
  5
A2B
  8
CYAN
 10
1.2683700937010181
 20
14.409695333662979
 30
0.0
 70
     8
  0
VERTEX
  5
A2C
  8
CYAN
 10
1.260889498153386
 20
14.40605167126169
 30
0.0
 70
     8
  0
VERTEX
  5
A2D
  8
CYAN
 10
1.253579794654569
 20
14.40243242201265
 30
0.0
 70
     8
  0
VERTEX
  5
A2E
  8
CYAN
 10
1.2464531897733999
 20
14.39887420563756
 30
0.0
 70
     8
  0
VERTEX
  5
A2F
  8
CYAN
 10
1.2395259589375851
 20
14.395405504141991
 30
0.0
 70
     8
  0
VERTEX
  5
A30
  8
CYAN
 10
1.232830653010323
 20
14.392022248667001
 30
0.0
 70
     8
  0
VERTEX
  5
A31
  8
CYAN
 10
1.226403891713687
 20
14.38871223263752
 30
0.0
 70
     8
  0
VERTEX
  5
A32
  8
CYAN
 10
1.220282294769748
 20
14.38546324947848
 30
0.0
 70
     8
  0
VERTEX
  5
A33
  8
CYAN
 10
1.2145024819005841
 20
14.38226309261481
 30
0.0
 70
     8
  0
VERTEX
  5
A34
  8
CYAN
 10
1.2091010728282621
 20
14.37909955547144
 30
0.0
 70
     8
  0
VERTEX
  5
A35
  8
CYAN
 10
1.20411468727486
 20
14.37596043147331
 30
0.0
 70
     8
  0
VERTEX
  5
A36
  8
CYAN
 10
1.199579944962448
 20
14.37283351404535
 30
0.0
 70
     8
  0
VERTEX
  5
A37
  8
CYAN
 10
1.1955192246100761
 20
14.36970863104176
 30
0.0
 70
     8
  0
VERTEX
  5
A38
  8
CYAN
 10
1.191897940924685
 20
14.36658374803388
 30
0.0
 70
     8
  0
VERTEX
  5
A39
  8
CYAN
 10
1.188667267610191
 20
14.36345886502234
 30
0.0
 70
     8
  0
VERTEX
  5
A3A
  8
CYAN
 10
1.1857783783705149
 20
14.36033398200772
 30
0.0
 70
     8
  0
VERTEX
  5
A3B
  8
CYAN
 10
1.1831824469095711
 20
14.35720909899066
 30
0.0
 70
     8
  0
VERTEX
  5
A3C
  8
CYAN
 10
1.180830646931277
 20
14.354084215971749
 30
0.0
 70
     8
  0
VERTEX
  5
A3D
  8
CYAN
 10
1.1786741521395501
 20
14.35095933295162
 30
0.0
 70
     8
  0
VERTEX
  5
A3E
  8
CYAN
 10
1.176664136238307
 20
14.347834449930881
 30
0.0
 70
     8
  0
VERTEX
  5
A3F
  8
CYAN
 10
1.174753807360331
 20
14.34470346362289
 30
0.0
 70
     8
  0
VERTEX
  5
A40
  8
CYAN
 10
1.1729045113538541
 20
14.341535857591991
 30
0.0
 70
     8
  0
VERTEX
  5
A41
  8
CYAN
 10
1.171079628495977
 20
14.338295012115291
 30
0.0
 70
     8
  0
VERTEX
  5
A42
  8
CYAN
 10
1.169242539063801
 20
14.33494430746989
 30
0.0
 70
     8
  0
VERTEX
  5
A43
  8
CYAN
 10
1.167356623334425
 20
14.3314471239329
 30
0.0
 70
     8
  0
VERTEX
  5
A44
  8
CYAN
 10
1.165385261584946
 20
14.32776684178139
 30
0.0
 70
     8
  0
VERTEX
  5
A45
  8
CYAN
 10
1.1632918340924661
 20
14.323866841292491
 30
0.0
 70
     8
  0
VERTEX
  5
A46
  8
CYAN
 10
1.1610397211340839
 20
14.31971050274327
 30
0.0
 70
     8
  0
VERTEX
  5
A47
  8
CYAN
 10
1.1586045095612001
 20
14.31527137855611
 30
0.0
 70
     8
  0
VERTEX
  5
A48
  8
CYAN
 10
1.1560106125224121
 20
14.310563709734341
 30
0.0
 70
     8
  0
VERTEX
  5
A49
  8
CYAN
 10
1.153294649740624
 20
14.30561190942657
 30
0.0
 70
     8
  0
VERTEX
  5
A4A
  8
CYAN
 10
1.1504932409387341
 20
14.3004403907814
 30
0.0
 70
     8
  0
VERTEX
  5
A4B
  8
CYAN
 10
1.1476430058396421
 20
14.295073566947419
 30
0.0
 70
     8
  0
VERTEX
  5
A4C
  8
CYAN
 10
1.1447805641662501
 20
14.289535851073239
 30
0.0
 70
     8
  0
VERTEX
  5
A4D
  8
CYAN
 10
1.1419425356414601
 20
14.28385165630746
 30
0.0
 70
     8
  0
VERTEX
  5
A4E
  8
CYAN
 10
1.1391655399881699
 20
14.278045395798671
 30
0.0
 70
     8
  0
VERTEX
  5
A4F
  8
CYAN
 10
1.1364841625002311
 20
14.27214148269549
 30
0.0
 70
     8
  0
VERTEX
  5
A50
  8
CYAN
 10
1.133924850755293
 20
14.266164330146539
 30
0.0
 70
     8
  0
VERTEX
  5
A51
  8
CYAN
 10
1.1315120179019591
 20
14.260138351300441
 30
0.0
 70
     8
  0
VERTEX
  5
A52
  8
CYAN
 10
1.1292700770888251
 20
14.25408795930584
 30
0.0
 70
     8
  0
VERTEX
  5
A53
  8
CYAN
 10
1.127223441464497
 20
14.248037567311339
 30
0.0
 70
     8
  0
VERTEX
  5
A54
  8
CYAN
 10
1.1253965241775701
 20
14.2420115884656
 30
0.0
 70
     8
  0
VERTEX
  5
A55
  8
CYAN
 10
1.1238137383766451
 20
14.236034435917221
 30
0.0
 70
     8
  0
VERTEX
  5
A56
  8
CYAN
 10
1.122499497210327
 20
14.23013052281485
 30
0.0
 70
     8
  0
VERTEX
  5
A57
  8
CYAN
 10
1.1214761793981569
 20
14.224305952445659
 30
0.0
 70
     8
  0
VERTEX
  5
A58
  8
CYAN
 10
1.1207580259434691
 20
14.21849358865099
 30
0.0
 70
     8
  0
VERTEX
  5
A59
  8
CYAN
 10
1.1203572434205411
 20
14.21260798541074
 30
0.0
 70
     8
  0
VERTEX
  5
A5A
  8
CYAN
 10
1.120286038403645
 20
14.2065636967048
 30
0.0
 70
     8
  0
VERTEX
  5
A5B
  8
CYAN
 10
1.120556617467064
 20
14.20027527651305
 30
0.0
 70
     8
  0
VERTEX
  5
A5C
  8
CYAN
 10
1.1211811871850701
 20
14.193657278815399
 30
0.0
 70
     8
  0
VERTEX
  5
A5D
  8
CYAN
 10
1.122171954131941
 20
14.186624257591729
 30
0.0
 70
     8
  0
VERTEX
  5
A5E
  8
CYAN
 10
1.123541124881956
 20
14.179090766821931
 30
0.0
 70
     8
  0
VERTEX
  5
A5F
  8
CYAN
 10
1.1252886994350191
 20
14.171003911350921
 30
0.0
 70
     8
  0
VERTEX
  5
A60
  8
CYAN
 10
1.127365851493537
 20
14.16244099948368
 30
0.0
 70
     8
  0
VERTEX
  5
A61
  8
CYAN
 10
1.1297115481855471
 20
14.15351189039022
 30
0.0
 70
     8
  0
VERTEX
  5
A62
  8
CYAN
 10
1.1322647566390911
 20
14.14432644324055
 30
0.0
 70
     8
  0
VERTEX
  5
A63
  8
CYAN
 10
1.134964443982202
 20
14.134994517204669
 30
0.0
 70
     8
  0
VERTEX
  5
A64
  8
CYAN
 10
1.1377495773429169
 20
14.12562597145258
 30
0.0
 70
     8
  0
VERTEX
  5
A65
  8
CYAN
 10
1.1405591238492749
 20
14.116330665154299
 30
0.0
 70
     8
  0
VERTEX
  5
A66
  8
CYAN
 10
1.1433320506293141
 20
14.10721845747983
 30
0.0
 70
     8
  0
VERTEX
  5
A67
  8
CYAN
 10
1.14602156581433
 20
14.09837276002189
 30
0.0
 70
     8
  0
VERTEX
  5
A68
  8
CYAN
 10
1.1486378415486791
 20
14.08977119406407
 30
0.0
 70
     8
  0
VERTEX
  5
A69
  8
CYAN
 10
1.151205290979971
 20
14.08136493331269
 30
0.0
 70
     8
  0
VERTEX
  5
A6A
  8
CYAN
 10
1.1537483272558231
 20
14.073105151474021
 30
0.0
 70
     8
  0
VERTEX
  5
A6B
  8
CYAN
 10
1.1562913635238501
 20
14.06494302225439
 30
0.0
 70
     8
  0
VERTEX
  5
A6C
  8
CYAN
 10
1.158858812931663
 20
14.056829719360101
 30
0.0
 70
     8
  0
VERTEX
  5
A6D
  8
CYAN
 10
1.1614750886268801
 20
14.048716416497451
 30
0.0
 70
     8
  0
VERTEX
  5
A6E
  8
CYAN
 10
1.1641646037571141
 20
14.04055428737275
 30
0.0
 70
     8
  0
VERTEX
  5
A6F
  8
CYAN
 10
1.16694566818317
 20
14.03230671226523
 30
0.0
 70
     8
  0
VERTEX
  5
A70
  8
CYAN
 10
1.1698121786186311
 20
14.02398589774587
 30
0.0
 70
     8
  0
VERTEX
  5
A71
  8
CYAN
 10
1.1727519284902681
 20
14.0156162569586
 30
0.0
 70
     8
  0
VERTEX
  5
A72
  8
CYAN
 10
1.175752711224856
 20
14.007222203047331
 30
0.0
 70
     8
  0
VERTEX
  5
A73
  8
CYAN
 10
1.1788023202491651
 20
13.99882814915598
 30
0.0
 70
     8
  0
VERTEX
  5
A74
  8
CYAN
 10
1.1818885489899711
 20
13.990458508428461
 30
0.0
 70
     8
  0
VERTEX
  5
A75
  8
CYAN
 10
1.184999190874044
 20
13.982137694008699
 30
0.0
 70
     8
  0
VERTEX
  5
A76
  8
CYAN
 10
1.1881220393281611
 20
13.97389011904062
 30
0.0
 70
     8
  0
VERTEX
  5
A77
  8
CYAN
 10
1.1912428533471471
 20
13.96574629995089
 30
0.0
 70
     8
  0
VERTEX
  5
A78
  8
CYAN
 10
1.1943392541980571
 20
13.957761166297351
 30
0.0
 70
     8
  0
VERTEX
  5
A79
  8
CYAN
 10
1.1973868287160041
 20
13.94999575092058
 30
0.0
 70
     8
  0
VERTEX
  5
A7A
  8
CYAN
 10
1.200361163736096
 20
13.942511086661179
 30
0.0
 70
     8
  0
VERTEX
  5
A7B
  8
CYAN
 10
1.2032378460934461
 20
13.93536820635974
 30
0.0
 70
     8
  0
VERTEX
  5
A7C
  8
CYAN
 10
1.2059924626231631
 20
13.92862814285685
 30
0.0
 70
     8
  0
VERTEX
  5
A7D
  8
CYAN
 10
1.2086006001603571
 20
13.9223519289931
 30
0.0
 70
     8
  0
VERTEX
  5
A7E
  8
CYAN
 10
1.2110378455401389
 20
13.91660059760909
 30
0.0
 70
     8
  0
VERTEX
  5
A7F
  8
CYAN
 10
1.213289957751553
 20
13.91140873398208
 30
0.0
 70
     8
  0
VERTEX
  5
A80
  8
CYAN
 10
1.2153833843993771
 20
13.90670513313605
 30
0.0
 70
     8
  0
VERTEX
  5
A81
  8
CYAN
 10
1.217354745242323
 20
13.90239214253161
 30
0.0
 70
     8
  0
VERTEX
  5
A82
  8
CYAN
 10
1.219240660039097
 20
13.89837210962944
 30
0.0
 70
     8
  0
VERTEX
  5
A83
  8
CYAN
 10
1.2210777485484141
 20
13.894547381890151
 30
0.0
 70
     8
  0
VERTEX
  5
A84
  8
CYAN
 10
1.2229026305289821
 20
13.890820306774399
 30
0.0
 70
     8
  0
VERTEX
  5
A85
  8
CYAN
 10
1.2247519257395121
 20
13.887093231742821
 30
0.0
 70
     8
  0
VERTEX
  5
A86
  8
CYAN
 10
1.2266622539387171
 20
13.88326850425605
 30
0.0
 70
     8
  0
VERTEX
  5
A87
  8
CYAN
 10
1.2286682004468941
 20
13.87926474719433
 30
0.0
 70
     8
  0
VERTEX
  5
A88
  8
CYAN
 10
1.2307962128306991
 20
13.87506568511616
 30
0.0
 70
     8
  0
VERTEX
  5
A89
  8
CYAN
 10
1.2330707042183751
 20
13.870671317999671
 30
0.0
 70
     8
  0
VERTEX
  5
A8A
  8
CYAN
 10
1.235516087738165
 20
13.86608164582297
 30
0.0
 70
     8
  0
VERTEX
  5
A8B
  8
CYAN
 10
1.238156776518315
 20
13.861296668564171
 30
0.0
 70
     8
  0
VERTEX
  5
A8C
  8
CYAN
 10
1.241017183687068
 20
13.856316386201369
 30
0.0
 70
     8
  0
VERTEX
  5
A8D
  8
CYAN
 10
1.244121722372667
 20
13.8511407987127
 30
0.0
 70
     8
  0
VERTEX
  5
A8E
  8
CYAN
 10
1.2474948057033559
 20
13.845769906076249
 30
0.0
 70
     8
  0
VERTEX
  5
A8F
  8
CYAN
 10
1.251152709094973
 20
13.840215914847301
 30
0.0
 70
     8
  0
VERTEX
  5
A90
  8
CYAN
 10
1.255079157113735
 20
13.83453985788984
 30
0.0
 70
     8
  0
VERTEX
  5
A91
  8
CYAN
 10
1.2592497366134501
 20
13.82881497464499
 30
0.0
 70
     8
  0
VERTEX
  5
A92
  8
CYAN
 10
1.2636400344479271
 20
13.82311450455388
 30
0.0
 70
     8
  0
VERTEX
  5
A93
  8
CYAN
 10
1.2682256374709771
 20
13.81751168705766
 30
0.0
 70
     8
  0
VERTEX
  5
A94
  8
CYAN
 10
1.272982132536409
 20
13.812079761597451
 30
0.0
 70
     8
  0
VERTEX
  5
A95
  8
CYAN
 10
1.2778851064980341
 20
13.80689196761441
 30
0.0
 70
     8
  0
VERTEX
  5
A96
  8
CYAN
 10
1.282910146209663
 20
13.80202154454966
 30
0.0
 70
     8
  0
VERTEX
  5
A97
  8
CYAN
 10
1.288036907383284
 20
13.797529525271189
 30
0.0
 70
     8
  0
VERTEX
  5
A98
  8
CYAN
 10
1.293261321163623
 20
13.79342811635442
 30
0.0
 70
     8
  0
VERTEX
  5
A99
  8
CYAN
 10
1.298583387553587
 20
13.78971731780163
 30
0.0
 70
     8
  0
VERTEX
  5
A9A
  8
CYAN
 10
1.3040031065560771
 20
13.78639712961508
 30
0.0
 70
     8
  0
VERTEX
  5
A9B
  8
CYAN
 10
1.3095204781740051
 20
13.783467551797051
 30
0.0
 70
     8
  0
VERTEX
  5
A9C
  8
CYAN
 10
1.3151355024102731
 20
13.780928584349811
 30
0.0
 70
     8
  0
VERTEX
  5
A9D
  8
CYAN
 10
1.3208481792677871
 20
13.778780227275631
 30
0.0
 70
     8
  0
VERTEX
  5
A9E
  8
CYAN
 10
1.326658508749452
 20
13.777022480576781
 30
0.0
 70
     8
  0
VERTEX
  5
A9F
  8
CYAN
 10
1.332580731859031
 20
13.77564924096802
 30
0.0
 70
     8
  0
VERTEX
  5
AA0
  8
CYAN
 10
1.3386860536036951
 20
13.77462999201399
 30
0.0
 70
     8
  0
VERTEX
  5
AA1
  8
CYAN
 10
1.345059919991471
 20
13.773928113991831
 30
0.0
 70
     8
  0
VERTEX
  5
AA2
  8
CYAN
 10
1.3517877770303901
 20
13.77350698717866
 30
0.0
 70
     8
  0
VERTEX
  5
AA3
  8
CYAN
 10
1.3589550707284781
 20
13.773329991851631
 30
0.0
 70
     8
  0
VERTEX
  5
AA4
  8
CYAN
 10
1.3666472470937641
 20
13.773360508287849
 30
0.0
 70
     8
  0
VERTEX
  5
AA5
  8
CYAN
 10
1.3749497521342751
 20
13.773561916764461
 30
0.0
 70
     8
  0
VERTEX
  5
AA6
  8
CYAN
 10
1.3839480318580371
 20
13.7738975975586
 30
0.0
 70
     8
  0
VERTEX
  5
AA7
  8
CYAN
 10
1.393709222415594
 20
13.77434110309261
 30
0.0
 70
     8
  0
VERTEX
  5
AA8
  8
CYAN
 10
1.404227220527553
 20
13.77490667436979
 30
0.0
 70
     8
  0
VERTEX
  5
AA9
  8
CYAN
 10
1.415477613057027
 20
13.77561872453864
 30
0.0
 70
     8
  0
VERTEX
  5
AAA
  8
CYAN
 10
1.42743598686714
 20
13.776501666747681
 30
0.0
 70
     8
  0
VERTEX
  5
AAB
  8
CYAN
 10
1.440077928821007
 20
13.777579914145401
 30
0.0
 70
     8
  0
VERTEX
  5
AAC
  8
CYAN
 10
1.45337902578175
 20
13.778877879880341
 30
0.0
 70
     8
  0
VERTEX
  5
AAD
  8
CYAN
 10
1.4673148646124841
 20
13.780419977100991
 30
0.0
 70
     8
  0
VERTEX
  5
AAE
  8
CYAN
 10
1.481861032176331
 20
13.78223061895587
 30
0.0
 70
     8
  0
VERTEX
  5
AAF
  8
CYAN
 10
1.496952426752832
 20
13.78431997759016
 30
0.0
 70
     8
  0
VERTEX
  5
AB0
  8
CYAN
 10
1.51236119228722
 20
13.786641261135721
 30
0.0
 70
     8
  0
VERTEX
  5
AB1
  8
CYAN
 10
1.5278187841411459
 20
13.7891334367211
 30
0.0
 70
     8
  0
VERTEX
  5
AB2
  8
CYAN
 10
1.5430566576762701
 20
13.79173547147481
 30
0.0
 70
     8
  0
VERTEX
  5
AB3
  8
CYAN
 10
1.5578062682542411
 20
13.79438633252539
 30
0.0
 70
     8
  0
VERTEX
  5
AB4
  8
CYAN
 10
1.57179907123672
 20
13.797024987001381
 30
0.0
 70
     8
  0
VERTEX
  5
AB5
  8
CYAN
 10
1.5847665219853591
 20
13.79959040203131
 30
0.0
 70
     8
  0
VERTEX
  5
AB6
  8
CYAN
 10
1.5964400758618109
 20
13.80202154474371
 30
0.0
 70
     8
  0
VERTEX
  5
AB7
  8
CYAN
 10
1.606640703106601
 20
13.804277726557631
 30
0.0
 70
     8
  0
VERTEX
  5
AB8
  8
CYAN
 10
1.6155474334757041
 20
13.806399636054159
 30
0.0
 70
     8
  0
VERTEX
  5
AB9
  8
CYAN
 10
1.6234288116039659
 20
13.80844830610487
 30
0.0
 70
     8
  0
VERTEX
  5
ABA
  8
CYAN
 10
1.630553382126235
 20
13.810484769581359
 30
0.0
 70
     8
  0
VERTEX
  5
ABB
  8
CYAN
 10
1.637189689677355
 20
13.81257005935522
 30
0.0
 70
     8
  0
VERTEX
  5
ABC
  8
CYAN
 10
1.6436062788921699
 20
13.814765208298059
 30
0.0
 70
     8
  0
VERTEX
  5
ABD
  8
CYAN
 10
1.6500716944055249
 20
13.817131249281459
 30
0.0
 70
     8
  0
VERTEX
  5
ABE
  8
CYAN
 10
1.6568544808522681
 20
13.819729215177
 30
0.0
 70
     8
  0
VERTEX
  5
ABF
  8
CYAN
 10
1.6641743565699081
 20
13.822605897852879
 30
0.0
 70
     8
  0
VERTEX
  5
AC0
  8
CYAN
 10
1.6720557347066201
 20
13.825751125163681
 30
0.0
 70
     8
  0
VERTEX
  5
AC1
  8
CYAN
 10
1.6804742021132451
 20
13.829140483960609
 30
0.0
 70
     8
  0
VERTEX
  5
AC2
  8
CYAN
 10
1.6894053456406271
 20
13.832749561094831
 30
0.0
 70
     8
  0
VERTEX
  5
AC3
  8
CYAN
 10
1.698824752139604
 20
13.83655394341754
 30
0.0
 70
     8
  0
VERTEX
  5
AC4
  8
CYAN
 10
1.7087080084610211
 20
13.840529217779929
 30
0.0
 70
     8
  0
VERTEX
  5
AC5
  8
CYAN
 10
1.719030701455718
 20
13.844650971033181
 30
0.0
 70
     8
  0
VERTEX
  5
AC6
  8
CYAN
 10
1.7297684179745361
 20
13.84889479002848
 30
0.0
 70
     8
  0
VERTEX
  5
AC7
  8
CYAN
 10
1.740896744868474
 20
13.85324439933329
 30
0.0
 70
     8
  0
VERTEX
  5
AC8
  8
CYAN
 10
1.7523912689891621
 20
13.85771607438017
 30
0.0
 70
     8
  0
VERTEX
  5
AC9
  8
CYAN
 10
1.764227577188384
 20
13.862334228317939
 30
0.0
 70
     8
  0
VERTEX
  5
ACA
  8
CYAN
 10
1.7763812563179251
 20
13.86712327429545
 30
0.0
 70
     8
  0
VERTEX
  5
ACB
  8
CYAN
 10
1.788827893229574
 20
13.872107625461521
 30
0.0
 70
     8
  0
VERTEX
  5
ACC
  8
CYAN
 10
1.8015430747751151
 20
13.877311694964989
 30
0.0
 70
     8
  0
VERTEX
  5
ACD
  8
CYAN
 10
1.8145023878063351
 20
13.882759895954679
 30
0.0
 70
     8
  0
VERTEX
  5
ACE
  8
CYAN
 10
1.827681419175021
 20
13.88847664157943
 30
0.0
 70
     8
  0
VERTEX
  5
ACF
  8
CYAN
 10
1.8410455835874859
 20
13.894470069555521
 30
0.0
 70
     8
  0
VERTEX
  5
AD0
  8
CYAN
 10
1.854519607168174
 20
13.900683215869099
 30
0.0
 70
     8
  0
VERTEX
  5
AD1
  8
CYAN
 10
1.8680180438960541
 20
13.90704284107375
 30
0.0
 70
     8
  0
VERTEX
  5
AD2
  8
CYAN
 10
1.881455447750096
 20
13.91347570572305
 30
0.0
 70
     8
  0
VERTEX
  5
AD3
  8
CYAN
 10
1.8947463727092739
 20
13.919908570370611
 30
0.0
 70
     8
  0
VERTEX
  5
AD4
  8
CYAN
 10
1.907805372752559
 20
13.92626819557001
 30
0.0
 70
     8
  0
VERTEX
  5
AD5
  8
CYAN
 10
1.920547001858917
 20
13.932481341874841
 30
0.0
 70
     8
  0
VERTEX
  5
AD6
  8
CYAN
 10
1.932885814007326
 20
13.938474769838701
 30
0.0
 70
     8
  0
VERTEX
  5
AD7
  8
CYAN
 10
1.9447648451842581
 20
13.94419151544799
 30
0.0
 70
     8
  0
VERTEX
  5
AD8
  8
CYAN
 10
1.9562410594062201
 20
13.94963971642046
 30
0.0
 70
     8
  0
VERTEX
  5
AD9
  8
CYAN
 10
1.9673999026972231
 20
13.95484378590667
 30
0.0
 70
     8
  0
VERTEX
  5
ADA
  8
CYAN
 10
1.9783268210812761
 20
13.95982813705718
 30
0.0
 70
     8
  0
VERTEX
  5
ADB
  8
CYAN
 10
1.989107260582395
 20
13.964617183022559
 30
0.0
 70
     8
  0
VERTEX
  5
ADC
  8
CYAN
 10
1.999826667224585
 20
13.96923533695335
 30
0.0
 70
     8
  0
VERTEX
  5
ADD
  8
CYAN
 10
2.0105704870318619
 20
13.973707012000141
 30
0.0
 70
     8
  0
VERTEX
  5
ADE
  8
CYAN
 10
2.0214241660282362
 20
13.97805662131347
 30
0.0
 70
     8
  0
VERTEX
  5
ADF
  8
CYAN
 10
2.0324589092330791
 20
13.982308578043259
 30
0.0
 70
     8
  0
VERTEX
  5
AE0
  8
CYAN
 10
2.0436889576472219
 20
13.98648729533673
 30
0.0
 70
     8
  0
VERTEX
  5
AE1
  8
CYAN
 10
2.0551143112668591
 20
13.990617186340479
 30
0.0
 70
     8
  0
VERTEX
  5
AE2
  8
CYAN
 10
2.066734970088179
 20
13.994722664201079
 30
0.0
 70
     8
  0
VERTEX
  5
AE3
  8
CYAN
 10
2.078550934107378
 20
13.99882814206512
 30
0.0
 70
     8
  0
VERTEX
  5
AE4
  8
CYAN
 10
2.090562203320645
 20
14.00295803307918
 30
0.0
 70
     8
  0
VERTEX
  5
AE5
  8
CYAN
 10
2.1027687777241741
 20
14.00713675038984
 30
0.0
 70
     8
  0
VERTEX
  5
AE6
  8
CYAN
 10
2.115170657314156
 20
14.011388707143681
 30
0.0
 70
     8
  0
VERTEX
  5
AE7
  8
CYAN
 10
2.1277597043711221
 20
14.01573424762954
 30
0.0
 70
     8
  0
VERTEX
  5
AE8
  8
CYAN
 10
2.1404952303129301
 20
14.02017744070535
 30
0.0
 70
     8
  0
VERTEX
  5
AE9
  8
CYAN
 10
2.1533284088417841
 20
14.0247182863713
 30
0.0
 70
     8
  0
VERTEX
  5
AEA
  8
CYAN
 10
2.166210413659877
 20
14.02935678462757
 30
0.0
 70
     8
  0
VERTEX
  5
AEB
  8
CYAN
 10
2.17909241846941
 20
14.03409293547436
 30
0.0
 70
     8
  0
VERTEX
  5
AEC
  8
CYAN
 10
2.191925596972581
 20
14.03892673891184
 30
0.0
 70
     8
  0
VERTEX
  5
AED
  8
CYAN
 10
2.2046611228715838
 20
14.043858194940199
 30
0.0
 70
     8
  0
VERTEX
  5
AEE
  8
CYAN
 10
2.217250169868624
 20
14.048887303559651
 30
0.0
 70
     8
  0
VERTEX
  5
AEF
  8
CYAN
 10
2.229660187098125
 20
14.054014064770151
 30
0.0
 70
     8
  0
VERTEX
  5
AF0
  8
CYAN
 10
2.2419237254234381
 20
14.05923847857084
 30
0.0
 70
     8
  0
VERTEX
  5
AF1
  8
CYAN
 10
2.2540896111401429
 20
14.064560544960679
 30
0.0
 70
     8
  0
VERTEX
  5
AF2
  8
CYAN
 10
2.26620667054382
 20
14.069980263938611
 30
0.0
 70
     8
  0
VERTEX
  5
AF3
  8
CYAN
 10
2.2783237299300509
 20
14.075497635503551
 30
0.0
 70
     8
  0
VERTEX
  5
AF4
  8
CYAN
 10
2.290489615594415
 20
14.08111265965446
 30
0.0
 70
     8
  0
VERTEX
  5
AF5
  8
CYAN
 10
2.302753153832493
 20
14.08682533639027
 30
0.0
 70
     8
  0
VERTEX
  5
AF6
  8
CYAN
 10
2.315163170939865
 20
14.092635665709921
 30
0.0
 70
     8
  0
VERTEX
  5
AF7
  8
CYAN
 10
2.3277501833521161
 20
14.098539578755
 30
0.0
 70
     8
  0
VERTEX
  5
AF8
  8
CYAN
 10
2.3404714680648571
 20
14.104516731237689
 30
0.0
 70
     8
  0
VERTEX
  5
AF9
  8
CYAN
 10
2.3532659922137
 20
14.11054271001281
 30
0.0
 70
     8
  0
VERTEX
  5
AFA
  8
CYAN
 10
2.3660727229342591
 20
14.11659310193518
 30
0.0
 70
     8
  0
VERTEX
  5
AFB
  8
CYAN
 10
2.3788306273621469
 20
14.12264349385965
 30
0.0
 70
     8
  0
VERTEX
  5
AFC
  8
CYAN
 10
2.3914786726329802
 20
14.128669472641031
 30
0.0
 70
     8
  0
VERTEX
  5
AFD
  8
CYAN
 10
2.4039558258823699
 20
14.13464662513414
 30
0.0
 70
     8
  0
VERTEX
  5
AFE
  8
CYAN
 10
2.416201054245934
 20
14.140550538193811
 30
0.0
 70
     8
  0
VERTEX
  5
AFF
  8
CYAN
 10
2.4281675658609481
 20
14.14636086753214
 30
0.0
 70
     8
  0
VERTEX
  5
B00
  8
CYAN
 10
2.4398655328713561
 20
14.15207354429036
 30
0.0
 70
     8
  0
VERTEX
  5
B01
  8
CYAN
 10
2.4513193684227601
 20
14.15768856846698
 30
0.0
 70
     8
  0
VERTEX
  5
B02
  8
CYAN
 10
2.4625534856607709
 20
14.163205940060481
 30
0.0
 70
     8
  0
VERTEX
  5
B03
  8
CYAN
 10
2.4735922977309919
 20
14.168625659069381
 30
0.0
 70
     8
  0
VERTEX
  5
B04
  8
CYAN
 10
2.4844602177790311
 20
14.17394772549217
 30
0.0
 70
     8
  0
VERTEX
  5
B05
  8
CYAN
 10
2.4951816589504929
 20
14.17917213932737
 30
0.0
 70
     8
  0
VERTEX
  5
B06
  8
CYAN
 10
2.505781034390985
 20
14.184298900573459
 30
0.0
 70
     8
  0
VERTEX
  5
B07
  8
CYAN
 10
2.5162746195295922
 20
14.18932597479985
 30
0.0
 70
     8
  0
VERTEX
  5
B08
  8
CYAN
 10
2.526646138929312
 20
14.19424318985952
 30
0.0
 70
     8
  0
VERTEX
  5
B09
  8
CYAN
 10
2.5368711794366261
 20
14.19903833917636
 30
0.0
 70
     8
  0
VERTEX
  5
B0A
  8
CYAN
 10
2.546925327898006
 20
14.203699216174231
 30
0.0
 70
     8
  0
VERTEX
  5
B0B
  8
CYAN
 10
2.5567841711599351
 20
14.208213614277041
 30
0.0
 70
     8
  0
VERTEX
  5
B0C
  8
CYAN
 10
2.5664232960688871
 20
14.212569326908641
 30
0.0
 70
     8
  0
VERTEX
  5
B0D
  8
CYAN
 10
2.5758182894713402
 20
14.216754147492921
 30
0.0
 70
     8
  0
VERTEX
  5
B0E
  8
CYAN
 10
2.5849447382137729
 20
14.220755869453781
 30
0.0
 70
     8
  0
VERTEX
  5
B0F
  8
CYAN
 10
2.5938046767230261
 20
14.224574492790341
 30
0.0
 70
     8
  0
VERTEX
  5
B10
  8
CYAN
 10
2.6025059297473869
 20
14.2282588438028
 30
0.0
 70
     8
  0
VERTEX
  5
B11
  8
CYAN
 10
2.6111827696155081
 20
14.231869955366649
 30
0.0
 70
     8
  0
VERTEX
  5
B12
  8
CYAN
 10
2.6199694686560391
 20
14.235468860357321
 30
0.0
 70
     8
  0
VERTEX
  5
B13
  8
CYAN
 10
2.6290002991976311
 20
14.23911659165031
 30
0.0
 70
     8
  0
VERTEX
  5
B14
  8
CYAN
 10
2.6384095335689359
 20
14.242874182121071
 30
0.0
 70
     8
  0
VERTEX
  5
B15
  8
CYAN
 10
2.6483314440986061
 20
14.24680266464507
 30
0.0
 70
     8
  0
VERTEX
  5
B16
  8
CYAN
 10
2.658900303115292
 20
14.250963072097759
 30
0.0
 70
     8
  0
VERTEX
  5
B17
  8
CYAN
 10
2.670230038652837
 20
14.25541440292402
 30
0.0
 70
     8
  0
VERTEX
  5
B18
  8
CYAN
 10
2.6823532015658662
 20
14.26020751784635
 30
0.0
 70
     8
  0
VERTEX
  5
B19
  8
CYAN
 10
2.69528199841419
 20
14.26539124315665
 30
0.0
 70
     8
  0
VERTEX
  5
B1A
  8
CYAN
 10
2.7090286357576239
 20
14.27101440514682
 30
0.0
 70
     8
  0
VERTEX
  5
B1B
  8
CYAN
 10
2.723605320155984
 20
14.27712583010876
 30
0.0
 70
     8
  0
VERTEX
  5
B1C
  8
CYAN
 10
2.7390242581690871
 20
14.28377434433437
 30
0.0
 70
     8
  0
VERTEX
  5
B1D
  8
CYAN
 10
2.7552976563567442
 20
14.29100877411555
 30
0.0
 70
     8
  0
VERTEX
  5
B1E
  8
CYAN
 10
2.7724377212787719
 20
14.298877945744209
 30
0.0
 70
     8
  0
VERTEX
  5
B1F
  8
CYAN
 10
2.7904057987722801
 20
14.307394065790611
 30
0.0
 70
     8
  0
VERTEX
  5
B20
  8
CYAN
 10
2.8089597917835398
 20
14.316422861938531
 30
0.0
 70
     8
  0
VERTEX
  5
B21
  8
CYAN
 10
2.8278067425361271
 20
14.325793442150079
 30
0.0
 70
     8
  0
VERTEX
  5
B22
  8
CYAN
 10
2.8466536932536082
 20
14.33533491438742
 30
0.0
 70
     8
  0
VERTEX
  5
B23
  8
CYAN
 10
2.865207686159553
 20
14.344876386612659
 30
0.0
 70
     8
  0
VERTEX
  5
B24
  8
CYAN
 10
2.883175763477535
 20
14.35424696678794
 30
0.0
 70
     8
  0
VERTEX
  5
B25
  8
CYAN
 10
2.9002649674311201
 20
14.3632757628754
 30
0.0
 70
     8
  0
VERTEX
  5
B26
  8
CYAN
 10
2.9161823402438771
 20
14.37179188283717
 30
0.0
 70
     8
  0
VERTEX
  5
B27
  8
CYAN
 10
2.930708163584347
 20
14.379667157645271
 30
0.0
 70
     8
  0
VERTEX
  5
B28
  8
CYAN
 10
2.9439156769009411
 20
14.3869443103113
 30
0.0
 70
     8
  0
VERTEX
  5
B29
  8
CYAN
 10
2.955951359087039
 20
14.393708786856729
 30
0.0
 70
     8
  0
VERTEX
  5
B2A
  8
CYAN
 10
2.9669616890360202
 20
14.40004603330306
 30
0.0
 70
     8
  0
VERTEX
  5
B2B
  8
CYAN
 10
2.9770931456412639
 20
14.40604149567176
 30
0.0
 70
     8
  0
VERTEX
  5
B2C
  8
CYAN
 10
2.986492207796152
 20
14.411780619984309
 30
0.0
 70
     8
  0
VERTEX
  5
B2D
  8
CYAN
 10
2.995305354394064
 20
14.41734885226219
 30
0.0
 70
     8
  0
VERTEX
  5
B2E
  8
CYAN
 10
3.0036790643283782
 20
14.422831638526899
 30
0.0
 70
     8
  0
VERTEX
  5
B2F
  8
CYAN
 10
3.011765919778985
 20
14.42832256251565
 30
0.0
 70
     8
  0
VERTEX
  5
B30
  8
CYAN
 10
3.0197429160718241
 20
14.433947758828671
 30
0.0
 70
     8
  0
VERTEX
  5
B31
  8
CYAN
 10
3.0277931518193362
 20
14.43984149978197
 30
0.0
 70
     8
  0
VERTEX
  5
B32
  8
CYAN
 10
3.036099725633969
 20
14.446138057691501
 30
0.0
 70
     8
  0
VERTEX
  5
B33
  8
CYAN
 10
3.04484573612817
 20
14.45297170487326
 30
0.0
 70
     8
  0
VERTEX
  5
B34
  8
CYAN
 10
3.054214281914386
 20
14.46047671364323
 30
0.0
 70
     8
  0
VERTEX
  5
B35
  8
CYAN
 10
3.0643884616050601
 20
14.468787356317391
 30
0.0
 70
     8
  0
VERTEX
  5
B36
  8
CYAN
 10
3.0755513738126381
 20
14.478037905211711
 30
0.0
 70
     8
  0
VERTEX
  5
B37
  8
CYAN
 10
3.087816946562211
 20
14.48830770305805
 30
0.0
 70
     8
  0
VERTEX
  5
B38
  8
CYAN
 10
3.101022425529429
 20
14.499456374251659
 30
0.0
 70
     8
  0
VERTEX
  5
B39
  8
CYAN
 10
3.1149358858025882
 20
14.5112886136037
 30
0.0
 70
     8
  0
VERTEX
  5
B3A
  8
CYAN
 10
3.129325402469981
 20
14.52360911592528
 30
0.0
 70
     8
  0
VERTEX
  5
B3B
  8
CYAN
 10
3.1439590506199062
 20
14.53622257602755
 30
0.0
 70
     8
  0
VERTEX
  5
B3C
  8
CYAN
 10
3.1586049053406522
 20
14.548933688721631
 30
0.0
 70
     8
  0
VERTEX
  5
B3D
  8
CYAN
 10
3.1730310417205181
 20
14.56154714881866
 30
0.0
 70
     8
  0
VERTEX
  5
B3E
  8
CYAN
 10
3.1870055348477959
 20
14.57386765112977
 30
0.0
 70
     8
  0
VERTEX
  5
B3F
  8
CYAN
 10
3.2003452861078641
 20
14.58574057904697
 30
0.0
 70
     8
  0
VERTEX
  5
B40
  8
CYAN
 10
3.2130625020744179
 20
14.59717407028578
 30
0.0
 70
     8
  0
VERTEX
  5
B41
  8
CYAN
 10
3.225218215618241
 20
14.608216951142619
 30
0.0
 70
     8
  0
VERTEX
  5
B42
  8
CYAN
 10
3.2368734596101101
 20
14.61891804791388
 30
0.0
 70
     8
  0
VERTEX
  5
B43
  8
CYAN
 10
3.248089266920807
 20
14.62932618689598
 30
0.0
 70
     8
  0
VERTEX
  5
B44
  8
CYAN
 10
3.2589266704211122
 20
14.639490194385321
 30
0.0
 70
     8
  0
VERTEX
  5
B45
  8
CYAN
 10
3.2694467029818042
 20
14.649458896678309
 30
0.0
 70
     8
  0
VERTEX
  5
B46
  8
CYAN
 10
3.279710397473663
 20
14.65928112007134
 30
0.0
 70
     8
  0
VERTEX
  5
B47
  8
CYAN
 10
3.2897970966292358
 20
14.66904027615497
 30
0.0
 70
     8
  0
VERTEX
  5
B48
  8
CYAN
 10
3.2998593826281399
 20
14.678958117696309
 30
0.0
 70
     8
  0
VERTEX
  5
B49
  8
CYAN
 10
3.3100681475117582
 20
14.689290982756649
 30
0.0
 70
     8
  0
VERTEX
  5
B4A
  8
CYAN
 10
3.3205942833214701
 20
14.70029520939724
 30
0.0
 70
     8
  0
VERTEX
  5
B4B
  8
CYAN
 10
3.3316086820986581
 20
14.71222713567934
 30
0.0
 70
     8
  0
VERTEX
  5
B4C
  8
CYAN
 10
3.3432822358847081
 20
14.725343099664221
 30
0.0
 70
     8
  0
VERTEX
  5
B4D
  8
CYAN
 10
3.3557858367210009
 20
14.739899439413159
 30
0.0
 70
     8
  0
VERTEX
  5
B4E
  8
CYAN
 10
3.3692903766489191
 20
14.7561524929874
 30
0.0
 70
     8
  0
VERTEX
  5
B4F
  8
CYAN
 10
3.3838202688165842
 20
14.774279255715159
 30
0.0
 70
     8
  0
VERTEX
  5
B50
  8
CYAN
 10
3.3988140107990601
 20
14.79413935199228
 30
0.0
 70
     8
  0
VERTEX
  5
B51
  8
CYAN
 10
3.413563621278155
 20
14.815513063481569
 30
0.0
 70
     8
  0
VERTEX
  5
B52
  8
CYAN
 10
3.427361118935671
 20
14.838180671845819
 30
0.0
 70
     8
  0
VERTEX
  5
B53
  8
CYAN
 10
3.4394985224534169
 20
14.861922458747831
 30
0.0
 70
     8
  0
VERTEX
  5
B54
  8
CYAN
 10
3.449267850513198
 20
14.88651870585039
 30
0.0
 70
     8
  0
VERTEX
  5
B55
  8
CYAN
 10
3.455961121796816
 20
14.91174969481629
 30
0.0
 70
     8
  0
VERTEX
  5
B56
  8
CYAN
 10
3.4588703549860762
 20
14.937395707308321
 30
0.0
 70
     8
  0
VERTEX
  5
B57
  8
CYAN
 10
3.457513390393808
 20
14.963194301979859
 30
0.0
 70
     8
  0
VERTEX
  5
B58
  8
CYAN
 10
3.4523113548569202
 20
14.98871214544651
 30
0.0
 70
     8
  0
VERTEX
  5
B59
  8
CYAN
 10
3.443911196843342
 20
15.01347318131447
 30
0.0
 70
     8
  0
VERTEX
  5
B5A
  8
CYAN
 10
3.432959864821008
 20
15.03700135318994
 30
0.0
 70
     8
  0
VERTEX
  5
B5B
  8
CYAN
 10
3.4201043072578501
 20
15.05882060467909
 30
0.0
 70
     8
  0
VERTEX
  5
B5C
  8
CYAN
 10
3.4059914726217961
 20
15.078454879388129
 30
0.0
 70
     8
  0
VERTEX
  5
B5D
  8
CYAN
 10
3.3912683093807789
 20
15.09542812092325
 30
0.0
 70
     8
  0
VERTEX
  5
B5E
  8
CYAN
 10
3.3765817660027322
 20
15.10926427289062
 30
0.0
 70
     8
  0
VERTEX
  5
B5F
  8
CYAN
 10
3.3624730006346271
 20
15.119641895502591
 30
0.0
 70
     8
  0
VERTEX
  5
B60
  8
CYAN
 10
3.3490600101396071
 20
15.12685801539604
 30
0.0
 70
     8
  0
VERTEX
  5
B61
  8
CYAN
 10
3.336355001059863
 20
15.13136427581402
 30
0.0
 70
     8
  0
VERTEX
  5
B62
  8
CYAN
 10
3.3243701799375822
 20
15.133612319999539
 30
0.0
 70
     8
  0
VERTEX
  5
B63
  8
CYAN
 10
3.3131177533149478
 20
15.13405379119563
 30
0.0
 70
     8
  0
VERTEX
  5
B64
  8
CYAN
 10
3.302609927734149
 20
15.13314033264534
 30
0.0
 70
     8
  0
VERTEX
  5
B65
  8
CYAN
 10
3.2928589097373751
 20
15.1313235875917
 30
0.0
 70
     8
  0
VERTEX
  5
B66
  8
CYAN
 10
3.283876905866808
 20
15.129055199277721
 30
0.0
 70
     8
  0
VERTEX
  5
B67
  8
CYAN
 10
3.2756578128103482
 20
15.12671560593108
 30
0.0
 70
     8
  0
VERTEX
  5
B68
  8
CYAN
 10
3.2681222878387359
 20
15.1244004257179
 30
0.0
 70
     8
  0
VERTEX
  5
B69
  8
CYAN
 10
3.261172678368423
 20
15.12213407178896
 30
0.0
 70
     8
  0
VERTEX
  5
B6A
  8
CYAN
 10
3.254711331815856
 20
15.119940957295
 30
0.0
 70
     8
  0
VERTEX
  5
B6B
  8
CYAN
 10
3.2486405955974882
 20
15.117845495386799
 30
0.0
 70
     8
  0
VERTEX
  5
B6C
  8
CYAN
 10
3.2428628171297702
 20
15.115872099215119
 30
0.0
 70
     8
  0
VERTEX
  5
B6D
  8
CYAN
 10
3.2372803438291502
 20
15.11404518193072
 30
0.0
 70
     8
  0
VERTEX
  5
B6E
  8
CYAN
 10
3.2317955231120781
 20
15.112389156684349
 30
0.0
 70
     8
  0
VERTEX
  5
B6F
  8
CYAN
 10
3.2263330811127511
 20
15.11092029891023
 30
0.0
 70
     8
  0
VERTEX
  5
B70
  8
CYAN
 10
3.2209072588363221
 20
15.10962233317631
 30
0.0
 70
     8
  0
VERTEX
  5
B71
  8
CYAN
 10
3.215554676005695
 20
15.108470846334001
 30
0.0
 70
     8
  0
VERTEX
  5
B72
  8
CYAN
 10
3.21031195234377
 20
15.107441425234679
 30
0.0
 70
     8
  0
VERTEX
  5
B73
  8
CYAN
 10
3.205215707573446
 20
15.10650965672977
 30
0.0
 70
     8
  0
VERTEX
  5
B74
  8
CYAN
 10
3.200302561417625
 20
15.105651127670651
 30
0.0
 70
     8
  0
VERTEX
  5
B75
  8
CYAN
 10
3.195609133599207
 20
15.10484142490874
 30
0.0
 70
     8
  0
VERTEX
  5
B76
  8
CYAN
 10
3.1911720438410951
 20
15.10405613529543
 30
0.0
 70
     8
  0
VERTEX
  5
B77
  8
CYAN
 10
3.1870177397209352
 20
15.10327491454022
 30
0.0
 70
     8
  0
VERTEX
  5
B78
  8
CYAN
 10
3.1831319802353781
 20
15.102493693785011
 30
0.0
 70
     8
  0
VERTEX
  5
B79
  8
CYAN
 10
3.1794903522358271
 20
15.101712473029799
 30
0.0
 70
     8
  0
VERTEX
  5
B7A
  8
CYAN
 10
3.176068442573678
 20
15.10093125227459
 30
0.0
 70
     8
  0
VERTEX
  5
B7B
  8
CYAN
 10
3.17284183810033
 20
15.10015003151937
 30
0.0
 70
     8
  0
VERTEX
  5
B7C
  8
CYAN
 10
3.1697861256671871
 20
15.099368810764171
 30
0.0
 70
     8
  0
VERTEX
  5
B7D
  8
CYAN
 10
3.166876892125646
 20
15.09858759000895
 30
0.0
 70
     8
  0
VERTEX
  5
B7E
  8
CYAN
 10
3.164089724327106
 20
15.097806369253741
 30
0.0
 70
     8
  0
VERTEX
  5
B7F
  8
CYAN
 10
3.1613656238291381
 20
15.097006838637091
 30
0.0
 70
     8
  0
VERTEX
  5
B80
  8
CYAN
 10
3.1585072510139991
 20
15.0960974488518
 30
0.0
 70
     8
  0
VERTEX
  5
B81
  8
CYAN
 10
3.1552826809701182
 20
15.094968340729229
 30
0.0
 70
     8
  0
VERTEX
  5
B82
  8
CYAN
 10
3.1514599887859198
 20
15.09350965510075
 30
0.0
 70
     8
  0
VERTEX
  5
B83
  8
CYAN
 10
3.146807249549834
 20
15.0916115327977
 30
0.0
 70
     8
  0
VERTEX
  5
B84
  8
CYAN
 10
3.1410925383502879
 20
15.08916411465146
 30
0.0
 70
     8
  0
VERTEX
  5
B85
  8
CYAN
 10
3.1340839302757102
 20
15.086057541493391
 30
0.0
 70
     8
  0
VERTEX
  5
B86
  8
CYAN
 10
3.1255495004145262
 20
15.082181954154841
 30
0.0
 70
     8
  0
VERTEX
  5
B87
  8
CYAN
 10
3.115285805860954
 20
15.077443768899149
 30
0.0
 70
     8
  0
VERTEX
  5
B88
  8
CYAN
 10
3.1032033317323791
 20
15.071814503717579
 30
0.0
 70
     8
  0
VERTEX
  5
B89
  8
CYAN
 10
3.0892410451519701
 20
15.065281952033351
 30
0.0
 70
     8
  0
VERTEX
  5
B8A
  8
CYAN
 10
3.0733379132429022
 20
15.057833907269689
 30
0.0
 70
     8
  0
VERTEX
  5
B8B
  8
CYAN
 10
3.0554329031283438
 20
15.04945816284981
 30
0.0
 70
     8
  0
VERTEX
  5
B8C
  8
CYAN
 10
3.035464981931471
 20
15.04014251219696
 30
0.0
 70
     8
  0
VERTEX
  5
B8D
  8
CYAN
 10
3.0133731167754561
 20
15.029874748734359
 30
0.0
 70
     8
  0
VERTEX
  5
B8E
  8
CYAN
 10
2.9890962747834702
 20
15.018642665885221
 30
0.0
 70
     8
  0
VERTEX
  5
B8F
  8
CYAN
 10
2.9626263182426662
 20
15.006454401367311
 30
0.0
 70
     8
  0
VERTEX
  5
B90
  8
CYAN
 10
2.9341666900961112
 20
14.993399470076341
 30
0.0
 70
     8
  0
VERTEX
  5
B91
  8
CYAN
 10
2.9039737284508562
 20
14.97958773120258
 30
0.0
 70
     8
  0
VERTEX
  5
B92
  8
CYAN
 10
2.8723037714139461
 20
14.96512904393629
 30
0.0
 70
     8
  0
VERTEX
  5
B93
  8
CYAN
 10
2.8394131570924359
 20
14.950133267467701
 30
0.0
 70
     8
  0
VERTEX
  5
B94
  8
CYAN
 10
2.80555822359337
 20
14.934710260987091
 30
0.0
 70
     8
  0
VERTEX
  5
B95
  8
CYAN
 10
2.7709953090237991
 20
14.91896988368471
 30
0.0
 70
     8
  0
VERTEX
  5
B96
  8
CYAN
 10
2.735980751490771
 20
14.903021994750789
 30
0.0
 70
     8
  0
VERTEX
  5
B97
  8
CYAN
 10
2.7007220627814981
 20
14.88696017793279
 30
0.0
 70
     8
  0
VERTEX
  5
B98
  8
CYAN
 10
2.665231449403854
 20
14.87081291520686
 30
0.0
 70
     8
  0
VERTEX
  5
B99
  8
CYAN
 10
2.629472291545873
 20
14.85459241310639
 30
0.0
 70
     8
  0
VERTEX
  5
B9A
  8
CYAN
 10
2.59340796939559
 20
14.838310878164711
 30
0.0
 70
     8
  0
VERTEX
  5
B9B
  8
CYAN
 10
2.5570018631410441
 20
14.82198051691517
 30
0.0
 70
     8
  0
VERTEX
  5
B9C
  8
CYAN
 10
2.5202173529702701
 20
14.80561353589113
 30
0.0
 70
     8
  0
VERTEX
  5
B9D
  8
CYAN
 10
2.483017819071303
 20
14.789222141625951
 30
0.0
 70
     8
  0
VERTEX
  5
9B8
  8
CYAN
 10
2.4505747840547958
 20
14.77281854251363
 30
0.0
 70
    16
  0
VERTEX
  5
9B9
  8
CYAN
 10
2.131836710281434
 20
14.64157345307234
 30
0.0
 70
    16
  0
VERTEX
  5
9BA
  8
CYAN
 10
1.919344664247129
 20
14.579075792424829
 30
0.0
 70
    16
  0
VERTEX
  5
9BB
  8
CYAN
 10
1.7443512153281071
 20
14.53532743018166
 30
0.0
 70
    16
  0
VERTEX
  5
9BC
  8
CYAN
 10
1.550608468155777
 20
14.491579067946761
 30
0.0
 70
    16
  0
VERTEX
  5
9BD
  8
CYAN
 10
1.4568619792054951
 20
14.46658000420463
 30
0.0
 70
    16
  0
VERTEX
  5
9BE
  8
CYAN
 10
1.3756150225358501
 20
14.44783070651162
 30
0.0
 70
    16
  0
VERTEX
  5
9BF
  8
CYAN
 10
1.3068675941468331
 20
14.429081407925089
 30
0.0
 70
    16
  0
VERTEX
  5
9C0
  8
CYAN
 10
1.244369934450952
 20
14.397832577950661
 30
0.0
 70
    16
  0
VERTEX
  5
9C1
  8
CYAN
 10
1.1943718066897631
 20
14.372833514097641
 30
0.0
 70
    16
  0
VERTEX
  5
9C2
  8
CYAN
 10
1.1756225085646921
 20
14.347834449930881
 30
0.0
 70
    16
  0
VERTEX
  5
9C3
  8
CYAN
 10
1.163122976481314
 20
14.322835385764121
 30
0.0
 70
    16
  0
VERTEX
  5
9C4
  8
CYAN
 10
1.138123912314557
 20
14.27908702347229
 30
0.0
 70
    16
  0
VERTEX
  5
9C5
  8
CYAN
 10
1.11937461418948
 20
14.229088895138769
 30
0.0
 70
    16
  0
VERTEX
  5
9C6
  8
CYAN
 10
1.11937461418948
 20
14.18534053286176
 30
0.0
 70
    16
  0
VERTEX
  5
9C7
  8
CYAN
 10
1.144373678344339
 20
14.10409357434578
 30
0.0
 70
    16
  0
VERTEX
  5
9C8
  8
CYAN
 10
1.16312297620905
 20
14.04159591463409
 30
0.0
 70
    16
  0
VERTEX
  5
9C9
  8
CYAN
 10
1.188122039362141
 20
13.972848491354339
 30
0.0
 70
    16
  0
VERTEX
  5
9CA
  8
CYAN
 10
1.2131211023113511
 20
13.910350834192251
 30
0.0
 70
    16
  0
VERTEX
  5
9CB
  8
CYAN
 10
1.225620624633289
 20
13.88535175753119
 30
0.0
 70
    16
  0
VERTEX
  5
9CC
  8
CYAN
 10
1.244369922787796
 20
13.8478531612193
 30
0.0
 70
    16
  0
VERTEX
  5
9CD
  8
CYAN
 10
1.2818685184356691
 20
13.79785503404908
 30
0.0
 70
    16
  0
VERTEX
  5
9CE
  8
CYAN
 10
1.3256168807274991
 20
13.77285596988232
 30
0.0
 70
    16
  0
VERTEX
  5
9CF
  8
CYAN
 10
1.375615011151047
 20
13.77285596988232
 30
0.0
 70
    16
  0
VERTEX
  5
9D0
  8
CYAN
 10
1.4756112658165359
 20
13.779105735939989
 30
0.0
 70
    16
  0
VERTEX
  5
9D1
  8
CYAN
 10
1.6131061186408
 20
13.80410480009297
 30
0.0
 70
    16
  0
VERTEX
  5
9D2
  8
CYAN
 10
1.650604714791136
 20
13.81660433215043
 30
0.0
 70
    16
  0
VERTEX
  5
9D3
  8
CYAN
 10
1.7256019073082669
 20
13.847853162367301
 30
0.0
 70
    16
  0
VERTEX
  5
9D4
  8
CYAN
 10
1.8255981638230141
 20
13.88535175855127
 30
0.0
 70
    16
  0
VERTEX
  5
9D5
  8
CYAN
 10
1.9380939524497951
 20
13.941599652904159
 30
0.0
 70
    16
  0
VERTEX
  5
9D6
  8
CYAN
 10
2.019340910421755
 20
13.979098248864281
 30
0.0
 70
    16
  0
VERTEX
  5
9D7
  8
CYAN
 10
2.1130874020325909
 20
14.01034707951956
 30
0.0
 70
    16
  0
VERTEX
  5
9D8
  8
CYAN
 10
2.2193334253328199
 20
14.04784567591952
 30
0.0
 70
    16
  0
VERTEX
  5
9D9
  8
CYAN
 10
2.3130799158478719
 20
14.09159403816024
 30
0.0
 70
    16
  0
VERTEX
  5
9DA
  8
CYAN
 10
2.4193259369148841
 20
14.14159216569902
 30
0.0
 70
    16
  0
VERTEX
  5
9DB
  8
CYAN
 10
2.506822661968199
 20
14.18534052820651
 30
0.0
 70
    16
  0
VERTEX
  5
9DC
  8
CYAN
 10
2.5880696215582319
 20
14.2228391249157
 30
0.0
 70
    16
  0
VERTEX
  5
9DD
  8
CYAN
 10
2.6505672810815151
 20
14.247838188853329
 30
0.0
 70
    16
  0
VERTEX
  5
9DE
  8
CYAN
 10
2.7630630728074621
 20
14.291586552257529
 30
0.0
 70
    16
  0
VERTEX
  5
9DF
  8
CYAN
 10
2.931806755361277
 20
14.37908327658177
 30
0.0
 70
    16
  0
VERTEX
  5
9E0
  8
CYAN
 10
3.0068039472106922
 20
14.422831638438369
 30
0.0
 70
    16
  0
VERTEX
  5
9E1
  8
CYAN
 10
3.0630518417662231
 20
14.466580000826101
 30
0.0
 70
    16
  0
VERTEX
  5
9E2
  8
CYAN
 10
3.1942969286002501
 20
14.579075789527501
 30
0.0
 70
    16
  0
VERTEX
  5
9E3
  8
CYAN
 10
3.2817936529195562
 20
14.660322747842489
 30
0.0
 70
    16
  0
VERTEX
  5
9E4
  8
CYAN
 10
3.3567908445635002
 20
14.73531993953055
 30
0.0
 70
    16
  0
VERTEX
  5
9E5
  8
CYAN
 10
3.506785228719957
 20
14.93531245195973
 30
0.0
 70
    16
  0
VERTEX
  5
9E6
  8
CYAN
 10
3.3692903704731312
 20
15.14780449648045
 30
0.0
 70
    16
  0
VERTEX
  5
9E7
  8
CYAN
 10
3.2755438854039101
 20
15.129055199462201
 30
0.0
 70
    16
  0
VERTEX
  5
9E8
  8
CYAN
 10
3.2317955231120781
 20
15.11030590133711
 30
0.0
 70
    16
  0
VERTEX
  5
9E9
  8
CYAN
 10
3.1880471608202479
 20
15.10405613529543
 30
0.0
 70
    16
  0
VERTEX
  5
9EA
  8
CYAN
 10
3.1630480966534922
 20
15.097806369253741
 30
0.0
 70
    16
  0
VERTEX
  5
9EB
  8
CYAN
 10
3.1442987985284181
 20
15.09155660321205
 30
0.0
 70
    16
  0
VERTEX
  5
9EC
  8
CYAN
 10
3.0130537117199849
 20
15.02905894282708
 30
0.0
 70
    16
  0
SEQEND
  5
9ED
  8
CYAN
  0
POLYLINE
  5
B9E
  8
CYAN
 66
     1
 10
0.0
 20
0.0
 30
0.0
 70
     1
  0
VERTEX
  5
1EAD
  8
CYAN
 10
7.4128890290959859
 20
16.616499548097959
 30
0.0
 42
0.2380323695749603
  0
VERTEX
  5
1EAE
  8
CYAN
 10
7.3753904328648137
 20
16.72274557078596
 30
0.0
  0
VERTEX
  5
1EAF
  8
CYAN
 10
7.3316420706032019
 20
16.760244167014928
 30
0.0
  0
VERTEX
  5
1EB0
  8
CYAN
 10
7.256644878102918
 20
16.791492997223379
 30
0.0
  0
VERTEX
  5
1EB1
  8
CYAN
 10
7.2003969837277051
 20
16.791492997223379
 30
0.0
  0
VERTEX
  5
1EB2
  8
CYAN
 10
7.1066504931023591
 20
16.74774463493155
 30
0.0
  0
VERTEX
  5
1EB3
  8
CYAN
 10
7.050402598727147
 20
16.622749314097749
 30
0.0
  0
VERTEX
  5
1EB4
  8
CYAN
 10
6.9754054062478783
 20
16.447755864979449
 30
0.0
 42
-0.0506320688164067
  0
VERTEX
  5
1EB5
  8
CYAN
 10
6.569170613685837
 20
15.504041192927851
 30
0.0
  0
VERTEX
  5
1EB6
  8
CYAN
 10
6.3816776317700121
 20
15.17905335758504
 30
0.0
  0
VERTEX
  5
1EB7
  8
CYAN
 10
6.1629358203108611
 20
14.77906833091688
 30
0.0
  0
VERTEX
  5
1EB8
  8
CYAN
 10
5.9129451786432643
 20
14.35408424008196
 30
0.0
  0
VERTEX
  5
1EB9
  8
CYAN
 10
5.7504512615593244
 20
14.060345236122529
 30
0.0
  0
VERTEX
  5
1EBA
  8
CYAN
 10
5.4379629594748282
 20
13.67910950757944
 30
0.0
  0
VERTEX
  5
1EBB
  8
CYAN
 10
5.2004718499255231
 20
13.41036956782629
 30
0.0
 42
0.06710202822885
  0
VERTEX
  5
1EBC
  8
CYAN
 10
4.706740332596123
 20
12.49790372568182
 30
0.0
  0
VERTEX
  5
1EBD
  8
CYAN
 10
4.6567422053885297
 20
12.129167532196091
 30
0.0
  0
VERTEX
  5
1EBE
  8
CYAN
 10
4.606744077042408
 20
11.522940225999299
 30
0.0
 42
0.3970494531860518
  0
VERTEX
  5
1EBF
  8
CYAN
 10
4.8692342507147046
 20
11.17920309175974
 30
0.0
 42
0.2146574352748999
  0
VERTEX
  5
1EC0
  8
CYAN
 10
5.1192248904604991
 20
11.247950517166011
 30
0.0
  0
VERTEX
  5
1EC1
  8
CYAN
 10
5.2692192768013797
 20
11.372945839111241
 30
0.0
  0
VERTEX
  5
1EC2
  8
CYAN
 10
5.6067066430526467
 20
11.7104332053625
 30
0.0
  0
VERTEX
  5
1EC3
  8
CYAN
 10
5.869196816803627
 20
11.98542291119686
 30
0.0
  0
VERTEX
  5
1EC4
  8
CYAN
 10
6.1566860547213667
 20
12.497903726615441
 30
0.0
  0
VERTEX
  5
1EC5
  8
CYAN
 10
6.3129302057636147
 20
12.960386413700499
 30
0.0
  0
VERTEX
  5
1EC6
  8
CYAN
 10
6.631668273889801
 20
13.73535740287006
 30
0.0
  0
VERTEX
  5
1EC7
  8
CYAN
 10
6.850410085348952
 20
14.522827924122989
 30
0.0
  0
VERTEX
  5
1EC8
  8
CYAN
 10
7.1191500251416251
 20
15.354046807667769
 30
0.0
  0
VERTEX
  5
1EC9
  8
CYAN
 10
7.2941434743089459
 20
15.93527504954494
 30
0.0
  0
VERTEX
  5
1ECA
  8
CYAN
 10
7.3941397309759811
 20
16.44150609892182
 30
0.0
  0
VERTEX
  5
1ECB
  8
CYAN
 10
7.406639263059362
 20
16.585250717880701
 30
0.0
  0
SEQEND
  5
1ECC
  8
CYAN
  0
POLYLINE
  5
BBE
  8
CYAN
 66
     1
 10
0.0
 20
0.0
 30
0.0
 70
     1
  0
VERTEX
  5
1ECD
  8
CYAN
 10
3.8630219180387591
 20
7.3730955733671051
 30
0.0
  0
VERTEX
  5
1ECE
  8
CYAN
 10
3.9942670043297102
 20
7.6043369160052539
 30
0.0
  0
VERTEX
  5
1ECF
  8
CYAN
 10
4.05051489870492
 20
7.7793303651725774
 30
0.0
  0
VERTEX
  5
1ED0
  8
CYAN
 10
4.031765600579849
 20
7.8480777916311668
 30
0.0
  0
VERTEX
  5
1ED1
  8
CYAN
 10
4.0067665364130898
 20
7.8980759199646871
 30
0.0
  0
VERTEX
  5
1ED2
  8
CYAN
 10
3.9442688759961939
 20
7.9230749841314463
 30
0.0
  0
VERTEX
  5
1ED3
  8
CYAN
 10
3.8692716834959091
 20
7.9105754520480671
 30
0.0
  0
VERTEX
  5
1ED4
  8
CYAN
 10
3.794274490995631
 20
7.8668270897562378
 30
0.0
  0
VERTEX
  5
1ED5
  8
CYAN
 10
3.6817787022452122
 20
7.8355782595477876
 30
0.0
  0
VERTEX
  5
1ED6
  8
CYAN
 10
3.594281977661546
 20
7.7605810670475073
 30
0.0
  0
VERTEX
  5
1ED7
  8
CYAN
 10
3.4442875926609902
 20
7.6730843424638451
 30
0.0
  0
VERTEX
  5
1ED8
  8
CYAN
 10
3.306792739743813
 20
7.5543387876717372
 30
0.0
  0
VERTEX
  5
1ED9
  8
CYAN
 10
2.3380790032818601
 20
6.6606222437100673
 30
0.0
  0
VERTEX
  5
1EDA
  8
CYAN
 10
1.94434374265539
 20
6.3793827718340177
 30
0.0
  0
VERTEX
  5
1EDB
  8
CYAN
 10
1.731851697237931
 20
6.241887918916837
 30
0.0
  0
VERTEX
  5
1EDC
  8
CYAN
 10
1.53185918390385
 20
6.1231423641247247
 30
0.0
  0
VERTEX
  5
1EDD
  8
CYAN
 10
1.3881145649449791
 20
5.998147043290925
 30
0.0
  0
VERTEX
  5
1EDE
  8
CYAN
 10
1.3381164366114611
 20
5.8044042959985394
 30
0.0
  0
VERTEX
  5
1EDF
  8
CYAN
 10
1.375615032861599
 20
5.6294108468312167
 30
0.0
  0
VERTEX
  5
1EE0
  8
CYAN
 10
1.4193633951534279
 20
5.5606634203726273
 30
0.0
  0
VERTEX
  5
1EE1
  8
CYAN
 10
1.48811082161202
 20
5.504415525997417
 30
0.0
  0
VERTEX
  5
1EE2
  8
CYAN
 10
1.631855441155428
 20
5.4669169306406271
 30
0.0
  0
VERTEX
  5
1EE3
  8
CYAN
 10
1.8318479544895061
 20
5.4919159948073828
 30
0.0
  0
VERTEX
  5
1EE4
  8
CYAN
 10
2.019340935776945
 20
5.5731629533763032
 30
0.0
 42
0.1142990449919973
  0
SEQEND
  5
1EE5
  8
CYAN
  0
POLYLINE
  5
BD6
  8
CYAN
 66
     1
 10
0.0
 20
0.0
 30
0.0
 70
     1
  0
VERTEX
  5
1EE6
  8
CYAN
 10
3.275543911134565
 20
8.2668121186191659
 30
0.0
  0
VERTEX
  5
1EE7
  8
CYAN
 10
3.900520514288897
 20
9.0605324046123776
 30
0.0
  0
VERTEX
  5
1EE8
  8
CYAN
 10
4.4317506278325451
 20
9.8792517560737636
 30
0.0
  0
VERTEX
  5
1EE9
  8
CYAN
 10
4.662991971375078
 20
10.266737250658551
 30
0.0
  0
VERTEX
  5
1EEA
  8
CYAN
 10
4.7442389299170467
 20
10.38548280545066
 30
0.0
  0
VERTEX
  5
1EEB
  8
CYAN
 10
4.7692379940838112
 20
10.479229296075999
 30
0.0
  0
VERTEX
  5
1EEC
  8
CYAN
 10
4.7442389299170467
 20
10.54172695649291
 30
0.0
  0
VERTEX
  5
1EED
  8
CYAN
 10
4.7192398657502892
 20
10.59172508482642
 30
0.0
  0
VERTEX
  5
1EEE
  8
CYAN
 10
4.6692417374167681
 20
10.604224616909811
 30
0.0
  0
VERTEX
  5
1EEF
  8
CYAN
 10
4.612993843041556
 20
10.604224616909811
 30
0.0
  0
VERTEX
  5
1EF0
  8
CYAN
 10
4.5317468844995874
 20
10.560476254617971
 30
0.0
  0
VERTEX
  5
1EF1
  8
CYAN
 10
4.4442501599159261
 20
10.479229296075999
 30
0.0
  0
VERTEX
  5
1EF2
  8
CYAN
 10
4.3692529674156484
 20
10.31673537899206
 30
0.0
  0
VERTEX
  5
1EF3
  8
CYAN
 10
4.1692604540815621
 20
10.04799543919939
 30
0.0
  0
VERTEX
  5
1EF4
  8
CYAN
 10
3.9442688765807281
 20
9.7980047975317976
 30
0.0
  0
VERTEX
  5
1EF5
  8
CYAN
 10
3.6442801065796071
 20
9.4230188350303976
 30
0.0
  0
VERTEX
  5
1EF6
  8
CYAN
 10
3.269294144078208
 20
9.0042845102371647
 30
0.0
  0
VERTEX
  5
1EF7
  8
CYAN
 10
2.7880621588680761
 20
8.523052525027035
 30
0.0
  0
VERTEX
  5
1EF8
  8
CYAN
 10
2.263081811366114
 20
8.0793191360670455
 30
0.0
  0
VERTEX
  5
1EF9
  8
CYAN
 10
1.8630967846979569
 20
7.7668308339825449
 30
0.0
  0
VERTEX
  5
1EFA
  8
CYAN
 10
1.5256094184466951
 20
7.5168401923149446
 30
0.0
  0
VERTEX
  5
1EFB
  8
CYAN
 10
1.30061784094586
 20
7.3855951054394593
 30
0.0
  0
VERTEX
  5
1EFC
  8
CYAN
 10
1.1818722861537481
 20
7.2793490827307261
 30
0.0
  0
VERTEX
  5
1EFD
  8
CYAN
 10
1.0881257955283961
 20
7.1668532939803082
 30
0.0
  0
VERTEX
  5
1EFE
  8
CYAN
 10
1.0693764974033271
 20
7.0293584410631249
 30
0.0
  0
VERTEX
  5
1EFF
  8
CYAN
 10
1.1381239238619141
 20
6.8731142900208768
 30
0.0
  0
VERTEX
  5
1F00
  8
CYAN
 10
1.175622520112056
 20
6.8418654598124249
 30
0.0
  0
VERTEX
  5
1F01
  8
CYAN
 10
1.263119244695716
 20
6.7543687352287662
 30
0.0
  0
VERTEX
  5
1F02
  8
CYAN
 10
1.281868543835454
 20
6.7543687365191563
 30
0.0
  0
VERTEX
  5
1F03
  8
CYAN
 10
1.400614098627565
 20
6.7168701402690161
 30
0.0
  0
VERTEX
  5
1F04
  8
CYAN
 10
1.563108015711504
 20
6.7168701402690161
 30
0.0
  0
VERTEX
  5
1F05
  8
CYAN
 10
1.719352166753755
 20
6.766868268602539
 30
0.0
  0
VERTEX
  5
1F06
  8
CYAN
 10
2.0880883632092631
 20
7.0106091442256684
 30
0.0
 42
0.0446171625771462
  0
SEQEND
  5
1F07
  8
CYAN
  0
POLYLINE
  5
BF7
  8
CYAN
 66
     1
 10
0.0
 20
0.0
 30
0.0
 70
     1
  0
VERTEX
  5
1F08
  8
CYAN
 10
2.0255906997045998
 20
9.3855202395581223
 30
0.0
 42
0.0454013907355535
  0
VERTEX
  5
1F09
  8
CYAN
 10
1.2881183067793991
 20
8.9042882543435606
 30
0.0
  0
VERTEX
  5
1F0A
  8
CYAN
 10
1.2006215849295261
 20
8.8167915319201775
 30
0.0
  0
VERTEX
  5
1F0B
  8
CYAN
 10
1.1318741584709371
 20
8.7230450412948262
 30
0.0
  0
VERTEX
  5
1F0C
  8
CYAN
 10
1.119374626387555
 20
8.6292985506694784
 30
0.0
  0
VERTEX
  5
1F0D
  8
CYAN
 10
1.094375562220798
 20
8.5105529958773722
 30
0.0
  0
VERTEX
  5
1F0E
  8
CYAN
 10
1.138123924512626
 20
8.3543088448351206
 30
0.0
  0
VERTEX
  5
1F0F
  8
CYAN
 10
1.2256206490962891
 20
8.2543125881680783
 30
0.0
  0
VERTEX
  5
1F10
  8
CYAN
 10
1.275618774694617
 20
8.2168139897562575
 30
0.0
  0
VERTEX
  5
1F11
  8
CYAN
 10
1.388114563445034
 20
8.1918149255894974
 30
0.0
  0
VERTEX
  5
1F12
  8
CYAN
 10
1.5193596503205291
 20
8.1855651595478065
 30
0.0
  0
VERTEX
  5
1F13
  8
CYAN
 10
1.681853567404467
 20
8.2168139897562575
 30
0.0
  0
VERTEX
  5
1F14
  8
CYAN
 10
1.975592571363896
 20
8.3668083747568147
 30
0.0
  0
VERTEX
  5
1F15
  8
CYAN
 10
2.3693278319903661
 20
8.7355445712165256
 30
0.0
  0
VERTEX
  5
1F16
  8
CYAN
 10
2.7880621567835959
 20
9.0917812355928582
 30
0.0
  0
VERTEX
  5
1F17
  8
CYAN
 10
3.3755401647024561
 20
9.6855090095534102
 30
0.0
  0
VERTEX
  5
1F18
  8
CYAN
 10
3.8005242555373751
 20
10.166740994763529
 30
0.0
  0
VERTEX
  5
1F19
  8
CYAN
 10
4.1567609199137019
 20
10.597974851640149
 30
0.0
  0
VERTEX
  5
1F1A
  8
CYAN
 10
4.2942557728308852
 20
10.79171759893253
 30
0.0
  0
VERTEX
  5
1F1B
  8
CYAN
 10
4.3380041351227154
 20
10.91046315372464
 30
0.0
  0
VERTEX
  5
1F1C
  8
CYAN
 10
4.331754369081029
 20
11.010459410391681
 30
0.0
  0
VERTEX
  5
1F1D
  8
CYAN
 10
4.2630069426224351
 20
11.085456602891959
 30
0.0
  0
VERTEX
  5
1F1E
  8
CYAN
 10
4.1880097501221583
 20
11.097956134975339
 30
0.0
  0
VERTEX
  5
1F1F
  8
CYAN
 10
4.0630144292883568
 20
11.066707304766901
 30
0.0
  0
VERTEX
  5
1F20
  8
CYAN
 10
3.944268874496248
 20
10.97296081414154
 30
0.0
  0
VERTEX
  5
1F21
  8
CYAN
 10
3.8005242555373751
 20
10.829216195182671
 30
0.0
  0
VERTEX
  5
1F22
  8
CYAN
 10
3.613031274286679
 20
10.65422274601536
 30
0.0
  0
VERTEX
  5
1F23
  8
CYAN
 10
3.4630368892861161
 20
10.479229296848031
 30
0.0
  0
VERTEX
  5
1F24
  8
CYAN
 10
3.1755476513683769
 20
10.19798982497198
 30
0.0
  0
VERTEX
  5
1F25
  8
CYAN
 10
2.7568133265751471
 20
9.8730019908041093
 30
0.0
  0
VERTEX
  5
1F26
  8
CYAN
 10
2.3443287678236042
 20
9.6042620510114318
 30
0.0
  0
SEQEND
  5
1F27
  8
CYAN
  0
POLYLINE
  5
C16
  8
CYAN
 66
     1
 10
0.0
 20
0.0
 30
0.0
 70
     1
  0
VERTEX
  5
1F28
  8
CYAN
 10
5.5192099187906409
 20
10.41673163683835
 30
0.0
 42
0.9999999582696862
  0
VERTEX
  5
1F29
  8
CYAN
 10
5.1692230204942202
 20
10.57922555401414
 30
0.0
  0
VERTEX
  5
1F2A
  8
CYAN
 10
5.1004755940617681
 20
10.422981403013241
 30
0.0
  0
VERTEX
  5
1F2B
  8
CYAN
 10
5.056727231769937
 20
10.341734444471269
 30
0.0
  0
VERTEX
  5
1F2C
  8
CYAN
 10
4.9879798053113511
 20
10.21048935759579
 30
0.0
  0
VERTEX
  5
1F2D
  8
CYAN
 10
4.8692342505192414
 20
9.9854977800949474
 30
0.0
  0
VERTEX
  5
1F2E
  8
CYAN
 10
4.731739397602059
 20
9.7167578403022752
 30
0.0
  0
VERTEX
  5
1F2F
  8
CYAN
 10
4.5192473521845988
 20
9.3980197721760881
 30
0.0
  0
VERTEX
  5
1F30
  8
CYAN
 10
4.3880022653091091
 20
9.1730281946752452
 30
0.0
  0
VERTEX
  5
1F31
  8
CYAN
 10
4.2067590501000973
 20
8.8980384888408892
 30
0.0
  0
VERTEX
  5
1F32
  8
CYAN
 10
4.0380153669744683
 20
8.6730469113400463
 30
0.0
  0
VERTEX
  5
1F33
  8
CYAN
 10
3.956768408366325
 20
8.5730506545406584
 30
0.0
  0
VERTEX
  5
1F34
  8
CYAN
 10
3.900520513991113
 20
8.4918036959986871
 30
0.0
  0
VERTEX
  5
1F35
  8
CYAN
 10
3.875521449824356
 20
8.4480553337068596
 30
0.0
  0
VERTEX
  5
1F36
  8
CYAN
 10
3.8692716837826651
 20
8.4168065034984121
 30
0.0
  0
VERTEX
  5
1F37
  8
CYAN
 10
3.888020981907732
 20
8.3730581412065792
 30
0.0
  0
VERTEX
  5
1F38
  8
CYAN
 10
3.9130200460744962
 20
8.35430884308151
 30
0.0
  0
VERTEX
  5
1F39
  8
CYAN
 10
3.9692679404497082
 20
8.3355595449564408
 30
0.0
  0
VERTEX
  5
1F3A
  8
CYAN
 10
4.044265132949981
 20
8.3480590770398173
 30
0.0
  0
VERTEX
  5
1F3B
  8
CYAN
 10
4.1130125594085731
 20
8.3605586091231991
 30
0.0
  0
VERTEX
  5
1F3C
  8
CYAN
 10
4.2192585821173081
 20
8.3918074393316484
 30
0.0
  0
VERTEX
  5
1F3D
  8
CYAN
 10
4.4567496917015239
 20
8.5293022922488291
 30
0.0
  0
VERTEX
  5
1F3E
  8
CYAN
 10
4.6442426729522284
 20
8.7105455074578408
 30
0.0
  0
VERTEX
  5
1F3F
  8
CYAN
 10
4.837985420244614
 20
8.9667859151671294
 30
0.0
  0
VERTEX
  5
1F40
  8
CYAN
 10
5.0879760619122152
 20
9.4855164966273993
 30
0.0
  0
SEQEND
  5
1F41
  8
CYAN
  0
POLYLINE
  5
C2F
  8
CYAN
 66
     1
 10
0.0
 20
0.0
 30
0.0
 70
     1
  0
VERTEX
  5
1F42
  8
CYAN
 10
4.2692566962149368
 20
11.96667359623722
 30
0.0
 42
0.711569052181431
  0
VERTEX
  5
1F43
  8
CYAN
 10
4.1067627791913237
 20
12.11041821522867
 30
0.0
  0
VERTEX
  5
1F44
  8
CYAN
 10
4.056764650861103
 20
12.07916938502504
 30
0.0
  0
VERTEX
  5
1F45
  8
CYAN
 10
3.9880172244025078
 20
12.041670788774899
 30
0.0
  0
VERTEX
  5
1F46
  8
CYAN
 10
1.2818685283507381
 20
10.31673536126846
 30
0.0
  0
VERTEX
  5
1F47
  8
CYAN
 10
1.1756225056420071
 20
10.2292386366848
 30
0.0
  0
VERTEX
  5
1F48
  8
CYAN
 10
1.119374611266799
 20
10.154241444184519
 30
0.0
  0
VERTEX
  5
1F49
  8
CYAN
 10
1.0756262489749671
 20
10.03549588939241
 30
0.0
  0
VERTEX
  5
1F4A
  8
CYAN
 10
1.0756262489749671
 20
10.022996357288481
 30
0.0
 42
0.1752455189696275
  0
VERTEX
  5
1F4B
  8
CYAN
 10
1.088125781096664
 20
9.8105043118149435
 30
0.0
  0
VERTEX
  5
1F4C
  8
CYAN
 10
1.1131248452030511
 20
9.7605061835470242
 30
0.0
  0
VERTEX
  5
1F4D
  8
CYAN
 10
1.1131248452030511
 20
9.7542564175053368
 30
0.0
  0
VERTEX
  5
1F4E
  8
CYAN
 10
1.138123909369809
 20
9.7230075872968822
 30
0.0
  0
VERTEX
  5
1F4F
  8
CYAN
 10
1.2443699320785391
 20
9.6230113306298435
 30
0.0
  0
VERTEX
  5
1F50
  8
CYAN
 10
1.3318666566622031
 20
9.5980122664630851
 30
0.0
  0
VERTEX
  5
1F51
  8
CYAN
 10
1.4943605737461421
 20
9.5917625004213924
 30
0.0
  0
VERTEX
  5
1F52
  8
CYAN
 10
1.7693502799337011
 20
9.6605099269682846
 30
0.0
 42
0.1079347378758195
  0
VERTEX
  5
1F53
  8
CYAN
 10
1.913094898786998
 20
9.7292573535390314
 30
0.0
  0
VERTEX
  5
1F54
  8
CYAN
 10
2.8318105066236838
 20
10.472979512266591
 30
0.0
  0
VERTEX
  5
1F55
  8
CYAN
 10
3.431788046625925
 20
10.99171009372686
 30
0.0
  0
VERTEX
  5
1F56
  8
CYAN
 10
3.8630219035025362
 20
11.447943014770241
 30
0.0
  0
VERTEX
  5
1F57
  8
CYAN
 10
4.1567609074619671
 20
11.73543225268797
 30
0.0
  0
VERTEX
  5
1F58
  8
CYAN
 10
4.2192585678788701
 20
11.83542850935501
 30
0.0
  0
SEQEND
  5
1F59
  8
CYAN
  0
POLYLINE
  5
E3F
  8
CYAN
 66
     1
 10
0.0
 20
0.0
 30
0.0
 70
     1
  0
VERTEX
  5
1F5A
  8
CYAN
 10
44.640678812520903
 20
18.36167390769246
 30
0.0
  0
VERTEX
  5
1F5B
  8
CYAN
 10
44.670135065980787
 20
18.436092316102481
 30
0.0
  0
VERTEX
  5
1F5C
  8
CYAN
 10
44.691310229481097
 20
18.49489342160502
 30
0.0
  0
VERTEX
  5
1F5D
  8
CYAN
 10
44.717570814981201
 20
18.601018874609512
 30
0.0
  0
VERTEX
  5
1F5E
  8
CYAN
 10
44.825336386482093
 20
18.974055794125402
 30
0.0
  0
VERTEX
  5
1F5F
  8
CYAN
 10
44.971367440732728
 20
19.54189226339944
 30
0.0
  0
VERTEX
  5
1F60
  8
CYAN
 10
45.161471473735673
 20
20.05134436492154
 30
0.0
  0
VERTEX
  5
1F61
  8
CYAN
 10
45.411793927740682
 20
20.598894846945718
 30
0.0
  0
VERTEX
  5
1F62
  8
CYAN
 10
45.696602356541909
 20
21.183182094814409
 30
0.0
 42
-0.0565682849436672
  0
VERTEX
  5
1F63
  8
CYAN
 10
46.282197554066542
 20
22.193221367836198
 30
0.0
  0
VERTEX
  5
1F64
  8
CYAN
 10
46.746660668391847
 20
22.767282071288189
 30
0.0
  0
VERTEX
  5
1F65
  8
CYAN
 10
47.045557683150633
 20
23.114002704554789
 30
0.0
  0
VERTEX
  5
1F66
  8
CYAN
 10
47.408341225411718
 20
23.48687252182301
 30
0.0
  0
VERTEX
  5
1F67
  8
CYAN
 10
47.726106911920837
 20
23.878611010841571
 30
0.0
  0
VERTEX
  5
1F68
  8
CYAN
 10
47.968397911428568
 20
24.09027807685225
 30
0.0
  0
VERTEX
  5
1F69
  8
CYAN
 10
48.090252068932209
 20
24.225748381858772
 30
0.0
  0
VERTEX
  5
1F6A
  8
CYAN
 10
48.178565128684482
 20
24.36399761711511
 30
0.0
  0
VERTEX
  5
1F6B
  8
CYAN
 10
48.225528439185041
 20
24.509166327621351
 30
0.0
  0
VERTEX
  5
1F6C
  8
CYAN
 10
48.246286864943031
 20
24.633215575426171
 30
0.0
 42
0.1384952841132269
  0
VERTEX
  5
1F6D
  8
CYAN
 10
48.232086877257608
 20
24.700770209723238
 30
0.0
  0
VERTEX
  5
1F6E
  8
CYAN
 10
48.182984177418433
 20
24.796836219912091
 30
0.0
 42
0.187093060416586
  0
VERTEX
  5
1F6F
  8
CYAN
 10
47.971733849235697
 20
24.973879077037871
 30
0.0
  0
VERTEX
  5
1F70
  8
CYAN
 10
47.831594859587902
 20
24.983160744486341
 30
0.0
  0
VERTEX
  5
1F71
  8
CYAN
 10
47.694179099832787
 20
24.940977519733401
 30
0.0
  0
VERTEX
  5
1F72
  8
CYAN
 10
47.561793061328238
 20
24.861112652228989
 30
0.0
  0
VERTEX
  5
1F73
  8
CYAN
 10
47.39906159307273
 20
24.752319670473149
 30
0.0
  0
VERTEX
  5
1F74
  8
CYAN
 10
47.005043444810241
 20
24.396012033205309
 30
0.0
  0
VERTEX
  5
1F75
  8
CYAN
 10
46.345557978041882
 20
23.52019285191427
 30
0.0
  0
VERTEX
  5
1F76
  8
CYAN
 10
45.842773680529604
 20
22.666326608875529
 30
0.0
  0
VERTEX
  5
1F77
  8
CYAN
 10
45.399735365519533
 20
21.830800898338079
 30
0.0
  0
VERTEX
  5
1F78
  8
CYAN
 10
45.016915471511517
 20
21.0333735683027
 30
0.0
  0
VERTEX
  5
1F79
  8
CYAN
 10
44.758617263758488
 20
20.234945660518431
 30
0.0
  0
VERTEX
  5
1F7A
  8
CYAN
 10
44.636428901759501
 20
19.589439413991489
 30
0.0
  0
VERTEX
  5
1F7B
  8
CYAN
 10
44.428762111007281
 20
18.924231020213
 30
0.0
  0
VERTEX
  5
1F7C
  8
CYAN
 10
44.389440349759418
 20
18.51990379394649
 30
0.0
  0
VERTEX
  5
1F7D
  8
CYAN
 10
44.379741944264786
 20
18.445012946982612
 30
0.0
 42
0.9211279051518394
  0
SEQEND
  5
1F7E
  8
CYAN
  0
POLYLINE
  5
E40
  8
CYAN
 66
     1
 10
0.0
 20
0.0
 30
0.0
 70
     1
  0
VERTEX
  5
1F7F
  8
CYAN
 10
45.319761140696592
 20
23.198761118881588
 30
0.0
 42
0.711569052181431
  0
VERTEX
  5
1F80
  8
CYAN
 10
45.5172839199072
 20
23.10903074358097
 30
0.0
  0
VERTEX
  5
1F81
  8
CYAN
 10
45.555910439656607
 20
23.153576160827519
 30
0.0
  0
VERTEX
  5
1F82
  8
CYAN
 10
45.61062670090827
 20
23.209598336080269
 30
0.0
  0
VERTEX
  5
1F83
  8
CYAN
 10
47.69142904621912
 20
25.65273251044696
 30
0.0
  0
VERTEX
  5
1F84
  8
CYAN
 10
47.7673204709711
 20
25.767555791202241
 30
0.0
  0
VERTEX
  5
1F85
  8
CYAN
 10
47.799083216221568
 20
25.85575744945606
 30
0.0
  0
VERTEX
  5
1F86
  8
CYAN
 10
47.806058392220677
 20
25.982113188961179
 30
0.0
  0
VERTEX
  5
1F87
  8
CYAN
 10
47.802390285714388
 20
25.994062385481271
 30
0.0
 42
0.1752455189696275
  0
VERTEX
  5
1F88
  8
CYAN
 10
47.728083278656527
 20
26.193530619530922
 30
0.0
  0
VERTEX
  5
1F89
  8
CYAN
 10
47.68951245973156
 20
26.233991192487188
 30
0.0
  0
VERTEX
  5
1F8A
  8
CYAN
 10
47.687678406481439
 20
26.239965790737411
 30
0.0
  0
VERTEX
  5
1F8B
  8
CYAN
 10
47.654609747229927
 20
26.262502568988008
 30
0.0
  0
VERTEX
  5
1F8C
  8
CYAN
 10
47.523696724974101
 20
26.326917235739401
 30
0.0
  0
VERTEX
  5
1F8D
  8
CYAN
 10
47.432716136470461
 20
26.325138883238491
 30
0.0
  0
VERTEX
  5
1F8E
  8
CYAN
 10
47.275542528714567
 20
26.283428096985389
 30
0.0
  0
VERTEX
  5
1F8F
  8
CYAN
 10
47.03283479114446
 20
26.13700917303925
 30
0.0
 42
0.1079347378758195
  0
VERTEX
  5
1F90
  8
CYAN
 10
46.915593617274617
 20
26.029105367457628
 30
0.0
  0
VERTEX
  5
1F91
  8
CYAN
 10
46.255580011467558
 20
25.048522348221269
 30
0.0
  0
VERTEX
  5
1F92
  8
CYAN
 10
45.834244999206867
 20
24.376561581440551
 30
0.0
  0
VERTEX
  5
1F93
  8
CYAN
 10
45.555883607200862
 20
23.813866234915519
 30
0.0
  0
VERTEX
  5
1F94
  8
CYAN
 10
45.35944393894632
 20
23.452834212649279
 30
0.0
  0
VERTEX
  5
1F95
  8
CYAN
 10
45.329042808446161
 20
23.33890010814445
 30
0.0
  0
SEQEND
  5
1F96
  8
CYAN
  0
POLYLINE
  5
E41
  8
CYAN
 66
     1
 10
0.0
 20
0.0
 30
0.0
 70
     1
  0
VERTEX
  5
1F97
  8
CYAN
 10
44.360080879438577
 20
27.709304272798541
 30
0.0
  0
VERTEX
  5
1F98
  8
CYAN
 10
44.302474286732043
 20
27.44972902032373
 30
0.0
  0
VERTEX
  5
1F99
  8
CYAN
 10
44.300056393483629
 20
27.26593379006637
 30
0.0
  0
VERTEX
  5
1F9A
  8
CYAN
 10
44.338154773985721
 20
27.205715369064301
 30
0.0
  0
VERTEX
  5
1F9B
  8
CYAN
 10
44.376725592987611
 20
27.165254796063032
 30
0.0
  0
VERTEX
  5
1F9C
  8
CYAN
 10
44.443807788490354
 20
27.159696935563421
 30
0.0
  0
VERTEX
  5
1F9D
  8
CYAN
 10
44.511834860992771
 20
27.193654771065411
 30
0.0
  0
VERTEX
  5
1F9E
  8
CYAN
 10
44.570691667244532
 20
27.257485597818501
 30
0.0
  0
VERTEX
  5
1F9F
  8
CYAN
 10
44.669064169497886
 20
27.320371547571909
 30
0.0
  0
VERTEX
  5
1FA0
  8
CYAN
 10
44.730699905999472
 20
27.41774347207636
 30
0.0
  0
VERTEX
  5
1FA1
  8
CYAN
 10
44.848413518503008
 20
27.545405125582541
 30
0.0
  0
VERTEX
  5
1FA2
  8
CYAN
 10
44.945007668255442
 20
27.699271663839578
 30
0.0
  0
VERTEX
  5
1FA3
  8
CYAN
 10
45.608800782271572
 20
28.837917467391168
 30
0.0
  0
VERTEX
  5
1FA4
  8
CYAN
 10
45.902668075779822
 20
29.222319743409219
 30
0.0
  0
VERTEX
  5
1FA5
  8
CYAN
 10
46.065455244784552
 20
29.416118715418449
 30
0.0
  0
VERTEX
  5
1FA6
  8
CYAN
 10
46.221795377039207
 20
29.588325786176771
 30
0.0
  0
VERTEX
  5
1FA7
  8
CYAN
 10
46.322530071791768
 20
29.750000975934171
 30
0.0
  0
VERTEX
  5
1FA8
  8
CYAN
 10
46.313471207039569
 20
29.94988594769206
 30
0.0
  0
VERTEX
  5
1FA9
  8
CYAN
 10
46.226270126534672
 20
30.106170379197511
 30
0.0
  0
VERTEX
  5
1FAA
  8
CYAN
 10
46.164273353031703
 20
30.15905258719906
 30
0.0
  0
VERTEX
  5
1FAB
  8
CYAN
 10
46.082046293028107
 20
30.192649385699649
 30
0.0
  0
VERTEX
  5
1FAC
  8
CYAN
 10
45.933626213475598
 20
30.186313749422482
 30
0.0
  0
VERTEX
  5
1FAD
  8
CYAN
 10
45.749775282469002
 20
30.103725652417509
 30
0.0
  0
VERTEX
  5
1FAE
  8
CYAN
 10
45.59438002718678
 20
29.971034277624231
 30
0.0
 42
0.1142990449919973
  0
SEQEND
  5
1FAF
  8
CYAN
  0
POLYLINE
  5
E42
  8
CYAN
 66
     1
 10
0.0
 20
0.0
 30
0.0
 70
     1
  0
VERTEX
  5
1FB0
  8
CYAN
 10
45.183962729136432
 20
27.027337726997452
 30
0.0
  0
VERTEX
  5
1FB1
  8
CYAN
 10
44.819427667468567
 20
26.08515842574835
 30
0.0
  0
VERTEX
  5
1FB2
  8
CYAN
 10
44.551847791966452
 20
25.146591528708392
 30
0.0
  0
VERTEX
  5
1FB3
  8
CYAN
 10
44.444498958216151
 20
24.708306466939881
 30
0.0
  0
VERTEX
  5
1FB4
  8
CYAN
 10
44.401676192715712
 20
24.570946407933999
 30
0.0
  0
VERTEX
  5
1FB5
  8
CYAN
 10
44.405288598466733
 20
24.47399122118016
 30
0.0
  0
VERTEX
  5
1FB6
  8
CYAN
 10
44.447527523968887
 20
24.421581451678449
 30
0.0
  0
VERTEX
  5
1FB7
  8
CYAN
 10
44.48609834297082
 20
24.38112087867718
 30
0.0
  0
VERTEX
  5
1FB8
  8
CYAN
 10
44.537563235472852
 20
24.383844108177751
 30
0.0
  0
VERTEX
  5
1FB9
  8
CYAN
 10
44.591334619724847
 20
24.40035058742891
 30
0.0
  0
VERTEX
  5
1FBA
  8
CYAN
 10
44.656166024226827
 20
24.46601546743214
 30
0.0
  0
VERTEX
  5
1FBB
  8
CYAN
 10
44.715967707478292
 20
24.56936199018681
 30
0.0
  0
VERTEX
  5
1FBC
  8
CYAN
 10
44.739977501977613
 20
24.74671018369412
 30
0.0
  0
VERTEX
  5
1FBD
  8
CYAN
 10
44.852300356229222
 20
25.062307612457762
 30
0.0
  0
VERTEX
  5
1FBE
  8
CYAN
 10
44.994023763232093
 20
25.367317459471248
 30
0.0
  0
VERTEX
  5
1FBF
  8
CYAN
 10
45.170761284235098
 20
25.813827910490719
 30
0.0
  0
VERTEX
  5
1FC0
  8
CYAN
 10
45.406355611489843
 20
26.32416918826328
 30
0.0
  0
VERTEX
  5
1FC1
  8
CYAN
 10
45.725177576497067
 20
26.925435353790231
 30
0.0
  0
VERTEX
  5
1FC2
  8
CYAN
 10
46.09682604875664
 20
27.503692302566741
 30
0.0
  0
VERTEX
  5
1FC3
  8
CYAN
 10
46.387497674264459
 20
27.919801623086041
 30
0.0
  0
VERTEX
  5
1FC4
  8
CYAN
 10
46.636763849771349
 20
28.257824428601818
 30
0.0
  0
VERTEX
  5
1FC5
  8
CYAN
 10
46.813334268526631
 20
28.449316908861089
 30
0.0
  0
VERTEX
  5
1FC6
  8
CYAN
 10
46.895672730028679
 20
28.5857320908673
 30
0.0
  0
VERTEX
  5
1FC7
  8
CYAN
 10
46.952278745279713
 20
28.720785658123209
 30
0.0
  0
VERTEX
  5
1FC8
  8
CYAN
 10
46.929853368527567
 20
28.857728979378489
 30
0.0
  0
VERTEX
  5
1FC9
  8
CYAN
 10
46.818281456521923
 20
28.98691934988263
 30
0.0
  0
VERTEX
  5
1FCA
  8
CYAN
 10
46.773263600769951
 20
29.00578802163297
 30
0.0
  0
VERTEX
  5
1FCB
  8
CYAN
 10
46.663942479765062
 20
29.063755651634288
 30
0.0
  0
VERTEX
  5
1FCC
  8
CYAN
 10
46.646018684423062
 20
29.058253490352559
 30
0.0
  0
VERTEX
  5
1FCD
  8
CYAN
 10
46.521496998168068
 20
29.05925406810147
 30
0.0
  0
VERTEX
  5
1FCE
  8
CYAN
 10
46.366157443662303
 20
29.011568683598139
 30
0.0
  0
VERTEX
  5
1FCF
  8
CYAN
 10
46.231464913407777
 20
28.91792056634316
 30
0.0
  0
VERTEX
  5
1FD0
  8
CYAN
 10
45.95049169340286
 20
28.576702092830839
 30
0.0
 42
0.0446171625771462
  0
SEQEND
  5
1FD1
  8
CYAN
  0
POLYLINE
  5
E43
  8
CYAN
 66
     1
 10
0.0
 20
0.0
 30
0.0
 70
     1
  0
VERTEX
  5
1FD2
  8
CYAN
 10
46.707177913755942
 20
26.32469529164117
 30
0.0
 42
0.0454013907355535
  0
VERTEX
  5
1FD3
  8
CYAN
 10
47.270958407026512
 20
27.001157640429302
 30
0.0
  0
VERTEX
  5
1FD4
  8
CYAN
 10
47.328926035048347
 20
27.110478758566781
 30
0.0
  0
VERTEX
  5
1FD5
  8
CYAN
 10
47.36713581704889
 20
27.220272318071519
 30
0.0
  0
VERTEX
  5
1FD6
  8
CYAN
 10
47.351574214797402
 20
27.313559398325111
 30
0.0
  0
VERTEX
  5
1FD7
  8
CYAN
 10
47.340625596045882
 20
27.434412978079841
 30
0.0
  0
VERTEX
  5
1FD8
  8
CYAN
 10
47.252952077041122
 20
27.570939561584488
 30
0.0
  0
VERTEX
  5
1FD9
  8
CYAN
 10
47.139962849535962
 20
27.640856388086249
 30
0.0
  0
VERTEX
  5
1FDA
  8
CYAN
 10
47.081161746013812
 20
27.662031554455741
 30
0.0
  0
VERTEX
  5
1FDB
  8
CYAN
 10
46.966282764509288
 20
27.652916988954331
 30
0.0
  0
VERTEX
  5
1FDC
  8
CYAN
 10
46.838982148004533
 20
27.620376468951861
 30
0.0
  0
VERTEX
  5
1FDD
  8
CYAN
 10
46.692812859749381
 20
27.542818093197411
 30
0.0
  0
VERTEX
  5
1FDE
  8
CYAN
 10
46.456024019992029
 20
27.313227232436081
 30
0.0
  0
VERTEX
  5
1FDF
  8
CYAN
 10
46.18783347198557
 20
26.845180580914921
 30
0.0
  0
VERTEX
  5
1FE0
  8
CYAN
 10
45.892076424477992
 20
26.381746912893689
 30
0.0
  0
VERTEX
  5
1FE1
  8
CYAN
 10
45.504699247719273
 20
25.641759073610562
 30
0.0
  0
VERTEX
  5
1FE2
  8
CYAN
 10
45.239648666964023
 20
25.05699938733477
 30
0.0
  0
VERTEX
  5
1FE3
  8
CYAN
 10
45.025646240960199
 20
24.540211072812149
 30
0.0
  0
VERTEX
  5
1FE4
  8
CYAN
 10
44.951060730209278
 20
24.314649355552461
 30
0.0
  0
VERTEX
  5
1FE5
  8
CYAN
 10
44.944085554210147
 20
24.188293616047329
 30
0.0
  0
VERTEX
  5
1FE6
  8
CYAN
 10
44.979405004462407
 20
24.094534097293909
 30
0.0
  0
VERTEX
  5
1FE7
  8
CYAN
 10
45.067134224216389
 20
24.043013504042651
 30
0.0
  0
VERTEX
  5
1FE8
  8
CYAN
 10
45.142497509719327
 20
24.05307294654374
 30
0.0
  0
VERTEX
  5
1FE9
  8
CYAN
 10
45.25281920847312
 20
24.119627002797412
 30
0.0
  0
VERTEX
  5
1FEA
  8
CYAN
 10
45.33882577647541
 20
24.24409298830318
 30
0.0
  0
VERTEX
  5
1FEB
  8
CYAN
 10
45.434058311477571
 20
24.42369197281122
 30
0.0
  0
VERTEX
  5
1FEC
  8
CYAN
 10
45.561942767980653
 20
24.64600232132128
 30
0.0
  0
VERTEX
  5
1FED
  8
CYAN
 10
45.65397963498242
 20
24.85730835033058
 30
0.0
  0
VERTEX
  5
1FEE
  8
CYAN
 10
45.846278758236863
 20
25.210531721096451
 30
0.0
  0
VERTEX
  5
1FEF
  8
CYAN
 10
46.151206071995098
 20
25.644092397866569
 30
0.0
  0
VERTEX
  5
1FF0
  8
CYAN
 10
46.466665266754241
 20
26.02204763713457
 30
0.0
  0
SEQEND
  5
1FF1
  8
CYAN
  0
POLYLINE
  5
E44
  8
CYAN
 66
     1
 10
0.0
 20
0.0
 30
0.0
 70
     1
  0
VERTEX
  5
1FF2
  8
CYAN
 10
43.669996276567787
 20
24.313650812626548
 30
0.0
 42
0.9999999582696862
  0
VERTEX
  5
1FF3
  8
CYAN
 10
44.052259163073991
 20
24.261018240028928
 30
0.0
  0
VERTEX
  5
1FF4
  8
CYAN
 10
44.072128412560389
 20
24.430557781988679
 30
0.0
  0
VERTEX
  5
1FF5
  8
CYAN
 10
44.090107908060261
 20
24.52106593199246
 30
0.0
  0
VERTEX
  5
1FF6
  8
CYAN
 10
44.117313370560034
 20
24.666707080998531
 30
0.0
  0
VERTEX
  5
1FF7
  8
CYAN
 10
44.164804820309641
 20
24.916639629758951
 30
0.0
  0
VERTEX
  5
1FF8
  8
CYAN
 10
44.217381692059028
 20
25.213896526021308
 30
0.0
  0
VERTEX
  5
1FF9
  8
CYAN
 10
44.326981316810048
 20
25.58095884728699
 30
0.0
  0
VERTEX
  5
1FFA
  8
CYAN
 10
44.386421963060101
 20
25.83455950254768
 30
0.0
  0
VERTEX
  5
1FFB
  8
CYAN
 10
44.478986969310917
 20
26.150629369811149
 30
0.0
  0
VERTEX
  5
1FFC
  8
CYAN
 10
44.574275205062307
 20
26.41523434457261
 30
0.0
  0
VERTEX
  5
1FFD
  8
CYAN
 10
44.622600130337567
 20
26.534670608973759
 30
0.0
  0
VERTEX
  5
1FFE
  8
CYAN
 10
44.652528822337892
 20
26.628846865477801
 30
0.0
  0
VERTEX
  5
1FFF
  8
CYAN
 10
44.663588842587892
 20
26.678005266229881
 30
0.0
  0
VERTEX
  5
2000
  8
CYAN
 10
44.660393174587462
 20
26.70971231073111
 30
0.0
  0
VERTEX
  5
2001
  8
CYAN
 10
44.629631007085912
 20
26.746032338732281
 30
0.0
  0
VERTEX
  5
2002
  8
CYAN
 10
44.600230454334643
 20
26.756619920482422
 30
0.0
  0
VERTEX
  5
2003
  8
CYAN
 10
44.540956910332262
 20
26.758037235981941
 30
0.0
  0
VERTEX
  5
2004
  8
CYAN
 10
44.472929837829838
 20
26.724079400479969
 30
0.0
  0
VERTEX
  5
2005
  8
CYAN
 10
44.410877363577669
 20
26.691955618228121
 30
0.0
  0
VERTEX
  5
2006
  8
CYAN
 10
44.318479459574533
 20
26.630903721724831
 30
0.0
  0
VERTEX
  5
2007
  8
CYAN
 10
44.131793897568897
 20
26.429768536715081
 30
0.0
  0
VERTEX
  5
2008
  8
CYAN
 10
44.005743494315951
 20
26.201483589954801
 30
0.0
  0
VERTEX
  5
2009
  8
CYAN
 10
43.895727131814319
 20
25.89966941094173
 30
0.0
  0
VERTEX
  5
200A
  8
CYAN
 10
43.808969621566042
 20
25.330415626168179
 30
0.0
  0
SEQEND
  5
200B
  8
CYAN
  0
POLYLINE
  5
E45
  8
CYAN
 66
     1
 10
0.0
 20
0.0
 30
0.0
 70
     1
  0
VERTEX
  5
200C
  8
CYAN
 10
43.679073830574453
 20
17.83113121571791
 30
0.0
 42
0.2380323695749603
  0
VERTEX
  5
200D
  8
CYAN
 10
43.746100325303743
 20
17.74056736497916
 30
0.0
  0
VERTEX
  5
200E
  8
CYAN
 10
43.798926832520962
 20
17.717558148240091
 30
0.0
  0
VERTEX
  5
200F
  8
CYAN
 10
43.879792277774271
 20
17.709693795990521
 30
0.0
  0
VERTEX
  5
2010
  8
CYAN
 10
43.933563662026273
 20
17.72620027524167
 30
0.0
  0
VERTEX
  5
2011
  8
CYAN
 10
44.010344263028699
 20
17.795533261745149
 30
0.0
  0
VERTEX
  5
2012
  8
CYAN
 10
44.027434582278133
 20
17.93153170600074
 30
0.0
  0
VERTEX
  5
2013
  8
CYAN
 10
44.047776270271527
 20
18.120829095955472
 30
0.0
 42
-0.0506320688164067
  0
VERTEX
  5
2014
  8
CYAN
 10
44.15918311569682
 20
19.14220689272107
 30
0.0
  0
VERTEX
  5
2015
  8
CYAN
 10
44.243050294487858
 20
19.507907600554841
 30
0.0
  0
VERTEX
  5
2016
  8
CYAN
 10
44.334781825237449
 20
19.95447375232354
 30
0.0
  0
VERTEX
  5
2017
  8
CYAN
 10
44.449050134237623
 20
20.434108563343749
 30
0.0
  0
VERTEX
  5
2018
  8
CYAN
 10
44.518189185987389
 20
20.762600065607511
 30
0.0
  0
VERTEX
  5
2019
  8
CYAN
 10
44.705041850240683
 20
21.218753221377462
 30
0.0
  0
VERTEX
  5
201A
  8
CYAN
 10
44.85321229397185
 20
21.545354969593848
 30
0.0
 42
0.06710202822885
  0
VERTEX
  5
201B
  8
CYAN
 10
45.057433781238082
 20
22.562536520952101
 30
0.0
  0
VERTEX
  5
201C
  8
CYAN
 10
44.997021425278682
 20
22.929710240542761
 30
0.0
  0
VERTEX
  5
201D
  8
CYAN
 10
44.866915045985237
 20
23.523918696965161
 30
0.0
 42
0.3970494531860518
  0
VERTEX
  5
201E
  8
CYAN
 10
44.515108990222849
 20
23.775491366105989
 30
0.0
 42
0.2146574352748999
  0
VERTEX
  5
201F
  8
CYAN
 10
44.296299647493747
 20
23.636408656918391
 30
0.0
  0
VERTEX
  5
2020
  8
CYAN
 10
44.189590353535827
 20
23.47289941245506
 30
0.0
  0
VERTEX
  5
2021
  8
CYAN
 10
43.966000923530729
 20
23.05123223143616
 30
0.0
  0
VERTEX
  5
2022
  8
CYAN
 10
43.795766140027027
 20
22.711319671921011
 30
0.0
  0
VERTEX
  5
2023
  8
CYAN
 10
43.671326987027321
 20
22.137036165896909
 30
0.0
  0
VERTEX
  5
2024
  8
CYAN
 10
43.657681971281249
 20
21.649064564127279
 30
0.0
  0
VERTEX
  5
2025
  8
CYAN
 10
43.580400063535777
 20
20.814677665343218
 30
0.0
  0
VERTEX
  5
2026
  8
CYAN
 10
43.60237983429414
 20
19.99768642206077
 30
0.0
  0
VERTEX
  5
2027
  8
CYAN
 10
43.589401191801599
 20
19.124200565025731
 30
0.0
  0
VERTEX
  5
2028
  8
CYAN
 10
43.592679393057288
 20
18.517209436751479
 30
0.0
  0
VERTEX
  5
2029
  8
CYAN
 10
43.645644134314111
 20
18.003922126481449
 30
0.0
  0
VERTEX
  5
202A
  8
CYAN
 10
43.675878162566597
 20
17.862838260226091
 30
0.0
  0
SEQEND
  5
202B
  8
CYAN
  0
POLYLINE
  5
E46
  8
CYAN
 66
     1
 10
0.0
 20
0.0
 30
0.0
 70
     1
  0
VERTEX
  5
202C
  8
CYAN
 10
47.098743193022301
 20
21.535153219680911
 30
0.0
  0
VERTEX
  5
202D
  8
CYAN
 10
48.553017315464707
 20
22.909919440895951
 30
0.0
 42
0.5490219200404929
  0
VERTEX
  5
202E
  8
CYAN
 10
48.431664478399057
 20
23.539503060494969
 30
0.0
 42
0.2879698899668149
  0
VERTEX
  5
202F
  8
CYAN
 10
48.03461776452032
 20
23.469920438772331
 30
0.0
 42
0.1235448810357613
  0
VERTEX
  5
2030
  8
CYAN
 10
46.828219321693133
 20
21.71361339494484
 30
0.0
 42
0.7945155580868685
  0
SEQEND
  5
2031
  8
CYAN
  0
POLYLINE
  5
E47
  8
CYAN
 66
     1
 10
0.0
 20
0.0
 30
0.0
 70
     5
 75
     6
  0
VERTEX
  5
E48
  8
CYAN
 10
47.64554274729624
 20
20.840043005666288
 30
0.0
 70
    16
  0
VERTEX
  5
E49
  8
CYAN
 10
47.886837968424523
 20
21.051404385402449
 30
0.0
 70
     8
  0
VERTEX
  5
E4A
  8
CYAN
 10
47.918441743170803
 20
21.078243767961819
 30
0.0
 70
     8
  0
VERTEX
  5
E4B
  8
CYAN
 10
47.950294966139687
 20
21.105019268682732
 30
0.0
 70
     8
  0
VERTEX
  5
E4C
  8
CYAN
 10
47.982180319753397
 20
21.13152372003832
 30
0.0
 70
     8
  0
VERTEX
  5
E4D
  8
CYAN
 10
48.013880486434047
 20
21.157549954501661
 30
0.0
 70
     8
  0
VERTEX
  5
E4E
  8
CYAN
 10
48.045178148603782
 20
21.182890804545849
 30
0.0
 70
     8
  0
VERTEX
  5
E4F
  8
CYAN
 10
48.075855988684808
 20
21.207339102643989
 30
0.0
 70
     8
  0
VERTEX
  5
E50
  8
CYAN
 10
48.10569668909924
 20
21.23068768126917
 30
0.0
 70
     8
  0
VERTEX
  5
E51
  8
CYAN
 10
48.134482932269222
 20
21.252729372894478
 30
0.0
 70
     8
  0
VERTEX
  5
E52
  8
CYAN
 10
48.16205023745222
 20
21.273313664012768
 30
0.0
 70
     8
  0
VERTEX
  5
E53
  8
CYAN
 10
48.18844547124678
 20
21.29251665719601
 30
0.0
 70
     8
  0
VERTEX
  5
E54
  8
CYAN
 10
48.213768337086748
 20
21.31047110903582
 30
0.0
 70
     8
  0
VERTEX
  5
E55
  8
CYAN
 10
48.238118538405992
 20
21.327309776123919
 30
0.0
 70
     8
  0
VERTEX
  5
E56
  8
CYAN
 10
48.261595778638323
 20
21.34316541505196
 30
0.0
 70
     8
  0
VERTEX
  5
E57
  8
CYAN
 10
48.284299761217639
 20
21.358170782411651
 30
0.0
 70
     8
  0
VERTEX
  5
E58
  8
CYAN
 10
48.306330189577722
 20
21.372458634794661
 30
0.0
 70
     8
  0
VERTEX
  5
E59
  8
CYAN
 10
48.327786767152503
 20
21.386161728792668
 30
0.0
 70
     8
  0
VERTEX
  5
E5A
  8
CYAN
 10
48.348768292775247
 20
21.399401902670409
 30
0.0
 70
     8
  0
VERTEX
  5
E5B
  8
CYAN
 10
48.369369946877299
 20
21.412257321384828
 30
0.0
 70
     8
  0
VERTEX
  5
E5C
  8
CYAN
 10
48.389686005289462
 20
21.424795231565881
 30
0.0
 70
     8
  0
VERTEX
  5
E5D
  8
CYAN
 10
48.409810743842527
 20
21.43708287984359
 30
0.0
 70
     8
  0
VERTEX
  5
E5E
  8
CYAN
 10
48.429838438367319
 20
21.449187512847921
 30
0.0
 70
     8
  0
VERTEX
  5
E5F
  8
CYAN
 10
48.449863364694643
 20
21.461176377208862
 30
0.0
 70
     8
  0
VERTEX
  5
E60
  8
CYAN
 10
48.46997979865526
 20
21.47311671955638
 30
0.0
 70
     8
  0
VERTEX
  5
E61
  8
CYAN
 10
48.490282016080023
 20
21.4850757865205
 30
0.0
 70
     8
  0
VERTEX
  5
E62
  8
CYAN
 10
48.510813418960559
 20
21.497092438962319
 30
0.0
 70
     8
  0
VERTEX
  5
E63
  8
CYAN
 10
48.531413913931921
 20
21.509091994667632
 30
0.0
 70
     8
  0
VERTEX
  5
E64
  8
CYAN
 10
48.551872533789968
 20
21.520971385653318
 30
0.0
 70
     8
  0
VERTEX
  5
E65
  8
CYAN
 10
48.571978311330611
 20
21.532627543936311
 30
0.0
 70
     8
  0
VERTEX
  5
E66
  8
CYAN
 10
48.591520279349709
 20
21.543957401533529
 30
0.0
 70
     8
  0
VERTEX
  5
E67
  8
CYAN
 10
48.610287470643179
 20
21.554857890461872
 30
0.0
 70
     8
  0
VERTEX
  5
E68
  8
CYAN
 10
48.628068918006889
 20
21.565225942738252
 30
0.0
 70
     8
  0
VERTEX
  5
E69
  8
CYAN
 10
48.644653654236691
 20
21.574958490379569
 30
0.0
 70
     8
  0
VERTEX
  5
E6A
  8
CYAN
 10
48.659891907271302
 20
21.583981891428198
 30
0.0
 70
     8
  0
VERTEX
  5
E6B
  8
CYAN
 10
48.67387868562065
 20
21.592340208028109
 30
0.0
 70
     8
  0
VERTEX
  5
E6C
  8
CYAN
 10
48.686770192937459
 20
21.60010692834874
 30
0.0
 70
     8
  0
VERTEX
  5
E6D
  8
CYAN
 10
48.698722632874457
 20
21.607355540559499
 30
0.0
 70
     8
  0
VERTEX
  5
E6E
  8
CYAN
 10
48.709892209084337
 20
21.614159532829831
 30
0.0
 70
     8
  0
VERTEX
  5
E6F
  8
CYAN
 10
48.720435125219851
 20
21.62059239332913
 30
0.0
 70
     8
  0
VERTEX
  5
E70
  8
CYAN
 10
48.730507584933719
 20
21.626727610226851
 30
0.0
 70
     8
  0
VERTEX
  5
E71
  8
CYAN
 10
48.740265791878663
 20
21.632638671692408
 30
0.0
 70
     8
  0
VERTEX
  5
E72
  8
CYAN
 10
48.749839318743888
 20
21.638388762723839
 30
0.0
 70
     8
  0
VERTEX
  5
E73
  8
CYAN
 10
48.759251214364632
 20
21.64399985563373
 30
0.0
 70
     8
  0
VERTEX
  5
E74
  8
CYAN
 10
48.768497896612558
 20
21.649483619563231
 30
0.0
 70
     8
  0
VERTEX
  5
E75
  8
CYAN
 10
48.777575783359381
 20
21.654851723653518
 30
0.0
 70
     8
  0
VERTEX
  5
E76
  8
CYAN
 10
48.786481292476807
 20
21.660115837045829
 30
0.0
 70
     8
  0
VERTEX
  5
E77
  8
CYAN
 10
48.795210841836528
 20
21.665287628881298
 30
0.0
 70
     8
  0
VERTEX
  5
E78
  8
CYAN
 10
48.80376084931023
 20
21.67037876830112
 30
0.0
 70
     8
  0
VERTEX
  5
E79
  8
CYAN
 10
48.812127732769611
 20
21.67540092444646
 30
0.0
 70
     8
  0
VERTEX
  5
E7A
  8
CYAN
 10
48.820309257917039
 20
21.680368308335499
 30
0.0
 70
     8
  0
VERTEX
  5
E7B
  8
CYAN
 10
48.828308581777399
 20
21.685305298494271
 30
0.0
 70
     8
  0
VERTEX
  5
E7C
  8
CYAN
 10
48.83613020920626
 20
21.690238815325749
 30
0.0
 70
     8
  0
VERTEX
  5
E7D
  8
CYAN
 10
48.84377864505921
 20
21.695195779232961
 30
0.0
 70
     8
  0
VERTEX
  5
E7E
  8
CYAN
 10
48.851258394191781
 20
21.70020311061889
 30
0.0
 70
     8
  0
VERTEX
  5
E7F
  8
CYAN
 10
48.858573961459491
 20
21.70528772988656
 30
0.0
 70
     8
  0
VERTEX
  5
E80
  8
CYAN
 10
48.865729851717951
 20
21.710476557438959
 30
0.0
 70
     8
  0
VERTEX
  5
E81
  8
CYAN
 10
48.872730569822743
 20
21.715796513679098
 30
0.0
 70
     8
  0
VERTEX
  5
E82
  8
CYAN
 10
48.879579716032353
 20
21.721263600685461
 30
0.0
 70
     8
  0
VERTEX
  5
E83
  8
CYAN
 10
48.886277272217242
 20
21.726850147238441
 30
0.0
 70
     8
  0
VERTEX
  5
E84
  8
CYAN
 10
48.892822315650861
 20
21.732517563793909
 30
0.0
 70
     8
  0
VERTEX
  5
E85
  8
CYAN
 10
48.899213923606617
 20
21.738227260807751
 30
0.0
 70
     8
  0
VERTEX
  5
E86
  8
CYAN
 10
48.905451173357967
 20
21.743940648735851
 30
0.0
 70
     8
  0
VERTEX
  5
E87
  8
CYAN
 10
48.911533142178307
 20
21.749619138034092
 30
0.0
 70
     8
  0
VERTEX
  5
E88
  8
CYAN
 10
48.9174589073411
 20
21.755224139158329
 30
0.0
 70
     8
  0
VERTEX
  5
E89
  8
CYAN
 10
48.923227546119783
 20
21.760717062564449
 30
0.0
 70
     8
  0
VERTEX
  5
E8A
  8
CYAN
 10
48.928831857984441
 20
21.766065904087771
 30
0.0
 70
     8
  0
VERTEX
  5
E8B
  8
CYAN
 10
48.934239531192112
 20
21.771265001081272
 30
0.0
 70
     8
  0
VERTEX
  5
E8C
  8
CYAN
 10
48.939411976196439
 20
21.77631527627738
 30
0.0
 70
     8
  0
VERTEX
  5
E8D
  8
CYAN
 10
48.944310603451157
 20
21.781217652408522
 30
0.0
 70
     8
  0
VERTEX
  5
E8E
  8
CYAN
 10
48.94889682340991
 20
21.785973052207119
 30
0.0
 70
     8
  0
VERTEX
  5
E8F
  8
CYAN
 10
48.95313204652642
 20
21.79058239840559
 30
0.0
 70
     8
  0
VERTEX
  5
E90
  8
CYAN
 10
48.956977683254358
 20
21.795046613736371
 30
0.0
 70
     8
  0
VERTEX
  5
E91
  8
CYAN
 10
48.960395144047418
 20
21.79936662093187
 30
0.0
 70
     8
  0
VERTEX
  5
E92
  8
CYAN
 10
48.963360050375002
 20
21.80354557702579
 30
0.0
 70
     8
  0
VERTEX
  5
E93
  8
CYAN
 10
48.965904867769353
 20
21.807595576256951
 30
0.0
 70
     8
  0
VERTEX
  5
E94
  8
CYAN
 10
48.96807627277839
 20
21.811530947165469
 30
0.0
 70
     8
  0
VERTEX
  5
E95
  8
CYAN
 10
48.969920941950043
 20
21.815366018291439
 30
0.0
 70
     8
  0
VERTEX
  5
E96
  8
CYAN
 10
48.971485551832281
 20
21.81911511817497
 30
0.0
 70
     8
  0
VERTEX
  5
E97
  8
CYAN
 10
48.972816778973041
 20
21.82279257535615
 30
0.0
 70
     8
  0
VERTEX
  5
E98
  8
CYAN
 10
48.973961299920248
 20
21.826412718375089
 30
0.0
 70
     8
  0
VERTEX
  5
E99
  8
CYAN
 10
48.974965791221898
 20
21.829989875771918
 30
0.0
 70
     8
  0
VERTEX
  5
E9A
  8
CYAN
 10
48.97587319350216
 20
21.833543613632891
 30
0.0
 70
     8
  0
VERTEX
  5
E9B
  8
CYAN
 10
48.97671150369063
 20
21.83711444822924
 30
0.0
 70
     8
  0
VERTEX
  5
E9C
  8
CYAN
 10
48.977504982793178
 20
21.84074813337832
 30
0.0
 70
     8
  0
VERTEX
  5
E9D
  8
CYAN
 10
48.978277891815637
 20
21.844490422897518
 30
0.0
 70
     8
  0
VERTEX
  5
E9E
  8
CYAN
 10
48.97905449176389
 20
21.848387070604211
 30
0.0
 70
     8
  0
VERTEX
  5
E9F
  8
CYAN
 10
48.979859043643749
 20
21.852483830315819
 30
0.0
 70
     8
  0
VERTEX
  5
EA0
  8
CYAN
 10
48.980715808461142
 20
21.856826455849681
 30
0.0
 70
     8
  0
VERTEX
  5
EA1
  8
CYAN
 10
48.981649047221858
 20
21.86146070102323
 30
0.0
 70
     8
  0
VERTEX
  5
EA2
  8
CYAN
 10
48.982674336907323
 20
21.86641901323755
 30
0.0
 70
     8
  0
VERTEX
  5
EA3
  8
CYAN
 10
48.98377251840089
 20
21.87168061422873
 30
0.0
 70
     8
  0
VERTEX
  5
EA4
  8
CYAN
 10
48.984915748561441
 20
21.877211419316609
 30
0.0
 70
     8
  0
VERTEX
  5
EA5
  8
CYAN
 10
48.986076184247892
 20
21.882977343821
 30
0.0
 70
     8
  0
VERTEX
  5
EA6
  8
CYAN
 10
48.987225982319082
 20
21.888944303061731
 30
0.0
 70
     8
  0
VERTEX
  5
EA7
  8
CYAN
 10
48.988337299633933
 20
21.895078212358609
 30
0.0
 70
     8
  0
VERTEX
  5
EA8
  8
CYAN
 10
48.989382293051321
 20
21.901344987031489
 30
0.0
 70
     8
  0
VERTEX
  5
EA9
  8
CYAN
 10
48.990333119430112
 20
21.90771054240016
 30
0.0
 70
     8
  0
VERTEX
  5
EAA
  8
CYAN
 10
48.991163880485431
 20
21.914141390807
 30
0.0
 70
     8
  0
VERTEX
  5
EAB
  8
CYAN
 10
48.991856457357159
 20
21.920606432684512
 30
0.0
 70
     8
  0
VERTEX
  5
EAC
  8
CYAN
 10
48.992394676041393
 20
21.927075165487729
 30
0.0
 70
     8
  0
VERTEX
  5
EAD
  8
CYAN
 10
48.992762362534243
 20
21.933517086671738
 30
0.0
 70
     8
  0
VERTEX
  5
EAE
  8
CYAN
 10
48.992943342831801
 20
21.939901693691581
 30
0.0
 70
     8
  0
VERTEX
  5
EAF
  8
CYAN
 10
48.992921442930182
 20
21.946198484002291
 30
0.0
 70
     8
  0
VERTEX
  5
EB0
  8
CYAN
 10
48.992680488825471
 20
21.952376955058909
 30
0.0
 70
     8
  0
VERTEX
  5
EB1
  8
CYAN
 10
48.992204306513791
 20
21.958406604316512
 30
0.0
 70
     8
  0
VERTEX
  5
EB2
  8
CYAN
 10
48.99147329364456
 20
21.964275029958479
 30
0.0
 70
     8
  0
VERTEX
  5
EB3
  8
CYAN
 10
48.990454134480458
 20
21.970042233081688
 30
0.0
 70
     8
  0
VERTEX
  5
EB4
  8
CYAN
 10
48.989110084937572
 20
21.975786315511339
 30
0.0
 70
     8
  0
VERTEX
  5
EB5
  8
CYAN
 10
48.987404400931901
 20
21.981585379072641
 30
0.0
 70
     8
  0
VERTEX
  5
EB6
  8
CYAN
 10
48.985300338379488
 20
21.98751752559081
 30
0.0
 70
     8
  0
VERTEX
  5
EB7
  8
CYAN
 10
48.98276115319635
 20
21.993660856891051
 30
0.0
 70
     8
  0
VERTEX
  5
EB8
  8
CYAN
 10
48.979750101298563
 20
22.000093474798579
 30
0.0
 70
     8
  0
VERTEX
  5
EB9
  8
CYAN
 10
48.976230438602101
 20
22.006893481138611
 30
0.0
 70
     8
  0
VERTEX
  5
EBA
  8
CYAN
 10
48.972186642521081
 20
22.014111442172211
 30
0.0
 70
     8
  0
VERTEX
  5
EBB
  8
CYAN
 10
48.967688076461577
 20
22.021687781903829
 30
0.0
 70
     8
  0
VERTEX
  5
EBC
  8
CYAN
 10
48.962825325327778
 20
22.029535388773709
 30
0.0
 70
     8
  0
VERTEX
  5
EBD
  8
CYAN
 10
48.957688974023817
 20
22.037567151222209
 30
0.0
 70
     8
  0
VERTEX
  5
EBE
  8
CYAN
 10
48.952369607453818
 20
22.045695957689581
 30
0.0
 70
     8
  0
VERTEX
  5
EBF
  8
CYAN
 10
48.946957810521987
 20
22.053834696616121
 30
0.0
 70
     8
  0
VERTEX
  5
EC0
  8
CYAN
 10
48.941544168132431
 20
22.061896256442129
 30
0.0
 70
     8
  0
VERTEX
  5
EC1
  8
CYAN
 10
48.936219265189322
 20
22.069793525607889
 30
0.0
 70
     8
  0
VERTEX
  5
EC2
  8
CYAN
 10
48.931052311310502
 20
22.077460496526189
 30
0.0
 70
     8
  0
VERTEX
  5
EC3
  8
CYAN
 10
48.926027014968817
 20
22.0849155774998
 30
0.0
 70
     8
  0
VERTEX
  5
EC4
  8
CYAN
 10
48.921105709350812
 20
22.092198280803981
 30
0.0
 70
     8
  0
VERTEX
  5
EC5
  8
CYAN
 10
48.916250727642982
 20
22.099348118713991
 30
0.0
 70
     8
  0
VERTEX
  5
EC6
  8
CYAN
 10
48.911424403031937
 20
22.106404603505091
 30
0.0
 70
     8
  0
VERTEX
  5
EC7
  8
CYAN
 10
48.90658906870415
 20
22.113407247452528
 30
0.0
 70
     8
  0
VERTEX
  5
EC8
  8
CYAN
 10
48.901707057846181
 20
22.1203955628316
 30
0.0
 70
     8
  0
VERTEX
  5
EC9
  8
CYAN
 10
48.896740703644582
 20
22.127409061917529
 30
0.0
 70
     8
  0
VERTEX
  5
ECA
  8
CYAN
 10
48.891661755989013
 20
22.134477378917229
 30
0.0
 70
     8
  0
VERTEX
  5
ECB
  8
CYAN
 10
48.886479631581672
 20
22.14159063576404
 30
0.0
 70
     8
  0
VERTEX
  5
ECC
  8
CYAN
 10
48.881213163827852
 20
22.14872907632299
 30
0.0
 70
     8
  0
VERTEX
  5
ECD
  8
CYAN
 10
48.875881186132879
 20
22.15587294445908
 30
0.0
 70
     8
  0
VERTEX
  5
ECE
  8
CYAN
 10
48.870502531902062
 20
22.16300248403731
 30
0.0
 70
     8
  0
VERTEX
  5
ECF
  8
CYAN
 10
48.865096034540741
 20
22.17009793892267
 30
0.0
 70
     8
  0
VERTEX
  5
ED0
  8
CYAN
 10
48.859680527454223
 20
22.177139552980169
 30
0.0
 70
     8
  0
VERTEX
  5
ED1
  8
CYAN
 10
48.854274844047787
 20
22.184107570074811
 30
0.0
 70
     8
  0
VERTEX
  5
ED2
  8
CYAN
 10
48.848901553652098
 20
22.190976996530559
 30
0.0
 70
     8
  0
VERTEX
  5
ED3
  8
CYAN
 10
48.843598169299042
 20
22.197701888507229
 30
0.0
 70
     8
  0
VERTEX
  5
ED4
  8
CYAN
 10
48.838405939945787
 20
22.204231064623659
 30
0.0
 70
     8
  0
VERTEX
  5
ED5
  8
CYAN
 10
48.833366114549499
 20
22.210513343498612
 30
0.0
 70
     8
  0
VERTEX
  5
ED6
  8
CYAN
 10
48.828519942067402
 20
22.216497543750918
 30
0.0
 70
     8
  0
VERTEX
  5
ED7
  8
CYAN
 10
48.823908671456678
 20
22.222132483999339
 30
0.0
 70
     8
  0
VERTEX
  5
ED8
  8
CYAN
 10
48.819573551674488
 20
22.227366982862701
 30
0.0
 70
     8
  0
VERTEX
  5
ED9
  8
CYAN
 10
48.815555831678019
 20
22.232149858959801
 30
0.0
 70
     8
  0
VERTEX
  5
EDA
  8
CYAN
 10
48.811879274846362
 20
22.23645222891108
 30
0.0
 70
     8
  0
VERTEX
  5
EDB
  8
CYAN
 10
48.808497702245859
 20
22.24033440134367
 30
0.0
 70
     8
  0
VERTEX
  5
EDC
  8
CYAN
 10
48.805347449364831
 20
22.243878982886319
 30
0.0
 70
     8
  0
VERTEX
  5
EDD
  8
CYAN
 10
48.8023648516915
 20
22.247168580167809
 30
0.0
 70
     8
  0
VERTEX
  5
EDE
  8
CYAN
 10
48.799486244714167
 20
22.250285799816918
 30
0.0
 70
     8
  0
VERTEX
  5
EDF
  8
CYAN
 10
48.79664796392106
 20
22.25331324846238
 30
0.0
 70
     8
  0
VERTEX
  5
EE0
  8
CYAN
 10
48.79378634480048
 20
22.256333532733009
 30
0.0
 70
     8
  0
VERTEX
  5
EE1
  8
CYAN
 10
48.790837722840649
 20
22.259429259257551
 30
0.0
 70
     8
  0
VERTEX
  5
EE2
  8
CYAN
 10
48.787745154571603
 20
22.262668072852719
 30
0.0
 70
     8
  0
VERTEX
  5
EE3
  8
CYAN
 10
48.784478580690177
 20
22.26605777108696
 30
0.0
 70
     8
  0
VERTEX
  5
EE4
  8
CYAN
 10
48.781014662935057
 20
22.269591189716671
 30
0.0
 70
     8
  0
VERTEX
  5
EE5
  8
CYAN
 10
48.77733006304485
 20
22.273261164498241
 30
0.0
 70
     8
  0
VERTEX
  5
EE6
  8
CYAN
 10
48.773401442758143
 20
22.277060531188059
 30
0.0
 70
     8
  0
VERTEX
  5
EE7
  8
CYAN
 10
48.769205463813563
 20
22.280982125542518
 30
0.0
 70
     8
  0
VERTEX
  5
EE8
  8
CYAN
 10
48.764718787949761
 20
22.28501878331803
 30
0.0
 70
     8
  0
VERTEX
  5
EE9
  8
CYAN
 10
48.75991807690535
 20
22.28916334027096
 30
0.0
 70
     8
  0
VERTEX
  5
EEA
  8
CYAN
 10
48.754791353976223
 20
22.29339935110681
 30
0.0
 70
     8
  0
VERTEX
  5
EEB
  8
CYAN
 10
48.749372088687359
 20
22.297673246327481
 30
0.0
 70
     8
  0
VERTEX
  5
EEC
  8
CYAN
 10
48.74370511212102
 20
22.301922175384028
 30
0.0
 70
     8
  0
VERTEX
  5
EED
  8
CYAN
 10
48.737835255359521
 20
22.306083287727429
 30
0.0
 70
     8
  0
VERTEX
  5
EEE
  8
CYAN
 10
48.731807349485088
 20
22.310093732808699
 30
0.0
 70
     8
  0
VERTEX
  5
EEF
  8
CYAN
 10
48.725666225579999
 20
22.313890660078869
 30
0.0
 70
     8
  0
VERTEX
  5
EF0
  8
CYAN
 10
48.719456714726512
 20
22.317411218988951
 30
0.0
 70
     8
  0
VERTEX
  5
EF1
  8
CYAN
 10
48.713223648006903
 20
22.320592558989961
 30
0.0
 70
     8
  0
VERTEX
  5
EF2
  8
CYAN
 10
48.707004384656038
 20
22.323382304623902
 30
0.0
 70
     8
  0
VERTEX
  5
EF3
  8
CYAN
 10
48.700806396519219
 20
22.325769980796771
 30
0.0
 70
     8
  0
VERTEX
  5
EF4
  8
CYAN
 10
48.694629683594322
 20
22.327755587505528
 30
0.0
 70
     8
  0
VERTEX
  5
EF5
  8
CYAN
 10
48.688474245879199
 20
22.32933912474715
 30
0.0
 70
     8
  0
VERTEX
  5
EF6
  8
CYAN
 10
48.682340083371813
 20
22.330520592518621
 30
0.0
 70
     8
  0
VERTEX
  5
EF7
  8
CYAN
 10
48.676227196070002
 20
22.331299990816909
 30
0.0
 70
     8
  0
VERTEX
  5
EF8
  8
CYAN
 10
48.670135583971643
 20
22.331677319638992
 30
0.0
 70
     8
  0
VERTEX
  5
EF9
  8
CYAN
 10
48.664065247074689
 20
22.331652578981839
 30
0.0
 70
     8
  0
VERTEX
  5
EFA
  8
CYAN
 10
48.658000780318218
 20
22.331227424254319
 30
0.0
 70
     8
  0
VERTEX
  5
EFB
  8
CYAN
 10
48.651865158406324
 20
22.330410132512931
 30
0.0
 70
     8
  0
VERTEX
  5
EFC
  8
CYAN
 10
48.645565950984377
 20
22.32921063622598
 30
0.0
 70
     8
  0
VERTEX
  5
EFD
  8
CYAN
 10
48.639010727697688
 20
22.32763886786184
 30
0.0
 70
     8
  0
VERTEX
  5
EFE
  8
CYAN
 10
48.6321070581916
 20
22.325704759888868
 30
0.0
 70
     8
  0
VERTEX
  5
EFF
  8
CYAN
 10
48.624762512111452
 20
22.323418244775429
 30
0.0
 70
     8
  0
VERTEX
  5
F00
  8
CYAN
 10
48.616884659102567
 20
22.32078925498989
 30
0.0
 70
     8
  0
VERTEX
  5
F01
  8
CYAN
 10
48.608381068810282
 20
22.317827723000569
 30
0.0
 70
     8
  0
VERTEX
  5
F02
  8
CYAN
 10
48.599179799694653
 20
22.31453923019658
 30
0.0
 70
     8
  0
VERTEX
  5
F03
  8
CYAN
 10
48.589290865474702
 20
22.310911953649931
 30
0.0
 70
     8
  0
VERTEX
  5
F04
  8
CYAN
 10
48.578744768684068
 20
22.306929719353359
 30
0.0
 70
     8
  0
VERTEX
  5
F05
  8
CYAN
 10
48.567572011856463
 20
22.30257635329961
 30
0.0
 70
     8
  0
VERTEX
  5
F06
  8
CYAN
 10
48.555803097525569
 20
22.297835681481398
 30
0.0
 70
     8
  0
VERTEX
  5
F07
  8
CYAN
 10
48.543468528225091
 20
22.292691529891481
 30
0.0
 70
     8
  0
VERTEX
  5
F08
  8
CYAN
 10
48.530598806488719
 20
22.28712772452262
 30
0.0
 70
     8
  0
VERTEX
  5
F09
  8
CYAN
 10
48.517224434850171
 20
22.28112809136752
 30
0.0
 70
     8
  0
VERTEX
  5
F0A
  8
CYAN
 10
48.503410633811789
 20
22.27470201086393
 30
0.0
 70
     8
  0
VERTEX
  5
F0B
  8
CYAN
 10
48.489361495750813
 20
22.267961081229551
 30
0.0
 70
     8
  0
VERTEX
  5
F0C
  8
CYAN
 10
48.47531583101307
 20
22.261042455127061
 30
0.0
 70
     8
  0
VERTEX
  5
F0D
  8
CYAN
 10
48.461512449944458
 20
22.254083285219171
 30
0.0
 70
     8
  0
VERTEX
  5
F0E
  8
CYAN
 10
48.448190162890889
 20
22.247220724168589
 30
0.0
 70
     8
  0
VERTEX
  5
F0F
  8
CYAN
 10
48.43558778019819
 20
22.240591924637961
 30
0.0
 70
     8
  0
VERTEX
  5
F10
  8
CYAN
 10
48.423944112212283
 20
22.234334039290029
 30
0.0
 70
     8
  0
VERTEX
  5
F11
  8
CYAN
 10
48.413497969279
 20
22.228584220787472
 30
0.0
 70
     8
  0
VERTEX
  5
F12
  8
CYAN
 10
48.404408558296232
 20
22.223433904238881
 30
0.0
 70
     8
  0
VERTEX
  5
F13
  8
CYAN
 10
48.396516672369479
 20
22.21879165453657
 30
0.0
 70
     8
  0
VERTEX
  5
F14
  8
CYAN
 10
48.389583501156253
 20
22.21452031901876
 30
0.0
 70
     8
  0
VERTEX
  5
F15
  8
CYAN
 10
48.3833702343141
 20
22.210482745023651
 30
0.0
 70
     8
  0
VERTEX
  5
F16
  8
CYAN
 10
48.377638061500498
 20
22.206541779889449
 30
0.0
 70
     8
  0
VERTEX
  5
F17
  8
CYAN
 10
48.372148172372931
 20
22.202560270954411
 30
0.0
 70
     8
  0
VERTEX
  5
F18
  8
CYAN
 10
48.366661756588911
 20
22.198401065556691
 30
0.0
 70
     8
  0
VERTEX
  5
F19
  8
CYAN
 10
48.360940003805972
 20
22.193927011034528
 30
0.0
 70
     8
  0
VERTEX
  5
F1A
  8
CYAN
 10
48.354786601072703
 20
22.18902889726068
 30
0.0
 70
     8
  0
VERTEX
  5
F1B
  8
CYAN
 10
48.348175225002358
 20
22.183709284245879
 30
0.0
 70
     8
  0
VERTEX
  5
F1C
  8
CYAN
 10
48.341122049599363
 20
22.177998674535431
 30
0.0
 70
     8
  0
VERTEX
  5
F1D
  8
CYAN
 10
48.333643248868043
 20
22.17192757067464
 30
0.0
 70
     8
  0
VERTEX
  5
F1E
  8
CYAN
 10
48.325754996812783
 20
22.165526475208761
 30
0.0
 70
     8
  0
VERTEX
  5
F1F
  8
CYAN
 10
48.317473467437971
 20
22.158825890683129
 30
0.0
 70
     8
  0
VERTEX
  5
F20
  8
CYAN
 10
48.30881483474797
 20
22.151856319643009
 30
0.0
 70
     8
  0
VERTEX
  5
F21
  8
CYAN
 10
48.299795272747197
 20
22.144648264633691
 30
0.0
 70
     8
  0
VERTEX
  5
F22
  8
CYAN
 10
48.290433343530033
 20
22.137224448775552
 30
0.0
 70
     8
  0
VERTEX
  5
F23
  8
CYAN
 10
48.280757161551072
 20
22.129576477489248
 30
0.0
 70
     8
  0
VERTEX
  5
F24
  8
CYAN
 10
48.270797229354933
 20
22.12168817677059
 30
0.0
 70
     8
  0
VERTEX
  5
F25
  8
CYAN
 10
48.260584049486212
 20
22.11354337261529
 30
0.0
 70
     8
  0
VERTEX
  5
F26
  8
CYAN
 10
48.250148124489598
 20
22.105125891019132
 30
0.0
 70
     8
  0
VERTEX
  5
F27
  8
CYAN
 10
48.239519956909653
 20
22.09641955797785
 30
0.0
 70
     8
  0
VERTEX
  5
F28
  8
CYAN
 10
48.228730049291009
 20
22.087408199487228
 30
0.0
 70
     8
  0
VERTEX
  5
F29
  8
CYAN
 10
48.217808904178312
 20
22.078075641542998
 30
0.0
 70
     8
  0
VERTEX
  5
F2A
  8
CYAN
 10
48.206791972216998
 20
22.06842425410348
 30
0.0
 70
     8
  0
VERTEX
  5
F2B
  8
CYAN
 10
48.195734496455877
 20
22.058530582977021
 30
0.0
 70
     8
  0
VERTEX
  5
F2C
  8
CYAN
 10
48.184696668044573
 20
22.048489717934451
 30
0.0
 70
     8
  0
VERTEX
  5
F2D
  8
CYAN
 10
48.173738678132722
 20
22.038396748746681
 30
0.0
 70
     8
  0
VERTEX
  5
F2E
  8
CYAN
 10
48.162920717870001
 20
22.028346765184612
 30
0.0
 70
     8
  0
VERTEX
  5
F2F
  8
CYAN
 10
48.152302978405977
 20
22.018434857019098
 30
0.0
 70
     8
  0
VERTEX
  5
F30
  8
CYAN
 10
48.141945650890321
 20
22.008756114021001
 30
0.0
 70
     8
  0
VERTEX
  5
F31
  8
CYAN
 10
48.131908926472683
 20
21.999405625961248
 30
0.0
 70
     8
  0
VERTEX
  5
F32
  8
CYAN
 10
48.122230544495572
 20
21.990454565444821
 30
0.0
 70
     8
  0
VERTEX
  5
F33
  8
CYAN
 10
48.112858437072958
 20
21.981878436413361
 30
0.0
 70
     8
  0
VERTEX
  5
F34
  8
CYAN
 10
48.10371808451179
 20
21.97362882564267
 30
0.0
 70
     8
  0
VERTEX
  5
F35
  8
CYAN
 10
48.09473496711896
 20
21.965657319908509
 30
0.0
 70
     8
  0
VERTEX
  5
F36
  8
CYAN
 10
48.085834565201331
 20
21.957915505986659
 30
0.0
 70
     8
  0
VERTEX
  5
F37
  8
CYAN
 10
48.076942359065811
 20
21.950354970652921
 30
0.0
 70
     8
  0
VERTEX
  5
F38
  8
CYAN
 10
48.067983829019298
 20
21.942927300683088
 30
0.0
 70
     8
  0
VERTEX
  5
F39
  8
CYAN
 10
48.05888445536867
 20
21.93558408285293
 30
0.0
 70
     8
  0
VERTEX
  5
F3A
  8
CYAN
 10
48.049583332415288
 20
21.928281083097009
 30
0.0
 70
     8
  0
VERTEX
  5
F3B
  8
CYAN
 10
48.040074010438261
 20
21.920990783985189
 30
0.0
 70
     8
  0
VERTEX
  5
F3C
  8
CYAN
 10
48.030363653711092
 20
21.91368984724609
 30
0.0
 70
     8
  0
VERTEX
  5
F3D
  8
CYAN
 10
48.020459426507422
 20
21.906354934608341
 30
0.0
 70
     8
  0
VERTEX
  5
F3E
  8
CYAN
 10
48.010368493100778
 20
21.898962707800571
 30
0.0
 70
     8
  0
VERTEX
  5
F3F
  8
CYAN
 10
48.000098017764678
 20
21.891489828551421
 30
0.0
 70
     8
  0
VERTEX
  5
F40
  8
CYAN
 10
47.989655164772721
 20
21.88391295858953
 30
0.0
 70
     8
  0
VERTEX
  5
F41
  8
CYAN
 10
47.979047098398418
 20
21.876208759643522
 30
0.0
 70
     8
  0
VERTEX
  5
F42
  8
CYAN
 10
47.968287568294677
 20
21.868360171244088
 30
0.0
 70
     8
  0
VERTEX
  5
F43
  8
CYAN
 10
47.957416665631662
 20
21.8603752441302
 30
0.0
 70
     8
  0
VERTEX
  5
F44
  8
CYAN
 10
47.946481066958782
 20
21.852268306842841
 30
0.0
 70
     8
  0
VERTEX
  5
F45
  8
CYAN
 10
47.935527448825532
 20
21.844053687923051
 30
0.0
 70
     8
  0
VERTEX
  5
F46
  8
CYAN
 10
47.924602487781321
 20
21.83574571591182
 30
0.0
 70
     8
  0
VERTEX
  5
F47
  8
CYAN
 10
47.913752860375681
 20
21.82735871935018
 30
0.0
 70
     8
  0
VERTEX
  5
F48
  8
CYAN
 10
47.903025243158019
 20
21.818907026779151
 30
0.0
 70
     8
  0
VERTEX
  5
F49
  8
CYAN
 10
47.892466312677819
 20
21.810404966739711
 30
0.0
 70
     8
  0
VERTEX
  5
F4A
  8
CYAN
 10
47.882107186635018
 20
21.80186209159282
 30
0.0
 70
     8
  0
VERTEX
  5
F4B
  8
CYAN
 10
47.871916747331532
 20
21.793268848979029
 30
0.0
 70
     8
  0
VERTEX
  5
F4C
  8
CYAN
 10
47.861848318219792
 20
21.784610910358801
 30
0.0
 70
     8
  0
VERTEX
  5
F4D
  8
CYAN
 10
47.851855222752192
 20
21.775873947192611
 30
0.0
 70
     8
  0
VERTEX
  5
F4E
  8
CYAN
 10
47.841890784381128
 20
21.76704363094095
 30
0.0
 70
     8
  0
VERTEX
  5
F4F
  8
CYAN
 10
47.831908326559031
 20
21.758105633064272
 30
0.0
 70
     8
  0
VERTEX
  5
F50
  8
CYAN
 10
47.821861172738302
 20
21.749045625023051
 30
0.0
 70
     8
  0
VERTEX
  5
F51
  8
CYAN
 10
47.811702646371323
 20
21.739849278277759
 30
0.0
 70
     8
  0
VERTEX
  5
F52
  8
CYAN
 10
47.801402380570067
 20
21.73051152720301
 30
0.0
 70
     8
  0
VERTEX
  5
F53
  8
CYAN
 10
47.790995247084751
 20
21.721064357829999
 30
0.0
 70
     8
  0
VERTEX
  5
F54
  8
CYAN
 10
47.780532427325063
 20
21.71154901910403
 30
0.0
 70
     8
  0
VERTEX
  5
F55
  8
CYAN
 10
47.770065102700762
 20
21.70200675997043
 30
0.0
 70
     8
  0
VERTEX
  5
F56
  8
CYAN
 10
47.759644454621572
 20
21.692478829374529
 30
0.0
 70
     8
  0
VERTEX
  5
F57
  8
CYAN
 10
47.749321664497216
 20
21.683006476261639
 30
0.0
 70
     8
  0
VERTEX
  5
F58
  8
CYAN
 10
47.739147913737433
 20
21.673630949577088
 30
0.0
 70
     8
  0
VERTEX
  5
F59
  8
CYAN
 10
47.729174383751968
 20
21.664393498266211
 30
0.0
 70
     8
  0
VERTEX
  5
F5A
  8
CYAN
 10
47.719439836003581
 20
21.6553273024054
 30
0.0
 70
     8
  0
VERTEX
  5
F5B
  8
CYAN
 10
47.709933352167248
 20
21.64643326659537
 30
0.0
 70
     8
  0
VERTEX
  5
F5C
  8
CYAN
 10
47.700631593970968
 20
21.63770422656793
 30
0.0
 70
     8
  0
VERTEX
  5
F5D
  8
CYAN
 10
47.691511223142768
 20
21.62913301805489
 30
0.0
 70
     8
  0
VERTEX
  5
F5E
  8
CYAN
 10
47.682548901410627
 20
21.620712476788039
 30
0.0
 70
     8
  0
VERTEX
  5
F5F
  8
CYAN
 10
47.67372129050257
 20
21.612435438499201
 30
0.0
 70
     8
  0
VERTEX
  5
F60
  8
CYAN
 10
47.665005052146597
 20
21.604294738920139
 30
0.0
 70
     8
  0
VERTEX
  5
F61
  8
CYAN
 10
47.656376848070742
 20
21.59628321378268
 30
0.0
 70
     8
  0
VERTEX
  5
F62
  8
CYAN
 10
47.647820522405503
 20
21.588398031765159
 30
0.0
 70
     8
  0
VERTEX
  5
F63
  8
CYAN
 10
47.639348648891719
 20
21.580653693331929
 30
0.0
 70
     8
  0
VERTEX
  5
F64
  8
CYAN
 10
47.630980983672707
 20
21.573069031893919
 30
0.0
 70
     8
  0
VERTEX
  5
F65
  8
CYAN
 10
47.622737282891791
 20
21.565662880862011
 30
0.0
 70
     8
  0
VERTEX
  5
F66
  8
CYAN
 10
47.614637302692287
 20
21.558454073647098
 30
0.0
 70
     8
  0
VERTEX
  5
F67
  8
CYAN
 10
47.606700799217577
 20
21.551461443660092
 30
0.0
 70
     8
  0
VERTEX
  5
F68
  8
CYAN
 10
47.598947528610957
 20
21.544703824311881
 30
0.0
 70
     8
  0
VERTEX
  5
F69
  8
CYAN
 10
47.591397247015749
 20
21.53820004901338
 30
0.0
 70
     8
  0
VERTEX
  5
F6A
  8
CYAN
 10
47.584048009577629
 20
21.531949520743499
 30
0.0
 70
     8
  0
VERTEX
  5
F6B
  8
CYAN
 10
47.576811067451587
 20
21.525873920753291
 30
0.0
 70
     8
  0
VERTEX
  5
F6C
  8
CYAN
 10
47.569575970794887
 20
21.51987549986174
 30
0.0
 70
     8
  0
VERTEX
  5
F6D
  8
CYAN
 10
47.562232269764891
 20
21.513856508887962
 30
0.0
 70
     8
  0
VERTEX
  5
F6E
  8
CYAN
 10
47.554669514518842
 20
21.50771919865095
 30
0.0
 70
     8
  0
VERTEX
  5
F6F
  8
CYAN
 10
47.546777255214067
 20
21.501365819969791
 30
0.0
 70
     8
  0
VERTEX
  5
F70
  8
CYAN
 10
47.538445042007858
 20
21.49469862366351
 30
0.0
 70
     8
  0
VERTEX
  5
F71
  8
CYAN
 10
47.529562425057527
 20
21.487619860551149
 30
0.0
 70
     8
  0
VERTEX
  5
F72
  8
CYAN
 10
47.520037806063527
 20
21.480039696536132
 30
0.0
 70
     8
  0
VERTEX
  5
F73
  8
CYAN
 10
47.509854992898809
 20
21.471899957859328
 30
0.0
 70
     8
  0
VERTEX
  5
F74
  8
CYAN
 10
47.499016644979449
 20
21.463150385845971
 30
0.0
 70
     8
  0
VERTEX
  5
F75
  8
CYAN
 10
47.487525421721607
 20
21.453740721821269
 30
0.0
 70
     8
  0
VERTEX
  5
F76
  8
CYAN
 10
47.475383982541331
 20
21.44362070711049
 30
0.0
 70
     8
  0
VERTEX
  5
F77
  8
CYAN
 10
47.462594986854739
 20
21.432740083038851
 30
0.0
 70
     8
  0
VERTEX
  5
F78
  8
CYAN
 10
47.44916109407793
 20
21.421048590931569
 30
0.0
 70
     8
  0
VERTEX
  5
F79
  8
CYAN
 10
47.435084963627027
 20
21.408495972113919
 30
0.0
 70
     8
  0
VERTEX
  5
F7A
  8
CYAN
 10
47.420407129914352
 20
21.395081900884009
 30
0.0
 70
     8
  0
VERTEX
  5
F7B
  8
CYAN
 10
47.405319627337327
 20
21.381005783431728
 30
0.0
 70
     8
  0
VERTEX
  5
F7C
  8
CYAN
 10
47.390052365289527
 20
21.36651695891986
 30
0.0
 70
     8
  0
VERTEX
  5
F7D
  8
CYAN
 10
47.374835253164647
 20
21.35186476651117
 30
0.0
 70
     8
  0
VERTEX
  5
F7E
  8
CYAN
 10
47.359898200356263
 20
21.337298545368451
 30
0.0
 70
     8
  0
VERTEX
  5
F7F
  8
CYAN
 10
47.345471116258011
 20
21.3230676346545
 30
0.0
 70
     8
  0
VERTEX
  5
F80
  8
CYAN
 10
47.331783910263539
 20
21.309421373532079
 30
0.0
 70
     8
  0
VERTEX
  5
F81
  8
CYAN
 10
47.319066491766471
 20
21.296609101163991
 30
0.0
 70
     8
  0
VERTEX
  5
F82
  8
CYAN
 10
47.307491292811349
 20
21.284817821921649
 30
0.0
 70
     8
  0
VERTEX
  5
F83
  8
CYAN
 10
47.297000836046251
 20
21.273985201011062
 30
0.0
 70
     8
  0
VERTEX
  5
F84
  8
CYAN
 10
47.287480166770209
 20
21.263986568846899
 30
0.0
 70
     8
  0
VERTEX
  5
F85
  8
CYAN
 10
47.278814330282152
 20
21.254697255843801
 30
0.0
 70
     8
  0
VERTEX
  5
F86
  8
CYAN
 10
47.270888371881142
 20
21.245992592416439
 30
0.0
 70
     8
  0
VERTEX
  5
F87
  8
CYAN
 10
47.263587336866131
 20
21.237747908979468
 30
0.0
 70
     8
  0
VERTEX
  5
F88
  8
CYAN
 10
47.256796270536121
 20
21.22983853594754
 30
0.0
 70
     8
  0
VERTEX
  5
F89
  8
CYAN
 10
47.250400218190137
 20
21.222139803735299
 30
0.0
 70
     8
  0
VERTEX
  5
F8A
  8
CYAN
 10
47.244280778649163
 20
21.214517472265609
 30
0.0
 70
     8
  0
VERTEX
  5
F8B
  8
CYAN
 10
47.238305764822492
 20
21.206799019494039
 30
0.0
 70
     8
  0
VERTEX
  5
F8C
  8
CYAN
 10
47.2323395431413
 20
21.198802352884371
 30
0.0
 70
     8
  0
VERTEX
  5
F8D
  8
CYAN
 10
47.226246480036927
 20
21.190345379900371
 30
0.0
 70
     8
  0
VERTEX
  5
F8E
  8
CYAN
 10
47.219890941940591
 20
21.181246008005811
 30
0.0
 70
     8
  0
VERTEX
  5
F8F
  8
CYAN
 10
47.213137295283573
 20
21.171322144664469
 30
0.0
 70
     8
  0
VERTEX
  5
F90
  8
CYAN
 10
47.205849906497107
 20
21.160391697340089
 30
0.0
 70
     8
  0
VERTEX
  5
F91
  8
CYAN
 10
47.197893142012489
 20
21.148272573496492
 30
0.0
 70
     8
  0
VERTEX
  5
F92
  8
CYAN
 10
47.189181373762914
 20
21.13485549048098
 30
0.0
 70
     8
  0
VERTEX
  5
F93
  8
CYAN
 10
47.17982899568927
 20
21.120322405175209
 30
0.0
 70
     8
  0
VERTEX
  5
F94
  8
CYAN
 10
47.170000407234468
 20
21.104928084344369
 30
0.0
 70
     8
  0
VERTEX
  5
F95
  8
CYAN
 10
47.159860007841331
 20
21.088927294753709
 30
0.0
 70
     8
  0
VERTEX
  5
F96
  8
CYAN
 10
47.149572196952697
 20
21.072574803168411
 30
0.0
 70
     8
  0
VERTEX
  5
F97
  8
CYAN
 10
47.139301374011481
 20
21.05612537635368
 30
0.0
 70
     8
  0
VERTEX
  5
F98
  8
CYAN
 10
47.129211938460521
 20
21.039833781074751
 30
0.0
 70
     8
  0
VERTEX
  5
F99
  8
CYAN
 10
47.119468289742649
 20
21.023954784096819
 30
0.0
 70
     8
  0
VERTEX
  5
F9A
  8
CYAN
 10
47.110200091202813
 20
21.008689926520209
 30
0.0
 70
     8
  0
VERTEX
  5
F9B
  8
CYAN
 10
47.101398061794427
 20
20.994027846785681
 30
0.0
 70
     8
  0
VERTEX
  5
F9C
  8
CYAN
 10
47.093018184372859
 20
20.979903957669109
 30
0.0
 70
     8
  0
VERTEX
  5
F9D
  8
CYAN
 10
47.085016441793563
 20
20.966253671946362
 30
0.0
 70
     8
  0
VERTEX
  5
F9E
  8
CYAN
 10
47.077348816911957
 20
20.953012402393309
 30
0.0
 70
     8
  0
VERTEX
  5
F9F
  8
CYAN
 10
47.069971292583503
 20
20.940115561785831
 30
0.0
 70
     8
  0
VERTEX
  5
FA0
  8
CYAN
 10
47.062839851663611
 20
20.927498562899789
 30
0.0
 70
     8
  0
VERTEX
  5
FA1
  8
CYAN
 10
47.055910477007757
 20
20.915096818511049
 30
0.0
 70
     8
  0
VERTEX
  5
FA2
  8
CYAN
 10
47.049131797148533
 20
20.902807305636841
 30
0.0
 70
     8
  0
VERTEX
  5
FA3
  8
CYAN
 10
47.042423023327324
 20
20.890373258259611
 30
0.0
 70
     8
  0
VERTEX
  5
FA4
  8
CYAN
 10
47.035696012462743
 20
20.877499474603201
 30
0.0
 70
     8
  0
VERTEX
  5
FA5
  8
CYAN
 10
47.028862621473372
 20
20.863890752891439
 30
0.0
 70
     8
  0
VERTEX
  5
FA6
  8
CYAN
 10
47.021834707277783
 20
20.84925189134815
 30
0.0
 70
     8
  0
VERTEX
  5
FA7
  8
CYAN
 10
47.014524126794569
 20
20.83328768819711
 30
0.0
 70
     8
  0
VERTEX
  5
FA8
  8
CYAN
 10
47.006842736942353
 20
20.815702941662192
 30
0.0
 70
     8
  0
VERTEX
  5
FA9
  8
CYAN
 10
46.99870239463965
 20
20.796202449967179
 30
0.0
 70
     8
  0
VERTEX
  5
FAA
  8
CYAN
 10
46.990131702573997
 20
20.77460984635141
 30
0.0
 70
     8
  0
VERTEX
  5
FAB
  8
CYAN
 10
46.981626246508419
 20
20.75122410411624
 30
0.0
 70
     8
  0
VERTEX
  5
FAC
  8
CYAN
 10
46.973798357974779
 20
20.726463031578529
 30
0.0
 70
     8
  0
VERTEX
  5
FAD
  8
CYAN
 10
46.96726036850503
 20
20.70074443705515
 30
0.0
 70
     8
  0
VERTEX
  5
FAE
  8
CYAN
 10
46.962624609631071
 20
20.67448612886297
 30
0.0
 70
     8
  0
VERTEX
  5
FAF
  8
CYAN
 10
46.960503412884847
 20
20.648105915318851
 30
0.0
 70
     8
  0
VERTEX
  5
FB0
  8
CYAN
 10
46.961509109798207
 20
20.622021604739661
 30
0.0
 70
     8
  0
VERTEX
  5
FB1
  8
CYAN
 10
46.966254031903141
 20
20.596651005442261
 30
0.0
 70
     8
  0
VERTEX
  5
FB2
  8
CYAN
 10
46.975122094213773
 20
20.572386498219039
 30
0.0
 70
     8
  0
VERTEX
  5
FB3
  8
CYAN
 10
46.987583545673409
 20
20.54951875376457
 30
0.0
 70
     8
  0
VERTEX
  5
FB4
  8
CYAN
 10
47.00288021870756
 20
20.52831301524893
 30
0.0
 70
     8
  0
VERTEX
  5
FB5
  8
CYAN
 10
47.02025394574175
 20
20.509034525842189
 30
0.0
 70
     8
  0
VERTEX
  5
FB6
  8
CYAN
 10
47.038946559201577
 20
20.49194852871446
 30
0.0
 70
     8
  0
VERTEX
  5
FB7
  8
CYAN
 10
47.058199891512501
 20
20.4773202670358
 30
0.0
 70
     8
  0
VERTEX
  5
FB8
  8
CYAN
 10
47.077255775100099
 20
20.465414983976309
 30
0.0
 70
     8
  0
VERTEX
  5
FB9
  8
CYAN
 10
47.095356042389909
 20
20.45649792270606
 30
0.0
 70
     8
  0
VERTEX
  5
FBA
  8
CYAN
 10
47.111889032052538
 20
20.450717562500682
 30
0.0
 70
     8
  0
VERTEX
  5
FBB
  8
CYAN
 10
47.126829107739042
 20
20.447755327057951
 30
0.0
 70
     8
  0
VERTEX
  5
FBC
  8
CYAN
 10
47.140297139345471
 20
20.447175876181159
 30
0.0
 70
     8
  0
VERTEX
  5
FBD
  8
CYAN
 10
47.15241399676799
 20
20.4485438696736
 30
0.0
 70
     8
  0
VERTEX
  5
FBE
  8
CYAN
 10
47.163300549902722
 20
20.451423967338581
 30
0.0
 70
     8
  0
VERTEX
  5
FBF
  8
CYAN
 10
47.173077668645739
 20
20.45538082897939
 30
0.0
 70
     8
  0
VERTEX
  5
FC0
  8
CYAN
 10
47.181866222893177
 20
20.459979114399339
 30
0.0
 70
     8
  0
VERTEX
  5
FC1
  8
CYAN
 10
47.18978708254113
 20
20.464783483401739
 30
0.0
 70
     8
  0
VERTEX
  5
FC2
  8
CYAN
 10
47.196957725396082
 20
20.469432038956398
 30
0.0
 70
     8
  0
VERTEX
  5
FC3
  8
CYAN
 10
47.203482060906147
 20
20.473856656699169
 30
0.0
 70
     8
  0
VERTEX
  5
FC4
  8
CYAN
 10
47.209460606429687
 20
20.478062655432421
 30
0.0
 70
     8
  0
VERTEX
  5
FC5
  8
CYAN
 10
47.214993879325156
 20
20.482055353958511
 30
0.0
 70
     8
  0
VERTEX
  5
FC6
  8
CYAN
 10
47.220182396950982
 20
20.48584007107981
 30
0.0
 70
     8
  0
VERTEX
  5
FC7
  8
CYAN
 10
47.225126676665589
 20
20.48942212559869
 30
0.0
 70
     8
  0
VERTEX
  5
FC8
  8
CYAN
 10
47.229927235827397
 20
20.492806836317509
 30
0.0
 70
     8
  0
VERTEX
  5
FC9
  8
CYAN
 10
47.234684591794853
 20
20.495999522038652
 30
0.0
 70
     8
  0
VERTEX
  5
FCA
  8
CYAN
 10
47.239475480419607
 20
20.49900671374218
 30
0.0
 70
     8
  0
VERTEX
  5
FCB
  8
CYAN
 10
47.244281511526289
 20
20.50183979111905
 30
0.0
 70
     8
  0
VERTEX
  5
FCC
  8
CYAN
 10
47.249060513432781
 20
20.504511346037901
 30
0.0
 70
     8
  0
VERTEX
  5
FCD
  8
CYAN
 10
47.253770314456972
 20
20.507033970367392
 30
0.0
 70
     8
  0
VERTEX
  5
FCE
  8
CYAN
 10
47.25836874291668
 20
20.50942025597617
 30
0.0
 70
     8
  0
VERTEX
  5
FCF
  8
CYAN
 10
47.262813627129802
 20
20.511682794732891
 30
0.0
 70
     8
  0
VERTEX
  5
FD0
  8
CYAN
 10
47.267062795414219
 20
20.513834178506212
 30
0.0
 70
     8
  0
VERTEX
  5
FD1
  8
CYAN
 10
47.271074076087778
 20
20.515886999164781
 30
0.0
 70
     8
  0
VERTEX
  5
FD2
  8
CYAN
 10
47.274816215794459
 20
20.517852943977552
 30
0.0
 70
     8
  0
VERTEX
  5
FD3
  8
CYAN
 10
47.278301634482567
 20
20.519740081814739
 30
0.0
 70
     8
  0
VERTEX
  5
FD4
  8
CYAN
 10
47.281553670426533
 20
20.521555576946842
 30
0.0
 70
     8
  0
VERTEX
  5
FD5
  8
CYAN
 10
47.284595661900767
 20
20.52330659364436
 30
0.0
 70
     8
  0
VERTEX
  5
FD6
  8
CYAN
 10
47.287450947179671
 20
20.525000296177819
 30
0.0
 70
     8
  0
VERTEX
  5
FD7
  8
CYAN
 10
47.290142864537671
 20
20.52664384881772
 30
0.0
 70
     8
  0
VERTEX
  5
FD8
  8
CYAN
 10
47.292694752249183
 20
20.528244415834578
 30
0.0
 70
     8
  0
VERTEX
  5
FD9
  8
CYAN
 10
47.29512994858861
 20
20.529809161498878
 30
0.0
 70
     8
  0
VERTEX
  5
FDA
  8
CYAN
 10
47.297499481182918
 20
20.531372903170169
 30
0.0
 70
     8
  0
VERTEX
  5
FDB
  8
CYAN
 10
47.299965135069101
 20
20.53308107056403
 30
0.0
 70
     8
  0
VERTEX
  5
FDC
  8
CYAN
 10
47.302716384636717
 20
20.535106746485059
 30
0.0
 70
     8
  0
VERTEX
  5
FDD
  8
CYAN
 10
47.305942704275331
 20
20.537623013737829
 30
0.0
 70
     8
  0
VERTEX
  5
FDE
  8
CYAN
 10
47.309833568374472
 20
20.540802955126971
 30
0.0
 70
     8
  0
VERTEX
  5
FDF
  8
CYAN
 10
47.31457845132369
 20
20.544819653457068
 30
0.0
 70
     8
  0
VERTEX
  5
FE0
  8
CYAN
 10
47.320366827512522
 20
20.549846191532719
 30
0.0
 70
     8
  0
VERTEX
  5
FE1
  8
CYAN
 10
47.32738817133054
 20
20.55605565215853
 30
0.0
 70
     8
  0
VERTEX
  5
FE2
  8
CYAN
 10
47.335809505361539
 20
20.563597200974549
 30
0.0
 70
     8
  0
VERTEX
  5
FE3
  8
CYAN
 10
47.345708044966422
 20
20.57252433496274
 30
0.0
 70
     8
  0
VERTEX
  5
FE4
  8
CYAN
 10
47.357138553700317
 20
20.58286663394048
 30
0.0
 70
     8
  0
VERTEX
  5
FE5
  8
CYAN
 10
47.370155795118372
 20
20.594653677725191
 30
0.0
 70
     8
  0
VERTEX
  5
FE6
  8
CYAN
 10
47.384814532775742
 20
20.607915046134281
 30
0.0
 70
     8
  0
VERTEX
  5
FE7
  8
CYAN
 10
47.401169530227598
 20
20.62268031898515
 30
0.0
 70
     8
  0
VERTEX
  5
FE8
  8
CYAN
 10
47.41927555102906
 20
20.6389790760952
 30
0.0
 70
     8
  0
VERTEX
  5
FE9
  8
CYAN
 10
47.439187358735289
 20
20.656840897281828
 30
0.0
 70
     8
  0
VERTEX
  5
FEA
  8
CYAN
 10
47.460915120858523
 20
20.676260391207968
 30
0.0
 70
     8
  0
VERTEX
  5
FEB
  8
CYAN
 10
47.48429062073923
 20
20.6970922819186
 30
0.0
 70
     8
  0
VERTEX
  5
FEC
  8
CYAN
 10
47.509101045674967
 20
20.719156322304158
 30
0.0
 70
     8
  0
VERTEX
  5
FED
  8
CYAN
 10
47.53513358296339
 20
20.742272265255131
 30
0.0
 70
     8
  0
VERTEX
  5
FEE
  8
CYAN
 10
47.562175419901969
 20
20.766259863662011
 30
0.0
 70
     8
  0
VERTEX
  5
FEF
  8
CYAN
 10
47.590013743788283
 20
20.79093887041525
 30
0.0
 70
     8
  0
VERTEX
  5
FF0
  8
CYAN
 10
47.618435741919953
 20
20.816129038405339
 30
0.0
 70
     8
  0
VERTEX
  5
FF1
  8
CYAN
 10
47.64722860159452
 20
20.84165012052274
 30
0.0
 70
     8
  0
VERTEX
  5
FF2
  8
CYAN
 10
47.676221410496609
 20
20.867351757065169
 30
0.0
 70
     8
  0
VERTEX
  5
FF3
  8
CYAN
 10
47.705410857859171
 20
20.893203137959208
 30
0.0
 70
     8
  0
VERTEX
  5
FF4
  8
CYAN
 10
47.734835533302217
 20
20.91920334053874
 30
0.0
 70
     8
  0
VERTEX
  5
FF5
  8
CYAN
 10
47.764534026445702
 20
20.94535144213755
 30
0.0
 70
     8
  0
VERTEX
  5
FF6
  8
CYAN
 10
47.794544926909701
 20
20.971646520089489
 30
0.0
 70
     8
  0
VERTEX
  5
FF7
  8
CYAN
 10
47.824906824314141
 20
20.998087651728401
 30
0.0
 70
     8
  0
VERTEX
  5
FF8
  8
CYAN
 10
47.855658308279089
 20
21.02467391438811
 30
0.0
 70
     8
  0
VERTEX
  5
FF9
  8
CYAN
 10
47.881859133219329
 20
21.049876004725441
 30
0.0
 70
    16
  0
VERTEX
  5
FFA
  8
CYAN
 10
48.148048530373551
 20
21.26887928784668
 30
0.0
 70
    16
  0
VERTEX
  5
FFB
  8
CYAN
 10
48.33284433890185
 20
21.390983081254721
 30
0.0
 70
    16
  0
VERTEX
  5
FFC
  8
CYAN
 10
48.487294716934073
 20
21.48415875989048
 30
0.0
 70
    16
  0
VERTEX
  5
FFD
  8
CYAN
 10
48.659668889842003
 20
21.58283659830634
 30
0.0
 70
    16
  0
VERTEX
  5
FFE
  8
CYAN
 10
48.7419516491181
 20
21.63424578916165
 30
0.0
 70
    16
  0
VERTEX
  5
FFF
  8
CYAN
 10
48.814119264957512
 20
21.67601227520149
 30
0.0
 70
    16
  0
VERTEX
  5
1000
  8
CYAN
 10
48.874337687669581
 20
21.71411065671121
 30
0.0
 70
    16
  0
VERTEX
  5
1001
  8
CYAN
 10
48.924913403300572
 20
21.76232418002829
 30
0.0
 70
    16
  0
VERTEX
  5
1002
  8
CYAN
 10
48.965373975846759
 20
21.800894998562331
 30
0.0
 70
    16
  0
VERTEX
  5
1003
  8
CYAN
 10
48.975961557596932
 20
21.830295551313601
 30
0.0
 70
    16
  0
VERTEX
  5
1004
  8
CYAN
 10
48.980574541096857
 20
21.857862050814749
 30
0.0
 70
    16
  0
VERTEX
  5
1005
  8
CYAN
 10
48.991634561346842
 20
21.907020451566812
 30
0.0
 70
    16
  0
VERTEX
  5
1006
  8
CYAN
 10
48.994885930096501
 20
21.960319397318969
 30
0.0
 70
    16
  0
VERTEX
  5
1007
  8
CYAN
 10
48.982047557349937
 20
22.002141585056361
 30
0.0
 70
    16
  0
VERTEX
  5
1008
  8
CYAN
 10
48.934306472116411
 20
22.072475149287381
 30
0.0
 70
    16
  0
VERTEX
  5
1009
  8
CYAN
 10
48.898042145320311
 20
22.126718971441449
 30
0.0
 70
    16
  0
VERTEX
  5
100A
  8
CYAN
 10
48.853969168469888
 20
22.185103336451981
 30
0.0
 70
    16
  0
VERTEX
  5
100B
  8
CYAN
 10
48.811730245086842
 20
22.237513103199479
 30
0.0
 70
    16
  0
VERTEX
  5
100C
  8
CYAN
 10
48.792444841250983
 20
22.257743404508901
 30
0.0
 70
    16
  0
VERTEX
  5
100D
  8
CYAN
 10
48.763516726953277
 20
22.288088834310241
 30
0.0
 70
    16
  0
VERTEX
  5
100E
  8
CYAN
 10
48.712996712368053
 20
22.324881299875909
 30
0.0
 70
    16
  0
VERTEX
  5
100F
  8
CYAN
 10
48.66383831161599
 20
22.335941320125901
 30
0.0
 70
    16
  0
VERTEX
  5
1010
  8
CYAN
 10
48.616041523616197
 20
22.32126889351154
 30
0.0
 70
    16
  0
VERTEX
  5
1011
  8
CYAN
 10
48.522282006780891
 20
22.285949443831381
 30
0.0
 70
    16
  0
VERTEX
  5
1012
  8
CYAN
 10
48.398177058361298
 20
22.221701879368108
 30
0.0
 70
    16
  0
VERTEX
  5
1013
  8
CYAN
 10
48.365997575448027
 20
22.198748363420961
 30
0.0
 70
    16
  0
VERTEX
  5
1014
  8
CYAN
 10
48.30347266268236
 20
22.146866733155331
 30
0.0
 70
    16
  0
VERTEX
  5
1015
  8
CYAN
 10
48.218883410305729
 20
22.081674291759882
 30
0.0
 70
    16
  0
VERTEX
  5
1016
  8
CYAN
 10
48.127847121164542
 20
21.994889949063211
 30
0.0
 70
    16
  0
VERTEX
  5
1017
  8
CYAN
 10
48.061181663872219
 20
21.935199667754741
 30
0.0
 70
    16
  0
VERTEX
  5
1018
  8
CYAN
 10
47.980732955558558
 20
21.877815877035339
 30
0.0
 70
    16
  0
VERTEX
  5
1019
  8
CYAN
 10
47.89016910428407
 20
21.810789381965041
 30
0.0
 70
    16
  0
VERTEX
  5
101A
  8
CYAN
 10
47.813388503372067
 20
21.741456395542791
 30
0.0
 70
    16
  0
VERTEX
  5
101B
  8
CYAN
 10
47.726492760455542
 20
21.66248070553036
 30
0.0
 70
    16
  0
VERTEX
  5
101C
  8
CYAN
 10
47.655686757317632
 20
21.594981771933039
 30
0.0
 70
    16
  0
VERTEX
  5
101D
  8
CYAN
 10
47.589021298698313
 20
21.535291489433629
 30
0.0
 70
    16
  0
VERTEX
  5
101E
  8
CYAN
 10
47.536611529983638
 20
21.49305256441275
 30
0.0
 70
    16
  0
VERTEX
  5
101F
  8
CYAN
 10
47.441907131712448
 20
21.418217416222301
 30
0.0
 70
    16
  0
VERTEX
  5
1020
  8
CYAN
 10
47.306269724928761
 20
21.285053603381531
 30
0.0
 70
    16
  0
VERTEX
  5
1021
  8
CYAN
 10
47.24741291917146
 20
21.221222777235511
 30
0.0
 70
    16
  0
VERTEX
  5
1022
  8
CYAN
 10
47.206479907526123
 20
21.162894110088221
 30
0.0
 70
    16
  0
VERTEX
  5
1023
  8
CYAN
 10
47.114026302798997
 20
21.016836223390559
 30
0.0
 70
    16
  0
VERTEX
  5
1024
  8
CYAN
 10
47.054224619733667
 20
20.913489700930441
 30
0.0
 70
    16
  0
VERTEX
  5
1025
  8
CYAN
 10
47.004538080312827
 20
20.819785883954012
 30
0.0
 70
    16
  0
VERTEX
  5
1026
  8
CYAN
 10
46.919837426852972
 20
20.58458146305659
 30
0.0
 70
    16
  0
VERTEX
  5
1027
  8
CYAN
 10
47.113636403694052
 20
20.421794296473148
 30
0.0
 70
    16
  0
VERTEX
  5
1028
  8
CYAN
 10
47.19775321271031
 20
20.46722888728716
 30
0.0
 70
    16
  0
VERTEX
  5
1029
  8
CYAN
 10
47.234073240711453
 20
20.49799105478872
 30
0.0
 70
    16
  0
VERTEX
  5
102A
  8
CYAN
 10
47.274061375212888
 20
20.516804025789838
 30
0.0
 70
    16
  0
VERTEX
  5
102B
  8
CYAN
 10
47.296125714963672
 20
20.530114837040571
 30
0.0
 70
    16
  0
VERTEX
  5
102C
  8
CYAN
 10
47.312215456464202
 20
20.541591595041179
 30
0.0
 70
    16
  0
VERTEX
  5
102D
  8
CYAN
 10
47.419341487162853
 20
20.63985269574588
 30
0.0
 70
    16
  0
SEQEND
  5
102E
  8
CYAN
  0
POLYLINE
  5
102F
  8
CYAN
 66
     1
 10
0.0
 20
0.0
 30
0.0
 70
     1
  0
VERTEX
  5
2032
  8
CYAN
 10
49.034121084604422
 20
20.128758402330419
 30
0.0
 42
0.4177068302485275
  0
VERTEX
  5
2033
  8
CYAN
 10
49.250541403028571
 20
20.82934194617587
 30
0.0
 42
0.4513947921646177
  0
VERTEX
  5
2034
  8
CYAN
 10
48.489739436924559
 20
21.00766388463537
 30
0.0
 42
0.0575658444371898
  0
VERTEX
  5
2035
  8
CYAN
 10
46.379398303533563
 20
19.065395383842421
 30
0.0
 42
0.821397590179364
  0
VERTEX
  5
2036
  8
CYAN
 10
46.55202211471957
 20
18.843807112361311
 30
0.0
  0
SEQEND
  5
2037
  8
CYAN
  0
POLYLINE
  5
1030
  8
CYAN
 66
     1
 10
0.0
 20
0.0
 30
0.0
 70
     1
  0
VERTEX
  5
2038
  8
CYAN
 10
46.924252281256372
 20
18.206247775814031
 30
0.0
 42
-0.0071590769910906
  0
VERTEX
  5
2039
  8
CYAN
 10
46.99961557938709
 20
18.21630722040485
 30
0.0
 42
-0.0025627809356387
  0
VERTEX
  5
203A
  8
CYAN
 10
47.192164341363203
 20
18.249264478549652
 30
0.0
  0
VERTEX
  5
203B
  8
CYAN
 10
47.353006077085297
 20
18.279026071863299
 30
0.0
  0
VERTEX
  5
203C
  8
CYAN
 10
47.466051005423132
 20
18.29411523562608
 30
0.0
 42
0.0044883994876967
  0
VERTEX
  5
203D
  8
CYAN
 10
47.589211076916513
 20
18.318847104127322
 30
0.0
 42
-0.0032441272917723
  0
VERTEX
  5
203E
  8
CYAN
 10
47.744078188258243
 20
18.346774639675822
 30
0.0
 42
-0.005905509352812
  0
VERTEX
  5
203F
  8
CYAN
 10
47.930652362637417
 20
18.377897846602391
 30
0.0
 42
-0.0060023797585145
  0
VERTEX
  5
2040
  8
CYAN
 10
48.119060585981607
 20
18.403046454337261
 30
0.0
 42
-0.0048565906701473
  0
VERTEX
  5
2041
  8
CYAN
 10
48.263812567579187
 20
18.421331287165071
 30
0.0
 42
-0.0037702382373605
  0
VERTEX
  5
2042
  8
CYAN
 10
48.448080245184727
 20
18.438671242943439
 30
0.0
 42
-0.0030296506290049
  0
VERTEX
  5
2043
  8
CYAN
 10
48.664054969998112
 20
18.459206866689762
 30
0.0
 42
-0.0042636918855315
  0
VERTEX
  5
2044
  8
CYAN
 10
48.810641018556389
 20
18.471517102208701
 30
0.0
  0
VERTEX
  5
2045
  8
CYAN
 10
48.87588917073429
 20
18.471933840703041
 30
0.0
  0
VERTEX
  5
2046
  8
CYAN
 10
49.050041701633809
 20
18.47963109070978
 30
0.0
 42
-0.013051685389883
  0
VERTEX
  5
2047
  8
CYAN
 10
49.135047691632778
 20
18.479575389956072
 30
0.0
 42
0.0116263354141323
  0
VERTEX
  5
2048
  8
CYAN
 10
49.237977478421087
 20
18.485021848904129
 30
0.0
 42
0.0481010551073555
  0
VERTEX
  5
2049
  8
CYAN
 10
49.327124012445012
 20
18.49277479954555
 30
0.0
 42
0.053575236416661
  0
VERTEX
  5
204A
  8
CYAN
 10
49.402959736442639
 20
18.522592090111051
 30
0.0
  0
VERTEX
  5
204B
  8
CYAN
 10
49.44708841559811
 20
18.549213712419359
 30
0.0
 42
0.0194493213793751
  0
VERTEX
  5
204C
  8
CYAN
 10
49.523396578198721
 20
18.598788850994289
 30
0.0
 42
0.0207308874542351
  0
VERTEX
  5
204D
  8
CYAN
 10
49.622241518399498
 20
18.68143264838875
 30
0.0
  0
VERTEX
  5
204E
  8
CYAN
 10
49.710971314834573
 20
18.754433740453369
 30
0.0
 42
0.1385902761938879
  0
VERTEX
  5
204F
  8
CYAN
 10
49.753738379335779
 20
18.806787808460481
 30
0.0
  0
VERTEX
  5
2050
  8
CYAN
 10
49.791475723151677
 20
18.896823520698181
 30
0.0
  0
VERTEX
  5
2051
  8
CYAN
 10
49.804842235151654
 20
18.959765171200821
 30
0.0
  0
VERTEX
  5
2052
  8
CYAN
 10
49.787029841797597
 20
19.12427499289765
 30
0.0
 42
0.0105221585256173
  0
VERTEX
  5
2053
  8
CYAN
 10
49.781999989150357
 20
19.16195662138178
 30
0.0
 42
0.0364151019294911
  0
VERTEX
  5
2054
  8
CYAN
 10
49.731535674328569
 20
19.283755078265351
 30
0.0
 42
0.2826929840242893
  0
VERTEX
  5
2055
  8
CYAN
 10
49.465152348663061
 20
19.470023901562492
 30
0.0
 42
0.1406544140943837
  0
VERTEX
  5
2056
  8
CYAN
 10
47.298318637887427
 20
18.968299954129961
 30
0.0
 42
0.0243931830442359
  0
VERTEX
  5
2057
  8
CYAN
 10
47.112161215339277
 20
18.871928607507652
 30
0.0
  0
VERTEX
  5
2058
  8
CYAN
 10
46.957710836979693
 20
18.778752928673988
 30
0.0
  0
VERTEX
  5
2059
  8
CYAN
 10
46.536654328465112
 20
18.531822113160271
 30
0.0
  0
VERTEX
  5
205A
  8
CYAN
 10
46.29394659120674
 20
18.385403189402201
 30
0.0
  0
VERTEX
  5
205B
  8
CYAN
 10
46.281997394706302
 20
18.38173508290194
 30
0.0
  0
VERTEX
  5
205C
  8
CYAN
 10
46.261767108195379
 20
18.362449673391168
 30
0.0
 42
-0.0032062696961803
  0
VERTEX
  5
205D
  8
CYAN
 10
46.149138918307969
 20
18.282112367820851
 30
0.0
  0
VERTEX
  5
205E
  8
CYAN
 10
46.078805348247137
 20
18.23437127848354
 30
0.0
 42
0.7566205204271915
  0
VERTEX
  5
205F
  8
CYAN
 10
46.156308022800147
 20
18.003195999614771
 30
0.0
  0
VERTEX
  5
2060
  8
CYAN
 10
46.221556164907
 20
18.003612737356001
 30
0.0
  0
VERTEX
  5
2061
  8
CYAN
 10
46.263378352658549
 20
18.016451110106889
 30
0.0
  0
VERTEX
  5
2062
  8
CYAN
 10
46.289110798900211
 20
18.017812724856679
 30
0.0
 42
0.0428592259529859
  0
VERTEX
  5
2063
  8
CYAN
 10
46.370921121386679
 20
18.049464068720891
 30
0.0
 42
-0.0345946661996227
  0
VERTEX
  5
2064
  8
CYAN
 10
46.464680639601141
 20
18.084783518721562
 30
0.0
  0
VERTEX
  5
2065
  8
CYAN
 10
46.538209872701572
 20
18.10081755971866
 30
0.0
  0
VERTEX
  5
2066
  8
CYAN
 10
46.609905051814749
 20
18.122826198754119
 30
0.0
 42
-0.0029127409787249
  0
VERTEX
  5
2067
  8
CYAN
 10
46.85853168641804
 20
18.186073185468871
 30
0.0
 42
-0.0117505165997468
  0
SEQEND
  5
2068
  8
CYAN
  0
POLYLINE
  5
1031
  8
CYAN
 66
     1
 10
0.0
 20
0.0
 30
0.0
 70
     1
  0
VERTEX
  5
2069
  8
CYAN
 10
46.413081716643397
 20
21.38351066078339
 30
0.0
  0
VERTEX
  5
206A
  8
CYAN
 10
46.373093582141983
 20
21.364697689782268
 30
0.0
  0
VERTEX
  5
206B
  8
CYAN
 10
46.334939500890677
 20
21.33991012053092
 30
0.0
  0
VERTEX
  5
206C
  8
CYAN
 10
46.290810821390039
 20
21.313288498029991
 30
0.0
 42
0.0246778073090697
  0
VERTEX
  5
206D
  8
CYAN
 10
46.190131827346143
 20
21.236619298491838
 30
0.0
 42
0.0403144197222918
  0
VERTEX
  5
206E
  8
CYAN
 10
46.14139016438029
 20
21.182431176487039
 30
0.0
 42
0.0622577481368716
  0
VERTEX
  5
206F
  8
CYAN
 10
46.096316608007641
 20
21.116293858147209
 30
0.0
 42
0.0714869599907736
  0
VERTEX
  5
2070
  8
CYAN
 10
45.457199661746571
 20
19.7694819928392
 30
0.0
 42
0.0241941979393866
  0
VERTEX
  5
2071
  8
CYAN
 10
45.37297144666271
 20
19.554035420137421
 30
0.0
 42
0.0119161426135011
  0
VERTEX
  5
2072
  8
CYAN
 10
45.221493933535818
 20
19.089128736301241
 30
0.0
 42
0.0149873037968461
  0
VERTEX
  5
2073
  8
CYAN
 10
45.125677558922121
 20
18.719759924528422
 30
0.0
 42
-0.0170064420998657
  0
VERTEX
  5
2074
  8
CYAN
 10
45.045061749488568
 20
18.407358165158652
 30
0.0
 42
-0.0398534862616538
  0
VERTEX
  5
2075
  8
CYAN
 10
44.982008696439607
 20
18.250712693103111
 30
0.0
  0
VERTEX
  5
2076
  8
CYAN
 10
44.927181033343011
 20
18.024678536644199
 30
0.0
  0
VERTEX
  5
2077
  8
CYAN
 10
44.918427504842967
 20
17.98930338564271
 30
0.0
  0
VERTEX
  5
2078
  8
CYAN
 10
44.933099930844001
 20
17.941506599640931
 30
0.0
  0
VERTEX
  5
2079
  8
CYAN
 10
44.95191290184512
 20
17.90151846513951
 30
0.0
  0
VERTEX
  5
207A
  8
CYAN
 10
44.971198311346072
 20
17.881288178638869
 30
0.0
  0
VERTEX
  5
207B
  8
CYAN
 10
45.004739409092032
 20
17.87850924838952
 30
0.0
 42
0.0920700034788455
  0
VERTEX
  5
207C
  8
CYAN
 10
45.050702141842457
 20
17.8991562726372
 30
0.0
  0
VERTEX
  5
207D
  8
CYAN
 10
45.090690276283169
 20
17.917969243597689
 30
0.0
  0
VERTEX
  5
207E
  8
CYAN
 10
45.110920562779647
 20
17.93725465309468
 30
0.0
 42
0.0083327547098316
  0
VERTEX
  5
207F
  8
CYAN
 10
45.175279528780713
 20
17.983161685096071
 30
0.0
  0
VERTEX
  5
2080
  8
CYAN
 10
45.205624957306433
 20
18.012089798445238
 30
0.0
 42
0.0321555586069638
  0
VERTEX
  5
2081
  8
CYAN
 10
45.266315816843942
 20
18.069946026991879
 30
0.0
 42
0.0167804712046025
  0
VERTEX
  5
2082
  8
CYAN
 10
45.35415643787104
 20
18.188437414041012
 30
0.0
  0
VERTEX
  5
2083
  8
CYAN
 10
45.423600824845913
 20
18.28166879206427
 30
0.0
  0
VERTEX
  5
2084
  8
CYAN
 10
45.57674528910016
 20
18.48558290732382
 30
0.0
  0
VERTEX
  5
2085
  8
CYAN
 10
45.664585910115861
 20
18.604074294260009
 30
0.0
 42
0.0233004590504515
  0
VERTEX
  5
2086
  8
CYAN
 10
45.732196244924722
 20
18.703280272036441
 30
0.0
 42
-0.0157293314249224
  0
VERTEX
  5
2087
  8
CYAN
 10
45.828790394114009
 20
18.857146809428311
 30
0.0
 42
-0.0327642408096216
  0
VERTEX
  5
2088
  8
CYAN
 10
45.965372681031887
 20
19.02982632179997
 30
0.0
 42
0.0290577538934792
  0
VERTEX
  5
2089
  8
CYAN
 10
46.112070106578059
 20
19.212148533685561
 30
0.0
 42
0.0113072664203386
  0
VERTEX
  5
208A
  8
CYAN
 10
46.206357763961933
 20
19.352231821377998
 30
0.0
 42
0.0076400961535523
  0
VERTEX
  5
208B
  8
CYAN
 10
46.325488690271619
 20
19.539167016266209
 30
0.0
 42
0.0135704571717186
  0
VERTEX
  5
208C
  8
CYAN
 10
46.405993096014853
 20
19.681556792541318
 30
0.0
 42
0.0287148579575421
  0
VERTEX
  5
208D
  8
CYAN
 10
46.433142856359183
 20
19.742191948619329
 30
0.0
 42
0.0431399035848796
  0
VERTEX
  5
208E
  8
CYAN
 10
46.45940344172493
 20
19.848317401319122
 30
0.0
 42
0.0189694767876999
  0
VERTEX
  5
208F
  8
CYAN
 10
46.504588399676457
 20
20.084466700068951
 30
0.0
  0
VERTEX
  5
2090
  8
CYAN
 10
46.521678718500759
 20
20.220465141493989
 30
0.0
  0
VERTEX
  5
2091
  8
CYAN
 10
46.530015509250177
 20
20.321088434748091
 30
0.0
  0
VERTEX
  5
2092
  8
CYAN
 10
46.573005377036431
 20
20.713466464862329
 30
0.0
 42
0.0056797458683986
  0
VERTEX
  5
2093
  8
CYAN
 10
46.585010274336277
 20
20.80214056208586
 30
0.0
 42
0.0241633500560195
  0
VERTEX
  5
2094
  8
CYAN
 10
46.591040572850247
 20
20.888980601646139
 30
0.0
 42
0.0153677906890628
  0
VERTEX
  5
2095
  8
CYAN
 10
46.582398445835928
 20
21.023617430362808
 30
0.0
  0
VERTEX
  5
2096
  8
CYAN
 10
46.581509269760531
 20
21.069107722791731
 30
0.0
  0
VERTEX
  5
2097
  8
CYAN
 10
46.578313601760101
 20
21.10081476729297
 30
0.0
  0
VERTEX
  5
2098
  8
CYAN
 10
46.576951987009807
 20
21.126547213543979
 30
0.0
  0
VERTEX
  5
2099
  8
CYAN
 10
46.576535249258967
 20
21.191795355831569
 30
0.0
 42
0.0380456706915419
  0
VERTEX
  5
209A
  8
CYAN
 10
46.55913959377218
 20
21.29105703425768
 30
0.0
 42
0.0655071580165696
  0
VERTEX
  5
209B
  8
CYAN
 10
46.540799061480037
 20
21.350803016150849
 30
0.0
  0
VERTEX
  5
209C
  8
CYAN
 10
46.510036893987802
 20
21.38712304404466
 30
0.0
  0
VERTEX
  5
209D
  8
CYAN
 10
46.462712546485847
 20
21.39220846604443
 30
0.0
  0
VERTEX
  5
209E
  8
CYAN
 10
46.436980109644288
 20
21.3908468737839
 30
0.0
  0
SEQEND
  5
209F
  8
CYAN
  0
POLYLINE
  5
1032
  8
CYAN
 66
     1
 10
0.0
 20
0.0
 30
0.0
 70
     1
  0
VERTEX
  5
20A0
  8
CYAN
 10
43.182715855591717
 20
21.875905390164451
 30
0.0
 42
0.0010549149376087
  0
VERTEX
  5
20A1
  8
CYAN
 10
43.138614010971438
 20
21.188993731856709
 30
0.0
 42
0.0018855244862628
  0
VERTEX
  5
20A2
  8
CYAN
 10
43.095873779920069
 20
20.476349610416118
 30
0.0
 42
0.0413534449255615
  0
VERTEX
  5
20A3
  8
CYAN
 10
43.145308648296393
 20
19.48473340547806
 30
0.0
  0
VERTEX
  5
20A4
  8
CYAN
 10
43.173652922626012
 20
19.264618146611092
 30
0.0
 42
-0.0028653062126732
  0
VERTEX
  5
20A5
  8
CYAN
 10
43.193771809140898
 20
19.113891563810199
 30
0.0
  0
VERTEX
  5
20A6
  8
CYAN
 10
43.268410984467607
 20
18.018873139417781
 30
0.0
 42
-0.2265043137617923
  0
VERTEX
  5
20A7
  8
CYAN
 10
42.851882891249609
 20
16.969206762770781
 30
0.0
 42
0.3153091310494334
  0
VERTEX
  5
20A8
  8
CYAN
 10
42.805336317509763
 20
16.758789909062521
 30
0.0
  0
VERTEX
  5
20A9
  8
CYAN
 10
42.960869806732113
 20
16.401203190384969
 30
0.0
  0
VERTEX
  5
20AA
  8
CYAN
 10
43.586702774257077
 20
17.10978932142627
 30
0.0
 42
-1.018326052771175
  0
VERTEX
  5
20AB
  8
CYAN
 10
43.728147680912592
 20
16.98976922102095
 30
0.0
  0
VERTEX
  5
20AC
  8
CYAN
 10
43.102314695496432
 20
16.281183006011752
 30
0.0
  0
VERTEX
  5
20AD
  8
CYAN
 10
43.237312561715108
 20
16.139571000809461
 30
0.0
 42
0.3830223412816811
  0
VERTEX
  5
20AE
  8
CYAN
 10
43.653588987885399
 20
16.103917348096431
 30
0.0
  0
VERTEX
  5
20AF
  8
CYAN
 10
44.907699645401792
 20
17.044594763940498
 30
0.0
  0
VERTEX
  5
20B0
  8
CYAN
 10
45.800332677933312
 20
17.501663928466929
 30
0.0
  0
VERTEX
  5
20B1
  8
CYAN
 10
46.33574002870332
 20
17.652945471227881
 30
0.0
  0
VERTEX
  5
20B2
  8
CYAN
 10
46.765911102719329
 20
17.784997305237098
 30
0.0
  0
VERTEX
  5
20B3
  8
CYAN
 10
47.207558934735928
 20
17.900959397745758
 30
0.0
  0
VERTEX
  5
20B4
  8
CYAN
 10
47.481445577246447
 20
17.945810151250068
 30
0.0
  0
VERTEX
  5
20B5
  8
CYAN
 10
48.042946411268879
 20
17.948199176255301
 30
0.0
  0
VERTEX
  5
20B6
  8
CYAN
 10
48.58930238079045
 20
17.978627139261508
 30
0.0
  0
VERTEX
  5
20B7
  8
CYAN
 10
48.953697173304782
 20
18.005498397265921
 30
0.0
  0
VERTEX
  5
20B8
  8
CYAN
 10
49.344296851038408
 20
18.053489118078971
 30
0.0
 42
0.1863990810624708
  0
VERTEX
  5
20B9
  8
CYAN
 10
49.819124743361158
 20
18.316926412815072
 30
0.0
  0
VERTEX
  5
20BA
  8
CYAN
 10
50.016397887472714
 20
18.547462150982781
 30
0.0
 42
0.3647065171858332
  0
VERTEX
  5
20BB
  8
CYAN
 10
50.029182592363092
 20
19.826220113012418
 30
0.0
  0
VERTEX
  5
20BC
  8
CYAN
 10
49.76977444456395
 20
20.13884467259253
 30
0.0
 42
-0.2440944690407394
  0
VERTEX
  5
20BD
  8
CYAN
 10
49.69279990764953
 20
20.47478378863061
 30
0.0
  0
VERTEX
  5
20BE
  8
CYAN
 10
49.827298503881252
 20
20.97370401186809
 30
0.0
 42
0.2405031263728703
  0
VERTEX
  5
20BF
  8
CYAN
 10
49.737068857255572
 20
21.416713457685411
 30
0.0
  0
VERTEX
  5
20C0
  8
CYAN
 10
49.410634210065012
 20
21.819901873646678
 30
0.0
 42
-0.22402637929116
  0
VERTEX
  5
20C1
  8
CYAN
 10
49.311651036773377
 20
22.227536167071118
 30
0.0
  0
VERTEX
  5
20C2
  8
CYAN
 10
49.427336661397447
 20
22.766444522694599
 30
0.0
 42
0.2572741822753933
  0
VERTEX
  5
20C3
  8
CYAN
 10
49.328297785858183
 20
23.08907282813653
 30
0.0
  0
VERTEX
  5
20C4
  8
CYAN
 10
49.081255569105778
 20
23.340117355893732
 30
0.0
  0
VERTEX
  5
20C5
  8
CYAN
 10
49.052327454882203
 20
23.370462785615459
 30
0.0
 42
-0.0069175063430817
  0
VERTEX
  5
20C6
  8
CYAN
 10
49.014229074394891
 20
23.430681206591291
 30
0.0
 42
-0.0362769825393688
  0
VERTEX
  5
20C7
  8
CYAN
 10
48.960985828883359
 20
23.51893856641604
 30
0.0
  0
VERTEX
  5
20C8
  8
CYAN
 10
48.946313402778081
 20
23.566735352607122
 30
0.0
  0
VERTEX
  5
20C9
  8
CYAN
 10
48.935781521778573
 20
23.622340790101749
 30
0.0
 42
-0.0373183866755425
  0
VERTEX
  5
20CA
  8
CYAN
 10
48.950092910815641
 20
23.724798136786141
 30
0.0
  0
VERTEX
  5
20CB
  8
CYAN
 10
49.04963309304793
 20
24.16722374344516
 30
0.0
 42
0.3013349101212859
  0
VERTEX
  5
20CC
  8
CYAN
 10
48.802396941386391
 20
24.823540374731071
 30
0.0
  0
VERTEX
  5
20CD
  8
CYAN
 10
48.600316879800999
 20
24.970710240420861
 30
0.0
 42
-0.3333333333385935
  0
VERTEX
  5
20CE
  8
CYAN
 10
48.501278004290192
 20
25.293338545936109
 30
0.0
  0
VERTEX
  5
20CF
  8
CYAN
 10
48.594259748346254
 20
25.544160271095819
 30
0.0
 42
0.3182826123835945
  0
VERTEX
  5
20D0
  8
CYAN
 10
48.387956608174719
 20
26.258805569169549
 30
0.0
  0
VERTEX
  5
20D1
  8
CYAN
 10
48.143637621033498
 20
26.458385204376711
 30
0.0
 42
-0.2610951553006048
  0
VERTEX
  5
20D2
  8
CYAN
 10
48.020227914049272
 20
26.753919449060149
 30
0.0
  0
VERTEX
  5
20D3
  8
CYAN
 10
48.052157761613962
 20
27.09713907873132
 30
0.0
 42
0.2233907975504476
  0
VERTEX
  5
20D4
  8
CYAN
 10
47.854024308147039
 20
27.657389700385799
 30
0.0
  0
VERTEX
  5
20D5
  8
CYAN
 10
47.456366923408069
 20
28.058327322098041
 30
0.0
 42
-0.2241111555152088
  0
VERTEX
  5
20D6
  8
CYAN
 10
47.37336208899346
 20
28.30742639519762
 30
0.0
  0
VERTEX
  5
20D7
  8
CYAN
 10
47.426050361913809
 20
28.77469526898787
 30
0.0
 42
0.3236994655835091
  0
VERTEX
  5
20D8
  8
CYAN
 10
47.071271442084608
 20
29.397998944580131
 30
0.0
  0
VERTEX
  5
20D9
  8
CYAN
 10
46.887531912738609
 20
29.485422828017541
 30
0.0
 42
-0.361004432416965
  0
VERTEX
  5
20DA
  8
CYAN
 10
46.633320585309562
 20
30.015383719785991
 30
0.0
  0
VERTEX
  5
20DB
  8
CYAN
 10
46.752618615966007
 20
30.457336889572328
 30
0.0
 42
0.7599449348913865
  0
VERTEX
  5
20DC
  8
CYAN
 10
45.789431251114458
 20
31.018088815134629
 30
0.0
  0
VERTEX
  5
20DD
  8
CYAN
 10
45.242741077662117
 20
30.477624911164881
 30
0.0
 42
0.0223282682865497
  0
VERTEX
  5
20DE
  8
CYAN
 10
45.116746374763792
 20
30.33434595419596
 30
0.0
 42
0.0069250051031793
  0
VERTEX
  5
20DF
  8
CYAN
 10
44.996253832689192
 20
30.173143203834499
 30
0.0
 42
0.0101888337540437
  0
VERTEX
  5
20E0
  8
CYAN
 10
44.924502953216091
 20
30.066128574956181
 30
0.0
  0
VERTEX
  5
20E1
  8
CYAN
 10
44.830215295403832
 20
29.92604528674034
 30
0.0
  0
VERTEX
  5
20E2
  8
CYAN
 10
44.826074750445272
 20
29.91823663531834
 30
0.0
 42
0.0048316150430925
  0
VERTEX
  5
20E3
  8
CYAN
 10
44.762604960700997
 20
29.826839309078132
 30
0.0
  0
VERTEX
  5
20E4
  8
CYAN
 10
44.692215696134767
 20
29.694092234243421
 30
0.0
 42
0.0101048391322156
  0
VERTEX
  5
20E5
  8
CYAN
 10
44.518312806283753
 20
29.366128871547591
 30
0.0
 42
0.0063908529277536
  0
VERTEX
  5
20E6
  8
CYAN
 10
44.270296844854968
 20
28.832361640993689
 30
0.0
 42
0.0024690970149107
  0
VERTEX
  5
20E7
  8
CYAN
 10
44.211856776648091
 20
28.703282672654289
 30
0.0
  0
VERTEX
  5
20E8
  8
CYAN
 10
44.122126403051134
 20
28.505759897075912
 30
0.0
 42
0.0107607334230966
  0
VERTEX
  5
20E9
  8
CYAN
 10
44.037898187456982
 20
28.290313322795299
 30
0.0
 42
0.0056713731727581
  0
VERTEX
  5
20EA
  8
CYAN
 10
43.891978535152958
 20
27.892488835234332
 30
0.0
 42
0.024553319984818
  0
VERTEX
  5
20EB
  8
CYAN
 10
43.72482801874034
 20
27.350857251799319
 30
0.0
 42
0.0194109556254396
  0
VERTEX
  5
20EC
  8
CYAN
 10
43.57963043822847
 20
26.652524485953521
 30
0.0
 42
0.0076477218478015
  0
VERTEX
  5
20ED
  8
CYAN
 10
43.488259948047599
 20
26.055704223751651
 30
0.0
 42
0.0079817314912258
  0
VERTEX
  5
20EE
  8
CYAN
 10
43.417119740574378
 20
25.47816934719495
 30
0.0
 42
0.0048951466510902
  0
VERTEX
  5
20EF
  8
CYAN
 10
43.31624477645024
 20
24.40118611574184
 30
0.0
 42
0.0080961126154605
  0
VERTEX
  5
20F0
  8
CYAN
 10
43.267113209246361
 20
23.75195607347424
 30
0.0
 42
0.0074939874463073
  0
VERTEX
  5
20F1
  8
CYAN
 10
43.236266473175363
 20
22.957974054604431
 30
0.0
 42
-0.0096821238122989
  0
VERTEX
  5
20F2
  8
CYAN
 10
43.21564628156122
 20
22.343646718849349
 30
0.0
  0
VERTEX
  5
20F3
  8
CYAN
 10
43.203742102159758
 20
22.174560635296221
 30
0.0
  0
SEQEND
  5
20F4
  8
CYAN
  0
POLYLINE
  5
1033
  8
CYAN
 66
     1
 10
0.0
 20
0.0
 30
0.0
 70
     1
  0
VERTEX
  5
20F5
  8
CYAN
 10
38.443638489681931
 20
3.6703098205477551
 30
0.0
 42
1.0259416559869461
  0
VERTEX
  5
20F6
  8
CYAN
 10
38.59363287203778
 20
3.5515642625630042
 30
0.0
  0
VERTEX
  5
20F7
  8
CYAN
 10
39.52484801241976
 20
4.6827719163155956
 30
0.0
  0
VERTEX
  5
20F8
  8
CYAN
 10
39.731090294394839
 20
4.4577803408930654
 30
0.0
 42
-0.3451808897467834
  0
VERTEX
  5
20F9
  8
CYAN
 10
39.77483865704589
 20
3.9140506938556232
 30
0.0
  0
VERTEX
  5
20FA
  8
CYAN
 10
39.587345676399103
 20
3.6203116908423238
 30
0.0
 42
0.3779692676086415
  0
VERTEX
  5
20FB
  8
CYAN
 10
39.624844271692581
 20
3.3453219850776321
 30
0.0
  0
VERTEX
  5
20FC
  8
CYAN
 10
40.393565495468224
 20
2.6953463161941631
 30
0.0
  0
VERTEX
  5
20FD
  8
CYAN
 10
39.843586083777382
 20
1.9266250930354041
 30
0.0
 42
1.047007089479514
  0
VERTEX
  5
20FE
  8
CYAN
 10
39.999830234736457
 20
1.8203790702046201
 30
0.0
  0
VERTEX
  5
20FF
  8
CYAN
 10
40.537310114382962
 20
2.582850527377571
 30
0.0
  0
VERTEX
  5
2100
  8
CYAN
 10
41.018542098365202
 20
2.3703584825022981
 30
0.0
 42
-0.3638406378100323
  0
VERTEX
  5
2101
  8
CYAN
 10
41.343529934906087
 20
1.720382819641239
 30
0.0
  0
VERTEX
  5
2102
  8
CYAN
 10
41.274782507217743
 20
1.432893576580873
 30
0.0
 42
0.5550959521179861
  0
VERTEX
  5
2103
  8
CYAN
 10
41.918508409191212
 20
0.7829179070406146
 30
0.0
 42
-0.3693500197216851
  0
VERTEX
  5
2104
  8
CYAN
 10
42.06225302807222
 20
0.7016709485918126
 30
0.0
  0
VERTEX
  5
2105
  8
CYAN
 10
42.074752560235929
 20
0.670422118182596
 30
0.0
 42
-0.3376551823720231
  0
VERTEX
  5
2106
  8
CYAN
 10
42.024754431734777
 20
0.5266774992895208
 30
0.0
 42
-0.1960101774576485
  0
VERTEX
  5
2107
  8
CYAN
 10
41.349779714814851
 20
0.3829328777072981
 30
0.0
  0
VERTEX
  5
2108
  8
CYAN
 10
39.987330702804968
 20
0.6266737560026469
 30
0.0
 42
0.177607054759242
  0
VERTEX
  5
2109
  8
CYAN
 10
39.643593566305327
 20
0.5641760936815249
 30
0.0
  0
VERTEX
  5
210A
  8
CYAN
 10
39.049865794435377
 20
0.214189196579238
 30
0.0
 42
-0.7303999315011476
  0
VERTEX
  5
210B
  8
CYAN
 10
37.143687153244912
 20
1.907875794856559
 30
0.0
 42
-0.9783223575266626
  0
VERTEX
  5
210C
  8
CYAN
 10
37.393677794818437
 20
1.814129303963117
 30
0.0
 42
0.4371494290357818
  0
VERTEX
  5
210D
  8
CYAN
 10
38.118650653676852
 20
0.545426797187369
 30
0.0
 42
0.4488655425802063
  0
VERTEX
  5
210E
  8
CYAN
 10
39.043616030491492
 20
1.1954024654464921
 30
0.0
  0
VERTEX
  5
210F
  8
CYAN
 10
39.174861117272208
 20
2.320360352138322
 30
0.0
 42
0.7237865759412492
  0
VERTEX
  5
2110
  8
CYAN
 10
38.393640361841953
 20
2.6765970166323272
 30
0.0
  0
VERTEX
  5
2111
  8
CYAN
 10
38.206147380277748
 20
2.4703547369117049
 30
0.0
 42
-0.4932452076381106
  0
VERTEX
  5
2112
  8
CYAN
 10
37.562421466881318
 20
2.526602650376875
 30
0.0
  0
VERTEX
  5
2113
  8
CYAN
 10
37.040342358015529
 20
3.3465121233610859
 30
0.0
  0
VERTEX
  5
2114
  8
CYAN
 10
36.631206338145681
 20
3.9890478861123322
 30
0.0
 42
-0.4209038183829621
  0
VERTEX
  5
2115
  8
CYAN
 10
36.756201617859723
 20
4.514028207974949
 30
0.0
  0
VERTEX
  5
2116
  8
CYAN
 10
36.881196980259041
 20
4.5890254254145217
 30
0.0
  0
VERTEX
  5
2117
  8
CYAN
 10
37.418676860031852
 20
3.5765633263024341
 30
0.0
 42
0.9272523358710614
  0
VERTEX
  5
2118
  8
CYAN
 10
37.587420543019761
 20
3.6515605190620559
 30
0.0
  0
VERTEX
  5
2119
  8
CYAN
 10
37.037441131345403
 20
4.6952714480350233
 30
0.0
  0
VERTEX
  5
211A
  8
CYAN
 10
37.174935984093622
 20
4.8390160668157547
 30
0.0
 42
0.4941102182097382
  0
VERTEX
  5
211B
  8
CYAN
 10
37.099938792636891
 20
5.3139982857483643
 30
0.0
  0
VERTEX
  5
211C
  8
CYAN
 10
36.699953766300261
 20
5.5264903309990014
 30
0.0
 42
-0.1556464458232851
  0
VERTEX
  5
211D
  8
CYAN
 10
36.331217568799651
 20
5.9014762950713839
 30
0.0
 42
0.115140202205255
  0
VERTEX
  5
211E
  8
CYAN
 10
34.875022085217083
 20
7.6451610177846003
 30
0.0
 42
0.0993160405295972
  0
VERTEX
  5
211F
  8
CYAN
 10
34.381290561386791
 20
7.8826521314376441
 30
0.0
  0
VERTEX
  5
2120
  8
CYAN
 10
33.23758337741252
 20
8.1763911349741392
 30
0.0
 42
-0.5704212809705102
  0
VERTEX
  5
2121
  8
CYAN
 10
33.106338288947207
 20
8.6326240538098631
 30
0.0
 42
-0.2678132555232917
  0
VERTEX
  5
2122
  8
CYAN
 10
35.193760146972281
 20
9.2763499571884953
 30
0.0
 42
-0.3222441641884013
  0
VERTEX
  5
2123
  8
CYAN
 10
38.156149249664637
 20
5.9327251229771401
 30
0.0
  0
VERTEX
  5
2124
  8
CYAN
 10
38.212397144007149
 20
5.3702461795961884
 30
0.0
 42
0.5248363216650618
  0
VERTEX
  5
2125
  8
CYAN
 10
38.837348195793489
 20
5.0264962679565404
 30
0.0
 42
-0.2360979530428453
  0
VERTEX
  5
2126
  8
CYAN
 10
39.062365325361341
 20
5.026509048676024
 30
0.0
  0
VERTEX
  5
2127
  8
CYAN
 10
39.381103393505008
 20
4.8015174711628532
 30
0.0
  0
SEQEND
  5
2128
  8
CYAN
  0
POLYLINE
  5
1067
  8
CYAN
 66
     1
 10
0.0
 20
0.0
 30
0.0
 70
     1
  0
VERTEX
  5
2129
  8
CYAN
 10
-20.08543389938232
 20
20.13871760929608
 30
0.0
  0
VERTEX
  5
212A
  8
CYAN
 10
-19.604201914092268
 20
20.21683968483017
 30
0.0
 42
0.2383829476834418
  0
VERTEX
  5
212B
  8
CYAN
 10
-19.141719227181088
 20
20.548077284836779
 30
0.0
  0
VERTEX
  5
212C
  8
CYAN
 10
-19.022973672192549
 20
20.791818160865901
 30
0.0
 42
-0.1668605134335038
  0
VERTEX
  5
212D
  8
CYAN
 10
-18.72923466823913
 20
21.073057632495608
 30
0.0
  0
VERTEX
  5
212E
  8
CYAN
 10
-18.672986773121782
 20
21.09805669699222
 30
0.0
 42
0.6874847953931647
  0
VERTEX
  5
212F
  8
CYAN
 10
-18.716735136792838
 20
21.79803049370695
 30
0.0
  0
VERTEX
  5
2130
  8
CYAN
 10
-19.047972736373541
 20
21.904276515797768
 30
0.0
  0
VERTEX
  5
2131
  8
CYAN
 10
-19.385460102610111
 20
21.016809737916422
 30
0.0
 42
-0.9695392768129718
  0
VERTEX
  5
2132
  8
CYAN
 10
-19.560453551815101
 20
21.085557164275681
 30
0.0
  0
VERTEX
  5
2133
  8
CYAN
 10
-19.229215951560491
 20
21.960524410239159
 30
0.0
  0
VERTEX
  5
2134
  8
CYAN
 10
-19.247965250074241
 20
21.966774176410421
 30
0.0
 42
0.3988054548770902
  0
VERTEX
  5
2135
  8
CYAN
 10
-19.710447936709421
 20
21.741782598938119
 30
0.0
  0
VERTEX
  5
2136
  8
CYAN
 10
-20.010436706800309
 20
20.966811609538489
 30
0.0
 42
-0.2242687285070458
  0
VERTEX
  5
2137
  8
CYAN
 10
-20.472919393547709
 20
20.523078221002869
 30
0.0
  0
VERTEX
  5
2138
  8
CYAN
 10
-21.15414389102062
 20
20.298086643859399
 30
0.0
 42
0.6050090100586099
  0
VERTEX
  5
2139
  8
CYAN
 10
-21.241640616893498
 20
19.748107231738231
 30
0.0
  0
VERTEX
  5
213A
  8
CYAN
 10
-18.947976480760421
 20
18.060670401344389
 30
0.0
 42
-0.3161995865362599
  0
VERTEX
  5
213B
  8
CYAN
 10
-18.766733266133201
 20
17.51069098424701
 30
0.0
  0
VERTEX
  5
213C
  8
CYAN
 10
-18.87922905256076
 20
17.14195479538829
 30
0.0
 42
0.4703648757242624
  0
VERTEX
  5
213D
  8
CYAN
 10
-18.735484434497451
 20
16.923212980991131
 30
0.0
  0
VERTEX
  5
213E
  8
CYAN
 10
-18.529242155321349
 20
17.135705026429459
 30
0.0
  0
VERTEX
  5
213F
  8
CYAN
 10
-18.422996132563281
 20
17.516940755149591
 30
0.0
 42
0.299195573469572
  0
VERTEX
  5
2140
  8
CYAN
 10
-18.635488184975621
 20
18.17316619493241
 30
0.0
  0
VERTEX
  5
2141
  8
CYAN
 10
-20.641663077332488
 20
19.785605828042488
 30
0.0
 42
-0.6420723272492621
  0
VERTEX
  5
2142
  8
CYAN
 10
-20.566665883751611
 20
20.06059553391653
 30
0.0
  0
VERTEX
  5
2143
  8
CYAN
 10
-20.151358202326019
 20
20.128015612065461
 30
0.0
  0
SEQEND
  5
2144
  8
CYAN
  0
POLYLINE
  5
1081
  8
CYAN
 66
     1
 10
0.0
 20
0.0
 30
0.0
 70
     1
  0
VERTEX
  5
2145
  8
CYAN
 10
-11.45815211625688
 20
20.349364056804529
 30
0.0
 42
0.6096647278879414
  0
VERTEX
  5
2146
  8
CYAN
 10
-11.72064228580993
 20
20.836845808131368
 30
0.0
  0
VERTEX
  5
2147
  8
CYAN
 10
-14.5705356116839
 20
20.780597913541762
 30
0.0
 42
-0.3154628467832131
  0
VERTEX
  5
2148
  8
CYAN
 10
-15.04551782401842
 20
21.09933598185615
 30
0.0
  0
VERTEX
  5
2149
  8
CYAN
 10
-15.183012677127961
 20
21.46182241278127
 30
0.0
 42
0.4782936453869258
  0
VERTEX
  5
214A
  8
CYAN
 10
-15.43300331865524
 20
21.549319137312992
 30
0.0
  0
VERTEX
  5
214B
  8
CYAN
 10
-15.464252148863791
 20
21.25558013335268
 30
0.0
  0
VERTEX
  5
214C
  8
CYAN
 10
-15.31425776511055
 20
20.886843939959309
 30
0.0
 42
0.2981723446370578
  0
VERTEX
  5
214D
  8
CYAN
 10
-14.75177881935841
 20
20.499358442297911
 30
0.0
  0
VERTEX
  5
214E
  8
CYAN
 10
-12.176875211608261
 20
20.44311054795385
 30
0.0
 42
-0.6579056785163716
  0
VERTEX
  5
214F
  8
CYAN
 10
-12.06437941602961
 20
20.180620381470391
 30
0.0
  0
VERTEX
  5
2150
  8
CYAN
 10
-12.739354156088011
 20
19.468147044742079
 30
0.0
 42
0.2398080999398767
  0
VERTEX
  5
2151
  8
CYAN
 10
-12.895598306473399
 20
18.924417399755448
 30
0.0
  0
VERTEX
  5
2152
  8
CYAN
 10
-12.84560017785482
 20
18.66192722450791
 30
0.0
 42
-0.1696495281427115
  0
VERTEX
  5
2153
  8
CYAN
 10
-12.90809783876591
 20
18.25569243370834
 30
0.0
  0
VERTEX
  5
2154
  8
CYAN
 10
-12.933096902879861
 20
18.19944453945196
 30
0.0
 42
0.6840871038351279
  0
VERTEX
  5
2155
  8
CYAN
 10
-12.476864003114351
 20
17.674464184290802
 30
0.0
  0
VERTEX
  5
2156
  8
CYAN
 10
-12.14562638166387
 20
17.793209746697581
 30
0.0
  0
VERTEX
  5
2157
  8
CYAN
 10
-12.42061608757381
 20
18.69942582299171
 30
0.0
 42
-0.9596342154460522
  0
VERTEX
  5
2158
  8
CYAN
 10
-12.23937287229924
 20
18.755673717151399
 30
0.0
  0
VERTEX
  5
2159
  8
CYAN
 10
-11.97063293248552
 20
17.855707407092421
 30
0.0
  0
VERTEX
  5
215A
  8
CYAN
 10
-11.95188363391444
 20
17.86820693789598
 30
0.0
 42
0.3987226573789849
  0
VERTEX
  5
215B
  8
CYAN
 10
-11.720642292616761
 20
18.324439866462988
 30
0.0
  0
VERTEX
  5
215C
  8
CYAN
 10
-11.95813339928096
 20
19.118160143987851
 30
0.0
 42
-0.226068314190194
  0
VERTEX
  5
215D
  8
CYAN
 10
-11.85813714386102
 20
19.755636281458241
 30
0.0
  0
VERTEX
  5
215E
  8
CYAN
 10
-11.49511067681007
 20
20.29450369347493
 30
0.0
  0
SEQEND
  5
215F
  8
CYAN
  0
POLYLINE
  5
10B3
  8
CYAN
 66
     1
 10
0.0
 20
0.0
 30
0.0
 70
     1
  0
VERTEX
  5
2160
  8
CYAN
 10
-6.331029477108661
 20
19.490961229380169
 30
0.0
 42
0.6056789333964942
  0
VERTEX
  5
2161
  8
CYAN
 10
-6.306030412839382
 20
20.040940640982878
 30
0.0
  0
VERTEX
  5
2162
  8
CYAN
 10
-8.7684382332881956
 20
21.478386830584999
 30
0.0
 42
-0.3120898427529481
  0
VERTEX
  5
2163
  8
CYAN
 10
-9.0059293428829932
 20
21.997117411661058
 30
0.0
  0
VERTEX
  5
2164
  8
CYAN
 10
-8.9371819162843522
 20
22.378353140980821
 30
0.0
 42
0.4823308480227568
  0
VERTEX
  5
2165
  8
CYAN
 10
-9.0996758332710943
 20
22.584595420351189
 30
0.0
  0
VERTEX
  5
2166
  8
CYAN
 10
-9.2809190484786726
 20
22.347104310768849
 30
0.0
  0
VERTEX
  5
2167
  8
CYAN
 10
-9.3434167087713114
 20
21.953369050925211
 30
0.0
 42
0.2987723677458832
  0
VERTEX
  5
2168
  8
CYAN
 10
-9.0684270034866312
 20
21.328392446249651
 30
0.0
  0
VERTEX
  5
2169
  8
CYAN
 10
-6.899758186991984
 20
19.940944384976401
 30
0.0
 42
-0.6631683281553574
  0
VERTEX
  5
216A
  8
CYAN
 10
-6.9435065495428478
 20
19.659704913180651
 30
0.0
  0
VERTEX
  5
216B
  8
CYAN
 10
-7.8872212208925339
 20
19.403464505728081
 30
0.0
 42
0.2377248748803326
  0
VERTEX
  5
216C
  8
CYAN
 10
-8.3059555463794137
 20
19.022228777378992
 30
0.0
  0
VERTEX
  5
216D
  8
CYAN
 10
-8.399702037433272
 20
18.77223813456871
 30
0.0
 42
-0.1691965847500909
  0
VERTEX
  5
216E
  8
CYAN
 10
-8.6621922108459071
 20
18.459749833607191
 30
0.0
  0
VERTEX
  5
216F
  8
CYAN
 10
-8.718440105099031
 20
18.422251237438442
 30
0.0
 42
0.677032977843316
  0
VERTEX
  5
2170
  8
CYAN
 10
-8.5934447678123131
 20
17.734776969444091
 30
0.0
  0
VERTEX
  5
2171
  8
CYAN
 10
-8.2559574185017688
 20
17.666029546436391
 30
0.0
  0
VERTEX
  5
2172
  8
CYAN
 10
-8.0122165428820615
 20
18.578495388499942
 30
0.0
 42
-0.9603683061660632
  0
VERTEX
  5
2173
  8
CYAN
 10
-7.8309733276685103
 20
18.534747026224981
 30
0.0
  0
VERTEX
  5
2174
  8
CYAN
 10
-8.0684644372510732
 20
17.62853095016419
 30
0.0
  0
VERTEX
  5
2175
  8
CYAN
 10
-8.0497151393365112
 20
17.622281182847129
 30
0.0
 42
0.3989451218915392
  0
VERTEX
  5
2176
  8
CYAN
 10
-7.6122315160775589
 20
17.89727088865558
 30
0.0
  0
VERTEX
  5
2177
  8
CYAN
 10
-7.3997394706493989
 20
18.697240942027008
 30
0.0
 42
-0.2256266683566077
  0
VERTEX
  5
2178
  8
CYAN
 10
-6.9872549108807931
 20
19.190972459647892
 30
0.0
  0
VERTEX
  5
2179
  8
CYAN
 10
-6.3920040864371961
 20
19.463087122256361
 30
0.0
  0
SEQEND
  5
217A
  8
CYAN
  0
POLYLINE
  5
10CC
  8
CYAN
 66
     1
 10
0.0
 20
0.0
 30
0.0
 70
     1
  0
VERTEX
  5
217B
  8
CYAN
 10
-21.16951559306526
 20
11.31596388797144
 30
0.0
  0
VERTEX
  5
217C
  8
CYAN
 10
-21.38825740411367
 20
11.55657988011256
 30
0.0
 42
-0.1500264710803602
  0
VERTEX
  5
217D
  8
CYAN
 10
-21.463254596798929
 20
11.72532356335225
 30
0.0
  0
VERTEX
  5
217E
  8
CYAN
 10
-21.5757503854839
 20
12.46904572194695
 30
0.0
 42
0.2013663817293338
  0
VERTEX
  5
217F
  8
CYAN
 10
-21.650747577987548
 20
12.594041043267991
 30
0.0
  0
VERTEX
  5
2180
  8
CYAN
 10
-22.05073260395967
 20
12.86278098259387
 30
0.0
 42
-0.4142135645560808
  0
VERTEX
  5
2181
  8
CYAN
 10
-22.10073073251932
 20
13.12527115730958
 30
0.0
  0
VERTEX
  5
2182
  8
CYAN
 10
-21.9069879856097
 20
13.406510628630009
 30
0.0
  0
VERTEX
  5
2183
  8
CYAN
 10
-21.05701980375559
 20
12.8315321526744
 30
0.0
 42
0.3987058219615176
  0
VERTEX
  5
2184
  8
CYAN
 10
-20.92577471303867
 20
12.85653122237693
 30
0.0
 42
0.4307799341829543
  0
VERTEX
  5
2185
  8
CYAN
 10
-20.950773780759629
 20
12.98777630354269
 30
0.0
  0
VERTEX
  5
2186
  8
CYAN
 10
-21.806991728843389
 20
13.56275477962814
 30
0.0
  0
VERTEX
  5
2187
  8
CYAN
 10
-21.613248982263858
 20
13.850244017141661
 30
0.0
 42
-0.4142135675384263
  0
VERTEX
  5
2188
  8
CYAN
 10
-21.350758806022291
 20
13.90024214496119
 30
0.0
  0
VERTEX
  5
2189
  8
CYAN
 10
-20.95702354794939
 20
13.631502206911421
 30
0.0
 42
0.2127983387425533
  0
VERTEX
  5
218A
  8
CYAN
 10
-20.807029162501919
 20
13.60650314213639
 30
0.0
  0
VERTEX
  5
218B
  8
CYAN
 10
-20.075806535106839
 20
13.781496591427519
 30
0.0
 42
-0.1492467016776553
  0
VERTEX
  5
218C
  8
CYAN
 10
-19.89456331968924
 20
13.775246825084549
 30
0.0
  0
VERTEX
  5
218D
  8
CYAN
 10
-19.282086240950981
 20
13.55025524512885
 30
0.0
 42
-0.3846368018239008
  0
VERTEX
  5
218E
  8
CYAN
 10
-19.088343501072188
 20
13.18151905130253
 30
0.0
  0
VERTEX
  5
218F
  8
CYAN
 10
-19.13209186334198
 20
13.00027583618485
 30
0.0
  0
VERTEX
  5
2190
  8
CYAN
 10
-20.163303260220829
 20
13.262766009935831
 30
0.0
  0
VERTEX
  5
2191
  8
CYAN
 10
-20.257049750846178
 20
12.9002795795178
 30
0.0
  0
VERTEX
  5
2192
  8
CYAN
 10
-19.225838353967319
 20
12.63778940576683
 30
0.0
  0
VERTEX
  5
2193
  8
CYAN
 10
-19.282086248306332
 20
12.431547126523791
 30
0.0
 42
0.1847930242639435
  0
VERTEX
  5
2194
  8
CYAN
 10
-19.26333695026775
 20
12.30030203939555
 30
0.0
  0
VERTEX
  5
2195
  8
CYAN
 10
-19.088343501156231
 20
11.95031514117251
 30
0.0
 42
-0.2697625036003481
  0
VERTEX
  5
2196
  8
CYAN
 10
-19.113342565335039
 20
11.637826838991799
 30
0.0
 42
-0.2740408733113204
  0
VERTEX
  5
2197
  8
CYAN
 10
-19.394582037431071
 20
11.50033198620171
 30
0.0
  0
VERTEX
  5
2198
  8
CYAN
 10
-19.78831729724477
 20
11.531580816345651
 30
0.0
 42
0.1794075031912935
  0
VERTEX
  5
2199
  8
CYAN
 10
-19.9133126187266
 20
11.4940822201235
 30
0.0
  0
VERTEX
  5
219A
  8
CYAN
 10
-20.082056301833269
 20
11.36908689930376
 30
0.0
  0
VERTEX
  5
219B
  8
CYAN
 10
-20.71328267204396
 20
12.2190550809736
 30
0.0
  0
VERTEX
  5
219C
  8
CYAN
 10
-21.01327144204507
 20
12.00031326951445
 30
0.0
  0
VERTEX
  5
219D
  8
CYAN
 10
-20.38204507183438
 20
11.14409532180292
 30
0.0
  0
VERTEX
  5
219E
  8
CYAN
 10
-20.532039456413671
 20
11.03159953336845
 30
0.0
 42
-0.3895953291384726
  0
VERTEX
  5
219F
  8
CYAN
 10
-20.950773781591892
 20
11.07534789535074
 30
0.0
  0
VERTEX
  5
21A0
  8
CYAN
 10
-21.122761226101058
 20
11.264534084320751
 30
0.0
  0
SEQEND
  5
21A1
  8
CYAN
  0
POLYLINE
  5
10F1
  8
CYAN
 66
     1
 10
0.0
 20
0.0
 30
0.0
 70
     1
  0
VERTEX
  5
21A2
  8
CYAN
 10
-20.45391032578236
 20
5.1812203035097033
 30
0.0
  0
VERTEX
  5
21A3
  8
CYAN
 10
-20.575780765382149
 20
5.3624635213723879
 30
0.0
 42
0.1588656625733944
  0
VERTEX
  5
21A4
  8
CYAN
 10
-20.882019299779301
 20
5.5999546285238164
 30
0.0
  0
VERTEX
  5
21A5
  8
CYAN
 10
-20.71327561673121
 20
6.4686721078847649
 30
0.0
 42
0.3910916646345716
  0
VERTEX
  5
21A6
  8
CYAN
 10
-20.782023042965609
 20
6.5749181310075286
 30
0.0
 42
0.4142135651861297
  0
VERTEX
  5
21A7
  8
CYAN
 10
-20.894518832047389
 20
6.4999209378415239
 30
0.0
  0
VERTEX
  5
21A8
  8
CYAN
 10
-21.063262514240481
 20
5.6374532271451869
 30
0.0
 42
0.1597181413142507
  0
VERTEX
  5
21A9
  8
CYAN
 10
-21.438248476623809
 20
5.531207204514236
 30
0.0
  0
VERTEX
  5
21AA
  8
CYAN
 10
-21.806984672683399
 20
5.2874663291492592
 30
0.0
 42
-0.4061265064461949
  0
VERTEX
  5
21AB
  8
CYAN
 10
-22.063225080920429
 20
5.3374644572012011
 30
0.0
  0
VERTEX
  5
21AC
  8
CYAN
 10
-22.169471103597608
 20
5.4937086081970463
 30
0.0
  0
VERTEX
  5
21AD
  8
CYAN
 10
-21.67573958628553
 20
5.8249462084300978
 30
0.0
 42
1.0470070894884891
  0
VERTEX
  5
21AE
  8
CYAN
 10
-21.781985608963961
 20
5.9811903594926799
 30
0.0
  0
VERTEX
  5
21AF
  8
CYAN
 10
-22.275717126306329
 20
5.6499527592503229
 30
0.0
  0
VERTEX
  5
21B0
  8
CYAN
 10
-22.37571338294228
 20
5.8061969102508684
 30
0.0
 42
-0.4142135666915581
  0
VERTEX
  5
21B1
  8
CYAN
 10
-22.325715252102139
 20
6.0686870855238233
 30
0.0
  0
VERTEX
  5
21B2
  8
CYAN
 10
-21.956979057714879
 20
6.3186777257824431
 30
0.0
 42
0.5567225767762344
  0
VERTEX
  5
21B3
  8
CYAN
 10
-21.963228824172251
 20
6.6311660276922604
 30
0.0
  0
VERTEX
  5
21B4
  8
CYAN
 10
-22.50070870335265
 20
6.96240362766176
 30
0.0
 42
-0.3925421531826621
  0
VERTEX
  5
21B5
  8
CYAN
 10
-22.57570589607645
 20
7.2061445032299227
 30
0.0
 42
-0.0267343658642722
  0
VERTEX
  5
21B6
  8
CYAN
 10
-22.475709640011551
 20
7.387387717194466
 30
0.0
  0
VERTEX
  5
21B7
  8
CYAN
 10
-21.913230696462119
 20
7.0436505850241433
 30
0.0
 42
1.0292730994630701
  0
VERTEX
  5
21B8
  8
CYAN
 10
-21.819484205601661
 20
7.2061445019645367
 30
0.0
  0
VERTEX
  5
21B9
  8
CYAN
 10
-22.369463618109741
 20
7.5436318670025688
 30
0.0
 42
-0.1289013527155681
  0
VERTEX
  5
21BA
  8
CYAN
 10
-21.594492628942159
 20
8.1498591730475365
 30
0.0
  0
VERTEX
  5
21BB
  8
CYAN
 10
-21.357001519338091
 20
7.4436356102987213
 30
0.0
 42
1.0
  0
VERTEX
  5
21BC
  8
CYAN
 10
-21.182008070146122
 20
7.5061332706420254
 30
0.0
  0
VERTEX
  5
21BD
  8
CYAN
 10
-21.400749881616751
 20
8.1623587050539363
 30
0.0
  0
VERTEX
  5
21BE
  8
CYAN
 10
-21.319502923074769
 20
8.1873577692206911
 30
0.0
  0
VERTEX
  5
21BF
  8
CYAN
 10
-21.169508538033199
 20
8.1561089390009371
 30
0.0
 42
-0.1869990477449395
  0
VERTEX
  5
21C0
  8
CYAN
 10
-21.094511345622831
 20
8.112360576699654
 30
0.0
 42
0.1766024427047926
  0
VERTEX
  5
21C1
  8
CYAN
 10
-20.544531932043039
 20
7.7811229755221571
 30
0.0
 42
0.176121735849125
  0
VERTEX
  5
21C2
  8
CYAN
 10
-19.91330556254411
 20
7.8811192320120593
 30
0.0
 42
-0.1779993073432925
  0
VERTEX
  5
21C3
  8
CYAN
 10
-19.825808839226308
 20
7.8936187646272531
 30
0.0
  0
VERTEX
  5
21C4
  8
CYAN
 10
-19.675814452610371
 20
7.8623699340822579
 30
0.0
  0
VERTEX
  5
21C5
  8
CYAN
 10
-19.607067026151771
 20
7.8061220397070521
 30
0.0
  0
VERTEX
  5
21C6
  8
CYAN
 10
-20.06329994740485
 20
7.2873914580083534
 30
0.0
 42
1.0000000000000051
  0
VERTEX
  5
21C7
  8
CYAN
 10
-19.925805094294169
 20
7.1623961373896883
 30
0.0
  0
VERTEX
  5
21C8
  8
CYAN
 10
-19.438323343074501
 20
7.7186253150634201
 30
0.0
 42
-0.1286306620280941
  0
VERTEX
  5
21C9
  8
CYAN
 10
-18.95084159242446
 20
6.8686571340050993
 30
0.0
  0
VERTEX
  5
21CA
  8
CYAN
 10
-19.588317728915289
 20
6.7624111112566254
 30
0.0
 42
1.004678337347461
  0
VERTEX
  5
21CB
  8
CYAN
 10
-19.563318664318139
 20
6.5811678961143318
 30
0.0
  0
VERTEX
  5
21CC
  8
CYAN
 10
-18.91334299622315
 20
6.6811641527443344
 30
0.0
 42
-0.0267647960359719
  0
VERTEX
  5
21CD
  8
CYAN
 10
-18.888343932165078
 20
6.474921873965469
 30
0.0
 42
-0.3854501891290767
  0
VERTEX
  5
21CE
  8
CYAN
 10
-19.0508378492794
 20
6.281179126755406
 30
0.0
  0
VERTEX
  5
21CF
  8
CYAN
 10
-19.67581445398617
 20
6.1811828700023232
 30
0.0
 42
0.5382652486034002
  0
VERTEX
  5
21D0
  8
CYAN
 10
-19.80080977456657
 20
5.8936936324570519
 30
0.0
  0
VERTEX
  5
21D1
  8
CYAN
 10
-19.55081913212463
 20
5.518707668794141
 30
0.0
 42
-0.4142135608751318
  0
VERTEX
  5
21D2
  8
CYAN
 10
-19.600817261204249
 20
5.2562174958867534
 30
0.0
  0
VERTEX
  5
21D3
  8
CYAN
 10
-19.75706141212288
 20
5.1562212392988238
 30
0.0
  0
VERTEX
  5
21D4
  8
CYAN
 10
-20.088299012322992
 20
5.649952756578223
 30
0.0
 42
0.9551033703850375
  0
VERTEX
  5
21D5
  8
CYAN
 10
-20.244543163384421
 20
5.5437067338982953
 30
0.0
  0
VERTEX
  5
21D6
  8
CYAN
 10
-19.913305563187201
 20
5.049975216623185
 30
0.0
  0
VERTEX
  5
21D7
  8
CYAN
 10
-20.069549713871961
 20
4.9437291941575454
 30
0.0
 42
-0.4224467591022715
  0
VERTEX
  5
21D8
  8
CYAN
 10
-20.332039888033741
 20
4.9999770883963732
 30
0.0
  0
VERTEX
  5
21D9
  8
CYAN
 10
-20.416182923773139
 20
5.1251128851435341
 30
0.0
  0
SEQEND
  5
21DA
  8
CYAN
  0
POLYLINE
  5
1128
  8
CYAN
 66
     1
 10
0.0
 20
0.0
 30
0.0
 70
     1
  0
VERTEX
  5
21DB
  8
CYAN
 10
-12.56657757782877
 20
13.695647802120551
 30
0.0
  0
VERTEX
  5
21DC
  8
CYAN
 10
-12.822225494546149
 20
14.032026639925149
 30
0.0
 42
-0.2397742115311497
  0
VERTEX
  5
21DD
  8
CYAN
 10
-12.92847151775557
 20
14.58825581670035
 30
0.0
  0
VERTEX
  5
21DE
  8
CYAN
 10
-12.853474332490039
 20
14.844496199721281
 30
0.0
 42
0.1671424900880717
  0
VERTEX
  5
21DF
  8
CYAN
 10
-12.872223623045629
 20
15.250731018530971
 30
0.0
  0
VERTEX
  5
21E0
  8
CYAN
 10
-12.890972920964639
 20
15.31322867840804
 30
0.0
 42
-0.6896631751154499
  0
VERTEX
  5
21E1
  8
CYAN
 10
-12.378492105485069
 20
15.788210897623919
 30
0.0
  0
VERTEX
  5
21E2
  8
CYAN
 10
-12.06600380348906
 20
15.63196674662592
 30
0.0
  0
VERTEX
  5
21E3
  8
CYAN
 10
-12.42849023387719
 20
14.76324926691577
 30
0.0
 42
1.0000000000000071
  0
VERTEX
  5
21E4
  8
CYAN
 10
-12.2534967848181
 20
14.688252074154979
 30
0.0
  0
VERTEX
  5
21E5
  8
CYAN
 10
-11.89726012039652
 20
15.55071978801776
 30
0.0
  0
VERTEX
  5
21E6
  8
CYAN
 10
-11.8785108221364
 20
15.544470023541299
 30
0.0
 42
-0.3988821388499615
  0
VERTEX
  5
21E7
  8
CYAN
 10
-11.6972676072615
 20
15.063238037714431
 30
0.0
  0
VERTEX
  5
21E8
  8
CYAN
 10
-12.01600567475934
 20
14.294516816102
 30
0.0
 42
0.2233327492565244
  0
VERTEX
  5
21E9
  8
CYAN
 10
-11.984756844704149
 20
13.65704067759266
 30
0.0
  0
VERTEX
  5
21EA
  8
CYAN
 10
-11.64101971303764
 20
13.01956454250206
 30
0.0
 42
-0.6034951567422128
  0
VERTEX
  5
21EB
  8
CYAN
 10
-11.9535080142788
 20
12.56333162113774
 30
0.0
  0
VERTEX
  5
21EC
  8
CYAN
 10
-14.78465203243668
 20
12.91331851962965
 30
0.0
 42
0.3168697422094346
  0
VERTEX
  5
21ED
  8
CYAN
 10
-15.290883083653609
 20
12.6445785756306
 30
0.0
  0
VERTEX
  5
21EE
  8
CYAN
 10
-15.465876530698001
 20
12.30084144750769
 30
0.0
 42
-0.4784667329973546
  0
VERTEX
  5
21EF
  8
CYAN
 10
-15.722116938396081
 20
12.232094021093531
 30
0.0
  0
VERTEX
  5
21F0
  8
CYAN
 10
-15.722116938396081
 20
12.53208279108366
 30
0.0
  0
VERTEX
  5
21F1
  8
CYAN
 10
-15.53462395725222
 20
12.88206968921884
 30
0.0
 42
-0.2984407829859107
  0
VERTEX
  5
21F2
  8
CYAN
 10
-14.934646418012059
 20
13.213307289239429
 30
0.0
  0
VERTEX
  5
21F3
  8
CYAN
 10
-12.36599257370573
 20
13.000815243725039
 30
0.0
 42
0.6459635774563206
  0
VERTEX
  5
21F4
  8
CYAN
 10
-12.22849772156742
 20
13.25080588599416
 30
0.0
  0
VERTEX
  5
21F5
  8
CYAN
 10
-12.52536160811575
 20
13.64141626303144
 30
0.0
  0
SEQEND
  5
21F6
  8
CYAN
  0
POLYLINE
  5
1142
  8
CYAN
 66
     1
 10
0.0
 20
0.0
 30
0.0
 70
     1
  0
VERTEX
  5
21F7
  8
CYAN
 10
-3.0341590629398061
 20
19.874353009775191
 30
0.0
  0
VERTEX
  5
21F8
  8
CYAN
 10
-3.2466511083228391
 20
20.314961515642949
 30
0.0
 42
-0.6414913635224645
  0
VERTEX
  5
21F9
  8
CYAN
 10
-3.0654078948072141
 20
20.527453561609541
 30
0.0
  0
VERTEX
  5
21FA
  8
CYAN
 10
-0.5905005408923634
 20
19.814980232452239
 30
0.0
 42
0.2987210463866769
  0
VERTEX
  5
21FB
  8
CYAN
 10
0.0657248936499557
 20
20.01497274549207
 30
0.0
  0
VERTEX
  5
21FC
  8
CYAN
 10
0.3157155354170546
 20
20.321211281656769
 30
0.0
  0
VERTEX
  5
21FD
  8
CYAN
 10
0.3782131958333777
 20
20.614950285613499
 30
0.0
 42
0.4843751548606986
  0
VERTEX
  5
21FE
  8
CYAN
 10
0.1094732561073634
 20
20.602450753628759
 30
0.0
  0
VERTEX
  5
21FF
  8
CYAN
 10
-0.1280178535480103
 20
20.296212217494212
 30
0.0
 42
-0.3142069761639335
  0
VERTEX
  5
2200
  8
CYAN
 10
-0.6779972658070754
 20
20.133718300741229
 30
0.0
  0
VERTEX
  5
2201
  8
CYAN
 10
-3.3778961955281752
 20
21.046184142730311
 30
0.0
 42
0.6050090102013445
  0
VERTEX
  5
2202
  8
CYAN
 10
-3.777881221945576
 20
20.658698646865741
 30
0.0
  0
VERTEX
  5
2203
  8
CYAN
 10
-3.571638943878173
 20
19.971224386641062
 30
0.0
 42
-0.2260683145602829
  0
VERTEX
  5
2204
  8
CYAN
 10
-3.6716351993350962
 20
19.333748248211201
 30
0.0
  0
VERTEX
  5
2205
  8
CYAN
 10
-4.134117886457223
 20
18.6462739835702
 30
0.0
 42
0.3967104753724003
  0
VERTEX
  5
2206
  8
CYAN
 10
-4.0466211626063027
 20
18.14004293379908
 30
0.0
  0
VERTEX
  5
2207
  8
CYAN
 10
-4.0341216305256173
 20
18.127543401718398
 30
0.0
  0
VERTEX
  5
2208
  8
CYAN
 10
-3.509141283059737
 20
18.9025143908347
 30
0.0
 42
-0.9551033704178871
  0
VERTEX
  5
2209
  8
CYAN
 10
-3.3528971319931671
 20
18.796268368161801
 30
0.0
  0
VERTEX
  5
220A
  8
CYAN
 10
-3.8841272449625821
 20
18.00879784623147
 30
0.0
  0
VERTEX
  5
220B
  8
CYAN
 10
-3.6091375392238589
 20
17.802555566927431
 30
0.0
 42
0.6922531040376853
  0
VERTEX
  5
220C
  8
CYAN
 10
-3.009159999295651
 20
18.16504199812206
 30
0.0
  0
VERTEX
  5
220D
  8
CYAN
 10
-3.021659531151597
 20
18.227539657390761
 30
0.0
 42
-0.1654684692722814
  0
VERTEX
  5
220E
  8
CYAN
 10
-2.9591618696727231
 20
18.62752468632306
 30
0.0
  0
VERTEX
  5
220F
  8
CYAN
 10
-2.8341665497637112
 20
18.865015794151279
 30
0.0
 42
0.2407677077986005
  0
VERTEX
  5
2210
  8
CYAN
 10
-2.8216670152942802
 20
19.43374449923083
 30
0.0
  0
VERTEX
  5
2211
  8
CYAN
 10
-3.0041821454286701
 20
19.812194989652181
 30
0.0
  0
SEQEND
  5
2212
  8
CYAN
  0
POLYLINE
  5
115C
  8
CYAN
 66
     1
 10
0.0
 20
0.0
 30
0.0
 70
     1
  0
VERTEX
  5
2213
  8
CYAN
 10
-6.5159394654795992
 20
13.572974634324961
 30
0.0
  0
VERTEX
  5
2214
  8
CYAN
 10
-6.8440521817655631
 20
13.932336180741281
 30
0.0
 42
-0.239808100550866
  0
VERTEX
  5
2215
  8
CYAN
 10
-7.0002963333137824
 20
14.476065826730361
 30
0.0
  0
VERTEX
  5
2216
  8
CYAN
 10
-6.9440484389133426
 20
14.7385560005991
 30
0.0
 42
0.1670588035419426
  0
VERTEX
  5
2217
  8
CYAN
 10
-7.0002963332373147
 20
15.14479079348312
 30
0.0
  0
VERTEX
  5
2218
  8
CYAN
 10
-7.0315451633121251
 20
15.201038687595689
 30
0.0
 42
-0.6816557533545887
  0
VERTEX
  5
2219
  8
CYAN
 10
-6.5628127106883101
 20
15.719769269218631
 30
0.0
  0
VERTEX
  5
221A
  8
CYAN
 10
-6.2378248759957371
 20
15.594773948183031
 30
0.0
  0
VERTEX
  5
221B
  8
CYAN
 10
-6.5190643478010113
 20
14.69480763839954
 30
0.0
 42
1.042063719496364
  0
VERTEX
  5
221C
  8
CYAN
 10
-6.3378211326968241
 20
14.63855974368829
 30
0.0
  0
VERTEX
  5
221D
  8
CYAN
 10
-6.0628314268504733
 20
15.532276287688919
 30
0.0
  0
VERTEX
  5
221E
  8
CYAN
 10
-6.0378323626007244
 20
15.51977675723494
 30
0.0
 42
-0.3943094335669739
  0
VERTEX
  5
221F
  8
CYAN
 10
-5.819090551038161
 20
15.057294070341021
 30
0.0
  0
VERTEX
  5
2220
  8
CYAN
 10
-6.0628314265834966
 20
14.26982354934837
 30
0.0
 42
0.2260506985728552
  0
VERTEX
  5
2221
  8
CYAN
 10
-5.9753346896980402
 20
13.632347392787601
 30
0.0
  0
VERTEX
  5
2222
  8
CYAN
 10
-5.5815994416460608
 20
13.03236987194648
 30
0.0
 42
-0.6165384515276302
  0
VERTEX
  5
2223
  8
CYAN
 10
-5.8503393802625023
 20
12.544888120843209
 30
0.0
  0
VERTEX
  5
2224
  8
CYAN
 10
-8.7002326968492785
 20
12.6386346115204
 30
0.0
 42
0.3155470505077116
  0
VERTEX
  5
2225
  8
CYAN
 10
-9.175214915504414
 20
12.32614631077079
 30
0.0
  0
VERTEX
  5
2226
  8
CYAN
 10
-9.3189595349354928
 20
11.96990964522421
 30
0.0
 42
-0.4782936460546836
  0
VERTEX
  5
2227
  8
CYAN
 10
-9.5689501766472862
 20
11.882412920517099
 30
0.0
  0
VERTEX
  5
2228
  8
CYAN
 10
-9.6001990068550889
 20
12.176151924470471
 30
0.0
  0
VERTEX
  5
2229
  8
CYAN
 10
-9.4439548660966874
 20
12.5448880966603
 30
0.0
 42
-0.298371283457757
  0
VERTEX
  5
222A
  8
CYAN
 10
-8.8752261492694302
 20
12.926123848980421
 30
0.0
  0
VERTEX
  5
222B
  8
CYAN
 10
-6.3003225368994871
 20
12.951122913178191
 30
0.0
 42
0.6579057005937841
  0
VERTEX
  5
222C
  8
CYAN
 10
-6.1878267480629283
 20
13.21361308667813
 30
0.0
  0
VERTEX
  5
222D
  8
CYAN
 10
-6.4715142123416518
 20
13.524318404697169
 30
0.0
  0
SEQEND
  5
222E
  8
CYAN
  0
POLYLINE
  5
1176
  8
CYAN
 66
     1
 10
0.0
 20
0.0
 30
0.0
 70
     1
  0
VERTEX
  5
222F
  8
CYAN
 10
27.919946215473772
 20
21.111346156734399
 30
0.0
 42
0.2590110653925648
  0
VERTEX
  5
2230
  8
CYAN
 10
27.794494027821809
 20
20.145873382401849
 30
0.0
 42
-0.3813479854094411
  0
VERTEX
  5
2231
  8
CYAN
 10
27.74449589971486
 20
19.989629231205591
 30
0.0
 42
-0.1715232159739244
  0
VERTEX
  5
2232
  8
CYAN
 10
20.41977008582834
 20
18.389689126064209
 30
0.0
 42
0.6977805177320569
  0
VERTEX
  5
2233
  8
CYAN
 10
20.37602172339324
 20
18.10219988822098
 30
0.0
 42
0.1794147935592901
  0
VERTEX
  5
2234
  8
CYAN
 10
28.031985125125018
 20
19.689640463237438
 30
0.0
 42
-0.2953142446733539
  0
VERTEX
  5
2235
  8
CYAN
 10
28.169479976603998
 20
19.68964046203001
 30
0.0
 42
0.1833562588609411
  0
VERTEX
  5
2236
  8
CYAN
 10
28.856954241458279
 20
19.527146545134212
 30
0.0
  0
VERTEX
  5
2237
  8
CYAN
 10
29.450682014766851
 20
19.602143737552129
 30
0.0
 42
0.1612030825276705
  0
VERTEX
  5
2238
  8
CYAN
 10
29.806918679368401
 20
19.77713718679508
 30
0.0
  0
VERTEX
  5
2239
  8
CYAN
 10
30.063159101481169
 20
20.027127826401209
 30
0.0
  0
VERTEX
  5
223A
  8
CYAN
 10
29.425682963710759
 20
20.670853730228181
 30
0.0
 42
-1.0240665667895961
  0
VERTEX
  5
223B
  8
CYAN
 10
29.563177818199328
 20
20.802098815516349
 30
0.0
  0
VERTEX
  5
223C
  8
CYAN
 10
30.194404188378702
 20
20.15837291324361
 30
0.0
  0
VERTEX
  5
223D
  8
CYAN
 10
30.213153486499529
 20
20.17087244532415
 30
0.0
 42
0.3384591363040135
  0
VERTEX
  5
223E
  8
CYAN
 10
30.319399508821711
 20
20.920844371029119
 30
0.0
  0
VERTEX
  5
223F
  8
CYAN
 10
30.0819083918026
 20
21.34582847517612
 30
0.0
 42
0.4243382354939011
  0
VERTEX
  5
2240
  8
CYAN
 10
29.300687644596479
 20
21.55207074036467
 30
0.0
 42
-0.1902940325255185
  0
VERTEX
  5
2241
  8
CYAN
 10
28.938201214607631
 20
21.495822846125701
 30
0.0
 42
0.2769055326416506
  0
VERTEX
  5
2242
  8
CYAN
 10
27.96149650900886
 20
21.163846972631411
 30
0.0
 42
0.0166969357491426
  0
SEQEND
  5
2243
  8
CYAN
  0
POLYLINE
  5
1189
  8
CYAN
 66
     1
 10
0.0
 20
0.0
 30
0.0
 70
     1
  0
VERTEX
  5
2244
  8
CYAN
 10
28.556965484582211
 20
20.839597411328441
 30
0.0
 42
0.2041614747248711
  0
VERTEX
  5
2245
  8
CYAN
 10
28.325724129088179
 20
20.708352308412572
 30
0.0
 42
0.1940265442826575
  0
VERTEX
  5
2246
  8
CYAN
 10
28.256976715155609
 20
20.458361682281861
 30
0.0
 42
0.4142135669700127
  0
VERTEX
  5
2247
  8
CYAN
 10
28.644462215537111
 20
20.15837291347664
 30
0.0
 42
0.4195457045268573
  0
VERTEX
  5
2248
  8
CYAN
 10
28.938201213697599
 20
20.545858407073641
 30
0.0
 42
0.4142135631355412
  0
SEQEND
  5
2249
  8
CYAN
  0
POLYLINE
  5
11EC
  8
CYAN
 66
     1
 10
0.0
 20
0.0
 30
0.0
 70
     1
  0
VERTEX
  5
224A
  8
CYAN
 10
-14.593494978879569
 20
6.4088376810599641
 30
0.0
 42
-0.3466899831470738
  0
VERTEX
  5
224B
  8
CYAN
 10
-14.68649871072312
 20
6.3268687268181907
 30
0.0
  0
VERTEX
  5
224C
  8
CYAN
 10
-15.842705428732961
 20
6.3268687265534949
 30
0.0
  0
VERTEX
  5
224D
  8
CYAN
 10
-15.842705428732961
 20
5.83313720933862
 30
0.0
 42
0.3575768939528254
  0
VERTEX
  5
224E
  8
CYAN
 10
-15.69271104363199
 20
5.6456442279914709
 30
0.0
  0
VERTEX
  5
224F
  8
CYAN
 10
-15.30522554885477
 20
5.5768968015056757
 30
0.0
 42
-0.2200521879935553
  0
VERTEX
  5
2250
  8
CYAN
 10
-15.17398046263709
 20
5.4831503112543922
 30
0.0
  0
VERTEX
  5
2251
  8
CYAN
 10
-15.061484674154601
 20
5.2769080323643092
 30
0.0
 42
0.2116985244199372
  0
VERTEX
  5
2252
  8
CYAN
 10
-14.93648935270279
 20
5.1831615408717839
 30
0.0
  0
VERTEX
  5
2253
  8
CYAN
 10
-14.50111356115886
 20
5.1012960074287879
 30
0.0
  0
VERTEX
  5
2254
  8
CYAN
 10
-14.205266724499429
 20
5.0456666877210852
 30
0.0
 42
0.3412091023891761
  0
VERTEX
  5
2255
  8
CYAN
 10
-13.84318783679231
 20
5.2491154289777162
 30
0.0
  0
VERTEX
  5
2256
  8
CYAN
 10
-13.811531465591781
 20
5.4144028844226391
 30
0.0
  0
VERTEX
  5
2257
  8
CYAN
 10
-14.6115015188541
 20
5.5706470354504356
 30
0.0
 42
-0.993181894351775
  0
VERTEX
  5
2258
  8
CYAN
 10
-14.574002923352509
 20
5.7518902507996907
 30
0.0
  0
VERTEX
  5
2259
  8
CYAN
 10
-13.77403286928649
 20
5.6018958656623106
 30
0.0
  0
VERTEX
  5
225A
  8
CYAN
 10
-13.742784039137019
 20
5.751890250379776
 30
0.0
 42
-0.272681918621466
  0
VERTEX
  5
225B
  8
CYAN
 10
-13.611538953203359
 20
5.8893851032905591
 30
0.0
  0
VERTEX
  5
225C
  8
CYAN
 10
-13.22405345827443
 20
6.0018808921376898
 30
0.0
 42
0.335413590300528
  0
VERTEX
  5
225D
  8
CYAN
 10
-12.90531538935025
 20
6.4206152226702651
 30
0.0
 42
0.3364973603539088
  0
VERTEX
  5
225E
  8
CYAN
 10
-13.224053457370569
 20
6.8455993078191524
 30
0.0
  0
VERTEX
  5
225F
  8
CYAN
 10
-13.611538952143761
 20
6.951845330579542
 30
0.0
 42
-0.2815583669053486
  0
VERTEX
  5
2260
  8
CYAN
 10
-13.74278403880853
 20
7.095589949814876
 30
0.0
  0
VERTEX
  5
2261
  8
CYAN
 10
-13.774032868977679
 20
7.2455843346267841
 30
0.0
  0
VERTEX
  5
2262
  8
CYAN
 10
-14.574002922973371
 20
7.0893401834557492
 30
0.0
 42
-1.0000000000000031
  0
VERTEX
  5
2263
  8
CYAN
 10
-14.611501518262379
 20
7.2768331648925031
 30
0.0
  0
VERTEX
  5
2264
  8
CYAN
 10
-13.811531465172671
 20
7.4268275498468181
 30
0.0
  0
VERTEX
  5
2265
  8
CYAN
 10
-13.84278029518677
 20
7.5580726359060284
 30
0.0
 42
0.4028058637706887
  0
VERTEX
  5
2266
  8
CYAN
 10
-14.20527960254994
 20
7.7955613253217972
 30
0.0
  0
VERTEX
  5
2267
  8
CYAN
 10
-14.936489352275681
 20
7.6580688934715768
 30
0.0
 42
0.2217421668476831
  0
VERTEX
  5
2268
  8
CYAN
 10
-15.061484673215469
 20
7.5643224029836862
 30
0.0
  0
VERTEX
  5
2269
  8
CYAN
 10
-15.173980462035241
 20
7.3643298895263074
 30
0.0
 42
-0.2304892385528259
  0
VERTEX
  5
226A
  8
CYAN
 10
-15.30522554877761
 20
7.2705833989882542
 30
0.0
  0
VERTEX
  5
226B
  8
CYAN
 10
-15.692711046413089
 20
7.1955862058975191
 30
0.0
 42
0.3556736193616228
  0
VERTEX
  5
226C
  8
CYAN
 10
-15.842705428457229
 20
7.014342992447852
 30
0.0
  0
VERTEX
  5
226D
  8
CYAN
 10
-15.842705428457229
 20
6.5143617080909477
 30
0.0
  0
VERTEX
  5
226E
  8
CYAN
 10
-14.68649871074458
 20
6.5143617080909539
 30
0.0
 42
-0.4516078779169182
  0
SEQEND
  5
226F
  8
CYAN
  0
POLYLINE
  5
1212
  8
CYAN
 66
     1
 10
0.0
 20
0.0
 30
0.0
 70
     1
  0
VERTEX
  5
2270
  8
CYAN
 10
11.198744589510261
 20
5.5249868034470477
 30
0.0
 42
0.1992140267536162
  0
VERTEX
  5
2271
  8
CYAN
 10
10.955003714218771
 20
5.5249868028599023
 30
0.0
 42
0.1986463206280229
  0
VERTEX
  5
2272
  8
CYAN
 10
10.78001026501264
 20
5.3562431182455921
 30
0.0
 42
0.4089965813140493
  0
VERTEX
  5
2273
  8
CYAN
 10
10.94250418296188
 20
4.937508795473855
 30
0.0
 42
0.4142135623158207
  0
VERTEX
  5
2274
  8
CYAN
 10
11.361238507552461
 20
5.106252479002233
 30
0.0
 42
0.4195451739897024
  0
SEQEND
  5
2275
  8
CYAN
  0
POLYLINE
  5
1217
  8
CYAN
 66
     1
 10
0.0
 20
0.0
 30
0.0
 70
     1
  0
VERTEX
  5
2276
  8
CYAN
 10
11.35498874157455
 20
6.1249643435200447
 30
0.0
 42
1.021121048023085
  0
VERTEX
  5
2277
  8
CYAN
 10
11.711225405855441
 20
5.931221596027326
 30
0.0
  0
VERTEX
  5
2278
  8
CYAN
 10
12.361201073913399
 20
7.2311729321432461
 30
0.0
 42
0.4244810476686627
  0
VERTEX
  5
2279
  8
CYAN
 10
12.28620388184209
 20
7.4499147442058566
 30
0.0
 42
0.388316875615595
  0
VERTEX
  5
227A
  8
CYAN
 10
12.086211368311989
 20
7.3811673176357582
 30
0.0
  0
SEQEND
  5
227B
  8
CYAN
  0
POLYLINE
  5
1225
  8
CYAN
 66
     1
 10
0.0
 20
0.0
 30
0.0
 70
     1
  0
VERTEX
  5
227C
  8
CYAN
 10
12.923680017803861
 20
9.1561008730070181
 30
0.0
 42
0.1990989436673398
  0
VERTEX
  5
227D
  8
CYAN
 10
12.711187972385201
 20
9.1561008730070181
 30
0.0
 42
5.0226283554312898
  0
SEQEND
  5
227E
  8
CYAN
  0
POLYLINE
  5
1240
  8
CYAN
 66
     1
 10
0.0
 20
0.0
 30
0.0
 70
     1
  0
VERTEX
  5
227F
  8
CYAN
 10
13.50490825968939
 20
7.8186509395017181
 30
0.0
 42
0.4142135612881814
  0
VERTEX
  5
2280
  8
CYAN
 10
13.87364445556676
 20
7.9623955579151611
 30
0.0
 42
0.4202804605992658
  0
VERTEX
  5
2281
  8
CYAN
 10
13.723650071640771
 20
8.3311317543263659
 30
0.0
 42
0.1990989438643167
  0
VERTEX
  5
2282
  8
CYAN
 10
13.51115802602793
 20
8.3311317548804737
 30
0.0
 42
0.1933947816143357
  0
VERTEX
  5
2283
  8
CYAN
 10
13.36116364063265
 20
8.1873871357704893
 30
0.0
 42
0.4142135621562457
  0
VERTEX
  5
2284
  8
CYAN
 10
13.504908259679381
 20
7.8186509394937982
 30
0.0
  0
SEQEND
  5
2285
  8
CYAN
  0
POLYLINE
  5
1246
  8
CYAN
 66
     1
 10
0.0
 20
0.0
 30
0.0
 70
     1
  0
VERTEX
  5
2286
  8
CYAN
 10
13.448660365402411
 20
9.3748426841803081
 30
0.0
 42
0.4142135620505309
  0
VERTEX
  5
2287
  8
CYAN
 10
13.817396561572579
 20
9.5185873032606985
 30
0.0
 42
2.4142135642531342
  0
SEQEND
  5
2288
  8
CYAN
  0
POLYLINE
  5
124A
  8
CYAN
 66
     1
 10
0.0
 20
0.0
 30
0.0
 70
     1
  0
VERTEX
  5
2289
  8
CYAN
 10
14.59236755085522
 20
7.7749025769231341
 30
0.0
 42
0.4142135612932575
  0
VERTEX
  5
228A
  8
CYAN
 10
14.961103746734519
 20
7.918647195341042
 30
0.0
 42
0.4202804605934113
  0
VERTEX
  5
228B
  8
CYAN
 10
14.811109362807221
 20
8.2873833917475288
 30
0.0
 42
0.1990989447376583
  0
VERTEX
  5
228C
  8
CYAN
 10
14.598617316333369
 20
8.2873833919451432
 30
0.0
 42
0.1933947811303031
  0
VERTEX
  5
228D
  8
CYAN
 10
14.448622931630689
 20
8.143638772809755
 30
0.0
 42
0.4142135617194333
  0
VERTEX
  5
228E
  8
CYAN
 10
14.592367550845211
 20
7.7749025769152151
 30
0.0
  0
SEQEND
  5
228F
  8
CYAN
  0
POLYLINE
  5
124F
  8
CYAN
 66
     1
 10
0.0
 20
0.0
 30
0.0
 70
     1
  0
VERTEX
  5
2290
  8
CYAN
 10
13.39241247102062
 20
10.76229074549982
 30
0.0
 42
0.4142135627652409
  0
VERTEX
  5
2291
  8
CYAN
 10
13.536157090617531
 20
10.39355454901275
 30
0.0
 42
0.4202804600510119
  0
VERTEX
  5
2292
  8
CYAN
 10
13.904893286266811
 20
10.54354893443292
 30
0.0
 42
0.4081952478346715
  0
VERTEX
  5
2293
  8
CYAN
 10
13.761148622179791
 20
10.90603538445639
 30
0.0
 42
0.1969085326954766
  0
VERTEX
  5
2294
  8
CYAN
 10
13.548656622146391
 20
10.912285130537001
 30
0.0
 42
0.2009264155704153
  0
SEQEND
  5
2295
  8
CYAN
  0
POLYLINE
  5
1254
  8
CYAN
 66
     1
 10
0.0
 20
0.0
 30
0.0
 70
     1
  0
VERTEX
  5
2296
  8
CYAN
 10
16.417299234648581
 20
8.6686191207167376
 30
0.0
 42
0.4142135616013614
  0
VERTEX
  5
2297
  8
CYAN
 10
16.273554616162858
 20
9.037355316575395
 30
0.0
 42
0.2044904176736236
  0
VERTEX
  5
2298
  8
CYAN
 10
16.054812804261338
 20
9.0373553167654954
 30
0.0
 42
1.4658379139029589
  0
SEQEND
  5
2299
  8
CYAN
  0
POLYLINE
  5
1259
  8
CYAN
 66
     1
 10
0.0
 20
0.0
 30
0.0
 70
     1
  0
VERTEX
  5
229A
  8
CYAN
 10
15.72357520463118
 20
11.1747753057282
 30
0.0
 42
0.4300307069830064
  0
VERTEX
  5
229B
  8
CYAN
 10
15.64857801249843
 20
11.38726735051805
 30
0.0
 42
0.4413990702155019
  0
VERTEX
  5
229C
  8
CYAN
 10
15.44233573256041
 20
11.299770626132849
 30
0.0
  0
VERTEX
  5
229D
  8
CYAN
 10
15.4235864344903
 20
11.26227203004777
 30
0.0
  0
VERTEX
  5
229E
  8
CYAN
 10
15.36733854011508
 20
11.187274837547481
 30
0.0
  0
VERTEX
  5
229F
  8
CYAN
 10
15.298591113656499
 20
11.099778112963831
 30
0.0
  0
VERTEX
  5
22A0
  8
CYAN
 10
15.23609345323959
 20
11.024780920463551
 30
0.0
  0
VERTEX
  5
22A1
  8
CYAN
 10
15.173595792822701
 20
10.956033494004959
 30
0.0
  0
VERTEX
  5
22A2
  8
CYAN
 10
15.06734977011396
 20
10.84978747129623
 30
0.0
  0
VERTEX
  5
22A3
  8
CYAN
 10
14.96735351344693
 20
10.762290746712569
 30
0.0
  0
VERTEX
  5
22A4
  8
CYAN
 10
14.923605151155099
 20
10.724792150462431
 30
0.0
  0
VERTEX
  5
22A5
  8
CYAN
 10
14.886106554904959
 20
10.69354332025398
 30
0.0
  0
VERTEX
  5
22A6
  8
CYAN
 10
14.84860795865481
 20
10.65604472400384
 30
0.0
  0
VERTEX
  5
22A7
  8
CYAN
 10
14.586117784903831
 20
10.437302912544689
 30
0.0
  0
VERTEX
  5
22A8
  8
CYAN
 10
14.54236942261201
 20
10.39980431629454
 30
0.0
  0
VERTEX
  5
22A9
  8
CYAN
 10
14.45487269802835
 20
10.337306655877651
 30
0.0
  0
VERTEX
  5
22AA
  8
CYAN
 10
14.404874569694821
 20
10.299808059627511
 30
0.0
  0
VERTEX
  5
22AB
  8
CYAN
 10
14.34862667531962
 20
10.26855922941906
 30
0.0
  0
VERTEX
  5
22AC
  8
CYAN
 10
14.292378780944411
 20
10.231060633168919
 30
0.0
  0
VERTEX
  5
22AD
  8
CYAN
 10
14.28612901490272
 20
10.156063440668641
 30
0.0
  0
VERTEX
  5
22AE
  8
CYAN
 10
14.30487831302778
 20
10.06856671608498
 30
0.0
  0
VERTEX
  5
22AF
  8
CYAN
 10
14.31737784511116
 20
10.01856858775146
 30
0.0
  0
VERTEX
  5
22B0
  8
CYAN
 10
14.336127143236229
 20
9.9685704594179434
 30
0.0
  0
VERTEX
  5
22B1
  8
CYAN
 10
14.3548764413613
 20
9.8373253725424536
 30
0.0
  0
VERTEX
  5
22B2
  8
CYAN
 10
14.3548764413613
 20
9.7998267762923064
 30
0.0
  0
VERTEX
  5
22B3
  8
CYAN
 10
14.34862667531962
 20
9.7623281800421768
 30
0.0
  0
VERTEX
  5
22B4
  8
CYAN
 10
14.34862667531962
 20
9.6935807535835838
 30
0.0
  0
VERTEX
  5
22B5
  8
CYAN
 10
14.336127143236229
 20
9.6310830931666853
 30
0.0
  0
VERTEX
  5
22B6
  8
CYAN
 10
14.336127143236229
 20
9.6060840289999234
 30
0.0
  0
VERTEX
  5
22B7
  8
CYAN
 10
14.323627611152849
 20
9.5560859006664032
 30
0.0
  0
VERTEX
  5
22B8
  8
CYAN
 10
14.31737784511116
 20
9.5373366025413304
 30
0.0
  0
VERTEX
  5
22B9
  8
CYAN
 10
14.31112807906946
 20
9.5123375383745739
 30
0.0
  0
VERTEX
  5
22BA
  8
CYAN
 10
14.298628546986089
 20
9.4748389421244354
 30
0.0
  0
VERTEX
  5
22BB
  8
CYAN
 10
14.28612901490272
 20
9.4560896439993591
 30
0.0
  0
VERTEX
  5
22BC
  8
CYAN
 10
14.279879248861031
 20
9.4435901119159844
 30
0.0
  0
VERTEX
  5
22BD
  8
CYAN
 10
14.267379716777651
 20
9.4248408137909117
 30
0.0
  0
VERTEX
  5
22BE
  8
CYAN
 10
14.26112995073596
 20
9.4060915156658425
 30
0.0
  0
VERTEX
  5
22BF
  8
CYAN
 10
14.25488018469426
 20
9.3935919835824606
 30
0.0
  0
VERTEX
  5
22C0
  8
CYAN
 10
14.24238065261088
 20
9.3748426854573914
 30
0.0
  0
VERTEX
  5
22C1
  8
CYAN
 10
14.2361308865692
 20
9.3560933873323222
 30
0.0
  0
VERTEX
  5
22C2
  8
CYAN
 10
14.223631354485811
 20
9.3435938552489404
 30
0.0
  0
VERTEX
  5
22C3
  8
CYAN
 10
14.186132758235679
 20
9.2310980664985198
 30
0.0
  0
VERTEX
  5
22C4
  8
CYAN
 10
14.17988299219399
 20
9.2185985344151398
 30
0.0
  0
VERTEX
  5
22C5
  8
CYAN
 10
14.148634161968641
 20
9.1186022776940394
 30
0.0
 42
0.8231516357192132
  0
VERTEX
  5
22C6
  8
CYAN
 10
14.348626677813879
 20
9.0061064919076568
 30
0.0
  0
VERTEX
  5
22C7
  8
CYAN
 10
14.461122464059001
 20
9.1373515758621426
 30
0.0
  0
VERTEX
  5
22C8
  8
CYAN
 10
14.686114041559851
 20
9.449839877946637
 30
0.0
  0
VERTEX
  5
22C9
  8
CYAN
 10
14.96735351343589
 20
9.8748239687815609
 30
0.0
  0
VERTEX
  5
22CA
  8
CYAN
 10
15.367338540104059
 20
10.52479963711732
 30
0.0
  0
SEQEND
  5
22CB
  8
CYAN
  0
POLYLINE
  5
128A
  8
CYAN
 66
     1
 10
0.0
 20
0.0
 30
0.0
 70
     1
  0
VERTEX
  5
22CC
  8
CYAN
 10
14.79823302538972
 20
8.9489620587933576
 30
0.0
  0
VERTEX
  5
22CD
  8
CYAN
 10
15.04235070592515
 20
8.7936144439000614
 30
0.0
  0
VERTEX
  5
22CE
  8
CYAN
 10
15.186095324709139
 20
8.7123674854569302
 30
0.0
 42
0.3818722482291039
  0
VERTEX
  5
22CF
  8
CYAN
 10
15.3485892420252
 20
8.7436163156333144
 30
0.0
  0
VERTEX
  5
22D0
  8
CYAN
 10
15.38608783820707
 20
8.7873646778363081
 30
0.0
  0
VERTEX
  5
22D1
  8
CYAN
 10
15.479834328832419
 20
8.9186097647118032
 30
0.0
  0
VERTEX
  5
22D2
  8
CYAN
 10
15.56733105341608
 20
9.0498548515872912
 30
0.0
  0
VERTEX
  5
22D3
  8
CYAN
 10
15.64232824591636
 20
9.1748501724210918
 30
0.0
  0
VERTEX
  5
22D4
  8
CYAN
 10
15.711075672374941
 20
9.2935957272132033
 30
0.0
  0
VERTEX
  5
22D5
  8
CYAN
 10
15.77357333279185
 20
9.4123412820053094
 30
0.0
  0
VERTEX
  5
22D6
  8
CYAN
 10
15.829821227167059
 20
9.5248370707557317
 30
0.0
  0
VERTEX
  5
22D7
  8
CYAN
 10
15.88606912154227
 20
9.6310830934644613
 30
0.0
  0
VERTEX
  5
22D8
  8
CYAN
 10
15.986065378209309
 20
9.8310756067985423
 30
0.0
  0
VERTEX
  5
22D9
  8
CYAN
 10
16.07356210279297
 20
10.01856858804924
 30
0.0
  0
VERTEX
  5
22DA
  8
CYAN
 10
16.111060699043112
 20
10.1060653126329
 30
0.0
  0
VERTEX
  5
22DB
  8
CYAN
 10
16.154809061334941
 20
10.19981180325825
 30
0.0
  0
VERTEX
  5
22DC
  8
CYAN
 10
16.186057891543381
 20
10.28730852784191
 30
0.0
  0
VERTEX
  5
22DD
  8
CYAN
 10
16.261055084043669
 20
10.46230197700922
 30
0.0
  0
VERTEX
  5
22DE
  8
CYAN
 10
16.292303914252098
 20
10.54979870159289
 30
0.0
  0
VERTEX
  5
22DF
  8
CYAN
 10
16.354801574669018
 20
10.73729168284359
 30
0.0
  0
VERTEX
  5
22E0
  8
CYAN
 10
16.39230017091916
 20
10.83728793951062
 30
0.0
  0
VERTEX
  5
22E1
  8
CYAN
 10
16.423549001127611
 20
10.943533962219361
 30
0.0
  0
VERTEX
  5
22E2
  8
CYAN
 10
16.454797831336059
 20
11.056029750969779
 30
0.0
  0
VERTEX
  5
22E3
  8
CYAN
 10
16.492296427586201
 20
11.1685255397202
 30
0.0
  0
VERTEX
  5
22E4
  8
CYAN
 10
16.523545257794652
 20
11.293520860554001
 30
0.0
  0
VERTEX
  5
22E5
  8
CYAN
 10
16.56104385404479
 20
11.42476594742949
 30
0.0
  0
VERTEX
  5
22E6
  8
CYAN
 10
16.598542450294929
 20
11.56851056638836
 30
0.0
  0
VERTEX
  5
22E7
  8
CYAN
 10
16.63604104654506
 20
11.724754717430599
 30
0.0
  0
VERTEX
  5
22E8
  8
CYAN
 10
16.667289876753522
 20
11.899748166597931
 30
0.0
  0
VERTEX
  5
22E9
  8
CYAN
 10
16.698538706961969
 20
12.093490913890321
 30
0.0
  0
VERTEX
  5
22EA
  8
CYAN
 10
16.72978753717042
 20
12.30598295930778
 30
0.0
  0
VERTEX
  5
22EB
  8
CYAN
 10
16.754786601341099
 20
12.562223367057189
 30
0.0
 42
0.4537304200661735
  0
VERTEX
  5
22EC
  8
CYAN
 10
16.629791280286419
 20
12.730967050016391
 30
0.0
 42
0.3602860126256822
  0
VERTEX
  5
22ED
  8
CYAN
 10
16.486046661638909
 20
12.6309707933057
 30
0.0
  0
VERTEX
  5
22EE
  8
CYAN
 10
16.45479783145737
 20
12.5309745367645
 30
0.0
  0
VERTEX
  5
22EF
  8
CYAN
 10
16.417299235207238
 20
12.418478748014079
 30
0.0
  0
VERTEX
  5
22F0
  8
CYAN
 10
16.40479970312386
 20
12.355981087597179
 30
0.0
  0
VERTEX
  5
22F1
  8
CYAN
 10
16.367301106873722
 20
12.21848623468
 30
0.0
  0
VERTEX
  5
22F2
  8
CYAN
 10
16.354801574790329
 20
12.1559885742631
 30
0.0
  0
VERTEX
  5
22F3
  8
CYAN
 10
16.336052276665271
 20
12.08099138176282
 30
0.0
  0
VERTEX
  5
22F4
  8
CYAN
 10
16.3110532124985
 20
12.01224395530423
 30
0.0
  0
VERTEX
  5
22F5
  8
CYAN
 10
16.292303914373441
 20
11.930996996762261
 30
0.0
  0
VERTEX
  5
22F6
  8
CYAN
 10
16.267304850206671
 20
11.8497500382203
 30
0.0
  0
VERTEX
  5
22F7
  8
CYAN
 10
16.204807189789769
 20
11.662257056969599
 30
0.0
  0
VERTEX
  5
22F8
  8
CYAN
 10
16.16730859353963
 20
11.556011034260861
 30
0.0
  0
VERTEX
  5
22F9
  8
CYAN
 10
16.123560231247811
 20
11.437265479468749
 30
0.0
  0
VERTEX
  5
22FA
  8
CYAN
 10
16.079811868955979
 20
11.31227015863495
 30
0.0
  0
VERTEX
  5
22FB
  8
CYAN
 10
16.029813740622451
 20
11.181025071759461
 30
0.0
  0
VERTEX
  5
22FC
  8
CYAN
 10
15.979815612288929
 20
11.04353021884228
 30
0.0
  0
VERTEX
  5
22FD
  8
CYAN
 10
15.92356771791372
 20
10.906035365925099
 30
0.0
  0
VERTEX
  5
22FE
  8
CYAN
 10
15.73607473666303
 20
10.493550807173561
 30
0.0
  0
VERTEX
  5
22FF
  8
CYAN
 10
15.66732731020444
 20
10.35605595425638
 30
0.0
  0
VERTEX
  5
2300
  8
CYAN
 10
15.592330117704149
 20
10.218561101339199
 30
0.0
  0
VERTEX
  5
2301
  8
CYAN
 10
15.51108315916218
 20
10.07481648238033
 30
0.0
  0
VERTEX
  5
2302
  8
CYAN
 10
15.41108690249515
 20
9.9123225652963942
 30
0.0
  0
VERTEX
  5
2303
  8
CYAN
 10
15.29859111374472
 20
9.7248295840456969
 30
0.0
  0
VERTEX
  5
2304
  8
CYAN
 10
15.16109626082755
 20
9.5060877725865431
 30
0.0
  0
VERTEX
  5
2305
  8
CYAN
 10
14.99235257770192
 20
9.2498473648772581
 30
0.0
  0
SEQEND
  5
2306
  8
CYAN
  0
POLYLINE
  5
12C5
  8
CYAN
 66
     1
 10
0.0
 20
0.0
 30
0.0
 70
     1
  0
VERTEX
  5
2307
  8
CYAN
 10
16.286054148328699
 20
9.6373328593044931
 30
0.0
 42
0.3628983692867983
  0
VERTEX
  5
2308
  8
CYAN
 10
16.342302042759471
 20
9.487338474267597
 30
0.0
  0
VERTEX
  5
2309
  8
CYAN
 10
16.64229081279327
 20
9.324844557172387
 30
0.0
 42
0.4470135250387746
  0
VERTEX
  5
230A
  8
CYAN
 10
16.817284261746359
 20
9.3935919836923354
 30
0.0
  0
VERTEX
  5
230B
  8
CYAN
 10
16.867282390087599
 20
9.5123375385069142
 30
0.0
  0
VERTEX
  5
230C
  8
CYAN
 10
16.90478098633773
 20
9.6248333272573348
 30
0.0
  0
VERTEX
  5
230D
  8
CYAN
 10
16.942279582587879
 20
9.7310793499660662
 30
0.0
  0
VERTEX
  5
230E
  8
CYAN
 10
16.97352841279633
 20
9.8373253726747976
 30
0.0
  0
VERTEX
  5
230F
  8
CYAN
 10
17.036026073213218
 20
10.03731788600888
 30
0.0
  0
VERTEX
  5
2310
  8
CYAN
 10
17.098523733630131
 20
10.249809931426331
 30
0.0
  0
VERTEX
  5
2311
  8
CYAN
 10
17.129772563838578
 20
10.36855548621844
 30
0.0
  0
VERTEX
  5
2312
  8
CYAN
 10
17.161021394047019
 20
10.493550807052239
 30
0.0
  0
VERTEX
  5
2313
  8
CYAN
 10
17.19227022425547
 20
10.624795893927731
 30
0.0
  0
VERTEX
  5
2314
  8
CYAN
 10
17.223519054463932
 20
10.76229074684491
 30
0.0
  0
VERTEX
  5
2315
  8
CYAN
 10
17.248518118630681
 20
10.906035365803779
 30
0.0
  0
VERTEX
  5
2316
  8
CYAN
 10
17.279766948839139
 20
11.06227951684602
 30
0.0
  0
VERTEX
  5
2317
  8
CYAN
 10
17.304766013005882
 20
11.21852366788829
 30
0.0
  0
VERTEX
  5
2318
  8
CYAN
 10
17.329765077172659
 20
11.38726735101392
 30
0.0
  0
VERTEX
  5
2319
  8
CYAN
 10
17.354764141339409
 20
11.56851056622293
 30
0.0
  0
VERTEX
  5
231A
  8
CYAN
 10
17.373513439464489
 20
11.768503079557011
 30
0.0
  0
VERTEX
  5
231B
  8
CYAN
 10
17.392262737589562
 20
11.98724489101615
 30
0.0
  0
VERTEX
  5
231C
  8
CYAN
 10
17.404762269672929
 20
12.23723553268376
 30
0.0
  0
VERTEX
  5
231D
  8
CYAN
 10
17.417261801756322
 20
12.512225238518109
 30
0.0
  0
VERTEX
  5
231E
  8
CYAN
 10
17.423511567798009
 20
12.824713540602611
 30
0.0
  0
VERTEX
  5
231F
  8
CYAN
 10
17.429761333839689
 20
13.17470043893726
 30
0.0
  0
VERTEX
  5
2320
  8
CYAN
 10
17.436011099890411
 20
13.343444122306501
 30
0.0
 42
0.459871376666214
  0
VERTEX
  5
2321
  8
CYAN
 10
17.254767885945281
 20
13.512187805142769
 30
0.0
 42
0.3275156788001323
  0
VERTEX
  5
2322
  8
CYAN
 10
17.11102326679017
 20
13.380942723023569
 30
0.0
  0
VERTEX
  5
2323
  8
CYAN
 10
17.086024201668071
 20
13.25594739743511
 30
0.0
  0
VERTEX
  5
2324
  8
CYAN
 10
17.092273967709762
 20
13.180950204934829
 30
0.0
  0
VERTEX
  5
2325
  8
CYAN
 10
17.086024201668071
 20
13.08720371430948
 30
0.0
  0
VERTEX
  5
2326
  8
CYAN
 10
17.079774435626359
 20
12.98095769160075
 30
0.0
  0
VERTEX
  5
2327
  8
CYAN
 10
17.073524669584678
 20
12.86221213680864
 30
0.0
  0
VERTEX
  5
2328
  8
CYAN
 10
17.067274903543002
 20
12.730967049933151
 30
0.0
  0
VERTEX
  5
2329
  8
CYAN
 10
17.042275839376241
 20
12.45597734409878
 30
0.0
  0
VERTEX
  5
232A
  8
CYAN
 10
17.029776307292849
 20
12.3247322572233
 30
0.0
  0
VERTEX
  5
232B
  8
CYAN
 10
17.01102700916778
 20
12.19348717034781
 30
0.0
  0
VERTEX
  5
232C
  8
CYAN
 10
16.998527477084409
 20
12.0747416155557
 30
0.0
  0
VERTEX
  5
232D
  8
CYAN
 10
16.979778178959339
 20
11.9497462947219
 30
0.0
  0
VERTEX
  5
232E
  8
CYAN
 10
16.96102888083427
 20
11.83100073992979
 30
0.0
  0
VERTEX
  5
232F
  8
CYAN
 10
16.91103075250075
 20
11.58101009826219
 30
0.0
  0
VERTEX
  5
2330
  8
CYAN
 10
16.879781922292288
 20
11.44351524534501
 30
0.0
  0
VERTEX
  5
2331
  8
CYAN
 10
16.84228332604216
 20
11.306020392427831
 30
0.0
  0
VERTEX
  5
2332
  8
CYAN
 10
16.804784729792019
 20
11.162275773468959
 30
0.0
  0
VERTEX
  5
2333
  8
CYAN
 10
16.754786601458498
 20
10.99978185638502
 30
0.0
  0
VERTEX
  5
2334
  8
CYAN
 10
16.698538707083291
 20
10.824788407217699
 30
0.0
  0
VERTEX
  5
2335
  8
CYAN
 10
16.636041046666382
 20
10.62479589388362
 30
0.0
  0
VERTEX
  5
2336
  8
CYAN
 10
16.561043854166101
 20
10.399804316382779
 30
0.0
  0
VERTEX
  5
2337
  8
CYAN
 10
16.47354712958245
 20
10.14981367471518
 30
0.0
  0
VERTEX
  5
2338
  8
CYAN
 10
16.367301106873722
 20
9.8623244367974436
 30
0.0
  0
SEQEND
  5
2339
  8
CYAN
  0
POLYLINE
  5
12F8
  8
CYAN
 66
     1
 10
0.0
 20
0.0
 30
0.0
 70
     1
  0
VERTEX
  5
233A
  8
CYAN
 10
16.31730297871604
 20
14.08716628057828
 30
0.0
  0
VERTEX
  5
233B
  8
CYAN
 10
16.286054148497179
 20
13.9684207258569
 30
0.0
  0
VERTEX
  5
233C
  8
CYAN
 10
16.26730485037211
 20
13.91842259752338
 30
0.0
  0
VERTEX
  5
233D
  8
CYAN
 10
16.254805318288732
 20
13.87467423523155
 30
0.0
  0
VERTEX
  5
233E
  8
CYAN
 10
16.24230578620535
 20
13.818426340856339
 30
0.0
  0
VERTEX
  5
233F
  8
CYAN
 10
16.204807189955211
 20
13.718430084189301
 30
0.0
  0
VERTEX
  5
2340
  8
CYAN
 10
16.186057891830139
 20
13.662182189814089
 30
0.0
  0
VERTEX
  5
2341
  8
CYAN
 10
16.161058827663371
 20
13.60593429543888
 30
0.0
  0
VERTEX
  5
2342
  8
CYAN
 10
16.136059763496618
 20
13.54343663502198
 30
0.0
  0
VERTEX
  5
2343
  8
CYAN
 10
16.111060699329862
 20
13.47468920856339
 30
0.0
  0
VERTEX
  5
2344
  8
CYAN
 10
16.07356210307973
 20
13.39969201606311
 30
0.0
  0
VERTEX
  5
2345
  8
CYAN
 10
16.036063506829581
 20
13.31844505752114
 30
0.0
  0
VERTEX
  5
2346
  8
CYAN
 10
15.99231514453775
 20
13.23094833293748
 30
0.0
  0
VERTEX
  5
2347
  8
CYAN
 10
15.936067250162541
 20
13.12470231022875
 30
0.0
  0
VERTEX
  5
2348
  8
CYAN
 10
15.873569589745641
 20
13.01220652147833
 30
0.0
  0
VERTEX
  5
2349
  8
CYAN
 10
15.79857239724536
 20
12.88096143460284
 30
0.0
  0
VERTEX
  5
234A
  8
CYAN
 10
15.717325438703391
 20
12.73721681564397
 30
0.0
  0
VERTEX
  5
234B
  8
CYAN
 10
15.611079415994659
 20
12.58097266460172
 30
0.0
  0
VERTEX
  5
234C
  8
CYAN
 10
15.48608409516086
 20
12.4059792154344
 30
0.0
  0
VERTEX
  5
234D
  8
CYAN
 10
15.3360897101603
 20
12.2184862341837
 30
0.0
  0
VERTEX
  5
234E
  8
CYAN
 10
15.16734602703467
 20
12.018493720849619
 30
0.0
  0
VERTEX
  5
234F
  8
CYAN
 10
14.9611037476589
 20
11.79975190939046
 30
0.0
  0
VERTEX
  5
2350
  8
CYAN
 10
14.398624807136351
 20
11.37476782099565
 30
0.0
 42
0.5783343581100464
  0
VERTEX
  5
2351
  8
CYAN
 10
14.46112246551561
 20
10.87478653464761
 30
0.0
 42
0.2717252136127923
  0
VERTEX
  5
2352
  8
CYAN
 10
14.754861468625331
 20
10.912285131629529
 30
0.0
  0
VERTEX
  5
2353
  8
CYAN
 10
14.911105619325379
 20
11.037280452194
 30
0.0
  0
VERTEX
  5
2354
  8
CYAN
 10
14.94860421557552
 20
11.06852928240245
 30
0.0
  0
VERTEX
  5
2355
  8
CYAN
 10
14.979853045783971
 20
11.10602787865259
 30
0.0
  0
VERTEX
  5
2356
  8
CYAN
 10
15.048600472242571
 20
11.174775305111179
 30
0.0
  0
VERTEX
  5
2357
  8
CYAN
 10
15.11109813265946
 20
11.24977249761146
 30
0.0
  0
VERTEX
  5
2358
  8
CYAN
 10
15.148596728909601
 20
11.293520859903291
 30
0.0
  0
VERTEX
  5
2359
  8
CYAN
 10
15.17984555911805
 20
11.331019456153429
 30
0.0
  0
VERTEX
  5
235A
  8
CYAN
 10
15.367338540368751
 20
11.549761267612579
 30
0.0
  0
VERTEX
  5
235B
  8
CYAN
 10
15.40483713661888
 20
11.5997593959461
 30
0.0
  0
VERTEX
  5
235C
  8
CYAN
 10
15.442335732869021
 20
11.64350775823792
 30
0.0
  0
VERTEX
  5
235D
  8
CYAN
 10
15.48608409516086
 20
11.69350588657144
 30
0.0
  0
VERTEX
  5
235E
  8
CYAN
 10
15.598579883911279
 20
11.84350027157201
 30
0.0
  0
VERTEX
  5
235F
  8
CYAN
 10
15.63607848016143
 20
11.899748165947219
 30
0.0
  0
VERTEX
  5
2360
  8
CYAN
 10
15.7110756726617
 20
11.99974442261426
 30
0.0
  0
VERTEX
  5
2361
  8
CYAN
 10
15.898568653912401
 20
12.28098389449031
 30
0.0
  0
VERTEX
  5
2362
  8
CYAN
 10
15.961066314329299
 20
12.393479683240731
 30
0.0
  0
VERTEX
  5
2363
  8
CYAN
 10
15.998564910579439
 20
12.455977343657629
 30
0.0
  0
VERTEX
  5
2364
  8
CYAN
 10
16.029813740787901
 20
12.51222523803284
 30
0.0
  0
VERTEX
  5
2365
  8
CYAN
 10
16.061062570996341
 20
12.574722898449741
 30
0.0
  0
VERTEX
  5
2366
  8
CYAN
 10
16.086061635163102
 20
12.637220558866639
 30
0.0
  0
VERTEX
  5
2367
  8
CYAN
 10
16.117310465371538
 20
12.69346845324185
 30
0.0
  0
VERTEX
  5
2368
  8
CYAN
 10
16.14855929558
 20
12.755966113658751
 30
0.0
  0
VERTEX
  5
2369
  8
CYAN
 10
16.198557423913531
 20
12.88096143449255
 30
0.0
  0
VERTEX
  5
236A
  8
CYAN
 10
16.223556488080281
 20
12.949708860951141
 30
0.0
  0
VERTEX
  5
236B
  8
CYAN
 10
16.254805318288732
 20
13.012206521368039
 30
0.0
  0
VERTEX
  5
236C
  8
CYAN
 10
16.279804382455492
 20
13.07470418178494
 30
0.0
  0
VERTEX
  5
236D
  8
CYAN
 10
16.329802510789008
 20
13.21219903470212
 30
0.0
  0
VERTEX
  5
236E
  8
CYAN
 10
16.354801574955768
 20
13.274696695119021
 30
0.0
  0
VERTEX
  5
236F
  8
CYAN
 10
16.379800639122521
 20
13.34344412157761
 30
0.0
  0
VERTEX
  5
2370
  8
CYAN
 10
16.398549937247601
 20
13.4121915480362
 30
0.0
  0
VERTEX
  5
2371
  8
CYAN
 10
16.423549001414361
 20
13.4746892084531
 30
0.0
  0
VERTEX
  5
2372
  8
CYAN
 10
16.4610475976645
 20
13.61218406137028
 30
0.0
  0
VERTEX
  5
2373
  8
CYAN
 10
16.473547129747882
 20
13.68093148782887
 30
0.0
  0
VERTEX
  5
2374
  8
CYAN
 10
16.492296427872951
 20
13.74342914824577
 30
0.0
  0
VERTEX
  5
2375
  8
CYAN
 10
16.517295492039711
 20
13.868424469079571
 30
0.0
  0
VERTEX
  5
2376
  8
CYAN
 10
16.529795024123079
 20
13.92467236345478
 30
0.0
  0
VERTEX
  5
2377
  8
CYAN
 10
16.554794088282431
 20
14.043417918211659
 30
0.0
 42
1.204975864849084
  0
SEQEND
  5
2378
  8
CYAN
  0
POLYLINE
  5
1336
  8
CYAN
 66
     1
 10
0.0
 20
0.0
 30
0.0
 70
     1
  0
VERTEX
  5
2379
  8
CYAN
 10
15.40483713627699
 20
12.6809689219305
 30
0.0
  0
VERTEX
  5
237A
  8
CYAN
 10
15.36733854002685
 20
12.6184712615136
 30
0.0
  0
VERTEX
  5
237B
  8
CYAN
 10
15.323590177735021
 20
12.555973601096699
 30
0.0
  0
VERTEX
  5
237C
  8
CYAN
 10
15.24859298523474
 20
12.443477812346281
 30
0.0
  0
VERTEX
  5
237D
  8
CYAN
 10
15.204844622942909
 20
12.387229917971061
 30
0.0
  0
VERTEX
  5
237E
  8
CYAN
 10
15.167346026692771
 20
12.324732257554169
 30
0.0
  0
VERTEX
  5
237F
  8
CYAN
 10
15.12359766440094
 20
12.26848436317896
 30
0.0
  0
VERTEX
  5
2380
  8
CYAN
 10
15.07359953606742
 20
12.21223646880375
 30
0.0
  0
VERTEX
  5
2381
  8
CYAN
 10
15.02985117377559
 20
12.155988574428539
 30
0.0
  0
VERTEX
  5
2382
  8
CYAN
 10
14.97985304544207
 20
12.09974068005333
 30
0.0
  0
VERTEX
  5
2383
  8
CYAN
 10
14.81110936231644
 20
11.9309969969277
 30
0.0
  0
VERTEX
  5
2384
  8
CYAN
 10
14.74861170189954
 20
11.88099886859418
 30
0.0
  0
VERTEX
  5
2385
  8
CYAN
 10
14.686114041482639
 20
11.82475097421897
 30
0.0
  0
VERTEX
  5
2386
  8
CYAN
 10
14.479871762106869
 20
11.67475658921841
 30
0.0
  0
VERTEX
  5
2387
  8
CYAN
 10
14.32987737710631
 20
11.587259864634751
 30
0.0
  0
VERTEX
  5
2388
  8
CYAN
 10
14.248630418564341
 20
11.54351150234292
 30
0.0
  0
VERTEX
  5
2389
  8
CYAN
 10
14.173633226064061
 20
11.49976314005109
 30
0.0
  0
VERTEX
  5
238A
  8
CYAN
 10
14.092386267522089
 20
11.46226454380095
 30
0.0
  0
VERTEX
  5
238B
  8
CYAN
 10
14.017389075021811
 20
11.42476594755081
 30
0.0
  0
VERTEX
  5
238C
  8
CYAN
 10
13.936142116479839
 20
11.38726735130067
 30
0.0
  0
VERTEX
  5
238D
  8
CYAN
 10
13.85489515793787
 20
11.356018521092221
 30
0.0
  0
VERTEX
  5
238E
  8
CYAN
 10
13.779897965437589
 20
11.32476969088378
 30
0.0
  0
VERTEX
  5
238F
  8
CYAN
 10
13.698651006895631
 20
11.29352086067532
 30
0.0
  0
VERTEX
  5
2390
  8
CYAN
 10
13.62365381439534
 20
11.26227203046686
 30
0.0
  0
VERTEX
  5
2391
  8
CYAN
 10
13.242418085939811
 20
11.11852741154101
 30
0.0
 42
0.4031242175452947
  0
VERTEX
  5
2392
  8
CYAN
 10
12.92992978363632
 20
10.46855174357329
 30
0.0
  0
VERTEX
  5
2393
  8
CYAN
 10
13.036175806348989
 20
10.181062505644899
 30
0.0
 42
-0.3622398101324972
  0
VERTEX
  5
2394
  8
CYAN
 10
12.89243118848136
 20
9.7685779476434504
 30
0.0
  0
VERTEX
  5
2395
  8
CYAN
 10
11.86746955620905
 20
9.1498511086497913
 30
0.0
 42
0.5037851266328405
  0
VERTEX
  5
2396
  8
CYAN
 10
11.836220726132341
 20
8.8373628068820729
 30
0.0
 42
-0.2347996894255222
  0
VERTEX
  5
2397
  8
CYAN
 10
12.21120668876671
 20
8.6061214631468914
 30
0.0
  0
VERTEX
  5
2398
  8
CYAN
 10
12.273704349164021
 20
8.512374972550921
 30
0.0
 42
-0.2590980971386025
  0
VERTEX
  5
2399
  8
CYAN
 10
12.28620388116655
 20
8.1373890098771202
 30
0.0
  0
VERTEX
  5
239A
  8
CYAN
 10
12.13620949621153
 20
7.8311504739273046
 30
0.0
 42
-0.0404741275145006
  0
VERTEX
  5
239B
  8
CYAN
 10
12.079961603932571
 20
7.7374039862280899
 30
0.0
  0
VERTEX
  5
239C
  8
CYAN
 10
10.54876892317192
 20
5.5937342331631861
 30
0.0
 42
0.1804811698117435
  0
VERTEX
  5
239D
  8
CYAN
 10
10.44252289842704
 20
5.1999989747824307
 30
0.0
  0
VERTEX
  5
239E
  8
CYAN
 10
10.49252102714026
 20
4.6500195589369531
 30
0.0
 42
-0.0966852513230026
  0
VERTEX
  5
239F
  8
CYAN
 10
10.48002149505864
 20
4.5500233025123791
 30
0.0
  0
VERTEX
  5
23A0
  8
CYAN
 10
10.34252664279458
 20
4.081290851612204
 30
0.0
 42
0.7493264248563065
  0
VERTEX
  5
23A1
  8
CYAN
 10
10.567518220446271
 20
3.9375462310416061
 30
0.0
  0
VERTEX
  5
23A2
  8
CYAN
 10
10.905005586497481
 20
4.225035468788926
 30
0.0
 42
-0.1604754846804438
  0
VERTEX
  5
23A3
  8
CYAN
 10
11.2049943561499
 20
4.350030789080197
 30
0.0
  0
VERTEX
  5
23A4
  8
CYAN
 10
11.38623757149867
 20
4.4312777476848151
 30
0.0
 42
0.2015893708084929
  0
VERTEX
  5
23A5
  8
CYAN
 10
11.754973766583619
 20
4.7875144091189341
 30
0.0
  0
VERTEX
  5
23A6
  8
CYAN
 10
12.967428380267901
 20
7.5874095994826414
 30
0.0
 42
-0.396297565783424
  0
VERTEX
  5
23A7
  8
CYAN
 10
13.08617393505429
 20
7.637407726733545
 30
0.0
  0
VERTEX
  5
23A8
  8
CYAN
 10
13.261167383698959
 20
7.5749100665033078
 30
0.0
 42
-0.3641052943549698
  0
VERTEX
  5
23A9
  8
CYAN
 10
13.336164576715531
 20
7.4499147477832359
 30
0.0
  0
VERTEX
  5
23AA
  8
CYAN
 10
13.24866785172644
 20
6.9124348657074171
 30
0.0
 42
0.935030287885318
  0
VERTEX
  5
23AB
  8
CYAN
 10
13.59865475003128
 20
6.8249381411873289
 30
0.0
  0
VERTEX
  5
23AC
  8
CYAN
 10
13.80489702953779
 20
7.4186659155242598
 30
0.0
 42
-0.9442901228000659
  0
VERTEX
  5
23AD
  8
CYAN
 10
14.23613088599782
 20
7.2936705929324086
 30
0.0
  0
VERTEX
  5
23AE
  8
CYAN
 10
14.098636033347571
 20
6.6811935220358398
 30
0.0
 42
0.3620499347394614
  0
VERTEX
  5
23AF
  8
CYAN
 10
14.20488205616949
 20
6.4687014769288957
 30
0.0
  0
VERTEX
  5
23B0
  8
CYAN
 10
14.26737971740563
 20
6.4437024124344351
 30
0.0
 42
0.3953545538832708
  0
VERTEX
  5
23B1
  8
CYAN
 10
14.429873633470059
 20
6.5062000733334671
 30
0.0
  0
VERTEX
  5
23B2
  8
CYAN
 10
14.548619188351029
 20
6.7686902472808628
 30
0.0
 42
-0.0984613959218627
  0
VERTEX
  5
23B3
  8
CYAN
 10
14.754861471868191
 20
7.0499297227910196
 30
0.0
  0
VERTEX
  5
23B4
  8
CYAN
 10
15.061100004080339
 20
7.331169191149125
 30
0.0
 42
0.0935192232774355
  0
VERTEX
  5
23B5
  8
CYAN
 10
15.129847430533101
 20
7.431165447753564
 30
0.0
  0
VERTEX
  5
23B6
  8
CYAN
 10
15.404837135504341
 20
7.9811448576960542
 30
0.0
 42
-0.6681862875911099
  0
VERTEX
  5
23B7
  8
CYAN
 10
15.58608035164538
 20
7.9686453272122328
 30
0.0
  0
VERTEX
  5
23B8
  8
CYAN
 10
15.62357894789489
 20
7.8374002403389591
 30
0.0
 42
0.5748982569392851
  0
VERTEX
  5
23B9
  8
CYAN
 10
15.95481654794326
 20
7.7561532818062009
 30
0.0
  0
VERTEX
  5
23BA
  8
CYAN
 10
16.279804382226359
 20
8.0748913500453821
 30
0.0
 42
-0.133918083632516
  0
VERTEX
  5
23BB
  8
CYAN
 10
16.373550872831981
 20
8.131139244404995
 30
0.0
  0
VERTEX
  5
23BC
  8
CYAN
 10
16.64229081287365
 20
8.1998866709272811
 30
0.0
 42
0.2065203929723729
  0
VERTEX
  5
23BD
  8
CYAN
 10
16.773535899785202
 20
8.3061326938871005
 30
0.0
  0
VERTEX
  5
23BE
  8
CYAN
 10
17.029776307325939
 20
8.7811149127431172
 30
0.0
  0
VERTEX
  5
23BF
  8
CYAN
 10
17.048525605451019
 20
8.8311130410766374
 30
0.0
  0
VERTEX
  5
23C0
  8
CYAN
 10
17.073524669617768
 20
8.8811111694101541
 30
0.0
  0
VERTEX
  5
23C1
  8
CYAN
 10
17.123522797951289
 20
8.9936069581605764
 30
0.0
  0
VERTEX
  5
23C2
  8
CYAN
 10
17.148521862118042
 20
9.0623543846191659
 30
0.0
  0
VERTEX
  5
23C3
  8
CYAN
 10
17.17977069232651
 20
9.1311018110777571
 30
0.0
  0
VERTEX
  5
23C4
  8
CYAN
 10
17.211019522534951
 20
9.2060990035780357
 30
0.0
  0
VERTEX
  5
23C5
  8
CYAN
 10
17.242268352743402
 20
9.2935957281616979
 30
0.0
  0
VERTEX
  5
23C6
  8
CYAN
 10
17.267267416910158
 20
9.3810924527453565
 30
0.0
  0
VERTEX
  5
23C7
  8
CYAN
 10
17.3047660131603
 20
9.4748389433707025
 30
0.0
  0
VERTEX
  5
23C8
  8
CYAN
 10
17.39851250378565
 20
9.7935770114968967
 30
0.0
  0
VERTEX
  5
23C9
  8
CYAN
 10
17.429761333994101
 20
9.9123225662890064
 30
0.0
  0
VERTEX
  5
23CA
  8
CYAN
 10
17.461010164202548
 20
10.02481835503942
 30
0.0
  0
VERTEX
  5
23CB
  8
CYAN
 10
17.486009228369308
 20
10.14356390983153
 30
0.0
  0
VERTEX
  5
23CC
  8
CYAN
 10
17.51725805857776
 20
10.26230946462365
 30
0.0
  0
VERTEX
  5
23CD
  8
CYAN
 10
17.54225712274452
 20
10.381055019415751
 30
0.0
  0
VERTEX
  5
23CE
  8
CYAN
 10
17.56725618691128
 20
10.493550808166161
 30
0.0
  0
VERTEX
  5
23CF
  8
CYAN
 10
17.59225525107804
 20
10.612296362958279
 30
0.0
  0
VERTEX
  5
23D0
  8
CYAN
 10
17.629753847328171
 20
10.83728794045912
 30
0.0
  0
VERTEX
  5
23D1
  8
CYAN
 10
17.648503145453251
 20
10.94353396316785
 30
0.0
  0
VERTEX
  5
23D2
  8
CYAN
 10
17.66725244357832
 20
11.043530219834899
 30
0.0
  0
VERTEX
  5
23D3
  8
CYAN
 10
17.69225150774508
 20
11.2310232010856
 30
0.0
  0
VERTEX
  5
23D4
  8
CYAN
 10
17.704751039828459
 20
11.406016650252919
 30
0.0
  0
VERTEX
  5
23D5
  8
CYAN
 10
17.717250571911851
 20
11.48726360879488
 30
0.0
  0
VERTEX
  5
23D6
  8
CYAN
 10
17.717250571911851
 20
11.56851056733684
 30
0.0
  0
VERTEX
  5
23D7
  8
CYAN
 10
17.723500337953539
 20
11.65600729192052
 30
0.0
  0
VERTEX
  5
23D8
  8
CYAN
 10
17.729750103995219
 20
11.737254250462479
 30
0.0
  0
VERTEX
  5
23D9
  8
CYAN
 10
17.742249636078601
 20
11.9122476996298
 30
0.0
  0
VERTEX
  5
23DA
  8
CYAN
 10
17.742249636078601
 20
11.999744424213461
 30
0.0
  0
VERTEX
  5
23DB
  8
CYAN
 10
17.748499402120292
 20
12.093490914838821
 30
0.0
  0
VERTEX
  5
23DC
  8
CYAN
 10
17.754749168161979
 20
12.180987639422471
 30
0.0
  0
VERTEX
  5
23DD
  8
CYAN
 10
17.754749168161979
 20
12.26848436400614
 30
0.0
  0
VERTEX
  5
23DE
  8
CYAN
 10
17.76099893420367
 20
12.3497313225481
 30
0.0
  0
VERTEX
  5
23DF
  8
CYAN
 10
17.76099893420367
 20
12.71846751900781
 30
0.0
  0
VERTEX
  5
23E0
  8
CYAN
 10
17.754749168161979
 20
12.780965179424721
 30
0.0
  0
VERTEX
  5
23E1
  8
CYAN
 10
17.754749168161979
 20
12.89971073421682
 30
0.0
  0
VERTEX
  5
23E2
  8
CYAN
 10
17.748499402120292
 20
12.96220839463372
 30
0.0
  0
VERTEX
  5
23E3
  8
CYAN
 10
17.748499402120292
 20
13.074704183384149
 30
0.0
  0
VERTEX
  5
23E4
  8
CYAN
 10
17.742249636078601
 20
13.13095207775935
 30
0.0
  0
VERTEX
  5
23E5
  8
CYAN
 10
17.742249636078601
 20
13.187199972134559
 30
0.0
  0
VERTEX
  5
23E6
  8
CYAN
 10
17.73599987003691
 20
13.23719810046809
 30
0.0
  0
VERTEX
  5
23E7
  8
CYAN
 10
17.73599987003691
 20
13.343444123176811
 30
0.0
  0
VERTEX
  5
23E8
  8
CYAN
 10
17.729750103995219
 20
13.39969201755202
 30
0.0
  0
VERTEX
  5
23E9
  8
CYAN
 10
17.723500337953539
 20
13.44969014588554
 30
0.0
  0
VERTEX
  5
23EA
  8
CYAN
 10
17.723500337953539
 20
13.49968827421907
 30
0.0
  0
VERTEX
  5
23EB
  8
CYAN
 10
17.717250571911851
 20
13.549686402552579
 30
0.0
  0
VERTEX
  5
23EC
  8
CYAN
 10
17.717250571911851
 20
13.599684530886099
 30
0.0
  0
VERTEX
  5
23ED
  8
CYAN
 10
17.698501273786771
 20
13.749678915886671
 30
0.0
  0
VERTEX
  5
23EE
  8
CYAN
 10
17.69225150774508
 20
13.80592681026187
 30
0.0
  0
VERTEX
  5
23EF
  8
CYAN
 10
17.686001741703379
 20
13.8559249385954
 30
0.0
  0
VERTEX
  5
23F0
  8
CYAN
 10
17.661002677536629
 20
13.968420727345819
 30
0.0
  0
VERTEX
  5
23F1
  8
CYAN
 10
17.654752911494938
 20
14.02466862172102
 30
0.0
  0
VERTEX
  5
23F2
  8
CYAN
 10
17.64225337941156
 20
14.080916516096231
 30
0.0
  0
VERTEX
  5
23F3
  8
CYAN
 10
17.623504081286491
 20
14.14341417651314
 30
0.0
  0
VERTEX
  5
23F4
  8
CYAN
 10
17.611004549203109
 20
14.20591183693003
 30
0.0
  0
VERTEX
  5
23F5
  8
CYAN
 10
17.554756654827901
 20
14.393404818180731
 30
0.0
  0
VERTEX
  5
23F6
  8
CYAN
 10
17.529757590661141
 20
14.455902478597629
 30
0.0
  0
VERTEX
  5
23F7
  8
CYAN
 10
17.511008292536069
 20
14.518400139014529
 30
0.0
  0
VERTEX
  5
23F8
  8
CYAN
 10
17.461010164202548
 20
14.64339545984833
 30
0.0
  0
VERTEX
  5
23F9
  8
CYAN
 10
17.436011100035799
 20
14.69339358818185
 30
0.0
  0
VERTEX
  5
23FA
  8
CYAN
 10
16.992277706807741
 20
15.40586692378746
 30
0.0
 42
0.3216985068413094
  0
VERTEX
  5
23FB
  8
CYAN
 10
16.479796896912351
 20
15.618358962635201
 30
0.0
  0
VERTEX
  5
23FC
  8
CYAN
 10
16.117310465525961
 20
15.53711200387618
 30
0.0
  0
VERTEX
  5
23FD
  8
CYAN
 10
16.779785663241618
 20
14.805889379982469
 30
0.0
 42
-1.0217602579924461
  0
VERTEX
  5
23FE
  8
CYAN
 10
16.636041047084522
 20
14.680894056056241
 30
0.0
  0
VERTEX
  5
23FF
  8
CYAN
 10
15.96731608016144
 20
15.418366448069399
 30
0.0
  0
VERTEX
  5
2400
  8
CYAN
 10
15.779823098832919
 20
15.149626508165159
 30
0.0
 42
0.3097273352856137
  0
VERTEX
  5
2401
  8
CYAN
 10
15.779823099093379
 20
14.91838516446562
 30
0.0
  0
VERTEX
  5
2402
  8
CYAN
 10
16.09856116803816
 20
14.449652710138301
 30
0.0
 42
-0.2365617056831471
  0
VERTEX
  5
2403
  8
CYAN
 10
16.123560231225909
 20
14.26840949698348
 30
0.0
  0
VERTEX
  5
2404
  8
CYAN
 10
15.97356584607078
 20
13.79342727735132
 30
0.0
  0
VERTEX
  5
2405
  8
CYAN
 10
15.94856678190402
 20
13.71843008485104
 30
0.0
  0
VERTEX
  5
2406
  8
CYAN
 10
15.92981748377894
 20
13.680931488600899
 30
0.0
  0
VERTEX
  5
2407
  8
CYAN
 10
15.911068185653891
 20
13.63718312630907
 30
0.0
  0
VERTEX
  5
2408
  8
CYAN
 10
15.892318887528811
 20
13.58718499797555
 30
0.0
  0
VERTEX
  5
2409
  8
CYAN
 10
15.842320759195291
 20
13.474689209225129
 30
0.0
  0
VERTEX
  5
240A
  8
CYAN
 10
15.81107192898685
 20
13.412191548808231
 30
0.0
  0
VERTEX
  5
240B
  8
CYAN
 10
15.77357333273671
 20
13.349693888391331
 30
0.0
  0
VERTEX
  5
240C
  8
CYAN
 10
15.698576140236421
 20
13.19969950339077
 30
0.0
  0
VERTEX
  5
240D
  8
CYAN
 10
15.65482777794459
 20
13.124702310890489
 30
0.0
  0
VERTEX
  5
240E
  8
CYAN
 10
15.61107941565276
 20
13.04345535234852
 30
0.0
  0
VERTEX
  5
240F
  8
CYAN
 10
15.56733105336094
 20
12.96845815984824
 30
0.0
  0
VERTEX
  5
2410
  8
CYAN
 10
15.529832457110791
 20
12.893460967347959
 30
0.0
  0
VERTEX
  5
2411
  8
CYAN
 10
15.48608409481896
 20
12.818463774847681
 30
0.0
  0
VERTEX
  5
2412
  8
CYAN
 10
15.44233573252717
 20
12.74971634838915
 30
0.0
  0
VERTEX
  5
2413
  8
CYAN
 10
15.442335732527139
 20
12.749716348389081
 30
0.0
  0
SEQEND
  5
2414
  8
CYAN
  0
POLYLINE
  5
13D1
  8
CYAN
 66
     1
 10
0.0
 20
0.0
 30
0.0
 70
     1
  0
VERTEX
  5
2415
  8
CYAN
 10
26.483996787667468
 20
12.01188502781876
 30
0.0
  0
VERTEX
  5
2416
  8
CYAN
 10
26.44649819141733
 20
11.94938736740187
 30
0.0
  0
VERTEX
  5
2417
  8
CYAN
 10
26.402749829125501
 20
11.88688970698496
 30
0.0
  0
VERTEX
  5
2418
  8
CYAN
 10
26.32775263662522
 20
11.77439391823455
 30
0.0
  0
VERTEX
  5
2419
  8
CYAN
 10
26.284004274333391
 20
11.71814602385934
 30
0.0
  0
VERTEX
  5
241A
  8
CYAN
 10
26.24650567808326
 20
11.65564836344244
 30
0.0
  0
VERTEX
  5
241B
  8
CYAN
 10
26.20275731579142
 20
11.599400469067231
 30
0.0
  0
VERTEX
  5
241C
  8
CYAN
 10
26.15275918745791
 20
11.543152574692011
 30
0.0
  0
VERTEX
  5
241D
  8
CYAN
 10
26.10901082516607
 20
11.48690468031681
 30
0.0
  0
VERTEX
  5
241E
  8
CYAN
 10
26.05901269683255
 20
11.430656785941601
 30
0.0
  0
VERTEX
  5
241F
  8
CYAN
 10
25.89026901370692
 20
11.261913102815971
 30
0.0
  0
VERTEX
  5
2420
  8
CYAN
 10
25.827771353290029
 20
11.211914974482429
 30
0.0
  0
VERTEX
  5
2421
  8
CYAN
 10
25.765273692873119
 20
11.155667080107239
 30
0.0
  0
VERTEX
  5
2422
  8
CYAN
 10
25.559031413497351
 20
11.00567269510668
 30
0.0
  0
VERTEX
  5
2423
  8
CYAN
 10
25.40903702849679
 20
10.91817597052302
 30
0.0
  0
VERTEX
  5
2424
  8
CYAN
 10
25.327790069954819
 20
10.874427608231191
 30
0.0
  0
VERTEX
  5
2425
  8
CYAN
 10
25.252792877454532
 20
10.830679245939359
 30
0.0
  0
VERTEX
  5
2426
  8
CYAN
 10
25.171545918912571
 20
10.793180649689219
 30
0.0
  0
VERTEX
  5
2427
  8
CYAN
 10
25.096548726412301
 20
10.755682053439079
 30
0.0
  0
VERTEX
  5
2428
  8
CYAN
 10
25.015301767870319
 20
10.718183457188941
 30
0.0
  0
VERTEX
  5
2429
  8
CYAN
 10
24.934054809328352
 20
10.68693462698049
 30
0.0
  0
VERTEX
  5
242A
  8
CYAN
 10
24.859057616828078
 20
10.65568579677204
 30
0.0
  0
VERTEX
  5
242B
  8
CYAN
 10
24.777810658286111
 20
10.624436966563589
 30
0.0
  0
VERTEX
  5
242C
  8
CYAN
 10
24.70281346578582
 20
10.59318813635514
 30
0.0
  0
VERTEX
  5
242D
  8
CYAN
 10
24.321577737330291
 20
10.44944351742928
 30
0.0
 42
0.4031242175452947
  0
VERTEX
  5
242E
  8
CYAN
 10
24.009089435026802
 20
9.7994678494615641
 30
0.0
  0
VERTEX
  5
242F
  8
CYAN
 10
24.115335457739469
 20
9.5119786115331717
 30
0.0
 42
-0.3622398101324972
  0
VERTEX
  5
2430
  8
CYAN
 10
23.97159083987184
 20
9.0994940535317141
 30
0.0
  0
VERTEX
  5
2431
  8
CYAN
 10
22.946629207599528
 20
8.4807672145380621
 30
0.0
 42
0.5037851266328405
  0
VERTEX
  5
2432
  8
CYAN
 10
22.915380377522819
 20
8.1682789127703384
 30
0.0
 42
-0.2347996894255222
  0
VERTEX
  5
2433
  8
CYAN
 10
23.290366340157188
 20
7.9370375690351578
 30
0.0
  0
VERTEX
  5
2434
  8
CYAN
 10
23.352864000554501
 20
7.84329107843919
 30
0.0
 42
-0.2590980971386025
  0
VERTEX
  5
2435
  8
CYAN
 10
23.36536353255703
 20
7.4683051157653884
 30
0.0
  0
VERTEX
  5
2436
  8
CYAN
 10
23.215369147602011
 20
7.1620665798155718
 30
0.0
 42
-0.0404741275145006
  0
VERTEX
  5
2437
  8
CYAN
 10
23.159121255323051
 20
7.068320092116358
 30
0.0
  0
VERTEX
  5
2438
  8
CYAN
 10
21.6279285745624
 20
4.9246503390514551
 30
0.0
 42
0.1804811698117435
  0
VERTEX
  5
2439
  8
CYAN
 10
21.52168254981752
 20
4.530915080670697
 30
0.0
  0
VERTEX
  5
243A
  8
CYAN
 10
21.57168067853074
 20
3.9809356648252221
 30
0.0
 42
-0.0966852513230026
  0
VERTEX
  5
243B
  8
CYAN
 10
21.55918114644912
 20
3.8809394084006481
 30
0.0
  0
VERTEX
  5
243C
  8
CYAN
 10
21.421686294185061
 20
3.4122069575004721
 30
0.0
 42
0.7493264248563065
  0
VERTEX
  5
243D
  8
CYAN
 10
21.646677871836761
 20
3.268462336929872
 30
0.0
  0
VERTEX
  5
243E
  8
CYAN
 10
21.984165237887961
 20
3.555951574677195
 30
0.0
 42
-0.1604754846804438
  0
VERTEX
  5
243F
  8
CYAN
 10
22.28415400754038
 20
3.6809468949684652
 30
0.0
  0
VERTEX
  5
2440
  8
CYAN
 10
22.465397222889148
 20
3.7621938535730841
 30
0.0
 42
0.2015893708084929
  0
VERTEX
  5
2441
  8
CYAN
 10
22.834133417974101
 20
4.1184305150072014
 30
0.0
  0
VERTEX
  5
2442
  8
CYAN
 10
24.046588031658391
 20
6.9183257053709069
 30
0.0
 42
-0.396297565783424
  0
VERTEX
  5
2443
  8
CYAN
 10
24.16533358644477
 20
6.9683238326218131
 30
0.0
  0
VERTEX
  5
2444
  8
CYAN
 10
24.340327035089452
 20
6.905826172391575
 30
0.0
 42
-0.3641052943549698
  0
VERTEX
  5
2445
  8
CYAN
 10
24.415324228106009
 20
6.780830853671505
 30
0.0
  0
VERTEX
  5
2446
  8
CYAN
 10
24.327827503116922
 20
6.2433509715956861
 30
0.0
 42
0.935030287885318
  0
VERTEX
  5
2447
  8
CYAN
 10
24.67781440142176
 20
6.155854247075597
 30
0.0
  0
VERTEX
  5
2448
  8
CYAN
 10
24.884056680928271
 20
6.7495820214125279
 30
0.0
 42
-0.9442901228000659
  0
VERTEX
  5
2449
  8
CYAN
 10
25.3152905373883
 20
6.6245866988206759
 30
0.0
  0
VERTEX
  5
244A
  8
CYAN
 10
25.177795684738051
 20
6.0121096279241071
 30
0.0
 42
0.3620499347394614
  0
VERTEX
  5
244B
  8
CYAN
 10
25.284041707559972
 20
5.799617582817163
 30
0.0
  0
VERTEX
  5
244C
  8
CYAN
 10
25.346539368796108
 20
5.7746185183227032
 30
0.0
 42
0.3953545538832708
  0
VERTEX
  5
244D
  8
CYAN
 10
25.509033284860539
 20
5.8371161792217343
 30
0.0
  0
VERTEX
  5
244E
  8
CYAN
 10
25.627778839741509
 20
6.09960635316913
 30
0.0
 42
-0.0984613959218627
  0
VERTEX
  5
244F
  8
CYAN
 10
25.834021123258669
 20
6.3808458286792868
 30
0.0
  0
VERTEX
  5
2450
  8
CYAN
 10
26.140259655470821
 20
6.6620852970373923
 30
0.0
 42
0.0935192232774355
  0
VERTEX
  5
2451
  8
CYAN
 10
26.20900708192357
 20
6.7620815536418331
 30
0.0
  0
VERTEX
  5
2452
  8
CYAN
 10
26.483996786894831
 20
7.3120609635843232
 30
0.0
 42
-0.6681862875911099
  0
VERTEX
  5
2453
  8
CYAN
 10
26.66524000303588
 20
7.2995614331005019
 30
0.0
  0
VERTEX
  5
2454
  8
CYAN
 10
26.702738599285372
 20
7.1683163462272281
 30
0.0
 42
0.5748982569392851
  0
VERTEX
  5
2455
  8
CYAN
 10
27.03397619933375
 20
7.087069387694469
 30
0.0
  0
VERTEX
  5
2456
  8
CYAN
 10
27.358964033616839
 20
7.4058074559336511
 30
0.0
 42
-0.133918083632516
  0
VERTEX
  5
2457
  8
CYAN
 10
27.45271052422245
 20
7.4620553502932623
 30
0.0
  0
VERTEX
  5
2458
  8
CYAN
 10
27.72145046426413
 20
7.5308027768155492
 30
0.0
 42
0.2065203929723729
  0
VERTEX
  5
2459
  8
CYAN
 10
27.852695551175682
 20
7.6370487997753669
 30
0.0
  0
VERTEX
  5
245A
  8
CYAN
 10
28.108935958716419
 20
8.1120310186313844
 30
0.0
  0
VERTEX
  5
245B
  8
CYAN
 10
28.127685256841499
 20
8.1620291469649047
 30
0.0
  0
VERTEX
  5
245C
  8
CYAN
 10
28.152684321008248
 20
8.2120272752984214
 30
0.0
  0
VERTEX
  5
245D
  8
CYAN
 10
28.202682449341768
 20
8.3245230640488437
 30
0.0
  0
VERTEX
  5
245E
  8
CYAN
 10
28.227681513508529
 20
8.3932704905074331
 30
0.0
  0
VERTEX
  5
245F
  8
CYAN
 10
28.25893034371699
 20
8.4620179169660226
 30
0.0
  0
VERTEX
  5
2460
  8
CYAN
 10
28.290179173925431
 20
8.5370151094663012
 30
0.0
  0
VERTEX
  5
2461
  8
CYAN
 10
28.321428004133882
 20
8.6245118340499651
 30
0.0
  0
VERTEX
  5
2462
  8
CYAN
 10
28.346427068300638
 20
8.712008558633622
 30
0.0
  0
VERTEX
  5
2463
  8
CYAN
 10
28.38392566455078
 20
8.8057550492589698
 30
0.0
  0
VERTEX
  5
2464
  8
CYAN
 10
28.47767215517613
 20
9.1244931173851622
 30
0.0
  0
VERTEX
  5
2465
  8
CYAN
 10
28.508920985384581
 20
9.2432386721772701
 30
0.0
  0
VERTEX
  5
2466
  8
CYAN
 10
28.540169815593028
 20
9.3557344609276925
 30
0.0
  0
VERTEX
  5
2467
  8
CYAN
 10
28.565168879759788
 20
9.4744800157198021
 30
0.0
  0
VERTEX
  5
2468
  8
CYAN
 10
28.59641770996825
 20
9.5932255705119172
 30
0.0
  0
VERTEX
  5
2469
  8
CYAN
 10
28.621416774135
 20
9.7119711253040197
 30
0.0
  0
VERTEX
  5
246A
  8
CYAN
 10
28.64641583830176
 20
9.8244669140544403
 30
0.0
  0
VERTEX
  5
246B
  8
CYAN
 10
28.67141490246852
 20
9.9432124688465517
 30
0.0
  0
VERTEX
  5
246C
  8
CYAN
 10
28.708913498718669
 20
10.168204046347389
 30
0.0
  0
VERTEX
  5
246D
  8
CYAN
 10
28.727662796843731
 20
10.274450069056121
 30
0.0
  0
VERTEX
  5
246E
  8
CYAN
 10
28.746412094968811
 20
10.37444632572317
 30
0.0
  0
VERTEX
  5
246F
  8
CYAN
 10
28.77141115913556
 20
10.56193930697386
 30
0.0
  0
VERTEX
  5
2470
  8
CYAN
 10
28.783910691218939
 20
10.736932756141179
 30
0.0
  0
VERTEX
  5
2471
  8
CYAN
 10
28.796410223302331
 20
10.818179714683151
 30
0.0
  0
VERTEX
  5
2472
  8
CYAN
 10
28.796410223302331
 20
10.89942667322512
 30
0.0
  0
VERTEX
  5
2473
  8
CYAN
 10
28.802659989344011
 20
10.986923397808781
 30
0.0
  0
VERTEX
  5
2474
  8
CYAN
 10
28.808909755385699
 20
11.06817035635075
 30
0.0
  0
VERTEX
  5
2475
  8
CYAN
 10
28.821409287469081
 20
11.243163805518069
 30
0.0
  0
VERTEX
  5
2476
  8
CYAN
 10
28.821409287469081
 20
11.33066053010173
 30
0.0
  0
VERTEX
  5
2477
  8
CYAN
 10
28.827659053510772
 20
11.424407020727079
 30
0.0
  0
VERTEX
  5
2478
  8
CYAN
 10
28.833908819552459
 20
11.51190374531074
 30
0.0
  0
VERTEX
  5
2479
  8
CYAN
 10
28.833908819552459
 20
11.5994004698944
 30
0.0
  0
VERTEX
  5
247A
  8
CYAN
 10
28.84015858559415
 20
11.680647428436369
 30
0.0
  0
VERTEX
  5
247B
  8
CYAN
 10
28.84015858559415
 20
12.04938362489608
 30
0.0
  0
VERTEX
  5
247C
  8
CYAN
 10
28.833908819552459
 20
12.111881285312981
 30
0.0
  0
VERTEX
  5
247D
  8
CYAN
 10
28.833908819552459
 20
12.23062684010509
 30
0.0
  0
VERTEX
  5
247E
  8
CYAN
 10
28.827659053510772
 20
12.293124500521991
 30
0.0
  0
VERTEX
  5
247F
  8
CYAN
 10
28.827659053510772
 20
12.405620289272401
 30
0.0
  0
VERTEX
  5
2480
  8
CYAN
 10
28.821409287469081
 20
12.461868183647621
 30
0.0
  0
VERTEX
  5
2481
  8
CYAN
 10
28.821409287469081
 20
12.51811607802283
 30
0.0
  0
VERTEX
  5
2482
  8
CYAN
 10
28.8151595214274
 20
12.56811420635635
 30
0.0
  0
VERTEX
  5
2483
  8
CYAN
 10
28.8151595214274
 20
12.67436022906508
 30
0.0
  0
VERTEX
  5
2484
  8
CYAN
 10
28.808909755385699
 20
12.730608123440289
 30
0.0
  0
VERTEX
  5
2485
  8
CYAN
 10
28.802659989344011
 20
12.780606251773801
 30
0.0
  0
VERTEX
  5
2486
  8
CYAN
 10
28.802659989344011
 20
12.83060438010733
 30
0.0
  0
VERTEX
  5
2487
  8
CYAN
 10
28.796410223302331
 20
12.88060250844085
 30
0.0
  0
VERTEX
  5
2488
  8
CYAN
 10
28.796410223302331
 20
12.93060063677437
 30
0.0
  0
VERTEX
  5
2489
  8
CYAN
 10
28.777660925177251
 20
13.080595021774929
 30
0.0
  0
VERTEX
  5
248A
  8
CYAN
 10
28.77141115913556
 20
13.13684291615014
 30
0.0
  0
VERTEX
  5
248B
  8
CYAN
 10
28.76516139309388
 20
13.186841044483661
 30
0.0
  0
VERTEX
  5
248C
  8
CYAN
 10
28.740162328927109
 20
13.299336833234079
 30
0.0
  0
VERTEX
  5
248D
  8
CYAN
 10
28.733912562885418
 20
13.35558472760929
 30
0.0
  0
VERTEX
  5
248E
  8
CYAN
 10
28.721413030802051
 20
13.4118326219845
 30
0.0
  0
VERTEX
  5
248F
  8
CYAN
 10
28.702663732676982
 20
13.4743302824014
 30
0.0
  0
VERTEX
  5
2490
  8
CYAN
 10
28.690164200593589
 20
13.5368279428183
 30
0.0
  0
VERTEX
  5
2491
  8
CYAN
 10
28.633916306218371
 20
13.724320924069
 30
0.0
  0
VERTEX
  5
2492
  8
CYAN
 10
28.608917242051621
 20
13.7868185844859
 30
0.0
  0
VERTEX
  5
2493
  8
CYAN
 10
28.590167943926549
 20
13.8493162449028
 30
0.0
  0
VERTEX
  5
2494
  8
CYAN
 10
28.540169815593028
 20
13.974311565736601
 30
0.0
  0
VERTEX
  5
2495
  8
CYAN
 10
28.515170751426268
 20
14.024309694070119
 30
0.0
  0
VERTEX
  5
2496
  8
CYAN
 10
28.071437358198221
 20
14.736783029675729
 30
0.0
 42
0.3216985068413094
  0
VERTEX
  5
2497
  8
CYAN
 10
27.558956548302831
 20
14.949275068523461
 30
0.0
  0
VERTEX
  5
2498
  8
CYAN
 10
27.196470116916441
 20
14.868028109764451
 30
0.0
  0
VERTEX
  5
2499
  8
CYAN
 10
27.858945314632109
 20
14.13680548587072
 30
0.0
 42
-1.0217602579924461
  0
VERTEX
  5
249A
  8
CYAN
 10
27.715200698475009
 20
14.011810161944499
 30
0.0
  0
VERTEX
  5
249B
  8
CYAN
 10
27.046475731551919
 20
14.74928255395767
 30
0.0
  0
VERTEX
  5
249C
  8
CYAN
 10
26.858982750223401
 20
14.480542614053441
 30
0.0
 42
0.3097273352856137
  0
VERTEX
  5
249D
  8
CYAN
 10
26.858982750483861
 20
14.249301270353889
 30
0.0
  0
VERTEX
  5
249E
  8
CYAN
 10
27.177720819428639
 20
13.78056881602657
 30
0.0
 42
-0.2365617056831471
  0
VERTEX
  5
249F
  8
CYAN
 10
27.202719882616389
 20
13.599325602871749
 30
0.0
  0
VERTEX
  5
24A0
  8
CYAN
 10
27.052725497461271
 20
13.124343383239591
 30
0.0
  0
VERTEX
  5
24A1
  8
CYAN
 10
27.0277264332945
 20
13.04934619073931
 30
0.0
  0
VERTEX
  5
24A2
  8
CYAN
 10
27.008977135169431
 20
13.01184759448917
 30
0.0
  0
VERTEX
  5
24A3
  8
CYAN
 10
26.99022783704438
 20
12.968099232197339
 30
0.0
  0
VERTEX
  5
24A4
  8
CYAN
 10
26.971478538919289
 20
12.91810110386381
 30
0.0
  0
VERTEX
  5
24A5
  8
CYAN
 10
26.921480410585769
 20
12.8056053151134
 30
0.0
  0
VERTEX
  5
24A6
  8
CYAN
 10
26.890231580377328
 20
12.7431076546965
 30
0.0
  0
VERTEX
  5
24A7
  8
CYAN
 10
26.85273298412719
 20
12.680609994279591
 30
0.0
  0
VERTEX
  5
24A8
  8
CYAN
 10
26.777735791626888
 20
12.530615609279041
 30
0.0
  0
VERTEX
  5
24A9
  8
CYAN
 10
26.73398742933507
 20
12.45561841677876
 30
0.0
  0
VERTEX
  5
24AA
  8
CYAN
 10
26.69023906704324
 20
12.374371458236791
 30
0.0
  0
VERTEX
  5
24AB
  8
CYAN
 10
26.646490704751411
 20
12.29937426573651
 30
0.0
  0
VERTEX
  5
24AC
  8
CYAN
 10
26.608992108501269
 20
12.22437707323623
 30
0.0
  0
VERTEX
  5
24AD
  8
CYAN
 10
26.56524374620944
 20
12.14937988073595
 30
0.0
  0
VERTEX
  5
24AE
  8
CYAN
 10
26.521495383917649
 20
12.080632454277421
 30
0.0
  0
VERTEX
  5
24AF
  8
CYAN
 10
26.521495383917621
 20
12.08063245427736
 30
0.0
  0
SEQEND
  5
24B0
  8
CYAN
  0
POLYLINE
  5
13D2
  8
CYAN
 66
     1
 10
0.0
 20
0.0
 30
0.0
 70
     1
  0
VERTEX
  5
24B1
  8
CYAN
 10
27.396462630106519
 20
13.418082386466541
 30
0.0
  0
VERTEX
  5
24B2
  8
CYAN
 10
27.365213799887648
 20
13.299336831745171
 30
0.0
  0
VERTEX
  5
24B3
  8
CYAN
 10
27.34646450176259
 20
13.24933870341164
 30
0.0
  0
VERTEX
  5
24B4
  8
CYAN
 10
27.333964969679212
 20
13.205590341119811
 30
0.0
  0
VERTEX
  5
24B5
  8
CYAN
 10
27.32146543759583
 20
13.14934244674461
 30
0.0
  0
VERTEX
  5
24B6
  8
CYAN
 10
27.283966841345691
 20
13.04934619007757
 30
0.0
  0
VERTEX
  5
24B7
  8
CYAN
 10
27.265217543220629
 20
12.99309829570236
 30
0.0
  0
VERTEX
  5
24B8
  8
CYAN
 10
27.240218479053851
 20
12.936850401327151
 30
0.0
  0
VERTEX
  5
24B9
  8
CYAN
 10
27.215219414887098
 20
12.874352740910251
 30
0.0
  0
VERTEX
  5
24BA
  8
CYAN
 10
27.190220350720349
 20
12.805605314451659
 30
0.0
  0
VERTEX
  5
24BB
  8
CYAN
 10
27.15272175447021
 20
12.730608121951381
 30
0.0
  0
VERTEX
  5
24BC
  8
CYAN
 10
27.115223158220061
 20
12.649361163409409
 30
0.0
  0
VERTEX
  5
24BD
  8
CYAN
 10
27.071474795928228
 20
12.56186443882574
 30
0.0
  0
VERTEX
  5
24BE
  8
CYAN
 10
27.015226901553021
 20
12.455618416117019
 30
0.0
  0
VERTEX
  5
24BF
  8
CYAN
 10
26.952729241136119
 20
12.343122627366601
 30
0.0
  0
VERTEX
  5
24C0
  8
CYAN
 10
26.877732048635838
 20
12.211877540491111
 30
0.0
  0
VERTEX
  5
24C1
  8
CYAN
 10
26.796485090093881
 20
12.068132921532239
 30
0.0
  0
VERTEX
  5
24C2
  8
CYAN
 10
26.69023906738515
 20
11.911888770489989
 30
0.0
  0
VERTEX
  5
24C3
  8
CYAN
 10
26.565243746551339
 20
11.73689532132266
 30
0.0
  0
VERTEX
  5
24C4
  8
CYAN
 10
26.415249361550789
 20
11.549402340071961
 30
0.0
  0
VERTEX
  5
24C5
  8
CYAN
 10
26.246505678425152
 20
11.34940982673789
 30
0.0
  0
VERTEX
  5
24C6
  8
CYAN
 10
26.04026339904938
 20
11.13066801527874
 30
0.0
  0
VERTEX
  5
24C7
  8
CYAN
 10
25.477784458526841
 20
10.705683926883919
 30
0.0
 42
0.5783343581100464
  0
VERTEX
  5
24C8
  8
CYAN
 10
25.540282116906091
 20
10.20570264053587
 30
0.0
 42
0.2717252136127923
  0
VERTEX
  5
24C9
  8
CYAN
 10
25.834021120015809
 20
10.243201237517811
 30
0.0
  0
VERTEX
  5
24CA
  8
CYAN
 10
25.99026527071587
 20
10.368196558082261
 30
0.0
  0
VERTEX
  5
24CB
  8
CYAN
 10
26.027763866966001
 20
10.39944538829071
 30
0.0
  0
VERTEX
  5
24CC
  8
CYAN
 10
26.059012697174449
 20
10.436943984540861
 30
0.0
  0
VERTEX
  5
24CD
  8
CYAN
 10
26.127760123633049
 20
10.50569141099945
 30
0.0
  0
VERTEX
  5
24CE
  8
CYAN
 10
26.19025778404994
 20
10.580688603499731
 30
0.0
  0
VERTEX
  5
24CF
  8
CYAN
 10
26.227756380300079
 20
10.62443696579156
 30
0.0
  0
VERTEX
  5
24D0
  8
CYAN
 10
26.259005210508541
 20
10.6619355620417
 30
0.0
  0
VERTEX
  5
24D1
  8
CYAN
 10
26.446498191759229
 20
10.88067737350085
 30
0.0
  0
VERTEX
  5
24D2
  8
CYAN
 10
26.483996788009371
 20
10.93067550183436
 30
0.0
  0
VERTEX
  5
24D3
  8
CYAN
 10
26.521495384259509
 20
10.974423864126191
 30
0.0
  0
VERTEX
  5
24D4
  8
CYAN
 10
26.565243746551339
 20
11.02442199245972
 30
0.0
  0
VERTEX
  5
24D5
  8
CYAN
 10
26.677739535301761
 20
11.174416377460281
 30
0.0
  0
VERTEX
  5
24D6
  8
CYAN
 10
26.71523813155191
 20
11.23066427183549
 30
0.0
  0
VERTEX
  5
24D7
  8
CYAN
 10
26.79023532405218
 20
11.33066052850252
 30
0.0
  0
VERTEX
  5
24D8
  8
CYAN
 10
26.977728305302879
 20
11.611900000378579
 30
0.0
  0
VERTEX
  5
24D9
  8
CYAN
 10
27.040225965719792
 20
11.724395789129
 30
0.0
  0
VERTEX
  5
24DA
  8
CYAN
 10
27.077724561969919
 20
11.786893449545881
 30
0.0
  0
VERTEX
  5
24DB
  8
CYAN
 10
27.108973392178381
 20
11.84314134392111
 30
0.0
  0
VERTEX
  5
24DC
  8
CYAN
 10
27.140222222386821
 20
11.90563900433801
 30
0.0
  0
VERTEX
  5
24DD
  8
CYAN
 10
27.165221286553589
 20
11.96813666475491
 30
0.0
  0
VERTEX
  5
24DE
  8
CYAN
 10
27.196470116762029
 20
12.024384559130119
 30
0.0
  0
VERTEX
  5
24DF
  8
CYAN
 10
27.22771894697048
 20
12.08688221954702
 30
0.0
  0
VERTEX
  5
24E0
  8
CYAN
 10
27.277717075304011
 20
12.21187754038082
 30
0.0
  0
VERTEX
  5
24E1
  8
CYAN
 10
27.30271613947076
 20
12.28062496683941
 30
0.0
  0
VERTEX
  5
24E2
  8
CYAN
 10
27.333964969679212
 20
12.343122627256299
 30
0.0
  0
VERTEX
  5
24E3
  8
CYAN
 10
27.358964033845972
 20
12.40562028767321
 30
0.0
  0
VERTEX
  5
24E4
  8
CYAN
 10
27.408962162179488
 20
12.54311514059038
 30
0.0
  0
VERTEX
  5
24E5
  8
CYAN
 10
27.433961226346248
 20
12.60561280100729
 30
0.0
  0
VERTEX
  5
24E6
  8
CYAN
 10
27.458960290513009
 20
12.67436022746587
 30
0.0
  0
VERTEX
  5
24E7
  8
CYAN
 10
27.477709588638081
 20
12.74310765392447
 30
0.0
  0
VERTEX
  5
24E8
  8
CYAN
 10
27.502708652804841
 20
12.805605314341371
 30
0.0
  0
VERTEX
  5
24E9
  8
CYAN
 10
27.54020724905498
 20
12.943100167258541
 30
0.0
  0
VERTEX
  5
24EA
  8
CYAN
 10
27.552706781138362
 20
13.011847593717141
 30
0.0
  0
VERTEX
  5
24EB
  8
CYAN
 10
27.571456079263431
 20
13.074345254134039
 30
0.0
  0
VERTEX
  5
24EC
  8
CYAN
 10
27.596455143430191
 20
13.19934057496784
 30
0.0
  0
VERTEX
  5
24ED
  8
CYAN
 10
27.608954675513569
 20
13.255588469343049
 30
0.0
  0
VERTEX
  5
24EE
  8
CYAN
 10
27.633953739672911
 20
13.37433402409993
 30
0.0
 42
1.204975864849084
  0
SEQEND
  5
24EF
  8
CYAN
  0
POLYLINE
  5
13D3
  8
CYAN
 66
     1
 10
0.0
 20
0.0
 30
0.0
 70
     1
  0
VERTEX
  5
24F0
  8
CYAN
 10
27.365213799719189
 20
8.9682489651927604
 30
0.0
 42
0.3628983692867983
  0
VERTEX
  5
24F1
  8
CYAN
 10
27.421461694149961
 20
8.8182545801558625
 30
0.0
  0
VERTEX
  5
24F2
  8
CYAN
 10
27.72145046418375
 20
8.6557606630606543
 30
0.0
 42
0.4470135250387746
  0
VERTEX
  5
24F3
  8
CYAN
 10
27.896443913136839
 20
8.7245080895806009
 30
0.0
  0
VERTEX
  5
24F4
  8
CYAN
 10
27.946442041478079
 20
8.8432536443951832
 30
0.0
  0
VERTEX
  5
24F5
  8
CYAN
 10
27.983940637728221
 20
8.955749433145602
 30
0.0
  0
VERTEX
  5
24F6
  8
CYAN
 10
28.021439233978349
 20
9.0619954558543334
 30
0.0
  0
VERTEX
  5
24F7
  8
CYAN
 10
28.05268806418681
 20
9.1682414785630648
 30
0.0
  0
VERTEX
  5
24F8
  8
CYAN
 10
28.115185724603709
 20
9.3682339918971458
 30
0.0
  0
VERTEX
  5
24F9
  8
CYAN
 10
28.177683385020611
 20
9.5807260373145997
 30
0.0
  0
VERTEX
  5
24FA
  8
CYAN
 10
28.208932215229058
 20
9.6994715921067112
 30
0.0
  0
VERTEX
  5
24FB
  8
CYAN
 10
28.240181045437499
 20
9.8244669129405118
 30
0.0
  0
VERTEX
  5
24FC
  8
CYAN
 10
28.271429875645961
 20
9.9557119998160033
 30
0.0
  0
VERTEX
  5
24FD
  8
CYAN
 10
28.302678705854412
 20
10.09320685273318
 30
0.0
  0
VERTEX
  5
24FE
  8
CYAN
 10
28.327677770021161
 20
10.23695147169205
 30
0.0
  0
VERTEX
  5
24FF
  8
CYAN
 10
28.358926600229609
 20
10.3931956227343
 30
0.0
  0
VERTEX
  5
2500
  8
CYAN
 10
28.383925664396369
 20
10.54943977377655
 30
0.0
  0
VERTEX
  5
2501
  8
CYAN
 10
28.408924728563139
 20
10.71818345690218
 30
0.0
  0
VERTEX
  5
2502
  8
CYAN
 10
28.433923792729889
 20
10.89942667211119
 30
0.0
  0
VERTEX
  5
2503
  8
CYAN
 10
28.452673090854962
 20
11.09941918544528
 30
0.0
  0
VERTEX
  5
2504
  8
CYAN
 10
28.471422388980042
 20
11.318160996904419
 30
0.0
  0
VERTEX
  5
2505
  8
CYAN
 10
28.483921921063409
 20
11.568151638572029
 30
0.0
  0
VERTEX
  5
2506
  8
CYAN
 10
28.496421453146802
 20
11.84314134440638
 30
0.0
  0
VERTEX
  5
2507
  8
CYAN
 10
28.502671219188489
 20
12.15562964649088
 30
0.0
  0
VERTEX
  5
2508
  8
CYAN
 10
28.508920985230169
 20
12.50561654482552
 30
0.0
  0
VERTEX
  5
2509
  8
CYAN
 10
28.515170751280881
 20
12.674360228194759
 30
0.0
 42
0.459871376666214
  0
VERTEX
  5
250A
  8
CYAN
 10
28.333927537335772
 20
12.843103911031029
 30
0.0
 42
0.3275156788001323
  0
VERTEX
  5
250B
  8
CYAN
 10
28.190182918180639
 20
12.71185882891184
 30
0.0
  0
VERTEX
  5
250C
  8
CYAN
 10
28.165183853058551
 20
12.58686350332338
 30
0.0
  0
VERTEX
  5
250D
  8
CYAN
 10
28.171433619100231
 20
12.5118663108231
 30
0.0
  0
VERTEX
  5
250E
  8
CYAN
 10
28.165183853058551
 20
12.418119820197751
 30
0.0
  0
VERTEX
  5
250F
  8
CYAN
 10
28.158934087016849
 20
12.311873797489021
 30
0.0
  0
VERTEX
  5
2510
  8
CYAN
 10
28.152684320975158
 20
12.193128242696909
 30
0.0
  0
VERTEX
  5
2511
  8
CYAN
 10
28.146434554933482
 20
12.06188315582142
 30
0.0
  0
VERTEX
  5
2512
  8
CYAN
 10
28.121435490766711
 20
11.78689344998706
 30
0.0
  0
VERTEX
  5
2513
  8
CYAN
 10
28.108935958683329
 20
11.65564836311157
 30
0.0
  0
VERTEX
  5
2514
  8
CYAN
 10
28.09018666055827
 20
11.524403276236081
 30
0.0
  0
VERTEX
  5
2515
  8
CYAN
 10
28.077687128474889
 20
11.40565772144396
 30
0.0
  0
VERTEX
  5
2516
  8
CYAN
 10
28.058937830349819
 20
11.28066240061016
 30
0.0
  0
VERTEX
  5
2517
  8
CYAN
 10
28.04018853222475
 20
11.161916845818061
 30
0.0
  0
VERTEX
  5
2518
  8
CYAN
 10
27.99019040389123
 20
10.911926204150451
 30
0.0
  0
VERTEX
  5
2519
  8
CYAN
 10
27.958941573682772
 20
10.774431351233281
 30
0.0
  0
VERTEX
  5
251A
  8
CYAN
 10
27.92144297743263
 20
10.63693649831608
 30
0.0
  0
VERTEX
  5
251B
  8
CYAN
 10
27.883944381182491
 20
10.49319187935723
 30
0.0
  0
VERTEX
  5
251C
  8
CYAN
 10
27.833946252848978
 20
10.33069796227328
 30
0.0
  0
VERTEX
  5
251D
  8
CYAN
 10
27.77769835847376
 20
10.15570451310596
 30
0.0
  0
VERTEX
  5
251E
  8
CYAN
 10
27.715200698056869
 20
9.9557119997718875
 30
0.0
  0
VERTEX
  5
251F
  8
CYAN
 10
27.640203505556588
 20
9.7307204222710482
 30
0.0
  0
VERTEX
  5
2520
  8
CYAN
 10
27.55270678097293
 20
9.4807297806034487
 30
0.0
  0
VERTEX
  5
2521
  8
CYAN
 10
27.446460758264202
 20
9.1932405426857091
 30
0.0
  0
SEQEND
  5
2522
  8
CYAN
  0
POLYLINE
  5
13D4
  8
CYAN
 66
     1
 10
0.0
 20
0.0
 30
0.0
 70
     1
  0
VERTEX
  5
2523
  8
CYAN
 10
25.877392676780211
 20
8.2798781646816249
 30
0.0
  0
VERTEX
  5
2524
  8
CYAN
 10
26.121510357315628
 20
8.1245305497883287
 30
0.0
  0
VERTEX
  5
2525
  8
CYAN
 10
26.265254976099619
 20
8.0432835913451974
 30
0.0
 42
0.3818722482291039
  0
VERTEX
  5
2526
  8
CYAN
 10
26.427748893415679
 20
8.0745324215215852
 30
0.0
  0
VERTEX
  5
2527
  8
CYAN
 10
26.465247489597552
 20
8.1182807837245772
 30
0.0
  0
VERTEX
  5
2528
  8
CYAN
 10
26.558993980222901
 20
8.2495258706000705
 30
0.0
  0
VERTEX
  5
2529
  8
CYAN
 10
26.64649070480656
 20
8.3807709574755584
 30
0.0
  0
VERTEX
  5
252A
  8
CYAN
 10
26.72148789730684
 20
8.5057662783093591
 30
0.0
  0
VERTEX
  5
252B
  8
CYAN
 10
26.79023532376543
 20
8.6245118331014723
 30
0.0
  0
VERTEX
  5
252C
  8
CYAN
 10
26.852732984182332
 20
8.7432573878935766
 30
0.0
  0
VERTEX
  5
252D
  8
CYAN
 10
26.908980878557539
 20
8.8557531766440007
 30
0.0
  0
VERTEX
  5
252E
  8
CYAN
 10
26.96522877293275
 20
8.9619991993527286
 30
0.0
  0
VERTEX
  5
252F
  8
CYAN
 10
27.065225029599791
 20
9.1619917126868078
 30
0.0
  0
VERTEX
  5
2530
  8
CYAN
 10
27.15272175418345
 20
9.3494846939375051
 30
0.0
  0
VERTEX
  5
2531
  8
CYAN
 10
27.190220350433592
 20
9.4369814185211673
 30
0.0
  0
VERTEX
  5
2532
  8
CYAN
 10
27.233968712725421
 20
9.5307279091465205
 30
0.0
  0
VERTEX
  5
2533
  8
CYAN
 10
27.265217542933868
 20
9.6182246337301791
 30
0.0
  0
VERTEX
  5
2534
  8
CYAN
 10
27.340214735434142
 20
9.7932180828974982
 30
0.0
  0
VERTEX
  5
2535
  8
CYAN
 10
27.371463565642589
 20
9.8807148074811586
 30
0.0
  0
VERTEX
  5
2536
  8
CYAN
 10
27.433961226059498
 20
10.068207788731851
 30
0.0
  0
VERTEX
  5
2537
  8
CYAN
 10
27.47145982230963
 20
10.1682040453989
 30
0.0
  0
VERTEX
  5
2538
  8
CYAN
 10
27.502708652518091
 20
10.274450068107621
 30
0.0
  0
VERTEX
  5
2539
  8
CYAN
 10
27.533957482726539
 20
10.38694585685805
 30
0.0
  0
VERTEX
  5
253A
  8
CYAN
 10
27.571456078976681
 20
10.499441645608471
 30
0.0
  0
VERTEX
  5
253B
  8
CYAN
 10
27.602704909185132
 20
10.624436966442261
 30
0.0
  0
VERTEX
  5
253C
  8
CYAN
 10
27.64020350543527
 20
10.755682053317759
 30
0.0
  0
VERTEX
  5
253D
  8
CYAN
 10
27.677702101685409
 20
10.899426672276631
 30
0.0
  0
VERTEX
  5
253E
  8
CYAN
 10
27.715200697935561
 20
11.05567082331887
 30
0.0
  0
VERTEX
  5
253F
  8
CYAN
 10
27.746449528144002
 20
11.2306642724862
 30
0.0
  0
VERTEX
  5
2540
  8
CYAN
 10
27.77769835835246
 20
11.42440701977859
 30
0.0
  0
VERTEX
  5
2541
  8
CYAN
 10
27.808947188560889
 20
11.636899065196051
 30
0.0
  0
VERTEX
  5
2542
  8
CYAN
 10
27.833946252731579
 20
11.89313947294546
 30
0.0
 42
0.4537304200661735
  0
VERTEX
  5
2543
  8
CYAN
 10
27.708950931676888
 20
12.06188315590466
 30
0.0
 42
0.3602860126256822
  0
VERTEX
  5
2544
  8
CYAN
 10
27.565206313029389
 20
11.961886899193971
 30
0.0
  0
VERTEX
  5
2545
  8
CYAN
 10
27.53395748284785
 20
11.861890642652771
 30
0.0
  0
VERTEX
  5
2546
  8
CYAN
 10
27.496458886597718
 20
11.74939485390235
 30
0.0
  0
VERTEX
  5
2547
  8
CYAN
 10
27.48395935451434
 20
11.68689719348545
 30
0.0
  0
VERTEX
  5
2548
  8
CYAN
 10
27.446460758264202
 20
11.549402340568269
 30
0.0
  0
VERTEX
  5
2549
  8
CYAN
 10
27.43396122618082
 20
11.486904680151371
 30
0.0
  0
VERTEX
  5
254A
  8
CYAN
 10
27.415211928055751
 20
11.41190748765109
 30
0.0
  0
VERTEX
  5
254B
  8
CYAN
 10
27.39021286388898
 20
11.343160061192499
 30
0.0
  0
VERTEX
  5
254C
  8
CYAN
 10
27.371463565763921
 20
11.26191310265053
 30
0.0
  0
VERTEX
  5
254D
  8
CYAN
 10
27.346464501597151
 20
11.180666144108571
 30
0.0
  0
VERTEX
  5
254E
  8
CYAN
 10
27.283966841180249
 20
10.993173162857859
 30
0.0
  0
VERTEX
  5
254F
  8
CYAN
 10
27.24646824493011
 20
10.88692714014913
 30
0.0
  0
VERTEX
  5
2550
  8
CYAN
 10
27.202719882638281
 20
10.76818158535702
 30
0.0
  0
VERTEX
  5
2551
  8
CYAN
 10
27.158971520346451
 20
10.643186264523219
 30
0.0
  0
VERTEX
  5
2552
  8
CYAN
 10
27.108973392012938
 20
10.51194117764773
 30
0.0
  0
VERTEX
  5
2553
  8
CYAN
 10
27.058975263679411
 20
10.374446324730551
 30
0.0
  0
VERTEX
  5
2554
  8
CYAN
 10
27.00272736930421
 20
10.23695147181337
 30
0.0
  0
VERTEX
  5
2555
  8
CYAN
 10
26.815234388053511
 20
9.8244669130618316
 30
0.0
  0
VERTEX
  5
2556
  8
CYAN
 10
26.746486961594918
 20
9.6869720601446545
 30
0.0
  0
VERTEX
  5
2557
  8
CYAN
 10
26.671489769094642
 20
9.5494772072274721
 30
0.0
  0
VERTEX
  5
2558
  8
CYAN
 10
26.590242810552681
 20
9.4057325882686023
 30
0.0
  0
VERTEX
  5
2559
  8
CYAN
 10
26.49024655388563
 20
9.2432386711846632
 30
0.0
  0
VERTEX
  5
255A
  8
CYAN
 10
26.3777507651352
 20
9.0557456899339641
 30
0.0
  0
VERTEX
  5
255B
  8
CYAN
 10
26.240255912218039
 20
8.8370038784748122
 30
0.0
  0
VERTEX
  5
255C
  8
CYAN
 10
26.071512229092399
 20
8.5807634707655254
 30
0.0
  0
SEQEND
  5
255D
  8
CYAN
  0
POLYLINE
  5
13D5
  8
CYAN
 66
     1
 10
0.0
 20
0.0
 30
0.0
 70
     1
  0
VERTEX
  5
255E
  8
CYAN
 10
26.802734856021662
 20
10.505691411616469
 30
0.0
 42
0.4300307069830064
  0
VERTEX
  5
255F
  8
CYAN
 10
26.727737663888909
 20
10.718183456406321
 30
0.0
 42
0.4413990702155019
  0
VERTEX
  5
2560
  8
CYAN
 10
26.521495383950889
 20
10.630686732021109
 30
0.0
  0
VERTEX
  5
2561
  8
CYAN
 10
26.50274608588078
 20
10.593188135936041
 30
0.0
  0
VERTEX
  5
2562
  8
CYAN
 10
26.446498191505562
 20
10.51819094343575
 30
0.0
  0
VERTEX
  5
2563
  8
CYAN
 10
26.377750765046979
 20
10.4306942188521
 30
0.0
  0
VERTEX
  5
2564
  8
CYAN
 10
26.315253104630081
 20
10.355697026351811
 30
0.0
  0
VERTEX
  5
2565
  8
CYAN
 10
26.252755444213179
 20
10.286949599893219
 30
0.0
  0
VERTEX
  5
2566
  8
CYAN
 10
26.14650942150444
 20
10.1807035771845
 30
0.0
  0
VERTEX
  5
2567
  8
CYAN
 10
26.04651316483741
 20
10.09320685260084
 30
0.0
  0
VERTEX
  5
2568
  8
CYAN
 10
26.002764802545581
 20
10.0557082563507
 30
0.0
  0
VERTEX
  5
2569
  8
CYAN
 10
25.965266206295439
 20
10.02445942614224
 30
0.0
  0
VERTEX
  5
256A
  8
CYAN
 10
25.92776761004529
 20
9.9869608298921033
 30
0.0
  0
VERTEX
  5
256B
  8
CYAN
 10
25.665277436294311
 20
9.768219018432962
 30
0.0
  0
VERTEX
  5
256C
  8
CYAN
 10
25.621529074002488
 20
9.7307204221828201
 30
0.0
  0
VERTEX
  5
256D
  8
CYAN
 10
25.53403234941883
 20
9.6682227617659198
 30
0.0
  0
VERTEX
  5
256E
  8
CYAN
 10
25.484034221085309
 20
9.6307241655157796
 30
0.0
  0
VERTEX
  5
256F
  8
CYAN
 10
25.427786326710098
 20
9.5994753353073285
 30
0.0
  0
VERTEX
  5
2570
  8
CYAN
 10
25.371538432334891
 20
9.5619767390571901
 30
0.0
  0
VERTEX
  5
2571
  8
CYAN
 10
25.3652886662932
 20
9.486979546556908
 30
0.0
  0
VERTEX
  5
2572
  8
CYAN
 10
25.384037964418258
 20
9.3994828219732511
 30
0.0
  0
VERTEX
  5
2573
  8
CYAN
 10
25.39653749650164
 20
9.3494846936397273
 30
0.0
  0
VERTEX
  5
2574
  8
CYAN
 10
25.415286794626709
 20
9.2994865653062089
 30
0.0
  0
VERTEX
  5
2575
  8
CYAN
 10
25.434036092751789
 20
9.1682414784307191
 30
0.0
  0
VERTEX
  5
2576
  8
CYAN
 10
25.434036092751789
 20
9.1307428821805754
 30
0.0
  0
VERTEX
  5
2577
  8
CYAN
 10
25.427786326710098
 20
9.0932442859304423
 30
0.0
  0
VERTEX
  5
2578
  8
CYAN
 10
25.427786326710098
 20
9.0244968594718546
 30
0.0
  0
VERTEX
  5
2579
  8
CYAN
 10
25.415286794626709
 20
8.9619991990549508
 30
0.0
  0
VERTEX
  5
257A
  8
CYAN
 10
25.415286794626709
 20
8.9370001348881907
 30
0.0
  0
VERTEX
  5
257B
  8
CYAN
 10
25.402787262543349
 20
8.8870020065546704
 30
0.0
  0
VERTEX
  5
257C
  8
CYAN
 10
25.39653749650164
 20
8.8682527084296012
 30
0.0
  0
VERTEX
  5
257D
  8
CYAN
 10
25.390287730459949
 20
8.8432536442628411
 30
0.0
  0
VERTEX
  5
257E
  8
CYAN
 10
25.377788198376571
 20
8.8057550480127027
 30
0.0
  0
VERTEX
  5
257F
  8
CYAN
 10
25.3652886662932
 20
8.7870057498876282
 30
0.0
  0
VERTEX
  5
2580
  8
CYAN
 10
25.35903890025152
 20
8.7745062178042517
 30
0.0
  0
VERTEX
  5
2581
  8
CYAN
 10
25.346539368168131
 20
8.7557569196791771
 30
0.0
  0
VERTEX
  5
2582
  8
CYAN
 10
25.34028960212644
 20
8.7370076215541062
 30
0.0
  0
VERTEX
  5
2583
  8
CYAN
 10
25.334039836084749
 20
8.7245080894707279
 30
0.0
  0
VERTEX
  5
2584
  8
CYAN
 10
25.32154030400136
 20
8.7057587913456551
 30
0.0
  0
VERTEX
  5
2585
  8
CYAN
 10
25.31529053795968
 20
8.6870094932205895
 30
0.0
  0
VERTEX
  5
2586
  8
CYAN
 10
25.302791005876291
 20
8.6745099611372058
 30
0.0
  0
VERTEX
  5
2587
  8
CYAN
 10
25.265292409626159
 20
8.5620141723867889
 30
0.0
  0
VERTEX
  5
2588
  8
CYAN
 10
25.259042643584468
 20
8.549514640303407
 30
0.0
  0
VERTEX
  5
2589
  8
CYAN
 10
25.227793813359121
 20
8.4495183835823067
 30
0.0
 42
0.8231516357192132
  0
VERTEX
  5
258A
  8
CYAN
 10
25.427786329204359
 20
8.3370225977959258
 30
0.0
  0
VERTEX
  5
258B
  8
CYAN
 10
25.540282115449489
 20
8.4682676817504081
 30
0.0
  0
VERTEX
  5
258C
  8
CYAN
 10
25.765273692950331
 20
8.7807559838349043
 30
0.0
  0
VERTEX
  5
258D
  8
CYAN
 10
26.046513164826369
 20
9.2057400746698264
 30
0.0
  0
VERTEX
  5
258E
  8
CYAN
 10
26.446498191494541
 20
9.8557157430055842
 30
0.0
  0
SEQEND
  5
258F
  8
CYAN
  0
POLYLINE
  5
13D6
  8
CYAN
 66
     1
 10
0.0
 20
0.0
 30
0.0
 70
     1
  0
VERTEX
  5
2590
  8
CYAN
 10
27.496458886039061
 20
7.9995352266050039
 30
0.0
 42
0.4142135616013614
  0
VERTEX
  5
2591
  8
CYAN
 10
27.352714267553349
 20
8.3682714224636641
 30
0.0
 42
0.2044904176736236
  0
VERTEX
  5
2592
  8
CYAN
 10
27.133972455651818
 20
8.3682714226537591
 30
0.0
 42
1.4658379139029589
  0
SEQEND
  5
2593
  8
CYAN
  0
POLYLINE
  5
13D7
  8
CYAN
 66
     1
 10
0.0
 20
0.0
 30
0.0
 70
     1
  0
VERTEX
  5
2594
  8
CYAN
 10
24.471572122411111
 20
10.093206851388089
 30
0.0
 42
0.4142135627652409
  0
VERTEX
  5
2595
  8
CYAN
 10
24.615316742008009
 20
9.7244706549010225
 30
0.0
 42
0.4202804600510119
  0
VERTEX
  5
2596
  8
CYAN
 10
24.984052937657289
 20
9.8744650403211907
 30
0.0
 42
0.4081952478346715
  0
VERTEX
  5
2597
  8
CYAN
 10
24.840308273570269
 20
10.23695149034466
 30
0.0
 42
0.1969085326954766
  0
VERTEX
  5
2598
  8
CYAN
 10
24.627816273536869
 20
10.24320123642527
 30
0.0
 42
0.2009264155704153
  0
SEQEND
  5
2599
  8
CYAN
  0
POLYLINE
  5
13D8
  8
CYAN
 66
     1
 10
0.0
 20
0.0
 30
0.0
 70
     1
  0
VERTEX
  5
259A
  8
CYAN
 10
25.671527202245692
 20
7.1058186828114014
 30
0.0
 42
0.4142135612932575
  0
VERTEX
  5
259B
  8
CYAN
 10
26.04026339812501
 20
7.249563301229311
 30
0.0
 42
0.4202804605934113
  0
VERTEX
  5
259C
  8
CYAN
 10
25.890269014197699
 20
7.6182994976357952
 30
0.0
 42
0.1990989447376583
  0
VERTEX
  5
259D
  8
CYAN
 10
25.677776967723851
 20
7.6182994978334113
 30
0.0
 42
0.1933947811303031
  0
VERTEX
  5
259E
  8
CYAN
 10
25.527782583021171
 20
7.4745548786980223
 30
0.0
 42
0.4142135617194333
  0
VERTEX
  5
259F
  8
CYAN
 10
25.671527202235691
 20
7.1058186828034833
 30
0.0
  0
SEQEND
  5
25A0
  8
CYAN
  0
POLYLINE
  5
13D9
  8
CYAN
 66
     1
 10
0.0
 20
0.0
 30
0.0
 70
     1
  0
VERTEX
  5
25A1
  8
CYAN
 10
24.527820016792891
 20
8.7057587900685736
 30
0.0
 42
0.4142135620505309
  0
VERTEX
  5
25A2
  8
CYAN
 10
24.896556212963059
 20
8.8495034091489622
 30
0.0
 42
2.4142135642531342
  0
SEQEND
  5
25A3
  8
CYAN
  0
POLYLINE
  5
13DA
  8
CYAN
 66
     1
 10
0.0
 20
0.0
 30
0.0
 70
     1
  0
VERTEX
  5
25A4
  8
CYAN
 10
24.58406791107987
 20
7.1495670453899844
 30
0.0
 42
0.4142135612881814
  0
VERTEX
  5
25A5
  8
CYAN
 10
24.952804106957242
 20
7.2933116638034274
 30
0.0
 42
0.4202804605992658
  0
VERTEX
  5
25A6
  8
CYAN
 10
24.802809723031249
 20
7.662047860214634
 30
0.0
 42
0.1990989438643167
  0
VERTEX
  5
25A7
  8
CYAN
 10
24.590317677418408
 20
7.662047860768741
 30
0.0
 42
0.1933947816143357
  0
VERTEX
  5
25A8
  8
CYAN
 10
24.44032329202313
 20
7.5183032416587547
 30
0.0
 42
0.4142135621562457
  0
VERTEX
  5
25A9
  8
CYAN
 10
24.584067911069859
 20
7.1495670453820646
 30
0.0
  0
SEQEND
  5
25AA
  8
CYAN
  0
POLYLINE
  5
13DB
  8
CYAN
 66
     1
 10
0.0
 20
0.0
 30
0.0
 70
     1
  0
VERTEX
  5
25AB
  8
CYAN
 10
24.002839669194341
 20
8.4870169788952872
 30
0.0
 42
0.1990989436673398
  0
VERTEX
  5
25AC
  8
CYAN
 10
23.790347623775691
 20
8.4870169788952872
 30
0.0
 42
5.0226283554312898
  0
SEQEND
  5
25AD
  8
CYAN
  0
POLYLINE
  5
13DC
  8
CYAN
 66
     1
 10
0.0
 20
0.0
 30
0.0
 70
     1
  0
VERTEX
  5
25AE
  8
CYAN
 10
22.434148392965032
 20
5.455880449408312
 30
0.0
 42
1.021121048023085
  0
VERTEX
  5
25AF
  8
CYAN
 10
22.790385057245921
 20
5.262137701915595
 30
0.0
  0
VERTEX
  5
25B0
  8
CYAN
 10
23.440360725303879
 20
6.5620890380315116
 30
0.0
 42
0.4244810476686627
  0
VERTEX
  5
25B1
  8
CYAN
 10
23.365363533232571
 20
6.7808308500941239
 30
0.0
 42
0.388316875615595
  0
VERTEX
  5
25B2
  8
CYAN
 10
23.165371019702469
 20
6.7120834235240254
 30
0.0
  0
SEQEND
  5
25B3
  8
CYAN
  0
POLYLINE
  5
13DD
  8
CYAN
 66
     1
 10
0.0
 20
0.0
 30
0.0
 70
     1
  0
VERTEX
  5
25B4
  8
CYAN
 10
22.277904240900749
 20
4.855902909335315
 30
0.0
 42
0.1992140267536162
  0
VERTEX
  5
25B5
  8
CYAN
 10
22.034163365609249
 20
4.8559029087481678
 30
0.0
 42
0.1986463206280229
  0
VERTEX
  5
25B6
  8
CYAN
 10
21.859169916403129
 20
4.6871592241338602
 30
0.0
 42
0.4089965813140493
  0
VERTEX
  5
25B7
  8
CYAN
 10
22.02166383435236
 20
4.2684249013621214
 30
0.0
 42
0.4142135623158207
  0
VERTEX
  5
25B8
  8
CYAN
 10
22.440398158942951
 20
4.437168584890502
 30
0.0
 42
0.4195451739897024
  0
SEQEND
  5
25B9
  8
CYAN
  0
POLYLINE
  5
1DB9
  8
CYAN
 66
     1
 10
0.0
 20
0.0
 30
0.0
 70
     1
  0
VERTEX
  5
25C2
  8
CYAN
 10
18.023867369734312
 20
22.320802988607809
 30
0.0
 42
0.2041614747248711
  0
VERTEX
  5
25C3
  8
CYAN
 10
17.79262601424028
 20
22.18955788569194
 30
0.0
 42
0.1940265442826575
  0
VERTEX
  5
25C4
  8
CYAN
 10
17.72387860030771
 20
21.93956725956123
 30
0.0
 42
0.4142135669700127
  0
VERTEX
  5
25C5
  8
CYAN
 10
18.111364100689212
 20
21.639578490756008
 30
0.0
 42
0.4195457045268573
  0
VERTEX
  5
25C6
  8
CYAN
 10
18.4051030988497
 20
22.02706398435301
 30
0.0
 42
0.4142135631355412
  0
SEQEND
  5
25C7
  8
CYAN
  0
POLYLINE
  5
1DBA
  8
CYAN
 66
     1
 10
0.0
 20
0.0
 30
0.0
 70
     1
  0
VERTEX
  5
25C8
  8
CYAN
 10
17.386848100625869
 20
22.592551734013771
 30
0.0
 42
0.2590110653925648
  0
VERTEX
  5
25C9
  8
CYAN
 10
17.26139591297391
 20
21.627078959681221
 30
0.0
 42
-0.3813479854094411
  0
VERTEX
  5
25CA
  8
CYAN
 10
17.211397784866961
 20
21.470834808484959
 30
0.0
 42
-0.1715232159739244
  0
VERTEX
  5
25CB
  8
CYAN
 10
9.8866719709804443
 20
19.870894703343581
 30
0.0
 42
0.6977805177320569
  0
VERTEX
  5
25CC
  8
CYAN
 10
9.8429236085453411
 20
19.583405465500348
 30
0.0
 42
0.1794147935592901
  0
VERTEX
  5
25CD
  8
CYAN
 10
17.498887010277119
 20
21.17084604051681
 30
0.0
 42
-0.2953142446733539
  0
VERTEX
  5
25CE
  8
CYAN
 10
17.636381861756099
 20
21.170846039309382
 30
0.0
 42
0.1833562588609411
  0
VERTEX
  5
25CF
  8
CYAN
 10
18.32385612661038
 20
21.00835212241358
 30
0.0
  0
VERTEX
  5
25D0
  8
CYAN
 10
18.917583899918949
 20
21.083349314831501
 30
0.0
 42
0.1612030825276705
  0
VERTEX
  5
25D1
  8
CYAN
 10
19.273820564520499
 20
21.258342764074449
 30
0.0
  0
VERTEX
  5
25D2
  8
CYAN
 10
19.53006098663327
 20
21.508333403680581
 30
0.0
  0
VERTEX
  5
25D3
  8
CYAN
 10
18.89258484886286
 20
22.15205930750755
 30
0.0
 42
-1.0240665667895961
  0
VERTEX
  5
25D4
  8
CYAN
 10
19.030079703351429
 20
22.283304392795721
 30
0.0
  0
VERTEX
  5
25D5
  8
CYAN
 10
19.661306073530799
 20
21.639578490522979
 30
0.0
  0
VERTEX
  5
25D6
  8
CYAN
 10
19.68005537165163
 20
21.652078022603519
 30
0.0
 42
0.3384591363040135
  0
VERTEX
  5
25D7
  8
CYAN
 10
19.786301393973812
 20
22.402049948308491
 30
0.0
  0
VERTEX
  5
25D8
  8
CYAN
 10
19.548810276954711
 20
22.827034052455492
 30
0.0
 42
0.4243382354939011
  0
VERTEX
  5
25D9
  8
CYAN
 10
18.76758952974858
 20
23.033276317644042
 30
0.0
 42
-0.1902940325255185
  0
VERTEX
  5
25DA
  8
CYAN
 10
18.405103099759732
 20
22.97702842340507
 30
0.0
 42
0.2769055326416506
  0
VERTEX
  5
25DB
  8
CYAN
 10
17.428398394160961
 20
22.64505254991078
 30
0.0
 42
0.0166969357491426
  0
SEQEND
  5
25DC
  8
CYAN
  0
ENDSEC
  0
EOF
