  0
SECTION
  2
HEADER
  9
$ACADVER
  1
AC1009
  9
$DWGCODEPAGE
  3
ansi_1252
  9
$INSBASE
 10
0.0
 20
0.0
 30
0.0
  9
$EXTMIN
 10
-0.997590719500991
 20
0.1515654713178556
 30
0.0
  9
$EXTMAX
 10
56.81536010174751
 20
54.77210043994892
 30
0.0
  9
$LIMMIN
 10
0.0
 20
0.0
  9
$LIMMAX
 10
12.0
 20
9.0
  9
$ORTHOMODE
 70
     0
  9
$REGENMODE
 70
     1
  9
$FILLMODE
 70
     1
  9
$QTEXTMODE
 70
     0
  9
$MIRRTEXT
 70
     1
  9
$DRAGMODE
 70
     2
  9
$LTSCALE
 40
1.0
  9
$OSMODE
 70
    37
  9
$ATTMODE
 70
     1
  9
$TEXTSIZE
 40
0.2
  9
$TRACEWID
 40
0.05
  9
$TEXTSTYLE
  7
STANDARD
  9
$CLAYER
  8
0
  9
$CELTYPE
  6
BYBLOCK
  9
$CECOLOR
 62
   256
  9
$DIMSCALE
 40
1.0
  9
$DIMASZ
 40
0.18
  9
$DIMEXO
 40
0.0625
  9
$DIMDLI
 40
0.38
  9
$DIMRND
 40
0.0
  9
$DIMDLE
 40
0.0
  9
$DIMEXE
 40
0.18
  9
$DIMTP
 40
0.0
  9
$DIMTM
 40
0.0
  9
$DIMTXT
 40
0.18
  9
$DIMCEN
 40
0.09
  9
$DIMTSZ
 40
0.0
  9
$DIMTOL
 70
     0
  9
$DIMLIM
 70
     0
  9
$DIMTIH
 70
     1
  9
$DIMTOH
 70
     1
  9
$DIMSE1
 70
     0
  9
$DIMSE2
 70
     0
  9
$DIMTAD
 70
     0
  9
$DIMZIN
 70
     0
  9
$DIMBLK
  1

  9
$DIMASO
 70
     1
  9
$DIMSHO
 70
     1
  9
$DIMPOST
  1

  9
$DIMAPOST
  1

  9
$DIMALT
 70
     0
  9
$DIMALTD
 70
     2
  9
$DIMALTF
 40
25.4
  9
$DIMLFAC
 40
1.0
  9
$DIMTOFL
 70
     0
  9
$DIMTVP
 40
0.0
  9
$DIMTIX
 70
     0
  9
$DIMSOXD
 70
     0
  9
$DIMSAH
 70
     0
  9
$DIMBLK1
  1

  9
$DIMBLK2
  1

  9
$DIMSTYLE
  2
STANDARD
  9
$DIMCLRD
 70
     0
  9
$DIMCLRE
 70
     0
  9
$DIMCLRT
 70
     0
  9
$DIMTFAC
 40
1.0
  9
$DIMGAP
 40
0.09
  9
$LUNITS
 70
     2
  9
$LUPREC
 70
     4
  9
$SKETCHINC
 40
0.1
  9
$FILLETRAD
 40
0.5
  9
$AUNITS
 70
     0
  9
$AUPREC
 70
     0
  9
$MENU
  1
.
  9
$ELEVATION
 40
0.0
  9
$PELEVATION
 40
0.0
  9
$THICKNESS
 40
0.0
  9
$LIMCHECK
 70
     0
  9
$CHAMFERA
 40
0.5
  9
$CHAMFERB
 40
0.5
  9
$SKPOLY
 70
     0
  9
$TDCREATE
 40
2453353.508792488
  9
$TDUPDATE
 40
2440591.841465185
  9
$TDINDWG
 40
2440852.080755556
  9
$TDUSRTIMER
 40
2440852.080755556
  9
$USRTIMER
 70
     1
  9
$ANGBASE
 50
0.0
  9
$ANGDIR
 70
     0
  9
$PDMODE
 70
     0
  9
$PDSIZE
 40
0.0
  9
$PLINEWID
 40
0.0
  9
$COORDS
 70
     1
  9
$SPLFRAME
 70
     0
  9
$SPLINETYPE
 70
     6
  9
$SPLINESEGS
 70
     8
  9
$ATTDIA
 70
     0
  9
$ATTREQ
 70
     1
  9
$HANDLING
 70
     1
  9
$HANDSEED
  5
469
  9
$SURFTAB1
 70
     6
  9
$SURFTAB2
 70
     6
  9
$SURFTYPE
 70
     6
  9
$SURFU
 70
     6
  9
$SURFV
 70
     6
  9
$UCSNAME
  2

  9
$UCSORG
 10
0.0
 20
0.0
 30
0.0
  9
$UCSXDIR
 10
1.0
 20
0.0
 30
0.0
  9
$UCSYDIR
 10
0.0
 20
1.0
 30
0.0
  9
$PUCSNAME
  2

  9
$PUCSORG
 10
0.0
 20
0.0
 30
0.0
  9
$PUCSXDIR
 10
1.0
 20
0.0
 30
0.0
  9
$PUCSYDIR
 10
0.0
 20
1.0
 30
0.0
  9
$USERI1
 70
     0
  9
$USERI2
 70
     0
  9
$USERI3
 70
     0
  9
$USERI4
 70
     0
  9
$USERI5
 70
     0
  9
$USERR1
 40
0.0
  9
$USERR2
 40
0.0
  9
$USERR3
 40
0.0
  9
$USERR4
 40
0.0
  9
$USERR5
 40
0.0
  9
$WORLDVIEW
 70
     1
  9
$SHADEDGE
 70
     3
  9
$SHADEDIF
 70
    70
  9
$TILEMODE
 70
     1
  9
$MAXACTVP
 70
    64
  9
$PLIMCHECK
 70
     0
  9
$PEXTMIN
 10
0.0
 20
0.0
 30
0.0
  9
$PEXTMAX
 10
0.0
 20
0.0
 30
0.0
  9
$PLIMMIN
 10
0.0
 20
0.0
  9
$PLIMMAX
 10
0.0
 20
0.0
  9
$UNITMODE
 70
     0
  9
$VISRETAIN
 70
     1
  9
$PLINEGEN
 70
     0
  9
$PSLTSCALE
 70
     1
  0
ENDSEC
  0
SECTION
  2
TABLES
  0
TABLE
  2
VPORT
 70
     1
  0
VPORT
  2
*ACTIVE
 70
     0
 10
0.0
 20
0.0
 11
1.0
 21
1.0
 12
26.17229827193512
 22
26.38528140435879
 13
0.0
 23
0.0
 14
0.5
 24
0.5
 15
0.5
 25
0.5
 16
0.0
 26
0.0
 36
1.0
 17
0.0
 27
0.0
 37
0.0
 40
80.00171886778185
 41
1.972972972850329
 42
50.0
 43
0.0
 44
0.0
 50
0.0
 51
0.0
 71
    16
 72
   100
 73
     1
 74
     1
 75
     0
 76
     0
 77
     0
 78
     0
  0
ENDTAB
  0
TABLE
  2
LTYPE
 70
     1
  0
LTYPE
  2
CONTINUOUS
 70
     0
  3
Solid line
 72
    65
 73
     0
 40
0.0
  0
ENDTAB
  0
TABLE
  2
LAYER
 70
     2
  0
LAYER
  2
0
 70
     0
 62
     7
  6
CONTINUOUS
  0
LAYER
  2
LAYER_1
 70
     0
 62
     7
  6
CONTINUOUS
  0
ENDTAB
  0
TABLE
  2
STYLE
 70
     1
  0
STYLE
  2
STANDARD
 70
     0
 40
0.0
 41
1.0
 50
0.0
 71
     0
 42
0.2
  3
txt
  4

  0
ENDTAB
  0
TABLE
  2
VIEW
 70
     0
  0
ENDTAB
  0
TABLE
  2
UCS
 70
     0
  0
ENDTAB
  0
TABLE
  2
APPID
 70
     1
  0
APPID
  2
ACAD
 70
     0
  0
ENDTAB
  0
TABLE
  2
DIMSTYLE
 70
     1
  0
DIMSTYLE
  2
STANDARD
 70
     0
  3

  4

  5

  6

  7

 40
1.0
 41
0.18
 42
0.0625
 43
0.38
 44
0.18
 45
0.0
 46
0.0
 47
0.0
 48
0.0
140
0.18
141
0.09
142
0.0
143
25.4
144
1.0
145
0.0
146
1.0
147
0.09
 71
     0
 72
     0
 73
     1
 74
     1
 75
     0
 76
     0
 77
     0
 78
     0
170
     0
171
     2
172
     0
173
     0
174
     0
175
     0
176
     0
177
     0
178
     0
  0
ENDTAB
  0
ENDSEC
  0
SECTION
  2
BLOCKS
  0
BLOCK
  8
0
  2
$MODEL_SPACE
 70
     0
 10
0.0
 20
0.0
 30
0.0
  3
$MODEL_SPACE
  1

  0
ENDBLK
  5
21
  8
0
  0
BLOCK
 67
     1
  8
0
  2
$PAPER_SPACE
 70
     0
 10
0.0
 20
0.0
 30
0.0
  3
$PAPER_SPACE
  1

  0
ENDBLK
  5
76
 67
     1
  8
0
  0
ENDSEC
  0
SECTION
  2
ENTITIES
  0
LINE
  5
228
  8
LAYER_1
 10
28.58463960614136
 20
42.61203434276785
 30
0.0
 11
27.78290327692083
 21
46.49243817619522
 31
0.0
  0
LINE
  5
229
  8
LAYER_1
 10
27.78290327692083
 20
46.49243817619522
 30
0.0
 11
26.78875022868738
 21
49.7955918525838
 31
0.0
  0
LINE
  5
22A
  8
LAYER_1
 10
26.78875022868738
 20
49.7955918525838
 30
0.0
 11
26.27563897798624
 21
51.71975904271307
 31
0.0
  0
LINE
  5
22B
  8
LAYER_1
 10
26.27563897798624
 20
51.71975904271307
 30
0.0
 11
25.98251229380502
 21
54.77210043994892
 31
0.0
  0
LINE
  5
22D
  8
LAYER_1
 10
25.98251229380502
 20
54.77210043994892
 30
0.0
 11
24.443833006438
 21
52.89717734121098
 31
0.0
  0
LINE
  5
22E
  8
LAYER_1
 10
24.443833006438
 20
52.89717734121098
 30
0.0
 11
23.78747811467273
 21
50.88833358156575
 31
0.0
  0
LINE
  5
22F
  8
LAYER_1
 10
23.78747811467273
 20
50.88833358156575
 30
0.0
 11
23.12182968260804
 21
48.26825428453354
 31
0.0
  0
LINE
  5
230
  8
LAYER_1
 10
23.12182968260804
 20
48.26825428453354
 30
0.0
 11
22.33082545135612
 21
45.37297351308379
 31
0.0
  0
LINE
  5
231
  8
LAYER_1
 10
22.33082545135612
 20
45.37297351308379
 30
0.0
 11
21.53398934586133
 21
41.9729714031008
 31
0.0
  0
LINE
  5
233
  8
LAYER_1
 10
48.08082755579392
 20
18.14618228853179
 30
0.0
 11
49.54817327568199
 21
21.21627378814742
 31
0.0
  0
LINE
  5
234
  8
LAYER_1
 10
49.67649091173881
 20
23.38845400098502
 30
0.0
 11
49.57446956486869
 21
24.4131595488152
 31
0.0
  0
LINE
  5
235
  8
LAYER_1
 10
49.57446956486869
 20
24.4131595488152
 30
0.0
 11
49.28987187725703
 21
25.73008922104493
 31
0.0
  0
LINE
  5
236
  8
LAYER_1
 10
49.28987187725703
 20
25.73008922104493
 30
0.0
 11
48.32122580001115
 21
23.27628470464283
 31
0.0
  0
LINE
  5
238
  8
LAYER_1
 10
52.1406955189999
 20
17.53645042088819
 30
0.0
 11
51.83475646439919
 21
18.14369308986838
 31
0.0
  0
LINE
  5
239
  8
LAYER_1
 10
51.83475646439919
 20
18.14369308986838
 30
0.0
 11
51.4047949711609
 21
18.39447691663079
 31
0.0
  0
LINE
  5
23A
  8
LAYER_1
 10
51.4047949711609
 20
18.39447691663079
 30
0.0
 11
50.83715190693152
 21
18.47133081579851
 31
0.0
  0
LINE
  5
23B
  8
LAYER_1
 10
50.83715190693152
 20
18.47133081579851
 30
0.0
 11
49.55829450734984
 21
18.36661195105494
 31
0.0
  0
LINE
  5
23C
  8
LAYER_1
 10
49.55829450734984
 20
18.36661195105494
 30
0.0
 11
48.44841134973949
 21
18.15299332370735
 31
0.0
  0
LINE
  5
23D
  8
LAYER_1
 10
48.44841134973949
 20
18.15299332370735
 30
0.0
 11
46.60107832764923
 21
18.15655047433912
 31
0.0
  0
LINE
  5
23E
  8
LAYER_1
 10
43.99687604294557
 20
18.39641121108814
 30
0.0
 11
38.67501181925886
 21
18.96969380163667
 31
0.0
  0
LINE
  5
23F
  8
LAYER_1
 10
38.67501181925886
 20
18.96969380163667
 30
0.0
 11
37.48521382989114
 21
19.41327057273781
 31
0.0
  0
LINE
  5
240
  8
LAYER_1
 10
37.48521382989114
 20
19.41327057273781
 30
0.0
 11
36.42680771291695
 21
20.29089526034156
 31
0.0
  0
LINE
  5
241
  8
LAYER_1
 10
36.42680771291695
 20
20.29089526034156
 30
0.0
 11
36.0842353344447
 21
20.88931137839383
 31
0.0
  0
LINE
  5
242
  8
LAYER_1
 10
36.0842353344447
 20
20.88931137839383
 30
0.0
 11
35.86626812336797
 21
21.62972146358273
 31
0.0
  0
LINE
  5
243
  8
LAYER_1
 10
35.86626812336797
 20
21.62972146358273
 30
0.0
 11
35.83393647902618
 21
22.50775312640028
 31
0.0
  0
LINE
  5
244
  8
LAYER_1
 10
35.83393647902618
 20
22.50775312640028
 30
0.0
 11
36.02391748360154
 21
23.53146060576757
 31
0.0
  0
LINE
  5
245
  8
LAYER_1
 10
36.02391748360154
 20
23.53146060576757
 30
0.0
 11
36.45085507696072
 21
24.60728945857163
 31
0.0
  0
LINE
  5
246
  8
LAYER_1
 10
36.45085507696072
 20
24.60728945857163
 30
0.0
 11
37.0695416817801
 21
25.62182268350517
 31
0.0
  0
LINE
  5
247
  8
LAYER_1
 10
37.0695416817801
 20
25.62182268350517
 30
0.0
 11
38.66972353510705
 21
27.38001925921652
 31
0.0
  0
LINE
  5
248
  8
LAYER_1
 10
38.66972353510705
 20
27.38001925921652
 30
0.0
 11
40.39958757567526
 21
28.63208770960652
 31
0.0
  0
LINE
  5
249
  8
LAYER_1
 10
40.39958757567526
 20
28.63208770960652
 30
0.0
 11
41.8342626703199
 21
29.20406431137566
 31
0.0
  0
LINE
  5
24A
  8
LAYER_1
 10
41.8342626703199
 20
29.20406431137566
 30
0.0
 11
43.07644758404165
 21
29.27745441473529
 31
0.0
  0
LINE
  5
24B
  8
LAYER_1
 10
45.43521840350464
 20
28.91546982597225
 30
0.0
 11
46.22225954824477
 21
28.95772706864286
 31
0.0
  0
LINE
  5
24C
  8
LAYER_1
 10
46.22225954824477
 20
28.95772706864286
 30
0.0
 11
46.94591482897899
 21
29.02639508798261
 31
0.0
  0
LINE
  5
24D
  8
LAYER_1
 10
46.94591482897899
 20
29.02639508798261
 30
0.0
 11
47.62203071170876
 21
29.13203819465914
 31
0.0
  0
LINE
  5
24E
  8
LAYER_1
 10
47.62203071170876
 20
29.13203819465914
 30
0.0
 11
47.62731286704258
 21
29.27465638867245
 31
0.0
  0
LINE
  5
253
  8
LAYER_1
 10
46.79815666774486
 20
35.99361368252055
 30
0.0
 11
46.8420998742068
 21
36.70438690146673
 31
0.0
  0
LINE
  5
254
  8
LAYER_1
 10
46.8420998742068
 20
36.70438690146673
 30
0.0
 11
46.67388918524431
 21
38.01857080359754
 31
0.0
  0
LINE
  5
255
  8
LAYER_1
 10
46.67388918524431
 20
38.01857080359754
 30
0.0
 11
46.40290754961748
 21
39.23298095092423
 31
0.0
  0
LINE
  5
256
  8
LAYER_1
 10
46.40290754961748
 20
39.23298095092423
 30
0.0
 11
46.10600852848366
 21
39.97140645098959
 31
0.0
  0
LINE
  5
257
  8
LAYER_1
 10
46.10600852848366
 20
39.97140645098959
 30
0.0
 11
45.89993129845186
 21
40.30904540737113
 31
0.0
  0
LINE
  5
258
  8
LAYER_1
 10
45.89993129845186
 20
40.30904540737113
 30
0.0
 11
45.90724794388302
 21
40.50344443011721
 31
0.0
  0
LINE
  5
259
  8
LAYER_1
 10
45.90724794388302
 20
40.50344443011721
 30
0.0
 11
46.19241956547874
 21
40.47982041273083
 31
0.0
  0
LINE
  5
25A
  8
LAYER_1
 10
46.19241956547874
 20
40.47982041273083
 30
0.0
 11
46.81990683699384
 21
40.16339220261276
 31
0.0
  0
LINE
  5
25B
  8
LAYER_1
 10
46.81990683699384
 20
40.16339220261276
 30
0.0
 11
47.22096814467609
 21
39.78047135320755
 31
0.0
  0
LINE
  5
25C
  8
LAYER_1
 10
47.22096814467609
 20
39.78047135320755
 30
0.0
 11
47.56404295011424
 21
39.18871811154125
 31
0.0
  0
LINE
  5
25D
  8
LAYER_1
 10
47.56404295011424
 20
39.18871811154125
 30
0.0
 11
48.02858723108508
 21
37.67986929211557
 31
0.0
  0
LINE
  5
25E
  8
LAYER_1
 10
48.02858723108508
 20
37.67986929211557
 30
0.0
 11
48.05628045657038
 21
35.97893077049346
 31
0.0
  0
LINE
  5
261
  8
LAYER_1
 10
35.85650752975213
 20
22.18829553027586
 30
0.0
 11
42.38475431518461
 21
22.69501681762866
 31
0.0
  0
LINE
  5
262
  8
LAYER_1
 10
42.38475431518461
 20
22.69501681762866
 30
0.0
 11
46.23292131651238
 21
23.15111481259961
 31
0.0
  0
LINE
  5
263
  8
LAYER_1
 10
47.04003197387434
 20
23.16190374069463
 30
0.0
 11
49.86364567868628
 21
23.40457801650442
 31
0.0
  0
LINE
  5
264
  8
LAYER_1
 10
49.86364567868628
 20
23.40457801650442
 30
0.0
 11
52.13953665894459
 21
23.75257575754801
 31
0.0
  0
LINE
  5
265
  8
LAYER_1
 10
52.13953665894459
 20
23.75257575754801
 30
0.0
 11
53.87973939612572
 21
24.24305948608789
 31
0.0
  0
LINE
  5
266
  8
LAYER_1
 10
53.87973939612572
 20
24.24305948608789
 30
0.0
 11
55.14009355410575
 21
24.66656496736343
 31
0.0
  0
LINE
  5
267
  8
LAYER_1
 10
55.14009355410575
 20
24.66656496736343
 30
0.0
 11
55.99226701782099
 21
24.92481132388484
 31
0.0
  0
LINE
  5
268
  8
LAYER_1
 10
55.99226701782099
 20
24.92481132388484
 30
0.0
 11
56.65061343148503
 21
24.89780645794009
 31
0.0
  0
LINE
  5
269
  8
LAYER_1
 10
56.65061343148503
 20
24.89780645794009
 30
0.0
 11
56.81342216708349
 21
24.76424065602269
 31
0.0
  0
LINE
  5
26A
  8
LAYER_1
 10
56.81342216708349
 20
24.76424065602269
 30
0.0
 11
56.81536010174751
 21
24.54364853909818
 31
0.0
  0
LINE
  5
26B
  8
LAYER_1
 10
56.81536010174751
 20
24.54364853909818
 30
0.0
 11
56.18673194930798
 21
23.82043195443667
 31
0.0
  0
LINE
  5
26C
  8
LAYER_1
 10
56.18673194930798
 20
23.82043195443667
 30
0.0
 11
55.12057873260743
 21
22.89364662906726
 31
0.0
  0
LINE
  5
26D
  8
LAYER_1
 10
55.12057873260743
 20
22.89364662906726
 30
0.0
 11
54.00674926627859
 21
22.35568765241099
 31
0.0
  0
LINE
  5
26E
  8
LAYER_1
 10
54.00674926627859
 20
22.35568765241099
 30
0.0
 11
51.6948950489322
 21
21.66213138720708
 31
0.0
  0
LINE
  5
271
  8
LAYER_1
 10
51.6948950489322
 20
21.66213138720708
 30
0.0
 11
49.54817327568199
 21
21.21627378814742
 31
0.0
  0
LINE
  5
272
  8
LAYER_1
 10
49.54817327568199
 20
21.21627378814742
 30
0.0
 11
47.25283230274523
 21
20.86949565554546
 31
0.0
  0
LINE
  5
273
  8
LAYER_1
 10
45.48724630552196
 20
20.67015474684571
 30
0.0
 11
38.01002022956146
 21
19.22052243145863
 31
0.0
  0
LINE
  5
274
  8
LAYER_1
 10
46.4453664810512
 20
17.58017610091216
 30
0.0
 11
47.24739852382153
 21
20.61323798223291
 31
0.0
  0
LINE
  5
275
  8
LAYER_1
 10
47.24739852382153
 20
20.61323798223291
 30
0.0
 11
47.18107917966673
 21
22.7154913335117
 31
0.0
  0
LINE
  5
276
  8
LAYER_1
 10
47.18107917966673
 20
22.7154913335117
 30
0.0
 11
46.50298287756205
 21
24.97715265300274
 31
0.0
  0
LINE
  5
277
  8
LAYER_1
 10
46.50298287756205
 20
24.97715265300274
 30
0.0
 11
46.2450950471555
 21
23.1961258215504
 31
0.0
  0
LINE
  5
278
  8
LAYER_1
 10
46.2450950471555
 20
23.1961258215504
 30
0.0
 11
45.87654042325032
 21
21.68935242554185
 31
0.0
  0
LINE
  5
279
  8
LAYER_1
 10
45.87654042325032
 20
21.68935242554185
 30
0.0
 11
45.40118223086721
 21
20.40765455500283
 31
0.0
  0
LINE
  5
27A
  8
LAYER_1
 10
45.40118223086721
 20
20.40765455500283
 30
0.0
 11
43.67705178155899
 21
17.93633354763045
 31
0.0
  0
LINE
  5
27C
  8
LAYER_1
 10
25.1444526052408
 20
6.637977994667779
 30
0.0
 11
17.208558649543
 21
5.94676885363096
 31
0.0
  0
LINE
  5
27D
  8
LAYER_1
 10
17.208558649543
 20
5.94676885363096
 30
0.0
 11
12.19649085943435
 21
3.127480721694848
 31
0.0
  0
LINE
  5
27E
  8
LAYER_1
 10
12.19649085943435
 20
3.127480721694848
 30
0.0
 11
0.1362027394854675
 21
0.1515654713178556
 31
0.0
  0
LINE
  5
27F
  8
LAYER_1
 10
0.1362027394854675
 20
0.1515654713178556
 30
0.0
 11
0.1362027394854675
 21
21.29622646083865
 31
0.0
  0
LINE
  5
280
  8
LAYER_1
 10
0.1362027394854675
 20
21.29622646083865
 30
0.0
 11
1.378735518841126
 21
22.43201134608449
 31
0.0
  0
LINE
  5
281
  8
LAYER_1
 10
1.378735518841126
 20
22.43201134608449
 30
0.0
 11
2.223201571404928
 21
23.51741566219705
 31
0.0
  0
LINE
  5
282
  8
LAYER_1
 10
2.223201571404928
 20
23.51741566219705
 30
0.0
 11
1.485571346427804
 21
24.53001991959389
 31
0.0
  0
LINE
  5
283
  8
LAYER_1
 10
1.485571346427804
 20
24.53001991959389
 30
0.0
 11
0.7319512476435506
 21
25.32899231268291
 31
0.0
  0
LINE
  5
284
  8
LAYER_1
 10
0.7319512476435506
 20
25.32899231268291
 30
0.0
 11
1.664104695201175
 21
25.58652668964923
 31
0.0
  0
LINE
  5
285
  8
LAYER_1
 10
1.664104695201175
 20
25.58652668964923
 30
0.0
 11
2.715651642911311
 21
25.53710778259446
 31
0.0
  0
LINE
  5
286
  8
LAYER_1
 10
2.715651642911311
 20
25.53710778259446
 30
0.0
 11
4.961810746488808
 21
25.11737560598546
 31
0.0
  0
LINE
  5
287
  8
LAYER_1
 10
4.961810746488808
 20
25.11737560598546
 30
0.0
 11
2.44336284501162
 21
27.20365412836115
 31
0.0
  0
LINE
  5
288
  8
LAYER_1
 10
2.44336284501162
 20
27.20365412836115
 30
0.0
 11
-0.5509636266429112
 21
29.30834262672709
 31
0.0
  0
LINE
  5
289
  8
LAYER_1
 10
-0.5509636266429112
 20
29.30834262672709
 30
0.0
 11
0.7817829108532663
 21
29.61308208382762
 31
0.0
  0
LINE
  5
28A
  8
LAYER_1
 10
0.7817829108532663
 20
29.61308208382762
 30
0.0
 11
2.240334192434162
 21
29.54923312831758
 31
0.0
  0
LINE
  5
28B
  8
LAYER_1
 10
2.240334192434162
 20
29.54923312831758
 30
0.0
 11
3.675470632496911
 21
29.15576974860604
 31
0.0
  0
LINE
  5
28C
  8
LAYER_1
 10
3.675470632496911
 20
29.15576974860604
 30
0.0
 11
4.937968310696405
 21
28.47166703310645
 31
0.0
  0
LINE
  5
28D
  8
LAYER_1
 10
4.937968310696405
 20
28.47166703310645
 30
0.0
 11
2.21548051711062
 21
30.76862077370518
 31
0.0
  0
LINE
  5
28E
  8
LAYER_1
 10
2.21548051711062
 20
30.76862077370518
 30
0.0
 11
-0.7023482961709959
 21
32.73656947931328
 31
0.0
  0
LINE
  5
28F
  8
LAYER_1
 10
-0.7023482961709959
 20
32.73656947931328
 30
0.0
 11
0.8139861432381252
 21
32.80925188826355
 31
0.0
  0
LINE
  5
290
  8
LAYER_1
 10
0.8139861432381252
 20
32.80925188826355
 30
0.0
 11
2.51371439732327
 21
32.62137070912721
 31
0.0
  0
LINE
  5
291
  8
LAYER_1
 10
2.51371439732327
 20
32.62137070912721
 30
0.0
 11
4.252676714374118
 21
32.23209355556932
 31
0.0
  0
LINE
  5
292
  8
LAYER_1
 10
4.252676714374118
 20
32.23209355556932
 30
0.0
 11
5.886715083104789
 21
31.70058944515055
 31
0.0
  0
LINE
  5
293
  8
LAYER_1
 10
5.886715083104789
 20
31.70058944515055
 30
0.0
 11
4.323607249822288
 21
33.0922406838102
 31
0.0
  0
LINE
  5
294
  8
LAYER_1
 10
4.323607249822288
 20
33.0922406838102
 30
0.0
 11
2.650160619075848
 21
34.31184874246199
 31
0.0
  0
LINE
  5
295
  8
LAYER_1
 10
2.650160619075848
 20
34.31184874246199
 30
0.0
 11
0.8739151514301966
 21
35.34674620370213
 31
0.0
  0
LINE
  5
296
  8
LAYER_1
 10
0.8739151514301966
 20
35.34674620370213
 30
0.0
 11
-0.997590719500991
 21
36.18426326928233
 31
0.0
  0
LINE
  5
297
  8
LAYER_1
 10
-0.997590719500991
 20
36.18426326928233
 30
0.0
 11
0.5919481228014973
 21
36.37689994708964
 31
0.0
  0
LINE
  5
298
  8
LAYER_1
 10
0.5919481228014973
 20
36.37689994708964
 30
0.0
 11
2.06948669842572
 21
36.28498839891761
 31
0.0
  0
LINE
  5
299
  8
LAYER_1
 10
2.06948669842572
 20
36.28498839891761
 30
0.0
 11
3.498154047678398
 21
35.95811399062094
 31
0.0
  0
LINE
  5
29A
  8
LAYER_1
 10
3.498154047678398
 20
35.95811399062094
 30
0.0
 11
4.941082782133066
 21
35.44585979762779
 31
0.0
  0
LINE
  5
29B
  8
LAYER_1
 10
4.941082782133066
 20
35.44585979762779
 30
0.0
 11
2.392408200756975
 21
37.7044404860238
 31
0.0
  0
LINE
  5
29C
  8
LAYER_1
 10
2.392408200756975
 20
37.7044404860238
 30
0.0
 11
1.060224260803167
 21
38.7053692342917
 31
0.0
  0
LINE
  5
29D
  8
LAYER_1
 10
1.060224260803167
 20
38.7053692342917
 30
0.0
 11
-0.3356828054742352
 21
39.56114280459977
 31
0.0
  0
LINE
  5
29E
  8
LAYER_1
 10
-0.3356828054742352
 20
39.56114280459977
 30
0.0
 11
1.225878181366142
 21
39.53968688299099
 31
0.0
  0
LINE
  5
29F
  8
LAYER_1
 10
1.225878181366142
 20
39.53968688299099
 30
0.0
 11
2.688332599685026
 21
39.30569413942918
 31
0.0
  0
LINE
  5
2A0
  8
LAYER_1
 10
2.688332599685026
 20
39.30569413942918
 30
0.0
 11
4.081860570097675
 21
38.88484723952068
 31
0.0
  0
LINE
  5
2A1
  8
LAYER_1
 10
4.081860570097675
 20
38.88484723952068
 30
0.0
 11
5.436639068899382
 21
38.30282918540068
 31
0.0
  0
LINE
  5
2A2
  8
LAYER_1
 10
5.436639068899382
 20
38.30282918540068
 30
0.0
 11
3.213341739821857
 21
40.67386445033597
 31
0.0
  0
LINE
  5
2A3
  8
LAYER_1
 10
3.213341739821857
 20
40.67386445033597
 30
0.0
 11
0.9000316104480248
 21
42.75799695279795
 31
0.0
  0
LINE
  5
2A4
  8
LAYER_1
 10
0.9000316104480248
 20
42.75799695279795
 30
0.0
 11
5.958510674264019
 21
41.6081041438442
 31
0.0
  0
LINE
  5
2A5
  8
LAYER_1
 10
5.958510674264019
 20
41.6081041438442
 30
0.0
 11
2.549317699558657
 21
45.45985543190379
 31
0.0
  0
LINE
  5
2A6
  8
LAYER_1
 10
2.549317699558657
 20
45.45985543190379
 30
0.0
 11
5.631450192295034
 21
44.68273356392032
 31
0.0
  0
LINE
  5
2A7
  8
LAYER_1
 10
9.056621955817287
 20
46.85776062890059
 30
0.0
 11
8.884691978699365
 21
50.1273520207312
 31
0.0
  0
LINE
  5
2A8
  8
LAYER_1
 10
8.884691978699365
 20
50.1273520207312
 30
0.0
 11
10.11398338847756
 21
48.73649518235044
 31
0.0
  0
LINE
  5
2A9
  8
LAYER_1
 10
10.11398338847756
 20
48.73649518235044
 30
0.0
 11
11.28822369851287
 21
47.1498860937627
 31
0.0
  0
LINE
  5
2AA
  8
LAYER_1
 10
11.28822369851287
 20
47.1498860937627
 30
0.0
 11
12.32062201059668
 21
45.62721984639347
 31
0.0
  0
LINE
  5
2AB
  8
LAYER_1
 10
12.32062201059668
 20
45.62721984639347
 30
0.0
 11
12.79349627708807
 21
45.04099254867381
 31
0.0
  0
LINE
  5
2AC
  8
LAYER_1
 10
12.79349627708807
 20
45.04099254867381
 30
0.0
 11
11.99312701042189
 21
50.57751994434443
 31
0.0
  0
LINE
  5
2AD
  8
LAYER_1
 10
11.99312701042189
 20
50.57751994434443
 30
0.0
 11
13.14449775394012
 21
49.50686001524076
 31
0.0
  0
LINE
  5
2AE
  8
LAYER_1
 10
13.14449775394012
 20
49.50686001524076
 30
0.0
 11
14.24594387760563
 21
48.2606550004253
 31
0.0
  0
LINE
  5
2AF
  8
LAYER_1
 10
14.24594387760563
 20
48.2606550004253
 30
0.0
 11
15.22756035996816
 21
46.68902403191209
 31
0.0
  0
LINE
  5
2B0
  8
LAYER_1
 10
15.22756035996816
 20
46.68902403191209
 30
0.0
 11
16.19397000353705
 21
44.98004905158221
 31
0.0
  0
LINE
  5
2B1
  8
LAYER_1
 10
16.19397000353705
 20
44.98004905158221
 30
0.0
 11
15.75604208872595
 21
48.49836726265896
 31
0.0
  0
LINE
  5
2B2
  8
LAYER_1
 10
15.75604208872595
 20
48.49836726265896
 30
0.0
 11
15.20345513182695
 21
52.08859513554411
 31
0.0
  0
LINE
  5
2B3
  8
LAYER_1
 10
15.20345513182695
 20
52.08859513554411
 30
0.0
 11
16.23997994189917
 21
50.52175530636517
 31
0.0
  0
LINE
  5
2B4
  8
LAYER_1
 10
16.23997994189917
 20
50.52175530636517
 30
0.0
 11
17.2870599085438
 21
48.93153067043271
 31
0.0
  0
LINE
  5
2B5
  8
LAYER_1
 10
17.2870599085438
 20
48.93153067043271
 30
0.0
 11
18.9729441807561
 21
45.30732301907534
 31
0.0
  0
LINE
  5
2B6
  8
LAYER_1
 10
18.9729441807561
 20
45.30732301907534
 30
0.0
 11
18.5248851070274
 21
48.91568818012811
 31
0.0
  0
LINE
  5
2B7
  8
LAYER_1
 10
18.5248851070274
 20
48.91568818012811
 30
0.0
 11
17.98175272757732
 21
52.52236582460066
 31
0.0
  0
LINE
  5
2B8
  8
LAYER_1
 10
17.98175272757732
 20
52.52236582460066
 30
0.0
 11
19.79244775167422
 21
49.49170894926839
 31
0.0
  0
LINE
  5
2B9
  8
LAYER_1
 10
19.79244775167422
 20
49.49170894926839
 30
0.0
 11
21.41346752944232
 21
46.0187580942856
 31
0.0
  0
LINE
  5
2BA
  8
LAYER_1
 10
21.41346752944232
 20
46.0187580942856
 30
0.0
 11
20.78838675546524
 21
49.54549317502986
 31
0.0
  0
LINE
  5
2BB
  8
LAYER_1
 10
20.78838675546524
 20
49.54549317502986
 30
0.0
 11
20.55481577917653
 21
50.97975464104825
 31
0.0
  0
LINE
  5
2BC
  8
LAYER_1
 10
20.55481577917653
 20
50.97975464104825
 30
0.0
 11
20.55481577917653
 21
52.54659447022718
 31
0.0
  0
LINE
  5
2BD
  8
LAYER_1
 10
20.55481577917653
 20
52.54659447022718
 30
0.0
 11
22.84417146376877
 21
47.36645977930502
 31
0.0
  0
LINE
  5
2BE
  8
LAYER_1
 10
28.58463960614136
 20
42.61203434276785
 30
0.0
 11
33.95035188331394
 21
38.55780251277878
 31
0.0
  0
LINE
  5
2BF
  8
LAYER_1
 10
33.95035188331394
 20
38.55780251277878
 30
0.0
 11
35.6757836914973
 21
37.58379015873284
 31
0.0
  0
LINE
  5
2C0
  8
LAYER_1
 10
35.6757836914973
 20
37.58379015873284
 30
0.0
 11
36.75725096889501
 21
37.18060985065843
 31
0.0
  0
LINE
  5
2C1
  8
LAYER_1
 10
36.75725096889501
 20
37.18060985065843
 30
0.0
 11
39.65958349057351
 21
37.05244619337488
 31
0.0
  0
LINE
  5
2C2
  8
LAYER_1
 10
39.65958349057351
 20
37.05244619337488
 30
0.0
 11
41.08296675973557
 21
36.93065722243932
 31
0.0
  0
LINE
  5
2C3
  8
LAYER_1
 10
41.08296675973557
 20
36.93065722243932
 30
0.0
 11
44.12309405545038
 21
36.37495060239887
 31
0.0
  0
LINE
  5
2C5
  8
LAYER_1
 10
44.88975834069981
 20
36.2839904329625
 30
0.0
 11
46.79815666774486
 21
35.99361368252055
 31
0.0
  0
LINE
  5
2C6
  8
LAYER_1
 10
48.05628045657038
 20
35.97893077049346
 30
0.0
 11
50.97765760644079
 21
36.38486360808484
 31
0.0
  0
LINE
  5
2C7
  8
LAYER_1
 10
50.97765760644079
 20
36.38486360808484
 30
0.0
 11
53.15723523954657
 21
36.94857000703372
 31
0.0
  0
LINE
  5
2C8
  8
LAYER_1
 10
54.68641313273532
 20
33.83866693123223
 30
0.0
 11
54.23475600146182
 21
32.61007174171123
 31
0.0
  0
LINE
  5
2CC
  8
LAYER_1
 10
53.32875394195169
 20
31.97797728158788
 30
0.0
 11
50.63181757875874
 21
30.33453168526718
 31
0.0
  0
LINE
  5
2CF
  8
LAYER_1
 10
50.63181757875874
 20
30.33453168526718
 30
0.0
 11
49.32548902783716
 21
29.70243722514383
 31
0.0
  0
LINE
  5
2D0
  8
LAYER_1
 10
49.32548902783716
 20
29.70243722514383
 30
0.0
 11
47.58572435121078
 21
29.27465638867245
 31
0.0
  0
LINE
  5
2E4
  8
LAYER_1
 10
52.1406955189999
 20
17.53645042088819
 30
0.0
 11
52.1467359349066
 21
17.20274786107282
 31
0.0
  0
LINE
  5
2E5
  8
LAYER_1
 10
52.1467359349066
 20
17.20274786107282
 30
0.0
 11
51.90582865097267
 21
16.42311005576539
 31
0.0
  0
LINE
  5
2E6
  8
LAYER_1
 10
51.90582865097267
 20
16.42311005576539
 30
0.0
 11
51.58148255192695
 21
15.96870936431914
 31
0.0
  0
LINE
  5
2E7
  8
LAYER_1
 10
51.58148255192695
 20
15.96870936431914
 30
0.0
 11
51.06071746808887
 21
15.52612892334132
 31
0.0
  0
LINE
  5
2E8
  8
LAYER_1
 10
51.06071746808887
 20
15.52612892334132
 30
0.0
 11
50.29816571777296
 21
15.13652565452787
 31
0.0
  0
LINE
  5
2E9
  8
LAYER_1
 10
50.29816571777296
 20
15.13652565452787
 30
0.0
 11
49.24845885581819
 21
14.84105528915247
 31
0.0
  0
LINE
  5
2EA
  8
LAYER_1
 10
49.24845885581819
 20
14.84105528915247
 30
0.0
 11
44.5712928237035
 21
13.85985623873633
 31
0.0
  0
LINE
  5
2EB
  8
LAYER_1
 10
44.5712928237035
 20
13.85985623873633
 30
0.0
 11
42.83946191351133
 21
13.3857702766029
 31
0.0
  0
LINE
  5
2EC
  8
LAYER_1
 10
42.83946191351133
 20
13.3857702766029
 30
0.0
 11
41.94668077206725
 21
12.96558454301974
 31
0.0
  0
LINE
  5
2ED
  8
LAYER_1
 10
41.94668077206725
 20
12.96558454301974
 30
0.0
 11
40.30595154225333
 21
11.15637323651401
 31
0.0
  0
LINE
  5
2EE
  8
LAYER_1
 10
40.30595154225333
 20
11.15637323651401
 30
0.0
 11
39.98217144072385
 21
12.63812074198266
 31
0.0
  0
LINE
  5
2EF
  8
LAYER_1
 10
39.98217144072385
 20
12.63812074198266
 30
0.0
 11
38.29428117339194
 21
11.21945430466513
 31
0.0
  0
LINE
  5
2F0
  8
LAYER_1
 10
38.29428117339194
 20
11.21945430466513
 30
0.0
 11
36.84889351327603
 21
9.739250200521155
 31
0.0
  0
LINE
  5
2F1
  8
LAYER_1
 10
36.84889351327603
 20
9.739250200521155
 30
0.0
 11
36.72810616415406
 21
10.35389865108545
 31
0.0
  0
LINE
  5
2F2
  8
LAYER_1
 10
36.72810616415406
 20
10.35389865108545
 30
0.0
 11
36.75562904484603
 21
11.01049840815547
 31
0.0
  0
LINE
  5
2F3
  8
LAYER_1
 10
36.75562904484603
 20
11.01049840815547
 30
0.0
 11
37.21687544852375
 21
12.36473693061833
 31
0.0
  0
LINE
  5
2F4
  8
LAYER_1
 10
37.21687544852375
 20
12.36473693061833
 30
0.0
 11
35.40084509778951
 21
10.74627652654844
 31
0.0
  0
LINE
  5
2F5
  8
LAYER_1
 10
35.40084509778951
 20
10.74627652654844
 30
0.0
 11
33.75781896218447
 21
8.860212347586391
 31
0.0
  0
LINE
  5
2F6
  8
LAYER_1
 10
33.75781896218447
 20
8.860212347586391
 30
0.0
 11
33.57308404336449
 21
9.587345595788925
 31
0.0
  0
LINE
  5
2F7
  8
LAYER_1
 10
33.57308404336449
 20
9.587345595788925
 30
0.0
 11
33.54108018114826
 21
10.39080014587825
 31
0.0
  0
LINE
  5
2F8
  8
LAYER_1
 10
33.54108018114826
 20
10.39080014587825
 30
0.0
 11
33.92554206767927
 21
12.05275645756939
 31
0.0
  0
LINE
  5
2F9
  8
LAYER_1
 10
33.92554206767927
 20
12.05275645756939
 30
0.0
 11
33.1448732726991
 21
11.34184108064665
 31
0.0
  0
LINE
  5
2FA
  8
LAYER_1
 10
33.1448732726991
 20
11.34184108064665
 30
0.0
 11
32.52337307983666
 21
10.47303438845963
 31
0.0
  0
LINE
  5
2FB
  8
LAYER_1
 10
32.52337307983666
 20
10.47303438845963
 30
0.0
 11
31.14722029831496
 21
9.091642410927925
 31
0.0
  0
LINE
  5
2FC
  8
LAYER_1
 10
31.14722029831496
 20
9.091642410927925
 30
0.0
 11
25.1444526052408
 21
6.637977994667779
 31
0.0
  0
LINE
  5
2FD
  8
LAYER_1
 10
44.96069131326732
 20
28.24085753103665
 30
0.0
 11
43.38653205892072
 21
26.67130862563772
 31
0.0
  0
LINE
  5
2FE
  8
LAYER_1
 10
43.38653205892072
 20
26.67130862563772
 30
0.0
 11
42.52833938333572
 21
26.12733618649005
 31
0.0
  0
LINE
  5
2FF
  8
LAYER_1
 10
42.52833938333572
 20
26.12733618649005
 30
0.0
 11
41.63406840969853
 21
25.80922637713016
 31
0.0
  0
LINE
  5
300
  8
LAYER_1
 10
41.63406840969853
 20
25.80922637713016
 30
0.0
 11
40.71221735117746
 21
25.76597678865135
 31
0.0
  0
LINE
  5
301
  8
LAYER_1
 10
40.71221735117746
 20
25.76597678865135
 30
0.0
 11
39.77128246704308
 21
26.04658458520023
 31
0.0
  0
LINE
  5
302
  8
LAYER_1
 10
39.77128246704308
 20
26.04658458520023
 30
0.0
 11
38.0804801182108
 21
26.75732528746294
 31
0.0
  0
LINE
  5
305
  8
LAYER_1
 10
40.09737832370726
 20
28.39176453814661
 30
0.0
 11
40.86906282413925
 21
28.19451871296179
 31
0.0
  0
LINE
  5
306
  8
LAYER_1
 10
40.86906282413925
 20
28.19451871296179
 30
0.0
 11
41.38692237161409
 21
28.22752372982526
 31
0.0
  0
LINE
  5
307
  8
LAYER_1
 10
41.38692237161409
 20
28.22752372982526
 30
0.0
 11
42.49872789351046
 21
28.72937480965444
 31
0.0
  0
LINE
  5
308
  8
LAYER_1
 10
42.49872789351046
 20
28.72937480965444
 30
0.0
 11
43.57061757066393
 21
29.76061467938447
 31
0.0
  0
LINE
  5
309
  8
LAYER_1
 10
43.57061757066393
 20
29.76061467938447
 30
0.0
 11
44.01380831030421
 21
30.44949990630354
 31
0.0
  0
LINE
  5
30A
  8
LAYER_1
 10
44.01380831030421
 20
30.44949990630354
 30
0.0
 11
44.30617228054257
 21
31.17791561670486
 31
0.0
  0
LINE
  5
30B
  8
LAYER_1
 10
44.30617228054257
 20
31.17791561670486
 30
0.0
 11
44.53264818938392
 21
32.68806480873938
 31
0.0
  0
LINE
  5
30C
  8
LAYER_1
 10
44.53264818938392
 20
32.68806480873938
 30
0.0
 11
44.41888823348171
 21
34.17091340035557
 31
0.0
  0
LINE
  5
30D
  8
LAYER_1
 10
44.41888823348171
 20
34.17091340035557
 30
0.0
 11
44.12981271114957
 21
35.50839184630092
 31
0.0
  0
LINE
  5
30E
  8
LAYER_1
 10
44.12981271114957
 20
35.50839184630092
 30
0.0
 11
44.05344080605568
 21
36.01808753260535
 31
0.0
  0
LINE
  5
30F
  8
LAYER_1
 10
44.05344080605568
 20
36.01808753260535
 30
0.0
 11
44.12309405545038
 21
36.37495060239887
 31
0.0
  0
LINE
  5
310
  8
LAYER_1
 10
44.12309405545038
 20
36.37495060239887
 30
0.0
 11
44.27902577448417
 21
36.67381973054695
 31
0.0
  0
LINE
  5
311
  8
LAYER_1
 10
44.27902577448417
 20
36.67381973054695
 30
0.0
 11
44.56490059271277
 21
36.59585387103007
 31
0.0
  0
LINE
  5
312
  8
LAYER_1
 10
44.55002897634829
 20
36.60188311895119
 30
0.0
 11
45.22948770505134
 21
35.9660977469738
 31
0.0
  0
LINE
  5
313
  8
LAYER_1
 10
45.24435932141581
 20
35.96006849905268
 30
0.0
 11
45.85583299534497
 21
35.02171473614362
 31
0.0
  0
LINE
  5
314
  8
LAYER_1
 10
45.85583299534497
 20
35.02171473614362
 30
0.0
 11
46.33498323444034
 21
33.74791504365157
 31
0.0
  0
LINE
  5
315
  8
LAYER_1
 10
46.33498323444034
 20
33.74791504365157
 30
0.0
 11
46.56088956874686
 21
32.17924646942176
 31
0.0
  0
LINE
  5
316
  8
LAYER_1
 10
46.56088956874686
 20
32.17924646942176
 30
0.0
 11
46.47791600423425
 21
31.29086361034294
 31
0.0
  0
LINE
  5
317
  8
LAYER_1
 10
46.47791600423425
 20
31.29086361034294
 30
0.0
 11
46.21048170735855
 21
30.33659762053946
 31
0.0
  0
LINE
  5
318
  8
LAYER_1
 10
46.21048170735855
 20
30.33659762053946
 30
0.0
 11
45.71820060948937
 21
29.31905830950194
 31
0.0
  0
LINE
  5
319
  8
LAYER_1
 10
45.71820060948937
 20
29.31905830950194
 30
0.0
 11
44.96069131326732
 21
28.24085753103665
 31
0.0
  0
LINE
  5
31A
  8
LAYER_1
 10
44.96069131326732
 20
28.24085753103665
 30
0.0
 11
44.96069131326732
 21
28.24085753103665
 31
0.0
  0
LINE
  5
31B
  8
LAYER_1
 10
18.25512823355948
 20
36.09376696374184
 30
0.0
 11
15.17330579300786
 21
41.02958482986891
 31
0.0
  0
LINE
  5
31C
  8
LAYER_1
 10
15.17330579300786
 20
41.02958482986891
 30
0.0
 11
13.15947214783589
 21
43.82820274190148
 31
0.0
  0
LINE
  5
31D
  8
LAYER_1
 10
13.15947214783589
 20
43.82820274190148
 30
0.0
 11
11.00914543525565
 21
45.79713059068716
 31
0.0
  0
LINE
  5
31E
  8
LAYER_1
 10
11.00914543525565
 20
45.79713059068716
 30
0.0
 11
8.749962730191811
 21
47.03369466995339
 31
0.0
  0
LINE
  5
31F
  8
LAYER_1
 10
8.749962730191811
 20
47.03369466995339
 30
0.0
 11
5.269628157051358
 21
48.31411202121052
 31
0.0
  0
LINE
  5
320
  8
LAYER_1
 10
5.269628157051358
 20
48.31411202121052
 30
0.0
 11
4.394663278102385
 21
48.47800116104233
 31
0.0
  0
LINE
  5
321
  8
LAYER_1
 10
4.394663278102385
 20
48.47800116104233
 30
0.0
 11
3.954437580424937
 21
48.41084057866401
 31
0.0
  0
LINE
  5
322
  8
LAYER_1
 10
3.954437580424937
 20
48.41084057866401
 30
0.0
 11
3.842402536501453
 21
48.17750237673799
 31
0.0
  0
LINE
  5
323
  8
LAYER_1
 10
3.842402536501453
 20
48.17750237673799
 30
0.0
 11
3.952010382289942
 21
47.84285984834895
 31
0.0
  0
LINE
  5
324
  8
LAYER_1
 10
3.952010382289942
 20
47.84285984834895
 30
0.0
 11
4.409965304203737
 21
47.12915226714716
 31
0.0
  0
LINE
  5
325
  8
LAYER_1
 10
4.409965304203737
 20
47.12915226714716
 30
0.0
 11
5.532789334226834
 21
45.03065764128111
 31
0.0
  0
LINE
  5
326
  8
LAYER_1
 10
5.532789334226834
 20
45.03065764128111
 30
0.0
 11
6.09942506724353
 21
43.37341498334395
 31
0.0
  0
LINE
  5
327
  8
LAYER_1
 10
6.09942506724353
 20
43.37341498334395
 30
0.0
 11
6.464327469701146
 21
41.35129377797553
 31
0.0
  0
LINE
  5
328
  8
LAYER_1
 10
6.464327469701146
 20
41.35129377797553
 30
0.0
 11
6.716910399763464
 21
39.37176516478976
 31
0.0
  0
LINE
  5
329
  8
LAYER_1
 10
6.716910399763464
 20
39.37176516478976
 30
0.0
 11
6.941872569574784
 21
38.52883307045013
 31
0.0
  0
LINE
  5
32A
  8
LAYER_1
 10
6.941872569574784
 20
38.52883307045013
 30
0.0
 11
7.295440295837366
 21
37.75365156201841
 31
0.0
  0
LINE
  5
32B
  8
LAYER_1
 10
7.295440295837366
 20
37.75365156201841
 30
0.0
 11
7.824730217969048
 21
37.02361571792933
 31
0.0
  0
LINE
  5
32C
  8
LAYER_1
 10
7.824730217969048
 20
37.02361571792933
 30
0.0
 11
8.576862669709868
 21
36.31612244746003
 31
0.0
  0
LINE
  5
32D
  8
LAYER_1
 10
8.576862669709868
 20
36.31612244746003
 30
0.0
 11
10.80822642428963
 21
34.26621296272873
 31
0.0
  0
LINE
  5
32E
  8
LAYER_1
 10
10.80822642428963
 20
34.26621296272873
 30
0.0
 11
13.81984114747013
 21
31.48529089200136
 31
0.0
  0
LINE
  5
32F
  8
LAYER_1
 10
14.85915187292958
 20
28.97095526444249
 30
0.0
 11
12.05354945767448
 21
26.68662888935291
 31
0.0
  0
LINE
  5
330
  8
LAYER_1
 10
12.05354945767448
 20
26.68662888935291
 30
0.0
 11
13.04565383267992
 21
26.88054880778074
 31
0.0
  0
LINE
  5
331
  8
LAYER_1
 10
13.04565383267992
 20
26.88054880778074
 30
0.0
 11
12.31393969476542
 21
24.48460721542378
 31
0.0
  0
LINE
  5
332
  8
LAYER_1
 10
12.31393969476542
 20
24.48460721542378
 30
0.0
 11
11.96783320803397
 21
21.92997150558892
 31
0.0
  0
LINE
  5
333
  8
LAYER_1
 10
11.96783320803397
 20
21.92997150558892
 30
0.0
 11
13.30555511251782
 21
22.72617895536887
 31
0.0
  0
LINE
  5
334
  8
LAYER_1
 10
13.30555511251782
 20
22.72617895536887
 30
0.0
 11
12.95486923139011
 21
21.26832572407339
 31
0.0
  0
LINE
  5
335
  8
LAYER_1
 10
12.95486923139011
 20
21.26832572407339
 30
0.0
 11
12.77408562909807
 21
19.92858164964748
 31
0.0
  0
LINE
  5
336
  8
LAYER_1
 10
12.77408562909807
 20
19.92858164964748
 30
0.0
 11
12.84493590375055
 21
17.58653245395268
 31
0.0
  0
LINE
  5
337
  8
LAYER_1
 10
12.84493590375055
 20
17.58653245395268
 30
0.0
 11
13.88010268374097
 21
19.10846931751972
 31
0.0
  0
LINE
  5
338
  8
LAYER_1
 10
13.88010268374097
 20
19.10846931751972
 30
0.0
 11
14.2382689819239
 21
16.31630272999957
 31
0.0
  0
LINE
  5
339
  8
LAYER_1
 10
14.2382689819239
 20
16.31630272999957
 30
0.0
 11
14.87183155157835
 21
13.74628058493878
 31
0.0
  0
LINE
  5
33A
  8
LAYER_1
 10
14.87183155157835
 20
13.74628058493878
 30
0.0
 11
15.49159083660166
 21
15.35741307580985
 31
0.0
  0
LINE
  5
33B
  8
LAYER_1
 10
15.49159083660166
 20
15.35741307580985
 30
0.0
 11
16.23617820498373
 21
13.04110618601072
 31
0.0
  0
LINE
  5
33C
  8
LAYER_1
 10
16.23617820498373
 20
13.04110618601072
 30
0.0
 11
17.13945990431704
 21
11.11040597044578
 31
0.0
  0
LINE
  5
33D
  8
LAYER_1
 10
17.13945990431704
 20
11.11040597044578
 30
0.0
 11
17.62498840202935
 21
12.51224123076213
 31
0.0
  0
LINE
  5
33E
  8
LAYER_1
 10
17.62498840202935
 20
12.51224123076213
 30
0.0
 11
18.10790795861134
 21
11.46036885893765
 31
0.0
  0
LINE
  5
33F
  8
LAYER_1
 10
18.10790795861134
 20
11.46036885893765
 30
0.0
 11
18.67921521644392
 21
10.52903955814023
 31
0.0
  0
LINE
  5
340
  8
LAYER_1
 10
18.67921521644392
 20
10.52903955814023
 30
0.0
 11
21.12423661056536
 21
9.70581969621243
 31
0.0
  0
LINE
  5
34D
  8
LAYER_1
 10
26.82718401229559
 20
33.35648788351388
 30
0.0
 11
27.21052925474625
 21
32.86436694255785
 31
0.0
  0
LINE
  5
34E
  8
LAYER_1
 10
27.21052925474625
 20
32.86436694255785
 30
0.0
 11
27.89579937100403
 21
32.77556486590963
 31
0.0
  0
LINE
  5
34F
  8
LAYER_1
 10
27.89579937100403
 20
32.77556486590963
 30
0.0
 11
28.48157688035084
 21
33.14210388804567
 31
0.0
  0
LINE
  5
350
  8
LAYER_1
 10
28.48157688035084
 20
33.14210388804567
 30
0.0
 11
28.62471623156441
 21
33.74926711376357
 31
0.0
  0
LINE
  5
351
  8
LAYER_1
 10
28.62471623156441
 20
33.74926711376357
 30
0.0
 11
28.241372179536
 21
34.24138729124407
 31
0.0
  0
LINE
  5
352
  8
LAYER_1
 10
28.241372179536
 20
34.24138729124407
 30
0.0
 11
27.55609836895602
 21
34.33018753704999
 31
0.0
  0
LINE
  5
353
  8
LAYER_1
 10
27.55609836895602
 20
34.33018753704999
 30
0.0
 11
26.97032455393139
 21
33.96365034575625
 31
0.0
  0
LINE
  5
354
  8
LAYER_1
 10
26.97032455393139
 20
33.96365034575625
 30
0.0
 11
26.82718401229559
 21
33.35648788351388
 31
0.0
  0
LINE
  5
355
  8
LAYER_1
 10
26.82718401229559
 20
33.35648788351388
 30
0.0
 11
26.82718401229559
 21
33.35648788351388
 31
0.0
  0
LINE
  5
356
  8
LAYER_1
 10
52.29633299041689
 20
31.97797728158788
 30
0.0
 11
51.68530834563099
 21
32.50472266502401
 31
0.0
  0
LINE
  5
357
  8
LAYER_1
 10
51.68530834563099
 20
32.50472266502401
 30
0.0
 11
51.27489934473493
 21
33.59498737494648
 31
0.0
  0
LINE
  5
358
  8
LAYER_1
 10
51.27489934473493
 20
33.59498737494648
 30
0.0
 11
51.36926111556931
 21
34.8013325368055
 31
0.0
  0
LINE
  5
359
  8
LAYER_1
 10
51.36926111556931
 20
34.8013325368055
 30
0.0
 11
51.71465628999833
 21
35.75584900739727
 31
0.0
  0
LINE
  5
35A
  8
LAYER_1
 10
51.71465628999833
 20
35.75584900739727
 30
0.0
 11
52.06182208380199
 21
36.26980900391128
 31
0.0
  0
LINE
  5
35B
  8
LAYER_1
 10
52.06182208380199
 20
36.26980900391128
 30
0.0
 11
52.84006308720082
 21
36.80975610286984
 31
0.0
  0
LINE
  5
35C
  8
LAYER_1
 10
52.84006308720082
 20
36.80975610286984
 30
0.0
 11
53.1884046809086
 21
36.95430373505425
 31
0.0
  0
LINE
  5
35D
  8
LAYER_1
 10
53.1884046809086
 20
36.95430373505425
 30
0.0
 11
53.51242361335757
 21
36.90295781716986
 31
0.0
  0
LINE
  5
35E
  8
LAYER_1
 10
53.51242361335757
 20
36.90295781716986
 30
0.0
 11
54.07721424202097
 21
36.51914205037539
 31
0.0
  0
LINE
  5
360
  8
LAYER_1
 10
54.23475600146182
 20
32.61007174171123
 30
0.0
 11
53.32875394195169
 21
31.97797728158788
 31
0.0
  0
LINE
  5
361
  8
LAYER_1
 10
52.29633299041689
 20
31.97797728158788
 30
0.0
 11
53.32875394195169
 21
31.97797728158788
 31
0.0
  0
CIRCLE
  5
362
  8
0
  6
BYBLOCK
 10
53.20220289588102
 20
35.58384521391288
 30
0.0
 40
0.309388395466877
  0
CIRCLE
  5
363
  8
0
  6
BYBLOCK
 10
52.48955427425764
 20
34.17679798521364
 30
0.0
 40
0.3368841771971525
  0
LINE
  5
364
  8
LAYER_1
 10
54.78794628118771
 20
34.85399841575615
 30
0.0
 11
54.68641313273532
 21
33.83866693123223
 31
0.0
  0
LINE
  5
365
  8
LAYER_1
 10
54.07721424202097
 20
36.51914205037539
 30
0.0
 11
54.56457335459245
 21
35.8490232705896
 31
0.0
  0
LINE
  5
366
  8
LAYER_1
 10
54.56457335459245
 20
35.8490232705896
 30
0.0
 11
54.78794628118771
 21
34.85399841575615
 31
0.0
  0
ARC
  5
438
  8
0
  6
BYBLOCK
 10
27.53219139353183
 20
34.99334741524718
 30
0.0
 40
3.29597128404866
 50
222.8755795832731
 51
325.1062466135863
  0
ARC
  5
43A
  8
0
  6
BYBLOCK
 10
28.13002106562107
 20
32.25038492380013
 30
0.0
 40
3.054486357735628
 50
57.76137015531302
 51
170.571889530658
  0
ENDSEC
  0
EOF
