  0
SECTION
  2
HEADER
  9
$ACADVER
  1
AC1009
  9
$INSBASE
 10
0.0
 20
0.0
 30
0.0
  9
$EXTMIN
 10
84.338077331302884
 20
46.847724530013458
 30
-0.0015258207003583
  9
$EXTMAX
 10
837.28005957681216
 20
754.65396618353668
 30
0.0000000349246037
  9
$LIMMIN
 10
0.0
 20
0.0
  9
$LIMMAX
 10
12.0
 20
9.0
  9
$ORTHOMODE
 70
     1
  9
$REGENMODE
 70
     1
  9
$FILLMODE
 70
     1
  9
$QTEXTMODE
 70
     0
  9
$MIRRTEXT
 70
     0
  9
$DRAGMODE
 70
     2
  9
$LTSCALE
 40
1.0
  9
$OSMODE
 70
   535
  9
$ATTMODE
 70
     1
  9
$TEXTSIZE
 40
0.2
  9
$TRACEWID
 40
0.05
  9
$TEXTSTYLE
  7
STANDARD
  9
$CLAYER
  8
0
  9
$CELTYPE
  6
CONTINUOUS
  9
$CECOLOR
 62
   256
  9
$DIMSCALE
 40
1.0
  9
$DIMASZ
 40
0.18
  9
$DIMEXO
 40
0.0625
  9
$DIMDLI
 40
0.38
  9
$DIMRND
 40
0.0
  9
$DIMDLE
 40
0.0
  9
$DIMEXE
 40
0.18
  9
$DIMTP
 40
0.0
  9
$DIMTM
 40
0.0
  9
$DIMTXT
 40
0.18
  9
$DIMCEN
 40
0.09
  9
$DIMTSZ
 40
0.0
  9
$DIMTOL
 70
     0
  9
$DIMLIM
 70
     0
  9
$DIMTIH
 70
     1
  9
$DIMTOH
 70
     1
  9
$DIMSE1
 70
     0
  9
$DIMSE2
 70
     0
  9
$DIMTAD
 70
     0
  9
$DIMZIN
 70
     0
  9
$DIMBLK
  1

  9
$DIMASO
 70
     1
  9
$DIMSHO
 70
     1
  9
$DIMPOST
  1

  9
$DIMAPOST
  1

  9
$DIMALT
 70
     0
  9
$DIMALTD
 70
     2
  9
$DIMALTF
 40
25.399999999999999
  9
$DIMLFAC
 40
1.0
  9
$DIMTOFL
 70
     0
  9
$DIMTVP
 40
0.0
  9
$DIMTIX
 70
     0
  9
$DIMSOXD
 70
     0
  9
$DIMSAH
 70
     0
  9
$DIMBLK1
  1

  9
$DIMBLK2
  1

  9
$DIMSTYLE
  2
STANDARD
  9
$DIMCLRD
 70
     0
  9
$DIMCLRE
 70
     0
  9
$DIMCLRT
 70
     0
  9
$DIMTFAC
 40
1.0
  9
$DIMGAP
 40
0.09
  9
$LUNITS
 70
     2
  9
$LUPREC
 70
     4
  9
$SKETCHINC
 40
0.1
  9
$FILLETRAD
 40
7.0
  9
$AUNITS
 70
     0
  9
$AUPREC
 70
     0
  9
$MENU
  1
.
  9
$ELEVATION
 40
0.0
  9
$PELEVATION
 40
0.0
  9
$THICKNESS
 40
0.0
  9
$LIMCHECK
 70
     0
  9
$BLIPMODE
 70
     0
  9
$CHAMFERA
 40
0.0
  9
$CHAMFERB
 40
0.0
  9
$SKPOLY
 70
     0
  9
$TDCREATE
 40
2455033.276933148
  9
$TDUPDATE
 40
2455176.569525463
  9
$TDINDWG
 40
0.1112833333
  9
$TDUSRTIMER
 40
0.1112833333
  9
$USRTIMER
 70
     1
  9
$ANGBASE
 50
0.0
  9
$ANGDIR
 70
     0
  9
$PDMODE
 70
     0
  9
$PDSIZE
 40
0.0
  9
$PLINEWID
 40
0.0
  9
$COORDS
 70
     1
  9
$SPLFRAME
 70
     0
  9
$SPLINETYPE
 70
     6
  9
$SPLINESEGS
 70
     8
  9
$ATTDIA
 70
     0
  9
$ATTREQ
 70
     1
  9
$HANDLING
 70
     1
  9
$HANDSEED
  5
BD8
  9
$SURFTAB1
 70
     6
  9
$SURFTAB2
 70
     6
  9
$SURFTYPE
 70
     6
  9
$SURFU
 70
     6
  9
$SURFV
 70
     6
  9
$UCSNAME
  2

  9
$UCSORG
 10
0.0
 20
0.0
 30
0.0
  9
$UCSXDIR
 10
1.0
 20
0.0
 30
0.0
  9
$UCSYDIR
 10
0.0
 20
1.0
 30
0.0
  9
$PUCSNAME
  2

  9
$PUCSORG
 10
0.0
 20
0.0
 30
0.0
  9
$PUCSXDIR
 10
1.0
 20
0.0
 30
0.0
  9
$PUCSYDIR
 10
0.0
 20
1.0
 30
0.0
  9
$USERI1
 70
     0
  9
$USERI2
 70
     0
  9
$USERI3
 70
     0
  9
$USERI4
 70
     0
  9
$USERI5
 70
     0
  9
$USERR1
 40
0.0
  9
$USERR2
 40
0.0
  9
$USERR3
 40
0.0
  9
$USERR4
 40
0.0
  9
$USERR5
 40
0.0
  9
$WORLDVIEW
 70
     1
  9
$SHADEDGE
 70
     3
  9
$SHADEDIF
 70
    70
  9
$TILEMODE
 70
     1
  9
$MAXACTVP
 70
    64
  9
$PLIMCHECK
 70
     0
  9
$PEXTMIN
 10
1.0000000000000000E+020
 20
1.0000000000000000E+020
 30
1.0000000000000000E+020
  9
$PEXTMAX
 10
-1.0000000000000000E+020
 20
-1.0000000000000000E+020
 30
-1.0000000000000000E+020
  9
$PLIMMIN
 10
0.0
 20
0.0
  9
$PLIMMAX
 10
12.0
 20
9.0
  9
$UNITMODE
 70
     0
  9
$VISRETAIN
 70
     1
  9
$PLINEGEN
 70
     0
  9
$PSLTSCALE
 70
     1
  0
ENDSEC
  0
SECTION
  2
TABLES
  0
TABLE
  2
VPORT
 70
     2
  0
VPORT
  2
*ACTIVE
 70
     0
 10
0.0
 20
0.0
 11
1.0
 21
1.0
 12
444.42172179142523
 22
378.72227161558362
 13
0.0
 23
0.0
 14
1.0
 24
1.0
 15
0.0
 25
0.0
 16
0.0
 26
0.0
 36
1.0
 17
0.0
 27
0.0
 37
0.0
 40
802.40247072393822
 41
2.1180327868852449
 42
50.0
 43
0.0
 44
0.0
 50
0.0
 51
0.0
 71
     0
 72
   100
 73
     1
 74
     1
 75
     0
 76
     0
 77
     0
 78
     0
  0
ENDTAB
  0
TABLE
  2
LTYPE
 70
     5
  0
LTYPE
  2
CONTINUOUS
 70
     0
  3
Solid line
 72
    65
 73
     0
 40
0.0
  0
LTYPE
  2
DASHDOT
 70
     0
  3
__ . __ . __ . __ . __ . __ . __ . __ . __ . __
 72
    65
 73
     4
 40
1.0
 49
0.5
 49
-0.25
 49
0.0
 49
-0.25
  0
LTYPE
  2
DASHED
 70
     0
  3
__ __ __ __ __ __ __ __ __ __ __ __ __ __ __ __
 72
    65
 73
     2
 40
0.75
 49
0.5
 49
-0.25
  0
LTYPE
  2
DIVIDE
 70
     0
  3
____ . . ____ . . ____ . . ____ . . ____ . . __
 72
    65
 73
     6
 40
1.25
 49
0.5
 49
-0.25
 49
0.0
 49
-0.25
 49
0.0
 49
-0.25
  0
LTYPE
  2
DOT
 70
     0
  3
. . . . . . . . . . . . . . . . . . . . . . . . 
 72
    65
 73
     2
 40
0.25
 49
0.0
 49
-0.25
  0
ENDTAB
  0
TABLE
  2
LAYER
 70
     3
  0
LAYER
  2
0
 70
     0
 62
     7
  6
CONTINUOUS
  0
LAYER
  2
DEFPOINTS
 70
     0
 62
     7
  6
CONTINUOUS
  0
LAYER
  2
LAYER1
 70
     0
 62
     3
  6
CONTINUOUS
  0
ENDTAB
  0
TABLE
  2
STYLE
 70
     2
  0
STYLE
  2
STANDARD
 70
     0
 40
1.0
 41
1.0
 50
0.0
 71
     0
 42
0.2
  3
txt.shx
  4

  0
STYLE
  2
ANNOTATIVE
 70
     0
 40
0.0
 41
1.0
 50
0.0
 71
     0
 42
0.2
  3
txt
  4

  0
ENDTAB
  0
TABLE
  2
VIEW
 70
     0
  0
ENDTAB
  0
TABLE
  2
UCS
 70
     0
  0
ENDTAB
  0
TABLE
  2
APPID
 70
     3
  0
APPID
  2
ACAD
 70
     0
  0
APPID
  2
ACADANNOTATIVE
 70
     0
  0
APPID
  2
ACAD_MLEADERVER
 70
     0
  0
ENDTAB
  0
TABLE
  2
DIMSTYLE
 70
     2
  0
DIMSTYLE
  2
STANDARD
 70
     0
  3

  4

  5

  6

  7

 40
1.0
 41
0.18
 42
0.0625
 43
0.38
 44
0.18
 45
0.0
 46
0.0
 47
0.0
 48
0.0
140
0.18
141
0.09
142
0.0
143
25.399999999999999
144
1.0
145
0.0
146
1.0
147
0.09
 71
     0
 72
     0
 73
     1
 74
     1
 75
     0
 76
     0
 77
     0
 78
     0
170
     0
171
     2
172
     0
173
     0
174
     0
175
     0
176
     0
177
     0
178
     0
  0
DIMSTYLE
  2
ANNOTATIVE
 70
     0
  3

  4

  5

  6

  7

 40
1.0
 41
0.18
 42
0.0625
 43
0.38
 44
0.18
 45
0.0
 46
0.0
 47
0.0
 48
0.0
140
0.18
141
0.09
142
0.0
143
25.399999999999999
144
1.0
145
0.0
146
1.0
147
0.09
 71
     0
 72
     0
 73
     1
 74
     1
 75
     0
 76
     0
 77
     0
 78
     0
170
     0
171
     2
172
     0
173
     0
174
     0
175
     0
176
     0
177
     0
178
     0
  0
ENDTAB
  0
ENDSEC
  0
SECTION
  2
BLOCKS
  0
BLOCK
  8
0
  2
$MODEL_SPACE
 70
     0
 10
0.0
 20
0.0
 30
0.0
  3
$MODEL_SPACE
  1

  0
ENDBLK
  5
76
  8
0
  0
BLOCK
 67
     1
  8
0
  2
$PAPER_SPACE
 70
     0
 10
0.0
 20
0.0
 30
0.0
  3
$PAPER_SPACE
  1

  0
ENDBLK
  5
72
 67
     1
  8
0
  0
BLOCK
  8
0
  2
*D1
 70
     1
 10
0.0
 20
0.0
 30
0.0
  3
*D1
  1

  0
LINE
  5
795
  8
0
  6
CONTINUOUS
 62
     0
 10
-46.721147015402522
 20
587.88793773361454
 30
0.0
 11
-46.721147015402508
 21
711.90534403489517
 31
0.0
  0
LINE
  5
796
  8
0
  6
CONTINUOUS
 62
     0
 10
434.90694469061282
 20
586.62728540375804
 30
0.0
 11
434.90694469061282
 21
711.90534403489517
 31
0.0
  0
LINE
  5
797
  8
0
  6
CONTINUOUS
 62
     0
 10
-46.541147015402508
 20
711.72534403489522
 30
0.0
 11
190.8362321709385
 21
711.72534403489522
 31
0.0
  0
LINE
  5
798
  8
0
  6
CONTINUOUS
 62
     0
 10
434.7269446906127
 20
711.72534403489522
 30
0.0
 11
197.34956550427179
 21
711.72534403489522
 31
0.0
  0
SOLID
  5
799
  8
0
  6
CONTINUOUS
 62
     0
 10
-46.541147015402508
 20
711.75534403489507
 30
0.0
 11
-46.541147015402508
 21
711.69534403489524
 31
0.0
 12
-46.721147015402508
 22
711.72534403489522
 32
0.0
 13
-46.721147015402508
 23
711.72534403489522
 33
0.0
  0
SOLID
  5
79A
  8
0
  6
CONTINUOUS
 62
     0
 10
434.7269446906127
 20
711.75534403489507
 30
0.0
 11
434.7269446906127
 21
711.69534403489524
 31
0.0
 12
434.90694469061282
 22
711.72534403489522
 32
0.0
 13
434.90694469061282
 23
711.72534403489522
 33
0.0
  0
INSERT
  5
79B
  8
0
  6
CONTINUOUS
  2
*U3
 10
0.0
 20
0.0
 30
0.0
  0
POINT
  5
79C
  8
DEFPOINTS
  6
CONTINUOUS
 62
     0
 10
-46.721147015402522
 20
587.82543773361454
 30
0.0
  0
POINT
  5
79D
  8
DEFPOINTS
  6
CONTINUOUS
 62
     0
 10
434.90694469061282
 20
586.56478540375804
 30
0.0
  0
POINT
  5
79E
  8
DEFPOINTS
  6
CONTINUOUS
 62
     0
 10
434.90694469061282
 20
711.72534403489522
 30
0.0
  0
ENDBLK
  5
7A0
  8
0
  0
BLOCK
  8
0
  2
*D2
 70
     1
 10
0.0
 20
0.0
 30
0.0
  3
*D2
  1

  0
LINE
  5
7A3
  8
0
  6
CONTINUOUS
 62
     0
 10
1598.8890609003349
 20
574.05874283008052
 30
0.0
 11
1598.8890609003349
 21
675.40513416755311
 31
0.0
  0
LINE
  5
7A4
  8
0
  6
CONTINUOUS
 62
     0
 10
2081.5103633672838
 20
571.49723649390205
 30
0.0
 11
2081.5103633672838
 21
675.40513416755311
 31
0.0
  0
LINE
  5
7A5
  8
0
  6
CONTINUOUS
 62
     0
 10
1599.069060900335
 20
675.22513416755305
 30
0.0
 11
1836.7763788004761
 21
675.22513416755305
 31
0.0
  0
LINE
  5
7A6
  8
0
  6
CONTINUOUS
 62
     0
 10
2081.3303633672849
 20
675.22513416755305
 30
0.0
 11
1843.6230454671429
 21
675.22513416755305
 31
0.0
  0
SOLID
  5
7A7
  8
0
  6
CONTINUOUS
 62
     0
 10
1599.069060900335
 20
675.25513416755302
 30
0.0
 11
1599.069060900335
 21
675.19513416755296
 31
0.0
 12
1598.8890609003349
 22
675.22513416755305
 32
0.0
 13
1598.8890609003349
 23
675.22513416755305
 33
0.0
  0
SOLID
  5
7A8
  8
0
  6
CONTINUOUS
 62
     0
 10
2081.3303633672849
 20
675.25513416755302
 30
0.0
 11
2081.3303633672849
 21
675.19513416755296
 31
0.0
 12
2081.5103633672838
 22
675.22513416755305
 32
0.0
 13
2081.5103633672838
 23
675.22513416755305
 33
0.0
  0
INSERT
  5
7A9
  8
0
  6
CONTINUOUS
  2
*U4
 10
0.0
 20
0.0
 30
0.0
  0
POINT
  5
7AA
  8
DEFPOINTS
  6
CONTINUOUS
 62
     0
 10
1598.8890609003349
 20
573.99624283008052
 30
0.0
  0
POINT
  5
7AB
  8
DEFPOINTS
  6
CONTINUOUS
 62
     0
 10
2081.5103633672838
 20
571.43473649390216
 30
0.0
  0
POINT
  5
7AC
  8
DEFPOINTS
  6
CONTINUOUS
 62
     0
 10
2081.5103633672838
 20
675.22513416755305
 30
0.0
  0
ENDBLK
  5
7AE
  8
0
  0
BLOCK
  8
0
  2
*U3
 70
     1
 10
0.0
 20
0.0
 30
0.0
  3
*U3
  1

  0
TEXT
  5
BD1
  8
0
  6
CONTINUOUS
 62
     0
 10
190.9262321709385
 20
711.2253440348951
 30
0.0
 40
1.0
  1
481.6281
  0
ENDBLK
  5
BD3
  8
0
  0
BLOCK
  8
0
  2
*U4
 70
     1
 10
0.0
 20
0.0
 30
0.0
  3
*U4
  1

  0
TEXT
  5
BD5
  8
0
  6
CONTINUOUS
 62
     0
 10
1836.8663788004769
 20
674.72513416755305
 30
0.0
 40
1.0
  1
482.6213
  0
ENDBLK
  5
BD7
  8
0
  0
ENDSEC
  0
SECTION
  2
ENTITIES
  0
POLYLINE
  5
77E
  8
0
  6
CONTINUOUS
 66
     1
 10
0.0
 20
0.0
 30
0.0
 70
     1
  0
VERTEX
  5
9C7
  8
0
  6
CONTINUOUS
 10
498.41833676023992
 20
114.3711845920734
 30
0.0
  0
VERTEX
  5
9C8
  8
0
  6
CONTINUOUS
 10
496.22759339793441
 20
118.28745449466621
 30
0.0
  0
VERTEX
  5
9C9
  8
0
  6
CONTINUOUS
 10
481.83282913539182
 20
118.2700397143908
 30
0.0
 42
-0.1240210618960167
  0
VERTEX
  5
9CA
  8
0
  6
CONTINUOUS
 10
461.30737763261448
 20
101.4050071998499
 30
0.0
 42
-0.1816819196410174
  0
VERTEX
  5
9CB
  8
0
  6
CONTINUOUS
 10
434.56217732679391
 20
98.878477140186078
 30
0.0
 42
-0.2125679907660264
  0
VERTEX
  5
9CC
  8
0
  6
CONTINUOUS
 10
416.34507756930719
 20
118.1909196253909
 30
0.0
  0
VERTEX
  5
9CD
  8
0
  6
CONTINUOUS
 10
400.02652869151819
 20
118.1706639431504
 30
0.0
 42
0.4148477725402823
  0
VERTEX
  5
9CE
  8
0
  6
CONTINUOUS
 10
390.53598994567619
 20
108.6585203229551
 30
0.0
  0
VERTEX
  5
9CF
  8
0
  6
CONTINUOUS
 10
390.61213967508411
 20
46.899815400796797
 30
0.0
  0
VERTEX
  5
9D0
  8
0
  6
CONTINUOUS
 10
404.99959460919672
 20
46.916183845527478
 30
0.0
  0
VERTEX
  5
9D1
  8
0
  6
CONTINUOUS
 10
404.95822574641528
 20
80.170870563159042
 30
0.0
  0
VERTEX
  5
9D2
  8
0
  6
CONTINUOUS
 10
411.37163227715968
 20
80.177112947827467
 30
0.0
  0
VERTEX
  5
9D3
  8
0
  6
CONTINUOUS
 10
411.4130023276029
 20
46.922446420561748
 30
0.0
  0
VERTEX
  5
9D4
  8
0
  6
CONTINUOUS
 10
489.84102825698392
 20
47.019830471792368
 30
0.0
  0
VERTEX
  5
9D5
  8
0
  6
CONTINUOUS
 10
489.79966058187159
 20
80.27450056206726
 30
0.0
  0
VERTEX
  5
9D6
  8
0
  6
CONTINUOUS
 10
496.21306354960871
 20
80.283104031348557
 30
0.0
  0
VERTEX
  5
9D7
  8
0
  6
CONTINUOUS
 10
496.25443241239009
 20
47.02842087672434
 30
0.0
  0
VERTEX
  5
9D8
  8
0
  6
CONTINUOUS
 10
510.56655407294778
 20
47.044798822800651
 30
0.0
  0
VERTEX
  5
9D9
  8
0
  6
CONTINUOUS
 10
510.49488818033018
 20
105.2372934259874
 30
0.0
 42
0.4969673179407123
  0
SEQEND
  5
9DA
  8
0
  6
CONTINUOUS
  0
POLYLINE
  5
77F
  8
0
  6
CONTINUOUS
 66
     1
 10
0.0
 20
0.0
 30
0.0
 70
     1
  0
VERTEX
  5
9DB
  8
0
  6
CONTINUOUS
 10
498.41833676023992
 20
199.4676755347063
 30
0.0
  0
VERTEX
  5
9DC
  8
0
  6
CONTINUOUS
 10
496.22759339793441
 20
203.38394543729919
 30
0.0
  0
VERTEX
  5
9DD
  8
0
  6
CONTINUOUS
 10
481.83282913539182
 20
203.36653065702561
 30
0.0
 42
-0.1240210618960167
  0
VERTEX
  5
9DE
  8
0
  6
CONTINUOUS
 10
461.30737763261448
 20
186.50149814248289
 30
0.0
 42
-0.1816819196410174
  0
VERTEX
  5
9DF
  8
0
  6
CONTINUOUS
 10
434.56217732679391
 20
183.97496808282079
 30
0.0
 42
-0.2125679907660264
  0
VERTEX
  5
9E0
  8
0
  6
CONTINUOUS
 10
416.34507756930719
 20
203.28741056802389
 30
0.0
  0
VERTEX
  5
9E1
  8
0
  6
CONTINUOUS
 10
400.02652869151819
 20
203.26715488578341
 30
0.0
 42
0.4148477725402823
  0
VERTEX
  5
9E2
  8
0
  6
CONTINUOUS
 10
390.53598994567619
 20
193.75501126558811
 30
0.0
  0
VERTEX
  5
9E3
  8
0
  6
CONTINUOUS
 10
390.61213967508411
 20
131.9963063434316
 30
0.0
  0
VERTEX
  5
9E4
  8
0
  6
CONTINUOUS
 10
404.99959460919672
 20
132.01267478816041
 30
0.0
  0
VERTEX
  5
9E5
  8
0
  6
CONTINUOUS
 10
404.95822574641528
 20
165.267361505792
 30
0.0
  0
VERTEX
  5
9E6
  8
0
  6
CONTINUOUS
 10
411.37163227715968
 20
165.27360389046041
 30
0.0
  0
VERTEX
  5
9E7
  8
0
  6
CONTINUOUS
 10
411.4130023276029
 20
132.01893736319471
 30
0.0
  0
VERTEX
  5
9E8
  8
0
  6
CONTINUOUS
 10
489.84102825698392
 20
132.1163214144253
 30
0.0
  0
VERTEX
  5
9E9
  8
0
  6
CONTINUOUS
 10
489.79966058187159
 20
165.370991504702
 30
0.0
  0
VERTEX
  5
9EA
  8
0
  6
CONTINUOUS
 10
496.21306354960871
 20
165.37959497398151
 30
0.0
  0
VERTEX
  5
9EB
  8
0
  6
CONTINUOUS
 10
496.25443241239009
 20
132.12491181935729
 30
0.0
  0
VERTEX
  5
9EC
  8
0
  6
CONTINUOUS
 10
510.56655407294778
 20
132.14128976543361
 30
0.0
  0
VERTEX
  5
9ED
  8
0
  6
CONTINUOUS
 10
510.49488818033018
 20
190.3337843686204
 30
0.0
 42
0.4969673179407123
  0
SEQEND
  5
9EE
  8
0
  6
CONTINUOUS
  0
POLYLINE
  5
780
  8
0
  6
CONTINUOUS
 66
     1
 10
0.0
 20
0.0
 30
0.0
 70
     1
  0
VERTEX
  5
9EF
  8
0
  6
CONTINUOUS
 10
555.15639892291244
 20
130.68023255062869
 30
0.0
  0
VERTEX
  5
9F0
  8
0
  6
CONTINUOUS
 10
555.15639892291244
 20
95.050183074747125
 30
0.0
  0
VERTEX
  5
9F1
  8
0
  6
CONTINUOUS
 10
562.25865545222939
 20
66.546143492178075
 30
0.0
  0
VERTEX
  5
9F2
  8
0
  6
CONTINUOUS
 10
603.01943205530733
 20
66.546143492178075
 30
0.0
  0
VERTEX
  5
9F3
  8
0
  6
CONTINUOUS
 10
603.01943205530733
 20
92.674846442865586
 30
0.0
 42
-0.9999999999999998
  0
VERTEX
  5
9F4
  8
0
  6
CONTINUOUS
 10
609.43284096138996
 20
92.674846442865586
 30
0.0
  0
VERTEX
  5
9F5
  8
0
  6
CONTINUOUS
 10
609.43284096138996
 20
66.546143492178075
 30
0.0
  0
VERTEX
  5
9F6
  8
0
  6
CONTINUOUS
 10
650.19361756446051
 20
66.546143492178075
 30
0.0
  0
VERTEX
  5
9F7
  8
0
  6
CONTINUOUS
 10
657.29587409378473
 20
95.050183074747125
 30
0.0
  0
VERTEX
  5
9F8
  8
0
  6
CONTINUOUS
 10
657.29587409378473
 20
130.68023255296251
 30
0.0
 42
0.4142140020008826
  0
VERTEX
  5
9F9
  8
0
  6
CONTINUOUS
 10
652.54520082769341
 20
135.4309058167218
 30
0.0
  0
VERTEX
  5
9FA
  8
0
  6
CONTINUOUS
 10
644.84317180115056
 20
135.4309058167218
 30
0.0
  0
VERTEX
  5
9FB
  8
0
  6
CONTINUOUS
 10
644.84317180115056
 20
104.3139959390864
 30
0.0
 42
-0.9999999999999998
  0
VERTEX
  5
9FC
  8
0
  6
CONTINUOUS
 10
638.42976289506805
 20
104.3139959390864
 30
0.0
  0
VERTEX
  5
9FD
  8
0
  6
CONTINUOUS
 10
638.42976289506805
 20
135.4309058167218
 30
0.0
  0
VERTEX
  5
9FE
  8
0
  6
CONTINUOUS
 10
631.16717114309904
 20
135.4309058167218
 30
0.0
  0
VERTEX
  5
9FF
  8
0
  6
CONTINUOUS
 10
609.81254091732444
 20
159.9210323604093
 30
0.0
 42
0.4552785742823586
  0
VERTEX
  5
A00
  8
0
  6
CONTINUOUS
 10
602.6633395943735
 20
159.92086480574829
 30
0.0
  0
VERTEX
  5
A01
  8
0
  6
CONTINUOUS
 10
581.28510187359825
 20
135.4309058167218
 30
0.0
  0
VERTEX
  5
A02
  8
0
  6
CONTINUOUS
 10
574.04626348793863
 20
135.4309058167218
 30
0.0
  0
VERTEX
  5
A03
  8
0
  6
CONTINUOUS
 10
574.04626348793863
 20
104.3139959390864
 30
0.0
 42
-0.9999999999999998
  0
VERTEX
  5
A04
  8
0
  6
CONTINUOUS
 10
567.63285458186317
 20
104.3139959390864
 30
0.0
  0
VERTEX
  5
A05
  8
0
  6
CONTINUOUS
 10
567.63285458186317
 20
135.4309058167218
 30
0.0
  0
VERTEX
  5
A06
  8
0
  6
CONTINUOUS
 10
559.90707218667546
 20
135.4309058167218
 30
0.0
 42
0.4142140020008604
  0
SEQEND
  5
A07
  8
0
  6
CONTINUOUS
  0
POLYLINE
  5
781
  8
0
  6
CONTINUOUS
 62
     7
 66
     1
 10
0.0
 20
0.0
 30
0.0
 70
     1
  0
VERTEX
  5
A08
  8
0
  6
CONTINUOUS
 62
     7
 10
166.67724930340231
 20
73.956939337587755
 30
0.0
 42
-0.4697301549598543
  0
VERTEX
  5
A09
  8
0
  6
CONTINUOUS
 62
     7
 10
115.7591448190596
 20
67.455548773965347
 30
0.0
 42
-0.0769740071497483
  0
VERTEX
  5
A0A
  8
0
  6
CONTINUOUS
 62
     7
 10
105.6124722863478
 20
79.690151448707184
 30
0.0
 42
-0.0843640026250151
  0
VERTEX
  5
A0B
  8
0
  6
CONTINUOUS
 62
     7
 10
99.94809275644549
 20
93.640185406413366
 30
0.0
 42
-0.168646871220529
  0
VERTEX
  5
A0C
  8
0
  6
CONTINUOUS
 62
     7
 10
101.2665248611174
 20
127.40684781955309
 30
0.0
 42
-0.0567135523043933
  0
VERTEX
  5
A0D
  8
0
  6
CONTINUOUS
 62
     7
 10
104.2724247805036
 20
133.7218453408986
 30
0.0
 42
-0.054950887584044
  0
VERTEX
  5
A0E
  8
0
  6
CONTINUOUS
 62
     7
 10
109.77308722533959
 20
140.84304566526589
 30
0.0
 42
0.3983544792690561
  0
VERTEX
  5
A0F
  8
0
  6
CONTINUOUS
 62
     7
 10
109.8630177910763
 20
150.4891500248068
 30
0.0
 42
-0.0716865939699084
  0
VERTEX
  5
A10
  8
0
  6
CONTINUOUS
 62
     7
 10
103.191605869144
 20
160.12196335250329
 30
0.0
 42
-0.189222932036125
  0
VERTEX
  5
A11
  8
0
  6
CONTINUOUS
 62
     7
 10
100.93333287942551
 20
197.69870878545589
 30
0.0
 42
-0.0843681917006661
  0
VERTEX
  5
A12
  8
0
  6
CONTINUOUS
 62
     7
 10
106.8615734743525
 20
211.5402513908939
 30
0.0
 42
-0.0768707587459813
  0
VERTEX
  5
A13
  8
0
  6
CONTINUOUS
 62
     7
 10
117.23695643745479
 20
223.55626947855669
 30
0.0
 42
-0.4699221920223939
  0
VERTEX
  5
A14
  8
0
  6
CONTINUOUS
 62
     7
 10
168.02583965732811
 20
216.115085174717
 30
0.0
 42
-0.0896422101507358
  0
VERTEX
  5
A15
  8
0
  6
CONTINUOUS
 62
     7
 10
190.36827015190829
 20
167.4440009060545
 30
0.0
 42
0.394921963634697
  0
VERTEX
  5
A16
  8
0
  6
CONTINUOUS
 62
     7
 10
195.84721016755969
 20
163.9710572067506
 30
0.0
  0
VERTEX
  5
A17
  8
0
  6
CONTINUOUS
 62
     7
 10
248.96080869283651
 20
173.91895510663011
 30
0.0
  0
VERTEX
  5
A18
  8
0
  6
CONTINUOUS
 62
     7
 10
309.59339721887409
 20
185.26950007400771
 30
0.0
 42
-0.4748105897151273
  0
VERTEX
  5
A19
  8
0
  6
CONTINUOUS
 62
     7
 10
312.42195969609929
 20
182.91552586655229
 30
0.0
  0
VERTEX
  5
A1A
  8
0
  6
CONTINUOUS
 62
     7
 10
312.081216907618
 20
146.9541407875258
 30
0.0
  0
VERTEX
  5
A1B
  8
0
  6
CONTINUOUS
 62
     7
 10
217.07247736461611
 20
147.85478173854969
 30
0.0
  0
VERTEX
  5
A1C
  8
0
  6
CONTINUOUS
 62
     7
 10
217.0125155543447
 20
141.44211868817729
 30
0.0
  0
VERTEX
  5
A1D
  8
0
  6
CONTINUOUS
 62
     7
 10
312.02125390968467
 20
140.54148011248981
 30
0.0
  0
VERTEX
  5
A1E
  8
0
  6
CONTINUOUS
 62
     7
 10
311.6800310620547
 20
104.4148907179424
 30
0.0
 42
-0.4743823119283226
  0
VERTEX
  5
A1F
  8
0
  6
CONTINUOUS
 62
     7
 10
308.80707494120179
 20
102.1120002289644
 30
0.0
  0
VERTEX
  5
A20
  8
0
  6
CONTINUOUS
 62
     7
 10
252.1444652545342
 20
113.8386891772515
 30
0.0
  0
VERTEX
  5
A21
  8
0
  6
CONTINUOUS
 62
     7
 10
195.48181840241341
 20
125.5642209470152
 30
0.0
 42
0.3947461749002051
  0
VERTEX
  5
A22
  8
0
  6
CONTINUOUS
 62
     7
 10
189.938045625824
 20
122.1964860197113
 30
0.0
 42
-0.08889567762192
  0
SEQEND
  5
A23
  8
0
  6
CONTINUOUS
 62
     7
  0
POLYLINE
  5
782
  8
0
  6
CONTINUOUS
 62
     7
 66
     1
 10
0.0
 20
0.0
 30
0.0
 70
     1
  0
VERTEX
  5
A24
  8
0
  6
CONTINUOUS
 62
     7
 10
699.23018339447481
 20
321.93367144455812
 30
0.0
 42
0.4385663485422049
  0
VERTEX
  5
A25
  8
0
  6
CONTINUOUS
 62
     7
 10
703.28977597600351
 20
324.22161074977879
 30
0.0
  0
VERTEX
  5
A26
  8
0
  6
CONTINUOUS
 62
     7
 10
717.92411477250596
 20
356.67628110481019
 30
0.0
 42
-0.4485976212438811
  0
VERTEX
  5
A27
  8
0
  6
CONTINUOUS
 62
     7
 10
724.68680805309305
 20
354.50593866889898
 30
0.0
  0
VERTEX
  5
A28
  8
0
  6
CONTINUOUS
 62
     7
 10
730.92793450965291
 20
340.32969099819638
 30
0.0
  0
VERTEX
  5
A29
  8
0
  6
CONTINUOUS
 62
     7
 10
751.78761586143264
 20
341.17872538555463
 30
0.0
  0
VERTEX
  5
A2A
  8
0
  6
CONTINUOUS
 62
     7
 10
775.73896530083766
 20
342.1559768812985
 30
0.0
  0
VERTEX
  5
A2B
  8
0
  6
CONTINUOUS
 62
     7
 10
797.28137058483298
 20
367.83276121351452
 30
0.0
 42
-0.5444843289757629
  0
VERTEX
  5
A2C
  8
0
  6
CONTINUOUS
 62
     7
 10
805.25041603470345
 20
367.53190005751821
 30
0.0
  0
VERTEX
  5
A2D
  8
0
  6
CONTINUOUS
 62
     7
 10
804.37288710277244
 20
362.79160816828153
 30
0.0
  0
VERTEX
  5
A2E
  8
0
  6
CONTINUOUS
 62
     7
 10
795.47687915723691
 20
332.7445492113784
 30
0.0
 42
0.4162994915922579
  0
VERTEX
  5
A2F
  8
0
  6
CONTINUOUS
 62
     7
 10
797.49289540566861
 20
328.69731661953119
 30
0.0
 42
0.4162914513817034
  0
VERTEX
  5
A30
  8
0
  6
CONTINUOUS
 62
     7
 10
801.51855853180484
 20
330.72056358727241
 30
0.0
  0
VERTEX
  5
A31
  8
0
  6
CONTINUOUS
 62
     7
 10
811.81308752538644
 20
361.81455501315207
 30
0.0
  0
VERTEX
  5
A32
  8
0
  6
CONTINUOUS
 62
     7
 10
814.60268753101445
 20
376.8835939426699
 30
0.0
 42
-0.079949002267579
  0
VERTEX
  5
A33
  8
0
  6
CONTINUOUS
 62
     7
 10
820.54658639154695
 20
384.80815908919431
 30
0.0
 42
-0.3758030622454039
  0
VERTEX
  5
A34
  8
0
  6
CONTINUOUS
 62
     7
 10
831.36048503012171
 20
353.96271738066213
 30
0.0
 42
-0.027527067462029
  0
VERTEX
  5
A35
  8
0
  6
CONTINUOUS
 62
     7
 10
830.07284413807974
 20
350.79509061981662
 30
0.0
 42
-0.0700959087797252
  0
VERTEX
  5
A36
  8
0
  6
CONTINUOUS
 62
     7
 10
823.92569686242678
 20
340.55509498739769
 30
0.0
  0
VERTEX
  5
A37
  8
0
  6
CONTINUOUS
 62
     7
 10
800.92585641508947
 20
296.95798062259382
 30
0.0
 42
-0.3791489457289103
  0
VERTEX
  5
A38
  8
0
  6
CONTINUOUS
 62
     7
 10
781.83394480349853
 20
286.21490463514419
 30
0.0
  0
VERTEX
  5
A39
  8
0
  6
CONTINUOUS
 62
     7
 10
787.30027501563188
 20
300.73653011921488
 30
0.0
  0
VERTEX
  5
A3A
  8
0
  6
CONTINUOUS
 62
     7
 10
772.19345708265064
 20
323.00362692942508
 30
0.0
  0
VERTEX
  5
A3B
  8
0
  6
CONTINUOUS
 62
     7
 10
727.38242629145861
 20
321.1773410463266
 30
0.0
  0
VERTEX
  5
A3C
  8
0
  6
CONTINUOUS
 62
     7
 10
692.19993774142665
 20
296.06892118980068
 30
0.0
  0
VERTEX
  5
A3D
  8
0
  6
CONTINUOUS
 62
     7
 10
686.92229006911111
 20
282.0444597333917
 30
0.0
 42
-0.4926799975113756
  0
VERTEX
  5
A3E
  8
0
  6
CONTINUOUS
 62
     7
 10
677.09325520262973
 20
294.32396089463691
 30
0.0
  0
VERTEX
  5
A3F
  8
0
  6
CONTINUOUS
 62
     7
 10
683.44235780774216
 20
328.62311163333828
 30
0.0
  0
VERTEX
  5
A40
  8
0
  6
CONTINUOUS
 62
     7
 10
689.79184362502735
 20
362.92216517246021
 30
0.0
 42
-0.3098790199315096
  0
VERTEX
  5
A41
  8
0
  6
CONTINUOUS
 62
     7
 10
712.25684544055002
 20
381.44656990887961
 30
0.0
 42
-0.1415120054671276
  0
VERTEX
  5
A42
  8
0
  6
CONTINUOUS
 62
     7
 10
714.27795528061142
 20
367.64254537599481
 30
0.0
  0
VERTEX
  5
A43
  8
0
  6
CONTINUOUS
 62
     7
 10
704.21006731280966
 20
347.16799774564612
 30
0.0
  0
VERTEX
  5
A44
  8
0
  6
CONTINUOUS
 62
     7
 10
697.18384768440774
 20
325.82653399082852
 30
0.0
  0
VERTEX
  5
A45
  8
0
  6
CONTINUOUS
 62
     7
 10
697.29405437099365
 20
326.16246182486071
 30
0.0
 42
0.4384680575380611
  0
SEQEND
  5
A46
  8
0
  6
CONTINUOUS
 62
     7
  0
POLYLINE
  5
783
  8
0
  6
CONTINUOUS
 62
     7
 66
     1
 10
0.0
 20
0.0
 30
0.0
 70
     1
  0
VERTEX
  5
A47
  8
0
  6
CONTINUOUS
 62
     7
 10
548.75054851891218
 20
351.38132798713741
 30
0.0
 42
0.4142140239517108
  0
VERTEX
  5
A48
  8
0
  6
CONTINUOUS
 62
     7
 10
560.62723296482181
 20
339.50464402482072
 30
0.0
 42
0.4142139428908492
  0
VERTEX
  5
A49
  8
0
  6
CONTINUOUS
 62
     7
 10
572.50391483770545
 20
351.38132727317321
 30
0.0
 42
0.4142139599453836
  0
VERTEX
  5
A4A
  8
0
  6
CONTINUOUS
 62
     7
 10
560.62723209535216
 20
363.25801034362121
 30
0.0
 42
0.4142139629077883
  0
SEQEND
  5
A4B
  8
0
  6
CONTINUOUS
 62
     7
  0
POLYLINE
  5
784
  8
0
  6
CONTINUOUS
 62
     7
 66
     1
 10
0.0
 20
0.0
 30
0.0
 70
     1
  0
VERTEX
  5
A4C
  8
0
  6
CONTINUOUS
 62
     7
 10
671.93300262281446
 20
706.52463669463566
 30
0.0
  0
VERTEX
  5
A4D
  8
0
  6
CONTINUOUS
 62
     7
 10
672.20275181091893
 20
745.63270474403907
 30
0.0
 42
-0.1355529997109543
  0
VERTEX
  5
A4E
  8
0
  6
CONTINUOUS
 62
     7
 10
702.84599699785213
 20
752.53052427459806
 30
0.0
  0
VERTEX
  5
A4F
  8
0
  6
CONTINUOUS
 62
     7
 10
702.52605314136053
 20
706.31610526102668
 30
0.0
 42
1.0000000481126521
  0
VERTEX
  5
A50
  8
0
  6
CONTINUOUS
 62
     7
 10
708.93934381089093
 20
706.26869407907725
 30
0.0
  0
VERTEX
  5
A51
  8
0
  6
CONTINUOUS
 62
     7
 10
709.25930732698362
 20
752.48683107560817
 30
0.0
 42
-0.1356439996692598
  0
VERTEX
  5
A52
  8
0
  6
CONTINUOUS
 62
     7
 10
739.826576185058
 20
745.1669771363886
 30
0.0
  0
VERTEX
  5
A53
  8
0
  6
CONTINUOUS
 62
     7
 10
739.55576495501907
 20
706.05855328325367
 30
0.0
 42
0.4162367318846751
  0
VERTEX
  5
A54
  8
0
  6
CONTINUOUS
 62
     7
 10
742.76365471822828
 20
702.82830234214805
 30
0.0
 42
0.4121990096127094
  0
VERTEX
  5
A55
  8
0
  6
CONTINUOUS
 62
     7
 10
745.97120675650694
 20
706.01399104994562
 30
0.0
  0
VERTEX
  5
A56
  8
0
  6
CONTINUOUS
 62
     7
 10
746.21178390474415
 20
741.07661744071083
 30
0.0
 42
-0.079465001370518
  0
VERTEX
  5
A57
  8
0
  6
CONTINUOUS
 62
     7
 10
759.30392435678539
 20
727.8230379291216
 30
0.0
 42
-0.0477909994834883
  0
VERTEX
  5
A58
  8
0
  6
CONTINUOUS
 62
     7
 10
752.33470929235955
 20
668.10578712540325
 30
0.0
  0
VERTEX
  5
A59
  8
0
  6
CONTINUOUS
 62
     7
 10
765.26242550676568
 20
641.17531652668185
 30
0.0
  0
VERTEX
  5
A5A
  8
0
  6
CONTINUOUS
 62
     7
 10
788.91179127415853
 20
591.86532214393617
 30
0.0
  0
VERTEX
  5
A5B
  8
0
  6
CONTINUOUS
 62
     7
 10
792.87949182529883
 20
591.83709364340211
 30
0.0
  0
VERTEX
  5
A5C
  8
0
  6
CONTINUOUS
 62
     7
 10
794.74711450413633
 20
587.07270756126672
 30
0.0
  0
VERTEX
  5
A5D
  8
0
  6
CONTINUOUS
 62
     7
 10
811.94472666033278
 20
586.95534807368495
 30
0.0
 42
-0.3840487221154416
  0
VERTEX
  5
A5E
  8
0
  6
CONTINUOUS
 62
     7
 10
818.22781830629719
 20
581.9693633170973
 30
0.0
  0
VERTEX
  5
A5F
  8
0
  6
CONTINUOUS
 62
     7
 10
818.20850563181909
 20
579.23985449205611
 30
0.0
  0
VERTEX
  5
A60
  8
0
  6
CONTINUOUS
 62
     7
 10
799.91856036902209
 20
579.36431321233249
 30
0.0
 42
0.4120032143568446
  0
VERTEX
  5
A61
  8
0
  6
CONTINUOUS
 62
     7
 10
796.6903349676885
 20
576.20369011653929
 30
0.0
 42
0.4166145855863216
  0
VERTEX
  5
A62
  8
0
  6
CONTINUOUS
 62
     7
 10
799.87662566517429
 20
572.9509870984075
 30
0.0
  0
VERTEX
  5
A63
  8
0
  6
CONTINUOUS
 62
     7
 10
818.16426973771922
 20
572.82654416244623
 30
0.0
  0
VERTEX
  5
A64
  8
0
  6
CONTINUOUS
 62
     7
 10
818.14614117289045
 20
570.09386966772399
 30
0.0
 42
-0.3838381054388571
  0
VERTEX
  5
A65
  8
0
  6
CONTINUOUS
 62
     7
 10
811.79306695503499
 20
565.19663274581751
 30
0.0
  0
VERTEX
  5
A66
  8
0
  6
CONTINUOUS
 62
     7
 10
794.5964896576279
 20
565.31569647772812
 30
0.0
  0
VERTEX
  5
A67
  8
0
  6
CONTINUOUS
 62
     7
 10
792.66319485926385
 20
560.57885242383418
 30
0.0
  0
VERTEX
  5
A68
  8
0
  6
CONTINUOUS
 62
     7
 10
779.19808423219536
 20
560.67168552682415
 30
0.0
 42
-0.4143411805421314
  0
VERTEX
  5
A69
  8
0
  6
CONTINUOUS
 62
     7
 10
767.40143541026373
 20
572.63223245334848
 30
0.0
  0
VERTEX
  5
A6A
  8
0
  6
CONTINUOUS
 62
     7
 10
767.53508821273306
 20
592.01255500973093
 30
0.0
  0
VERTEX
  5
A6B
  8
0
  6
CONTINUOUS
 62
     7
 10
724.13645076741705
 20
660.77093458797015
 30
0.0
 42
-0.0859559688672844
  0
VERTEX
  5
A6C
  8
0
  6
CONTINUOUS
 62
     7
 10
705.39242209575775
 20
657.00450242607985
 30
0.0
 42
-0.0867680321846052
  0
VERTEX
  5
A6D
  8
0
  6
CONTINUOUS
 62
     7
 10
686.53695217432141
 20
661.10199988217028
 30
0.0
  0
VERTEX
  5
A6E
  8
0
  6
CONTINUOUS
 62
     7
 10
642.35659358503653
 20
592.87848516654947
 30
0.0
  0
VERTEX
  5
A6F
  8
0
  6
CONTINUOUS
 62
     7
 10
642.22398210388383
 20
573.49466222290528
 30
0.0
 42
-0.4141871764668549
  0
VERTEX
  5
A70
  8
0
  6
CONTINUOUS
 62
     7
 10
630.26484615631659
 20
561.7007414675063
 30
0.0
  0
VERTEX
  5
A71
  8
0
  6
CONTINUOUS
 62
     7
 10
616.82139105752321
 20
561.79364233343756
 30
0.0
  0
VERTEX
  5
A72
  8
0
  6
CONTINUOUS
 62
     7
 10
614.9537671910166
 20
566.55802841557852
 30
0.0
  0
VERTEX
  5
A73
  8
0
  6
CONTINUOUS
 62
     7
 10
597.73354120572355
 20
566.6753534406871
 30
0.0
 42
-0.3838379487296222
  0
VERTEX
  5
A74
  8
0
  6
CONTINUOUS
 62
     7
 10
591.44873639764592
 20
571.65989664591325
 30
0.0
  0
VERTEX
  5
A75
  8
0
  6
CONTINUOUS
 62
     7
 10
591.46836140997948
 20
574.39255728478201
 30
0.0
  0
VERTEX
  5
A76
  8
0
  6
CONTINUOUS
 62
     7
 10
609.75565106199235
 20
574.26434140608035
 30
0.0
 42
0.4143764499581642
  0
VERTEX
  5
A77
  8
0
  6
CONTINUOUS
 62
     7
 10
612.98682231419843
 20
577.44790264198309
 30
0.0
 42
0.4144632365258368
  0
VERTEX
  5
A78
  8
0
  6
CONTINUOUS
 62
     7
 10
609.80050865637349
 20
580.67764775777141
 30
0.0
  0
VERTEX
  5
A79
  8
0
  6
CONTINUOUS
 62
     7
 10
591.51273151060195
 20
580.80586761438644
 30
0.0
  0
VERTEX
  5
A7A
  8
0
  6
CONTINUOUS
 62
     7
 10
591.53112968299126
 20
583.53538275024584
 30
0.0
 42
-0.3840487624619246
  0
VERTEX
  5
A7B
  8
0
  6
CONTINUOUS
 62
     7
 10
597.88250720255928
 20
588.43408902493138
 30
0.0
  0
VERTEX
  5
A7C
  8
0
  6
CONTINUOUS
 62
     7
 10
615.10439203751775
 20
588.31503949911701
 30
0.0
  0
VERTEX
  5
A7D
  8
0
  6
CONTINUOUS
 62
     7
 10
617.0376880235508
 20
593.05188117767284
 30
0.0
  0
VERTEX
  5
A7E
  8
0
  6
CONTINUOUS
 62
     7
 10
620.97988814828022
 20
593.02572040767325
 30
0.0
  0
VERTEX
  5
A7F
  8
0
  6
CONTINUOUS
 62
     7
 10
658.63066239748332
 20
668.75389005157922
 30
0.0
 42
-0.0477909996618728
  0
VERTEX
  5
A80
  8
0
  6
CONTINUOUS
 62
     7
 10
652.46412088351099
 20
728.56152628560631
 30
0.0
 42
-0.0795250035963752
  0
VERTEX
  5
A81
  8
0
  6
CONTINUOUS
 62
     7
 10
665.76130799061684
 20
741.63379768122275
 30
0.0
  0
VERTEX
  5
A82
  8
0
  6
CONTINUOUS
 62
     7
 10
665.51970230107145
 20
706.5708848085651
 30
0.0
 42
0.4143966564640619
  0
VERTEX
  5
A83
  8
0
  6
CONTINUOUS
 62
     7
 10
668.70422769199104
 20
703.34009978249367
 30
0.0
 42
0.4419787608543161
  0
SEQEND
  5
A84
  8
0
  6
CONTINUOUS
 62
     7
  0
POLYLINE
  5
785
  8
0
  6
CONTINUOUS
 62
     7
 66
     1
 10
0.0
 20
0.0
 30
0.0
 70
     1
  0
VERTEX
  5
A85
  8
0
  6
CONTINUOUS
 62
     7
 10
368.85026638608002
 20
238.62305357834339
 30
0.0
 42
0.4236119855295434
  0
VERTEX
  5
A86
  8
0
  6
CONTINUOUS
 62
     7
 10
352.72207787980187
 20
251.02234780893201
 30
0.0
  0
VERTEX
  5
A87
  8
0
  6
CONTINUOUS
 62
     7
 10
348.49398135289272
 20
251.02234780893201
 30
0.0
  0
VERTEX
  5
A88
  8
0
  6
CONTINUOUS
 62
     7
 10
347.5438467001386
 20
246.2716745451707
 30
0.0
  0
VERTEX
  5
A89
  8
0
  6
CONTINUOUS
 62
     7
 10
330.916490276979
 20
246.2716745451707
 30
0.0
  0
VERTEX
  5
A8A
  8
0
  6
CONTINUOUS
 62
     7
 10
330.916490276979
 20
238.78936415474169
 30
0.0
  0
VERTEX
  5
A8B
  8
0
  6
CONTINUOUS
 62
     7
 10
347.5438467001386
 20
238.78936415474169
 30
0.0
 42
-0.9999999999999998
  0
VERTEX
  5
A8C
  8
0
  6
CONTINUOUS
 62
     7
 10
347.5438467001386
 20
232.37595524866811
 30
0.0
  0
VERTEX
  5
A8D
  8
0
  6
CONTINUOUS
 62
     7
 10
330.916490276979
 20
232.37595524866811
 30
0.0
  0
VERTEX
  5
A8E
  8
0
  6
CONTINUOUS
 62
     7
 10
330.916490276979
 20
224.8936448582426
 30
0.0
  0
VERTEX
  5
A8F
  8
0
  6
CONTINUOUS
 62
     7
 10
347.5438467001386
 20
224.8936448582426
 30
0.0
  0
VERTEX
  5
A90
  8
0
  6
CONTINUOUS
 62
     7
 10
348.49398135289272
 20
220.1429715944796
 30
0.0
  0
VERTEX
  5
A91
  8
0
  6
CONTINUOUS
 62
     7
 10
352.72206480233763
 20
220.14285045225009
 30
0.0
 42
0.4415990816759959
  0
VERTEX
  5
A92
  8
0
  6
CONTINUOUS
 62
     7
 10
368.92172613294861
 20
233.39737643707119
 30
0.0
 42
0.0742659611137502
  0
SEQEND
  5
A93
  8
0
  6
CONTINUOUS
 62
     7
  0
POLYLINE
  5
786
  8
0
  6
CONTINUOUS
 62
     7
 66
     1
 10
0.0
 20
0.0
 30
0.0
 70
     1
  0
VERTEX
  5
A94
  8
0
  6
CONTINUOUS
 62
     7
 10
344.6642273309717
 20
268.06267622770611
 30
0.0
 42
0.4141649003030248
  0
VERTEX
  5
A95
  8
0
  6
CONTINUOUS
 62
     7
 10
363.66387397479588
 20
287.0654696069123
 30
0.0
 42
0.4142216952569836
  0
VERTEX
  5
A96
  8
0
  6
CONTINUOUS
 62
     7
 10
344.65968090482971
 20
306.06912621973061
 30
0.0
 42
0.5706425213912271
  0
VERTEX
  5
A97
  8
0
  6
CONTINUOUS
 62
     7
 10
328.01119256735001
 20
277.89536768102698
 30
0.0
 42
0.2733989343675475
  0
SEQEND
  5
A98
  8
0
  6
CONTINUOUS
 62
     7
  0
POLYLINE
  5
787
  8
0
  6
CONTINUOUS
 62
     7
 66
     1
 10
0.0
 20
0.0
 30
0.0
 70
     1
  0
VERTEX
  5
A99
  8
0
  6
CONTINUOUS
 62
     7
 10
344.6602064390263
 20
275.1887951449425
 30
0.0
 42
0.4142321602250722
  0
VERTEX
  5
A9A
  8
0
  6
CONTINUOUS
 62
     7
 10
356.5373367539305
 20
287.06538856625048
 30
0.0
 42
0.4142099609437412
  0
VERTEX
  5
A9B
  8
0
  6
CONTINUOUS
 62
     7
 10
344.66046654754791
 20
298.94262225878452
 30
0.0
 42
0.6756689863718189
  0
VERTEX
  5
A9C
  8
0
  6
CONTINUOUS
 62
     7
 10
336.4374943574457
 20
278.49499127974559
 30
0.0
 42
0.1935403303254495
  0
SEQEND
  5
A9D
  8
0
  6
CONTINUOUS
 62
     7
  0
POLYLINE
  5
788
  8
0
  6
CONTINUOUS
 62
     7
 66
     1
 10
0.0
 20
0.0
 30
0.0
 70
     1
  0
VERTEX
  5
A9E
  8
0
  6
CONTINUOUS
 62
     7
 10
298.36217983838469
 20
283.11759164218529
 30
0.0
 42
0.5706454147068625
  0
VERTEX
  5
A9F
  8
0
  6
CONTINUOUS
 62
     7
 10
315.011267292024
 20
311.29048607987528
 30
0.0
 42
0.0785407412280971
  0
VERTEX
  5
AA0
  8
0
  6
CONTINUOUS
 62
     7
 10
311.37056285625482
 20
315.97635866328159
 30
0.0
 42
0.1907071231662089
  0
VERTEX
  5
AA1
  8
0
  6
CONTINUOUS
 62
     7
 10
298.36310085329927
 20
321.12312248853959
 30
0.0
 42
0.4142476933307065
  0
VERTEX
  5
AA2
  8
0
  6
CONTINUOUS
 62
     7
 10
279.3582575872515
 20
302.1203939092448
 30
0.0
 42
0.4142323616285086
  0
SEQEND
  5
AA3
  8
0
  6
CONTINUOUS
 62
     7
  0
POLYLINE
  5
789
  8
0
  6
CONTINUOUS
 62
     7
 66
     1
 10
0.0
 20
0.0
 30
0.0
 70
     1
  0
VERTEX
  5
AA4
  8
0
  6
CONTINUOUS
 62
     7
 10
574.78400929507359
 20
324.51614879321642
 30
0.0
 42
-0.4490909792772417
  0
VERTEX
  5
AA5
  8
0
  6
CONTINUOUS
 62
     7
 10
576.32863908478055
 20
328.3161738773033
 30
0.0
 42
0.5332869719683882
  0
VERTEX
  5
AA6
  8
0
  6
CONTINUOUS
 62
     7
 10
576.01954092262338
 20
374.65989480308599
 30
0.0
 42
-0.4224213690419237
  0
VERTEX
  5
AA7
  8
0
  6
CONTINUOUS
 62
     7
 10
574.78427642549832
 20
378.27012759921672
 30
0.0
 42
0.0147801684640552
  0
VERTEX
  5
AA8
  8
0
  6
CONTINUOUS
 62
     7
 10
577.61094303996094
 20
387.01147175531878
 30
0.0
 42
0.0337388613201092
  0
VERTEX
  5
AA9
  8
0
  6
CONTINUOUS
 62
     7
 10
582.90773729312968
 20
410.45598311284078
 30
0.0
 42
0.071172862588448
  0
VERTEX
  5
AAA
  8
0
  6
CONTINUOUS
 62
     7
 10
583.57278841627885
 20
435.51569129119878
 30
0.0
 42
0.0917598149267912
  0
VERTEX
  5
AAB
  8
0
  6
CONTINUOUS
 62
     7
 10
578.32352481516318
 20
453.59199340952898
 30
0.0
 42
0.6093997919099384
  0
VERTEX
  5
AAC
  8
0
  6
CONTINUOUS
 62
     7
 10
542.95479469187728
 20
453.59199465933489
 30
0.0
 42
0.0550108029412431
  0
VERTEX
  5
AAD
  8
0
  6
CONTINUOUS
 62
     7
 10
540.12804979820976
 20
446.79860971628648
 30
0.0
 42
0.0345976844522961
  0
VERTEX
  5
AAE
  8
0
  6
CONTINUOUS
 62
     7
 10
538.41787220868173
 20
440.48045022892251
 30
0.0
 42
0.0253479090659127
  0
VERTEX
  5
AAF
  8
0
  6
CONTINUOUS
 62
     7
 10
537.70529507090578
 20
435.515812866879
 30
0.0
 42
0.0496516048540746
  0
VERTEX
  5
AB0
  8
0
  6
CONTINUOUS
 62
     7
 10
537.42031076782757
 20
417.98456837161018
 30
0.0
 42
0.0214447393181217
  0
VERTEX
  5
AB1
  8
0
  6
CONTINUOUS
 62
     7
 10
538.37036028105831
 20
410.45590404421091
 30
0.0
 42
0.0337390620161493
  0
VERTEX
  5
AB2
  8
0
  6
CONTINUOUS
 62
     7
 10
543.66733487087356
 20
387.01127996322612
 30
0.0
 42
0.0140058419480055
  0
VERTEX
  5
AB3
  8
0
  6
CONTINUOUS
 62
     7
 10
546.32734932031053
 20
378.72139121865803
 30
0.0
 42
-0.2482015055225446
  0
VERTEX
  5
AB4
  8
0
  6
CONTINUOUS
 62
     7
 10
544.99773816010736
 20
374.46926379179598
 30
0.0
 42
0.5135529492393243
  0
VERTEX
  5
AB5
  8
0
  6
CONTINUOUS
 62
     7
 10
543.78618785400795
 20
329.17211460377081
 30
0.0
 42
-0.33303596786538
  0
VERTEX
  5
AB6
  8
0
  6
CONTINUOUS
 62
     7
 10
546.32766754889781
 20
324.06496936657823
 30
0.0
 42
0.0140048811060015
  0
VERTEX
  5
AB7
  8
0
  6
CONTINUOUS
 62
     7
 10
543.66732535037045
 20
315.7751096019947
 30
0.0
 42
0.0337391328687604
  0
VERTEX
  5
AB8
  8
0
  6
CONTINUOUS
 62
     7
 10
538.37045226896043
 20
292.33041719444549
 30
0.0
 42
0.0712400295359799
  0
VERTEX
  5
AB9
  8
0
  6
CONTINUOUS
 62
     7
 10
537.70519518995741
 20
267.24686978815038
 30
0.0
 42
0.0210901806050837
  0
VERTEX
  5
ABA
  8
0
  6
CONTINUOUS
 62
     7
 10
538.27525201071137
 20
263.11394034838122
 30
0.0
 42
0.0390516741766685
  0
VERTEX
  5
ABB
  8
0
  6
CONTINUOUS
 62
     7
 10
540.1281193388877
 20
255.96407151423949
 30
0.0
 42
0.0548539635298966
  0
VERTEX
  5
ABC
  8
0
  6
CONTINUOUS
 62
     7
 10
542.95472286192125
 20
249.1943530737008
 30
0.0
 42
0.609398858363725
  0
VERTEX
  5
ABD
  8
0
  6
CONTINUOUS
 62
     7
 10
578.32368147701527
 20
249.19429313556799
 30
0.0
 42
0.0916546223320829
  0
VERTEX
  5
ABE
  8
0
  6
CONTINUOUS
 62
     7
 10
583.57277469021392
 20
267.24689036737982
 30
0.0
 42
0.0712403057955904
  0
VERTEX
  5
ABF
  8
0
  6
CONTINUOUS
 62
     7
 10
582.90785216808763
 20
292.33052447385847
 30
0.0
 42
0.0337387792877832
  0
VERTEX
  5
AC0
  8
0
  6
CONTINUOUS
 62
     7
 10
577.61094173174388
 20
315.77495604285292
 30
0.0
 42
0.014779127566393
  0
SEQEND
  5
AC1
  8
0
  6
CONTINUOUS
 62
     7
  0
POLYLINE
  5
78A
  8
0
  6
CONTINUOUS
 62
     7
 66
     1
 10
0.0
 20
0.0
 30
0.0
 70
     1
  0
VERTEX
  5
AC2
  8
0
  6
CONTINUOUS
 62
     7
 10
298.36099049048238
 20
290.24374758512198
 30
0.0
 42
0.675572384591292
  0
VERTEX
  5
AC3
  8
0
  6
CONTINUOUS
 62
     7
 10
306.58645218003397
 20
310.68822843208358
 30
0.0
 42
0.1936226098562873
  0
VERTEX
  5
AC4
  8
0
  6
CONTINUOUS
 62
     7
 10
298.36152192160989
 20
313.99673026187702
 30
0.0
 42
0.4142304479250268
  0
VERTEX
  5
AC5
  8
0
  6
CONTINUOUS
 62
     7
 10
286.48426748314711
 20
302.12033515325669
 30
0.0
 42
0.414212597736153
  0
SEQEND
  5
AC6
  8
0
  6
CONTINUOUS
 62
     7
  0
POLYLINE
  5
78B
  8
0
  6
CONTINUOUS
 62
     7
 66
     1
 10
0.0
 20
0.0
 30
0.0
 70
     1
  0
VERTEX
  5
AC7
  8
0
  6
CONTINUOUS
 62
     7
 10
370.51169007995668
 20
368.90274104770828
 30
0.0
  0
VERTEX
  5
AC8
  8
0
  6
CONTINUOUS
 62
     7
 10
366.2835923653783
 20
368.90274223537563
 30
0.0
  0
VERTEX
  5
AC9
  8
0
  6
CONTINUOUS
 62
     7
 10
365.33345771262429
 20
364.15206897161443
 30
0.0
  0
VERTEX
  5
ACA
  8
0
  6
CONTINUOUS
 62
     7
 10
348.70610128945742
 20
364.15206897161443
 30
0.0
  0
VERTEX
  5
ACB
  8
0
  6
CONTINUOUS
 62
     7
 10
348.70610128945742
 20
356.66975858118712
 30
0.0
  0
VERTEX
  5
ACC
  8
0
  6
CONTINUOUS
 62
     7
 10
365.33345771262429
 20
356.66975858118712
 30
0.0
 42
-0.9999999999999998
  0
VERTEX
  5
ACD
  8
0
  6
CONTINUOUS
 62
     7
 10
365.33345771262429
 20
350.25634967511002
 30
0.0
  0
VERTEX
  5
ACE
  8
0
  6
CONTINUOUS
 62
     7
 10
348.70610128945742
 20
350.25634967510632
 30
0.0
  0
VERTEX
  5
ACF
  8
0
  6
CONTINUOUS
 62
     7
 10
348.70610128945742
 20
342.77403928468271
 30
0.0
  0
VERTEX
  5
AD0
  8
0
  6
CONTINUOUS
 62
     7
 10
365.33345771262429
 20
342.77403928468271
 30
0.0
  0
VERTEX
  5
AD1
  8
0
  6
CONTINUOUS
 62
     7
 10
366.2835923653783
 20
338.02336602092328
 30
0.0
  0
VERTEX
  5
AD2
  8
0
  6
CONTINUOUS
 62
     7
 10
370.51167581482332
 20
338.02324487869367
 30
0.0
 42
0.4415990816760094
  0
VERTEX
  5
AD3
  8
0
  6
CONTINUOUS
 62
     7
 10
386.71133714542702
 20
351.27777086351853
 30
0.0
 42
0.0742656513288972
  0
VERTEX
  5
AD4
  8
0
  6
CONTINUOUS
 62
     7
 10
386.63988091327519
 20
356.50342649013328
 30
0.0
 42
0.4236124115607252
  0
SEQEND
  5
AD5
  8
0
  6
CONTINUOUS
 62
     7
  0
POLYLINE
  5
78C
  8
0
  6
CONTINUOUS
 62
     7
 66
     1
 10
0.0
 20
0.0
 30
0.0
 70
     1
  0
VERTEX
  5
AD6
  8
0
  6
CONTINUOUS
 62
     7
 10
270.85911548917829
 20
291.86832776439041
 30
0.0
 42
-0.3334002948992754
  0
VERTEX
  5
AD7
  8
0
  6
CONTINUOUS
 62
     7
 10
270.85862684688072
 20
286.16674345681167
 30
0.0
 42
-0.2392353421260796
  0
VERTEX
  5
AD8
  8
0
  6
CONTINUOUS
 62
     7
 10
235.6331024359115
 20
268.82740015522182
 30
0.0
  0
VERTEX
  5
AD9
  8
0
  6
CONTINUOUS
 62
     7
 10
233.73283669341069
 20
268.82764125189169
 30
0.0
  0
VERTEX
  5
ADA
  8
0
  6
CONTINUOUS
 62
     7
 10
233.73282006605771
 20
278.32898777940858
 30
0.0
  0
VERTEX
  5
ADB
  8
0
  6
CONTINUOUS
 62
     7
 10
217.10546364289081
 20
278.32895690003721
 30
0.0
  0
VERTEX
  5
ADC
  8
0
  6
CONTINUOUS
 62
     7
 10
217.10545057853781
 20
285.8112981698377
 30
0.0
  0
VERTEX
  5
ADD
  8
0
  6
CONTINUOUS
 62
     7
 10
233.7328010633592
 20
285.8112981698377
 30
0.0
 42
0.9999999999999998
  0
VERTEX
  5
ADE
  8
0
  6
CONTINUOUS
 62
     7
 10
233.7328010633592
 20
292.22470707591492
 30
0.0
  0
VERTEX
  5
ADF
  8
0
  6
CONTINUOUS
 62
     7
 10
217.1054387018539
 20
292.22470707591492
 30
0.0
  0
VERTEX
  5
AE0
  8
0
  6
CONTINUOUS
 62
     7
 10
217.1054256375009
 20
299.70698658696529
 30
0.0
  0
VERTEX
  5
AE1
  8
0
  6
CONTINUOUS
 62
     7
 10
224.8490230574335
 20
299.70700083898191
 30
0.0
  0
VERTEX
  5
AE2
  8
0
  6
CONTINUOUS
 62
     7
 10
233.73278206066789
 20
299.70701746633682
 30
0.0
  0
VERTEX
  5
AE3
  8
0
  6
CONTINUOUS
 62
     7
 10
233.73276543331491
 20
309.1846106275479
 30
0.0
  0
VERTEX
  5
AE4
  8
0
  6
CONTINUOUS
 62
     7
 10
235.6093076252964
 20
309.18461300291528
 30
0.0
 42
-0.2364101128401771
  0
SEQEND
  5
AE5
  8
0
  6
CONTINUOUS
 62
     7
  0
POLYLINE
  5
78D
  8
0
  6
CONTINUOUS
 62
     7
 66
     1
 10
0.0
 20
0.0
 30
0.0
 70
     1
  0
VERTEX
  5
AE6
  8
0
  6
CONTINUOUS
 62
     7
 10
327.6095789078845
 20
363.67652348041889
 30
0.0
 42
-0.4143589997457119
  0
VERTEX
  5
AE7
  8
0
  6
CONTINUOUS
 62
     7
 10
322.8552268067524
 20
358.930586057857
 30
0.0
  0
VERTEX
  5
AE8
  8
0
  6
CONTINUOUS
 62
     7
 10
272.80608270273842
 20
358.9795897621371
 30
0.0
  0
VERTEX
  5
AE9
  8
0
  6
CONTINUOUS
 62
     7
 10
208.83961628866561
 20
359.04458847384012
 30
0.0
 42
0.1732907895879221
  0
VERTEX
  5
AEA
  8
0
  6
CONTINUOUS
 62
     7
 10
186.3625317786736
 20
329.58839082148188
 30
0.0
 42
-0.393798352010704
  0
VERTEX
  5
AEB
  8
0
  6
CONTINUOUS
 62
     7
 10
147.07602763935029
 20
306.27730873780462
 30
0.0
 42
-0.3358901431850913
  0
VERTEX
  5
AEC
  8
0
  6
CONTINUOUS
 62
     7
 10
108.19784206577781
 20
361.47267997324519
 30
0.0
  0
VERTEX
  5
AED
  8
0
  6
CONTINUOUS
 62
     7
 10
108.2133803072301
 20
377.31640113616049
 30
0.0
  0
VERTEX
  5
AEE
  8
0
  6
CONTINUOUS
 62
     7
 10
231.7328412547522
 20
377.19161757688022
 30
0.0
  0
VERTEX
  5
AEF
  8
0
  6
CONTINUOUS
 62
     7
 10
231.73812756642479
 20
383.6050953677186
 30
0.0
  0
VERTEX
  5
AF0
  8
0
  6
CONTINUOUS
 62
     7
 10
110.70525534468651
 20
383.7273883869093
 30
0.0
 42
-0.056731010418933
  0
VERTEX
  5
AF1
  8
0
  6
CONTINUOUS
 62
     7
 10
117.78145713685259
 20
394.33843831087688
 30
0.0
 42
-0.0452969565410013
  0
VERTEX
  5
AF2
  8
0
  6
CONTINUOUS
 62
     7
 10
122.9175010551716
 20
400.17563030080231
 30
0.0
 42
-0.1612300296872511
  0
VERTEX
  5
AF3
  8
0
  6
CONTINUOUS
 62
     7
 10
140.00453503654171
 20
409.56471942056481
 30
0.0
  0
VERTEX
  5
AF4
  8
0
  6
CONTINUOUS
 62
     7
 10
159.74481919982099
 20
410.32877026262389
 30
0.0
  0
VERTEX
  5
AF5
  8
0
  6
CONTINUOUS
 62
     7
 10
156.73828204643539
 20
420.7114864381528
 30
0.0
 42
-0.8400036943137736
  0
VERTEX
  5
AF6
  8
0
  6
CONTINUOUS
 62
     7
 10
140.08013166714409
 20
454.25381696463768
 30
0.0
 42
-0.8381031102081525
  0
VERTEX
  5
AF7
  8
0
  6
CONTINUOUS
 62
     7
 10
167.19692447230949
 20
428.44631100441978
 30
0.0
  0
VERTEX
  5
AF8
  8
0
  6
CONTINUOUS
 62
     7
 10
179.01780148546999
 20
419.50113410004082
 30
0.0
 42
-0.0485240059754932
  0
VERTEX
  5
AF9
  8
0
  6
CONTINUOUS
 62
     7
 10
255.3599202105197
 20
442.01493652307732
 30
0.0
 42
-0.0574900146128921
  0
VERTEX
  5
AFA
  8
0
  6
CONTINUOUS
 62
     7
 10
282.60869659299527
 20
445.28988573572133
 30
0.0
  0
VERTEX
  5
AFB
  8
0
  6
CONTINUOUS
 62
     7
 10
365.36435609153159
 20
445.2069140560252
 30
0.0
  0
VERTEX
  5
AFC
  8
0
  6
CONTINUOUS
 62
     7
 10
365.37199873714599
 20
451.62040372355108
 30
0.0
  0
VERTEX
  5
AFD
  8
0
  6
CONTINUOUS
 62
     7
 10
313.18042172751478
 20
451.67194377778827
 30
0.0
 42
-0.3517749651060295
  0
VERTEX
  5
AFE
  8
0
  6
CONTINUOUS
 62
     7
 10
327.71498249963952
 20
466.74115775828972
 30
0.0
  0
VERTEX
  5
AFF
  8
0
  6
CONTINUOUS
 62
     7
 10
409.61547371952662
 20
466.65954950355803
 30
0.0
  0
VERTEX
  5
B00
  8
0
  6
CONTINUOUS
 62
     7
 10
409.56087541936898
 20
412.02593403408349
 30
0.0
  0
VERTEX
  5
B01
  8
0
  6
CONTINUOUS
 62
     7
 10
415.97435439787841
 20
412.02065959909481
 30
0.0
  0
VERTEX
  5
B02
  8
0
  6
CONTINUOUS
 62
     7
 10
416.0289633870434
 20
466.65189735659618
 30
0.0
  0
VERTEX
  5
B03
  8
0
  6
CONTINUOUS
 62
     7
 10
435.98311379298138
 20
466.63247445052548
 30
0.0
 42
-0.4142268413633822
  0
VERTEX
  5
B04
  8
0
  6
CONTINUOUS
 62
     7
 10
438.35450420590678
 20
464.25300763626541
 30
0.0
  0
VERTEX
  5
B05
  8
0
  6
CONTINUOUS
 62
     7
 10
438.34676413254232
 20
456.86668815601303
 30
0.0
 42
-0.277258000097612
  0
VERTEX
  5
B06
  8
0
  6
CONTINUOUS
 62
     7
 10
505.89298952437281
 20
401.54852486708108
 30
0.0
  0
VERTEX
  5
B07
  8
0
  6
CONTINUOUS
 62
     7
 10
514.23106040563471
 20
401.5407169527661
 30
0.0
 42
-0.4142354281747921
  0
VERTEX
  5
B08
  8
0
  6
CONTINUOUS
 62
     7
 10
518.97819153826458
 20
396.78601452527619
 30
0.0
  0
VERTEX
  5
B09
  8
0
  6
CONTINUOUS
 62
     7
 10
518.97453636032333
 20
394.05466321433602
 30
0.0
  0
VERTEX
  5
B0A
  8
0
  6
CONTINUOUS
 62
     7
 10
507.09768455201441
 20
394.06725487382568
 30
0.0
  0
VERTEX
  5
B0B
  8
0
  6
CONTINUOUS
 62
     7
 10
507.0923816129889
 20
387.65377708298371
 30
0.0
  0
VERTEX
  5
B0C
  8
0
  6
CONTINUOUS
 62
     7
 10
518.96915028451065
 20
387.64118423583022
 30
0.0
  0
VERTEX
  5
B0D
  8
0
  6
CONTINUOUS
 62
     7
 10
518.96559868387146
 20
384.90912197703619
 30
0.0
 42
-0.4143381139938601
  0
VERTEX
  5
B0E
  8
0
  6
CONTINUOUS
 62
     7
 10
514.20886060159137
 20
380.16234917824107
 30
0.0
  0
VERTEX
  5
B0F
  8
0
  6
CONTINUOUS
 62
     7
 10
507.0851120378083
 20
380.17133367502538
 30
0.0
 42
-0.2553280730614374
  0
VERTEX
  5
B10
  8
0
  6
CONTINUOUS
 62
     7
 10
489.20819878917422
 20
367.62319036249392
 30
0.0
  0
VERTEX
  5
B11
  8
0
  6
CONTINUOUS
 62
     7
 10
409.77806907498052
 20
367.7026619928929
 30
0.0
  0
VERTEX
  5
B12
  8
0
  6
CONTINUOUS
 62
     7
 10
393.68316929888721
 20
401.66295789671489
 30
0.0
  0
VERTEX
  5
B13
  8
0
  6
CONTINUOUS
 62
     7
 10
334.06361534894131
 20
401.72238169323282
 30
0.0
  0
VERTEX
  5
B14
  8
0
  6
CONTINUOUS
 62
     7
 10
334.07832038557717
 20
417.15994480670082
 30
0.0
 42
0.4146989766108713
  0
VERTEX
  5
B15
  8
0
  6
CONTINUOUS
 62
     7
 10
330.87168725804258
 20
420.37169235294448
 30
0.0
 42
0.4140153205453104
  0
VERTEX
  5
B16
  8
0
  6
CONTINUOUS
 62
     7
 10
327.66484407215648
 20
417.1672220318323
 30
0.0
  0
VERTEX
  5
B17
  8
0
  6
CONTINUOUS
 62
     7
 10
327.60957987278562
 20
363.67652340993482
 30
0.0
  0
SEQEND
  5
B18
  8
0
  6
CONTINUOUS
 62
     7
  0
POLYLINE
  5
78E
  8
0
  6
CONTINUOUS
 62
     7
 66
     1
 10
0.0
 20
0.0
 30
0.0
 70
     1
  0
VERTEX
  5
B19
  8
0
  6
CONTINUOUS
 62
     7
 10
372.74030170651707
 20
592.95426436807065
 30
0.0
 42
-0.3993469434590417
  0
VERTEX
  5
B1A
  8
0
  6
CONTINUOUS
 62
     7
 10
375.11513139997442
 20
595.21156079899629
 30
0.0
  0
VERTEX
  5
B1B
  8
0
  6
CONTINUOUS
 62
     7
 10
404.67397541210261
 20
595.21580436239674
 30
0.0
  0
VERTEX
  5
B1C
  8
0
  6
CONTINUOUS
 62
     7
 10
428.37033442720889
 20
595.21949323140132
 30
0.0
 42
-0.4142135688963883
  0
VERTEX
  5
B1D
  8
0
  6
CONTINUOUS
 62
     7
 10
430.74603961970018
 20
592.84452754012273
 30
0.0
  0
VERTEX
  5
B1E
  8
0
  6
CONTINUOUS
 62
     7
 10
430.75375949252521
 20
543.24749830714791
 30
0.0
 42
0.9999999999999891
  0
VERTEX
  5
B1F
  8
0
  6
CONTINUOUS
 62
     7
 10
437.16716835980509
 20
543.24849596661443
 30
0.0
  0
VERTEX
  5
B20
  8
0
  6
CONTINUOUS
 62
     7
 10
437.15944858332108
 20
592.84552565243746
 30
0.0
 42
-0.4142135645124326
  0
VERTEX
  5
B21
  8
0
  6
CONTINUOUS
 62
     7
 10
439.5344142938356
 20
595.22123079015898
 30
0.0
  0
VERTEX
  5
B22
  8
0
  6
CONTINUOUS
 62
     7
 10
494.87976019075171
 20
595.22984494845332
 30
0.0
 42
-0.4142135601565057
  0
VERTEX
  5
B23
  8
0
  6
CONTINUOUS
 62
     7
 10
497.25546531236068
 20
592.85487925716552
 30
0.0
  0
VERTEX
  5
B24
  8
0
  6
CONTINUOUS
 62
     7
 10
497.26318518519292
 20
543.25785002418695
 30
0.0
 42
0.9995768796678536
  0
VERTEX
  5
B25
  8
0
  6
CONTINUOUS
 62
     7
 10
503.67659332600482
 20
543.25613346592206
 30
0.0
  0
VERTEX
  5
B26
  8
0
  6
CONTINUOUS
 62
     7
 10
503.66887424721239
 20
592.85587653924256
 30
0.0
 42
-0.4142140020009628
  0
VERTEX
  5
B27
  8
0
  6
CONTINUOUS
 62
     7
 10
506.04384032056441
 20
595.23158250743472
 30
0.0
  0
VERTEX
  5
B28
  8
0
  6
CONTINUOUS
 62
     7
 10
524.0512664959042
 20
595.23438515107773
 30
0.0
 42
-0.0106077997753309
  0
VERTEX
  5
B29
  8
0
  6
CONTINUOUS
 62
     7
 10
526.28404910572306
 20
595.18724126852055
 30
0.0
 42
-0.9879675048200954
  0
VERTEX
  5
B2A
  8
0
  6
CONTINUOUS
 62
     7
 10
525.01500232406568
 20
489.0800847832561
 30
0.0
  0
VERTEX
  5
B2B
  8
0
  6
CONTINUOUS
 62
     7
 10
459.19497142118229
 20
489.07049498609013
 30
0.0
  0
VERTEX
  5
B2C
  8
0
  6
CONTINUOUS
 62
     7
 10
147.21823670171759
 20
489.02193835057358
 30
0.0
 42
-0.9877136379210793
  0
VERTEX
  5
B2D
  8
0
  6
CONTINUOUS
 62
     7
 10
148.50697934056549
 20
595.17687603116235
 30
0.0
  0
VERTEX
  5
B2E
  8
0
  6
CONTINUOUS
 62
     7
 10
167.5109869200914
 20
595.17889161777384
 30
0.0
 42
-0.4141990382115825
  0
VERTEX
  5
B2F
  8
0
  6
CONTINUOUS
 62
     7
 10
169.88657426954339
 20
592.80392591107557
 30
0.0
  0
VERTEX
  5
B30
  8
0
  6
CONTINUOUS
 62
     7
 10
169.89429418123649
 20
543.20689737189775
 30
0.0
 42
0.9999999999999998
  0
VERTEX
  5
B31
  8
0
  6
CONTINUOUS
 62
     7
 10
176.31007834624501
 20
543.20789587987019
 30
0.0
  0
VERTEX
  5
B32
  8
0
  6
CONTINUOUS
 62
     7
 10
176.3023585698119
 20
592.80492402337404
 30
0.0
 42
-0.4142135631535531
  0
VERTEX
  5
B33
  8
0
  6
CONTINUOUS
 62
     7
 10
178.6773242692816
 20
595.18062916111001
 30
0.0
  0
VERTEX
  5
B34
  8
0
  6
CONTINUOUS
 62
     7
 10
229.83970033448171
 20
595.1885925059413
 30
0.0
 42
-0.414214002000951
  0
VERTEX
  5
B35
  8
0
  6
CONTINUOUS
 62
     7
 10
232.2154074903392
 20
592.81362524511133
 30
0.0
  0
VERTEX
  5
B36
  8
0
  6
CONTINUOUS
 62
     7
 10
232.22312617526219
 20
543.21659755290239
 30
0.0
 42
0.9999999999999996
  0
VERTEX
  5
B37
  8
0
  6
CONTINUOUS
 62
     7
 10
238.63653504253489
 20
543.21759521237618
 30
0.0
  0
VERTEX
  5
B38
  8
0
  6
CONTINUOUS
 62
     7
 10
238.6288152660581
 20
592.8146248981883
 30
0.0
 42
-0.4142135625825318
  0
VERTEX
  5
B39
  8
0
  6
CONTINUOUS
 62
     7
 10
241.00378096091481
 20
595.19033003591346
 30
0.0
  0
VERTEX
  5
B3A
  8
0
  6
CONTINUOUS
 62
     7
 10
294.18748698245508
 20
595.19860809997226
 30
0.0
 42
-0.3996593850142591
  0
VERTEX
  5
B3B
  8
0
  6
CONTINUOUS
 62
     7
 10
296.56408979538719
 20
592.94238275191492
 30
0.0
 42
0.9487768701030043
  0
SEQEND
  5
B3C
  8
0
  6
CONTINUOUS
 62
     7
  0
POLYLINE
  5
78F
  8
0
  6
CONTINUOUS
 62
     7
 66
     1
 10
0.0
 20
0.0
 30
0.0
 70
     1
  0
VERTEX
  5
B3D
  8
0
  6
CONTINUOUS
 62
     7
 10
627.17576442179586
 20
528.91680090971204
 30
0.0
  0
VERTEX
  5
B3E
  8
0
  6
CONTINUOUS
 62
     7
 10
617.03114634646226
 20
495.54273307677249
 30
0.0
  0
VERTEX
  5
B3F
  8
0
  6
CONTINUOUS
 62
     7
 10
606.88689501085355
 20
462.16852002512678
 30
0.0
 42
0.492679501600013
  0
VERTEX
  5
B40
  8
0
  6
CONTINUOUS
 62
     7
 10
615.28134508190305
 20
448.86705465056178
 30
0.0
  0
VERTEX
  5
B41
  8
0
  6
CONTINUOUS
 62
     7
 10
622.09396140935314
 20
462.21349048060438
 30
0.0
  0
VERTEX
  5
B42
  8
0
  6
CONTINUOUS
 62
     7
 10
659.86319392684709
 20
483.23075522755238
 30
0.0
  0
VERTEX
  5
B43
  8
0
  6
CONTINUOUS
 62
     7
 10
704.59744077374671
 20
480.03531343315632
 30
0.0
  0
VERTEX
  5
B44
  8
0
  6
CONTINUOUS
 62
     7
 10
717.11987344854595
 20
456.2187595969317
 30
0.0
  0
VERTEX
  5
B45
  8
0
  6
CONTINUOUS
 62
     7
 10
710.06417001679245
 20
442.39937305335292
 30
0.0
 42
0.3791489322321152
  0
VERTEX
  5
B46
  8
0
  6
CONTINUOUS
 62
     7
 10
730.23754199979328
 20
450.9404390239232
 30
0.0
  0
VERTEX
  5
B47
  8
0
  6
CONTINUOUS
 62
     7
 10
757.96771613957571
 20
491.6925981702916
 30
0.0
 42
0.0700960567840546
  0
VERTEX
  5
B48
  8
0
  6
CONTINUOUS
 62
     7
 10
765.22125654321462
 20
501.18110143008562
 30
0.0
 42
0.0275268965132225
  0
VERTEX
  5
B49
  8
0
  6
CONTINUOUS
 62
     7
 10
766.85498034909142
 20
504.184879331091
 30
0.0
 42
0.3758030255839944
  0
VERTEX
  5
B4A
  8
0
  6
CONTINUOUS
 62
     7
 10
759.5576841782331
 20
536.04599807209161
 30
0.0
 42
0.0799489795001586
  0
VERTEX
  5
B4B
  8
0
  6
CONTINUOUS
 62
     7
 10
752.76501992183512
 20
528.83570725698701
 30
0.0
  0
VERTEX
  5
B4C
  8
0
  6
CONTINUOUS
 62
     7
 10
748.30805530182442
 20
514.17305410938195
 30
0.0
  0
VERTEX
  5
B4D
  8
0
  6
CONTINUOUS
 62
     7
 10
734.60142655163691
 20
484.42491631799737
 30
0.0
 42
-0.4162933463743184
  0
VERTEX
  5
B4E
  8
0
  6
CONTINUOUS
 62
     7
 10
730.37469606082766
 20
482.86466907097201
 30
0.0
 42
-0.4162814190302699
  0
VERTEX
  5
B4F
  8
0
  6
CONTINUOUS
 62
     7
 10
728.82398268011639
 20
487.11183877213989
 30
0.0
  0
VERTEX
  5
B50
  8
0
  6
CONTINUOUS
 62
     7
 10
741.02375178536204
 20
515.97586335287997
 30
0.0
  0
VERTEX
  5
B51
  8
0
  6
CONTINUOUS
 62
     7
 10
742.42578504413723
 20
520.58831680825278
 30
0.0
 42
0.5444850763899422
  0
VERTEX
  5
B52
  8
0
  6
CONTINUOUS
 62
     7
 10
734.54033952630743
 20
521.77829434973501
 30
0.0
  0
VERTEX
  5
B53
  8
0
  6
CONTINUOUS
 62
     7
 10
710.26212338308869
 20
498.67115237276079
 30
0.0
  0
VERTEX
  5
B54
  8
0
  6
CONTINUOUS
 62
     7
 10
686.35169030483121
 20
500.37800514234362
 30
0.0
  0
VERTEX
  5
B55
  8
0
  6
CONTINUOUS
 62
     7
 10
665.52787534852723
 20
501.86659535482971
 30
0.0
  0
VERTEX
  5
B56
  8
0
  6
CONTINUOUS
 62
     7
 10
660.91106846917864
 20
516.65127301583186
 30
0.0
 42
0.4486302867831968
  0
VERTEX
  5
B57
  8
0
  6
CONTINUOUS
 62
     7
 10
654.43328806110549
 20
519.56463062658622
 30
0.0
  0
VERTEX
  5
B58
  8
0
  6
CONTINUOUS
 62
     7
 10
636.26198547466083
 20
488.94970946512512
 30
0.0
 42
-0.4385290155400592
  0
VERTEX
  5
B59
  8
0
  6
CONTINUOUS
 62
     7
 10
631.9723976253099
 20
487.12985405560181
 30
0.0
 42
-0.4385048493162308
  0
VERTEX
  5
B5A
  8
0
  6
CONTINUOUS
 62
     7
 10
630.52086280226831
 20
491.54876452034472
 30
0.0
  0
VERTEX
  5
B5B
  8
0
  6
CONTINUOUS
 62
     7
 10
630.37378869860004
 20
491.2272689907021
 30
0.0
  0
VERTEX
  5
B5C
  8
0
  6
CONTINUOUS
 62
     7
 10
639.74211993774395
 20
511.64932069675888
 30
0.0
  0
VERTEX
  5
B5D
  8
0
  6
CONTINUOUS
 62
     7
 10
652.03611991417165
 20
530.86980882176431
 30
0.0
 42
0.1415119864733541
  0
VERTEX
  5
B5E
  8
0
  6
CONTINUOUS
 62
     7
 10
651.57109640482849
 20
544.81325463795827
 30
0.0
 42
0.309878945594805
  0
SEQEND
  5
B5F
  8
0
  6
CONTINUOUS
 62
     7
  0
POLYLINE
  5
790
  8
0
  6
CONTINUOUS
 62
     7
 66
     1
 10
0.0
 20
0.0
 30
0.0
 70
     1
  0
VERTEX
  5
B60
  8
0
  6
CONTINUOUS
 62
     7
 10
699.23018339447481
 20
231.55373148368739
 30
0.0
 42
0.4385663485422049
  0
VERTEX
  5
B61
  8
0
  6
CONTINUOUS
 62
     7
 10
703.28977597600351
 20
233.84167078890101
 30
0.0
  0
VERTEX
  5
B62
  8
0
  6
CONTINUOUS
 62
     7
 10
717.92411477250596
 20
266.2963411439323
 30
0.0
 42
-0.4485976212438811
  0
VERTEX
  5
B63
  8
0
  6
CONTINUOUS
 62
     7
 10
724.68680805309305
 20
264.1259987080212
 30
0.0
  0
VERTEX
  5
B64
  8
0
  6
CONTINUOUS
 62
     7
 10
730.92793450965291
 20
249.9497510373221
 30
0.0
  0
VERTEX
  5
B65
  8
0
  6
CONTINUOUS
 62
     7
 10
751.78761586143264
 20
250.79878542467671
 30
0.0
  0
VERTEX
  5
B66
  8
0
  6
CONTINUOUS
 62
     7
 10
775.73896530083766
 20
251.77603692042069
 30
0.0
  0
VERTEX
  5
B67
  8
0
  6
CONTINUOUS
 62
     7
 10
797.28137058483298
 20
277.45282125264021
 30
0.0
 42
-0.5444843289757629
  0
VERTEX
  5
B68
  8
0
  6
CONTINUOUS
 62
     7
 10
805.25041603470345
 20
277.15196009664402
 30
0.0
  0
VERTEX
  5
B69
  8
0
  6
CONTINUOUS
 62
     7
 10
804.37288710277244
 20
272.4116682074054
 30
0.0
  0
VERTEX
  5
B6A
  8
0
  6
CONTINUOUS
 62
     7
 10
795.47687915723691
 20
242.36460925050051
 30
0.0
 42
0.4162994915922579
  0
VERTEX
  5
B6B
  8
0
  6
CONTINUOUS
 62
     7
 10
797.49289540566861
 20
238.31737665865691
 30
0.0
 42
0.4162914513817034
  0
VERTEX
  5
B6C
  8
0
  6
CONTINUOUS
 62
     7
 10
801.51855853180484
 20
240.34062362639631
 30
0.0
  0
VERTEX
  5
B6D
  8
0
  6
CONTINUOUS
 62
     7
 10
811.81308752538644
 20
271.4346150522743
 30
0.0
  0
VERTEX
  5
B6E
  8
0
  6
CONTINUOUS
 62
     7
 10
814.60268753101445
 20
286.50365398179201
 30
0.0
 42
-0.079949002267579
  0
VERTEX
  5
B6F
  8
0
  6
CONTINUOUS
 62
     7
 10
820.54658639154695
 20
294.42821912831818
 30
0.0
 42
-0.3758030622454039
  0
VERTEX
  5
B70
  8
0
  6
CONTINUOUS
 62
     7
 10
831.36048503012171
 20
263.58277741978418
 30
0.0
 42
-0.027527067462029
  0
VERTEX
  5
B71
  8
0
  6
CONTINUOUS
 62
     7
 10
830.07284413807974
 20
260.41515065894242
 30
0.0
 42
-0.0700959087797252
  0
VERTEX
  5
B72
  8
0
  6
CONTINUOUS
 62
     7
 10
823.92569686242678
 20
250.1751550265235
 30
0.0
  0
VERTEX
  5
B73
  8
0
  6
CONTINUOUS
 62
     7
 10
800.92585641508947
 20
206.5780406617159
 30
0.0
 42
-0.3791489457289103
  0
VERTEX
  5
B74
  8
0
  6
CONTINUOUS
 62
     7
 10
781.83394480349853
 20
195.83496467426991
 30
0.0
  0
VERTEX
  5
B75
  8
0
  6
CONTINUOUS
 62
     7
 10
787.30027501563188
 20
210.35659015834429
 30
0.0
  0
VERTEX
  5
B76
  8
0
  6
CONTINUOUS
 62
     7
 10
772.19345708265064
 20
232.62368696854901
 30
0.0
  0
VERTEX
  5
B77
  8
0
  6
CONTINUOUS
 62
     7
 10
727.38242629145861
 20
230.79740108545411
 30
0.0
  0
VERTEX
  5
B78
  8
0
  6
CONTINUOUS
 62
     7
 10
692.19993774142665
 20
205.6889812289246
 30
0.0
  0
VERTEX
  5
B79
  8
0
  6
CONTINUOUS
 62
     7
 10
686.92229006911111
 20
191.66451977252109
 30
0.0
 42
-0.4926799975113756
  0
VERTEX
  5
B7A
  8
0
  6
CONTINUOUS
 62
     7
 10
677.09325520262973
 20
203.94402093376269
 30
0.0
  0
VERTEX
  5
B7B
  8
0
  6
CONTINUOUS
 62
     7
 10
683.44235780774216
 20
238.2431716724677
 30
0.0
  0
VERTEX
  5
B7C
  8
0
  6
CONTINUOUS
 62
     7
 10
689.79184362502735
 20
272.54222521158232
 30
0.0
 42
-0.3098790199315096
  0
VERTEX
  5
B7D
  8
0
  6
CONTINUOUS
 62
     7
 10
712.25684544055002
 20
291.06662994800348
 30
0.0
 42
-0.1415120054671276
  0
VERTEX
  5
B7E
  8
0
  6
CONTINUOUS
 62
     7
 10
714.27795528061142
 20
277.2626054151205
 30
0.0
  0
VERTEX
  5
B7F
  8
0
  6
CONTINUOUS
 62
     7
 10
704.21006731280966
 20
256.78805778477181
 30
0.0
  0
VERTEX
  5
B80
  8
0
  6
CONTINUOUS
 62
     7
 10
697.18384768440774
 20
235.44659402995779
 30
0.0
  0
VERTEX
  5
B81
  8
0
  6
CONTINUOUS
 62
     7
 10
697.29405437099365
 20
235.78252186397731
 30
0.0
 42
0.4384680575380611
  0
SEQEND
  5
B82
  8
0
  6
CONTINUOUS
 62
     7
  0
POLYLINE
  5
791
  8
0
  6
CONTINUOUS
 62
     7
 66
     1
 10
0.0
 20
0.0
 30
0.0
 70
     1
  0
VERTEX
  5
B83
  8
0
  6
CONTINUOUS
 62
     7
 10
789.82090877356131
 20
423.42341426535847
 30
0.0
 42
0.3758032363480992
  0
VERTEX
  5
B84
  8
0
  6
CONTINUOUS
 62
     7
 10
780.14243957799215
 20
454.64375306299002
 30
0.0
 42
0.0799490127045752
  0
VERTEX
  5
B85
  8
0
  6
CONTINUOUS
 62
     7
 10
773.91267193603005
 20
446.94189147673569
 30
0.0
  0
VERTEX
  5
B86
  8
0
  6
CONTINUOUS
 62
     7
 10
770.57378035512545
 20
431.98496600463648
 30
0.0
  0
VERTEX
  5
B87
  8
0
  6
CONTINUOUS
 62
     7
 10
759.14892887779024
 20
401.28848718248082
 30
0.0
 42
-0.4163173898787504
  0
VERTEX
  5
B88
  8
0
  6
CONTINUOUS
 62
     7
 10
755.0518083175939
 20
399.41368655697812
 30
0.0
 42
-0.4162909956747045
  0
VERTEX
  5
B89
  8
0
  6
CONTINUOUS
 62
     7
 10
753.18525228826365
 20
403.53191357841928
 30
0.0
  0
VERTEX
  5
B8A
  8
0
  6
CONTINUOUS
 62
     7
 10
763.17429439004809
 20
433.23349519575999
 30
0.0
  0
VERTEX
  5
B8B
  8
0
  6
CONTINUOUS
 62
     7
 10
764.22461463544641
 20
437.93851729922602
 30
0.0
 42
0.5444852359519011
  0
VERTEX
  5
B8C
  8
0
  6
CONTINUOUS
 62
     7
 10
756.271897731016
 20
438.53064197260568
 30
0.0
  0
VERTEX
  5
B8D
  8
0
  6
CONTINUOUS
 62
     7
 10
733.80477358928511
 20
413.65897072596641
 30
0.0
  0
VERTEX
  5
B8E
  8
0
  6
CONTINUOUS
 62
     7
 10
709.83370648049629
 20
413.55840491131312
 30
0.0
  0
VERTEX
  5
B8F
  8
0
  6
CONTINUOUS
 62
     7
 10
688.95692983097433
 20
413.47289279256432
 30
0.0
  0
VERTEX
  5
B90
  8
0
  6
CONTINUOUS
 62
     7
 10
683.23870120606625
 20
427.86737528764928
 30
0.0
 42
0.448635045674036
  0
VERTEX
  5
B91
  8
0
  6
CONTINUOUS
 62
     7
 10
676.55969492553595
 20
430.28416620317512
 30
0.0
  0
VERTEX
  5
B92
  8
0
  6
CONTINUOUS
 62
     7
 10
660.74810270100897
 20
398.38646884961781
 30
0.0
 42
-0.4385297288528815
  0
VERTEX
  5
B93
  8
0
  6
CONTINUOUS
 62
     7
 10
656.60790929843824
 20
396.2484088992714
 30
0.0
 42
-0.438504724796328
  0
VERTEX
  5
B94
  8
0
  6
CONTINUOUS
 62
     7
 10
654.82737999830886
 20
400.5453182683267
 30
0.0
  0
VERTEX
  5
B95
  8
0
  6
CONTINUOUS
 62
     7
 10
654.70496040378384
 20
400.21364494657058
 30
0.0
  0
VERTEX
  5
B96
  8
0
  6
CONTINUOUS
 62
     7
 10
662.50705286361506
 20
421.2838416950234
 30
0.0
  0
VERTEX
  5
B97
  8
0
  6
CONTINUOUS
 62
     7
 10
673.31707255108813
 20
441.3764528529627
 30
0.0
 42
0.1415119916362251
  0
VERTEX
  5
B98
  8
0
  6
CONTINUOUS
 62
     7
 10
671.80220399426059
 20
455.245164104308
 30
0.0
 42
0.3098789040186397
  0
VERTEX
  5
B99
  8
0
  6
CONTINUOUS
 62
     7
 10
648.67469660027007
 20
437.55483465526231
 30
0.0
  0
VERTEX
  5
B9A
  8
0
  6
CONTINUOUS
 62
     7
 10
641.07495220126475
 20
403.51095305243138
 30
0.0
  0
VERTEX
  5
B9B
  8
0
  6
CONTINUOUS
 62
     7
 10
633.47558999225475
 20
369.46697944905827
 30
0.0
 42
0.4926801639705137
  0
VERTEX
  5
B9C
  8
0
  6
CONTINUOUS
 62
     7
 10
642.84891741650972
 20
356.83618725484848
 30
0.0
  0
VERTEX
  5
B9D
  8
0
  6
CONTINUOUS
 62
     7
 10
648.63598599835132
 20
370.6582338639983
 30
0.0
  0
VERTEX
  5
B9E
  8
0
  6
CONTINUOUS
 62
     7
 10
684.7132876109772
 20
394.46303572223587
 30
0.0
  0
VERTEX
  5
B9F
  8
0
  6
CONTINUOUS
 62
     7
 10
729.56113136928786
 20
394.64911365563421
 30
0.0
  0
VERTEX
  5
BA0
  8
0
  6
CONTINUOUS
 62
     7
 10
743.84341176159239
 20
371.84437840149258
 30
0.0
  0
VERTEX
  5
BA1
  8
0
  6
CONTINUOUS
 62
     7
 10
737.84960369190412
 20
357.5324027280148
 30
0.0
 42
0.3791490288474866
  0
VERTEX
  5
BA2
  8
0
  6
CONTINUOUS
 62
     7
 10
757.32167600884156
 20
367.56999844937491
 30
0.0
  0
VERTEX
  5
BA3
  8
0
  6
CONTINUOUS
 62
     7
 10
781.90070884229681
 20
410.29670404484199
 30
0.0
 42
0.0700961675747986
  0
VERTEX
  5
BA4
  8
0
  6
CONTINUOUS
 62
     7
 10
788.41829585218693
 20
420.30505259296291
 30
0.0
 42
0.027526616983453
  0
SEQEND
  5
BA5
  8
0
  6
CONTINUOUS
 62
     7
  0
POLYLINE
  5
792
  8
0
  6
CONTINUOUS
 62
     7
 66
     1
 10
0.0
 20
0.0
 30
0.0
 70
     1
  0
VERTEX
  5
BA6
  8
0
  6
CONTINUOUS
 62
     7
 10
578.32054453096669
 20
672.44562217348346
 30
0.0
 42
0.4142140136574155
  0
VERTEX
  5
BA7
  8
0
  6
CONTINUOUS
 62
     7
 10
526.56537301839296
 20
726.79713126962633
 30
0.0
 42
0.0124129397477091
  0
VERTEX
  5
BA8
  8
0
  6
CONTINUOUS
 62
     7
 10
523.95250825727453
 20
726.84424727367139
 30
0.0
  0
VERTEX
  5
BA9
  8
0
  6
CONTINUOUS
 62
     7
 10
503.92840946595419
 20
726.84112964263295
 30
0.0
  0
VERTEX
  5
BAA
  8
0
  6
CONTINUOUS
 62
     7
 10
503.93649863605418
 20
674.86876415516406
 30
0.0
 42
-0.9999999999999998
  0
VERTEX
  5
BAB
  8
0
  6
CONTINUOUS
 62
     7
 10
497.5230897687743
 20
674.8677664956939
 30
0.0
  0
VERTEX
  5
BAC
  8
0
  6
CONTINUOUS
 62
     7
 10
497.5150005598789
 20
726.84013081357796
 30
0.0
  0
VERTEX
  5
BAD
  8
0
  6
CONTINUOUS
 62
     7
 10
437.41898496096292
 20
726.83077792558834
 30
0.0
  0
VERTEX
  5
BAE
  8
0
  6
CONTINUOUS
 62
     7
 10
437.42707420241823
 20
674.85820324788426
 30
0.0
 42
-0.414285070235165
  0
VERTEX
  5
BAF
  8
0
  6
CONTINUOUS
 62
     7
 10
434.22575545180189
 20
671.64535725268615
 30
0.0
 42
-0.4141731610425021
  0
VERTEX
  5
BB0
  8
0
  6
CONTINUOUS
 62
     7
 10
431.01367606960588
 20
674.85209225182734
 30
0.0
  0
VERTEX
  5
BB1
  8
0
  6
CONTINUOUS
 62
     7
 10
430.91056852723148
 20
726.82692668008531
 30
0.0
 42
0.3974050712494113
  0
VERTEX
  5
BB2
  8
0
  6
CONTINUOUS
 62
     7
 10
377.87639965394368
 20
675.1820889457357
 30
0.0
 42
-0.4025373654506006
  0
VERTEX
  5
BB3
  8
0
  6
CONTINUOUS
 62
     7
 10
375.50283184200998
 20
672.90099848002137
 30
0.0
  0
VERTEX
  5
BB4
  8
0
  6
CONTINUOUS
 62
     7
 10
375.45484549553112
 20
672.90099135658602
 30
0.0
 42
-0.4142140020009517
  0
VERTEX
  5
BB5
  8
0
  6
CONTINUOUS
 62
     7
 10
373.0791394904536
 20
675.27595740686593
 30
0.0
  0
VERTEX
  5
BB6
  8
0
  6
CONTINUOUS
 62
     7
 10
373.0711833004043
 20
726.39320172494081
 30
0.0
  0
VERTEX
  5
BB7
  8
0
  6
CONTINUOUS
 62
     7
 10
296.82281090760262
 20
726.80889513686816
 30
0.0
  0
VERTEX
  5
BB8
  8
0
  6
CONTINUOUS
 62
     7
 10
296.83083357798199
 20
675.2640902334042
 30
0.0
 42
-0.4142140020009512
  0
VERTEX
  5
BB9
  8
0
  6
CONTINUOUS
 62
     7
 10
294.45586752770942
 20
672.88838422832657
 30
0.0
  0
VERTEX
  5
BBA
  8
0
  6
CONTINUOUS
 62
     7
 10
294.36105150456018
 20
672.88860704319632
 30
0.0
 42
-0.4028962721395004
  0
VERTEX
  5
BBB
  8
0
  6
CONTINUOUS
 62
     7
 10
291.98478295486899
 20
675.16864151727532
 30
0.0
 42
0.3974052038480762
  0
VERTEX
  5
BBC
  8
0
  6
CONTINUOUS
 62
     7
 10
238.93585718867141
 20
726.79667999852597
 30
0.0
  0
VERTEX
  5
BBD
  8
0
  6
CONTINUOUS
 62
     7
 10
238.92019417989101
 20
674.82751641233881
 30
0.0
 42
-1.0
  0
VERTEX
  5
BBE
  8
0
  6
CONTINUOUS
 62
     7
 10
232.48303194651999
 20
674.8265140244074
 30
0.0
  0
VERTEX
  5
BBF
  8
0
  6
CONTINUOUS
 62
     7
 10
232.47494273761731
 20
726.79887952995705
 30
0.0
  0
VERTEX
  5
BC0
  8
0
  6
CONTINUOUS
 62
     7
 10
176.55951961080609
 20
726.79017629653936
 30
0.0
  0
VERTEX
  5
BC1
  8
0
  6
CONTINUOUS
 62
     7
 10
176.5676087809133
 20
674.8178108090741
 30
0.0
 42
-0.9999999999999998
  0
VERTEX
  5
BC2
  8
0
  6
CONTINUOUS
 62
     7
 10
170.15419991363339
 20
674.81681314960395
 30
0.0
  0
VERTEX
  5
BC3
  8
0
  6
CONTINUOUS
 62
     7
 10
170.14611070473069
 20
726.78917746748812
 30
0.0
  0
VERTEX
  5
BC4
  8
0
  6
CONTINUOUS
 62
     7
 10
150.07452590259521
 20
726.78605390132896
 30
0.0
 42
0.4142140505261477
  0
VERTEX
  5
BC5
  8
0
  6
CONTINUOUS
 62
     7
 10
95.699242064018108
 20
675.00712850966192
 30
0.0
 42
0.4142140429906588
  0
VERTEX
  5
BC6
  8
0
  6
CONTINUOUS
 62
     7
 10
147.4781752201034
 20
620.6318548273648
 30
0.0
  0
VERTEX
  5
BC7
  8
0
  6
CONTINUOUS
 62
     7
 10
259.12611404483499
 20
620.64923160129001
 30
0.0
  0
VERTEX
  5
BC8
  8
0
  6
CONTINUOUS
 62
     7
 10
331.75678223786417
 20
620.66053701599219
 30
0.0
  0
VERTEX
  5
BC9
  8
0
  6
CONTINUOUS
 62
     7
 10
331.74908856135329
 20
670.09129203435805
 30
0.0
 42
-0.9995768313170339
  0
VERTEX
  5
BCA
  8
0
  6
CONTINUOUS
 62
     7
 10
338.16249581839838
 20
670.09500460795789
 30
0.0
  0
VERTEX
  5
BCB
  8
0
  6
CONTINUOUS
 62
     7
 10
338.17018995627041
 20
620.66153465737796
 30
0.0
  0
VERTEX
  5
BCC
  8
0
  6
CONTINUOUS
 62
     7
 10
434.9651565177428
 20
620.67660022996824
 30
0.0
  0
VERTEX
  5
BCD
  8
0
  6
CONTINUOUS
 62
     7
 10
523.96901305984818
 20
620.69045319210261
 30
0.0
 42
0.4142140420970254
  0
VERTEX
  5
BCE
  8
0
  6
CONTINUOUS
 62
     7
 10
578.32054510808848
 20
672.44562293449781
 30
0.0
  0
SEQEND
  5
BCF
  8
0
  6
CONTINUOUS
 62
     7
  0
ENDSEC
  0
EOF
