  0
SECTION
  2
HEADER
  9
$ACADVER
  1
AC1009
  9
$DWGCODEPAGE
  3
ansi_1252
  9
$INSBASE
 10
0.0
 20
0.0
 30
0.0
  9
$EXTMIN
 10
-105.2579850581232
 20
89.706355
 30
0.0
  9
$EXTMAX
 10
173.156593
 20
259.7265933677237
 30
0.0
  9
$LIMMIN
 10
0.0
 20
0.0
  9
$LIMMAX
 10
12.0
 20
9.0
  9
$ORTHOMODE
 70
     0
  9
$REGENMODE
 70
     1
  9
$FILLMODE
 70
     1
  9
$QTEXTMODE
 70
     0
  9
$MIRRTEXT
 70
     1
  9
$DRAGMODE
 70
     2
  9
$LTSCALE
 40
1.0
  9
$OSMODE
 70
    37
  9
$ATTMODE
 70
     1
  9
$TEXTSIZE
 40
0.2
  9
$TRACEWID
 40
0.05
  9
$TEXTSTYLE
  7
STANDARD
  9
$CLAYER
  8
0
  9
$CELTYPE
  6
BYBLOCK
  9
$CECOLOR
 62
   256
  9
$DIMSCALE
 40
1.0
  9
$DIMASZ
 40
0.18
  9
$DIMEXO
 40
0.0625
  9
$DIMDLI
 40
0.38
  9
$DIMRND
 40
0.0
  9
$DIMDLE
 40
0.0
  9
$DIMEXE
 40
0.18
  9
$DIMTP
 40
0.0
  9
$DIMTM
 40
0.0
  9
$DIMTXT
 40
0.18
  9
$DIMCEN
 40
0.09
  9
$DIMTSZ
 40
0.0
  9
$DIMTOL
 70
     0
  9
$DIMLIM
 70
     0
  9
$DIMTIH
 70
     1
  9
$DIMTOH
 70
     1
  9
$DIMSE1
 70
     0
  9
$DIMSE2
 70
     0
  9
$DIMTAD
 70
     0
  9
$DIMZIN
 70
     0
  9
$DIMBLK
  1

  9
$DIMASO
 70
     1
  9
$DIMSHO
 70
     1
  9
$DIMPOST
  1

  9
$DIMAPOST
  1

  9
$DIMALT
 70
     0
  9
$DIMALTD
 70
     2
  9
$DIMALTF
 40
25.4
  9
$DIMLFAC
 40
1.0
  9
$DIMTOFL
 70
     0
  9
$DIMTVP
 40
0.0
  9
$DIMTIX
 70
     0
  9
$DIMSOXD
 70
     0
  9
$DIMSAH
 70
     0
  9
$DIMBLK1
  1

  9
$DIMBLK2
  1

  9
$DIMSTYLE
  2
STANDARD
  9
$DIMCLRD
 70
     0
  9
$DIMCLRE
 70
     0
  9
$DIMCLRT
 70
     0
  9
$DIMTFAC
 40
1.0
  9
$DIMGAP
 40
0.09
  9
$LUNITS
 70
     2
  9
$LUPREC
 70
     4
  9
$SKETCHINC
 40
0.1
  9
$FILLETRAD
 40
0.5
  9
$AUNITS
 70
     0
  9
$AUPREC
 70
     0
  9
$MENU
  1
.
  9
$ELEVATION
 40
0.0
  9
$PELEVATION
 40
0.0
  9
$THICKNESS
 40
0.0
  9
$LIMCHECK
 70
     0
  9
$CHAMFERA
 40
0.5
  9
$CHAMFERB
 40
0.5
  9
$SKPOLY
 70
     0
  9
$TDCREATE
 40
2453353.550459155
  9
$TDUPDATE
 40
4910223.907063704
  9
$TDINDWG
 40
4895786.051922963
  9
$TDUSRTIMER
 40
4895786.051922963
  9
$USRTIMER
 70
     1
  9
$ANGBASE
 50
0.0
  9
$ANGDIR
 70
     0
  9
$PDMODE
 70
     0
  9
$PDSIZE
 40
0.0
  9
$PLINEWID
 40
0.0
  9
$COORDS
 70
     1
  9
$SPLFRAME
 70
     0
  9
$SPLINETYPE
 70
     6
  9
$SPLINESEGS
 70
     8
  9
$ATTDIA
 70
     0
  9
$ATTREQ
 70
     1
  9
$HANDLING
 70
     1
  9
$HANDSEED
  5
928
  9
$SURFTAB1
 70
     6
  9
$SURFTAB2
 70
     6
  9
$SURFTYPE
 70
     6
  9
$SURFU
 70
     6
  9
$SURFV
 70
     6
  9
$UCSNAME
  2

  9
$UCSORG
 10
0.0
 20
0.0
 30
0.0
  9
$UCSXDIR
 10
1.0
 20
0.0
 30
0.0
  9
$UCSYDIR
 10
0.0
 20
1.0
 30
0.0
  9
$PUCSNAME
  2

  9
$PUCSORG
 10
0.0
 20
0.0
 30
0.0
  9
$PUCSXDIR
 10
1.0
 20
0.0
 30
0.0
  9
$PUCSYDIR
 10
0.0
 20
1.0
 30
0.0
  9
$USERI1
 70
     0
  9
$USERI2
 70
     0
  9
$USERI3
 70
     0
  9
$USERI4
 70
     0
  9
$USERI5
 70
     0
  9
$USERR1
 40
0.0
  9
$USERR2
 40
0.0
  9
$USERR3
 40
0.0
  9
$USERR4
 40
0.0
  9
$USERR5
 40
0.0
  9
$WORLDVIEW
 70
     1
  9
$SHADEDGE
 70
     3
  9
$SHADEDIF
 70
    70
  9
$TILEMODE
 70
     1
  9
$MAXACTVP
 70
    64
  9
$PLIMCHECK
 70
     0
  9
$PEXTMIN
 10
0.0
 20
0.0
 30
0.0
  9
$PEXTMAX
 10
0.0
 20
0.0
 30
0.0
  9
$PLIMMIN
 10
0.0
 20
0.0
  9
$PLIMMAX
 10
0.0
 20
0.0
  9
$UNITMODE
 70
     0
  9
$VISRETAIN
 70
     1
  9
$PLINEGEN
 70
     0
  9
$PSLTSCALE
 70
     1
  0
ENDSEC
  0
SECTION
  2
TABLES
  0
TABLE
  2
VPORT
 70
     1
  0
VPORT
  2
*ACTIVE
 70
     0
 10
0.0
 20
0.0
 11
1.0
 21
1.0
 12
106.6652481807536
 22
171.5170156049114
 13
0.0
 23
0.0
 14
0.5
 24
0.5
 15
0.5
 25
0.5
 16
0.0
 26
0.0
 36
1.0
 17
0.0
 27
0.0
 37
0.0
 40
232.7854577625903
 41
1.972972972850329
 42
50.0
 43
0.0
 44
0.0
 50
0.0
 51
0.0
 71
    16
 72
   100
 73
     1
 74
     3
 75
     0
 76
     0
 77
     0
 78
     0
  0
ENDTAB
  0
TABLE
  2
LTYPE
 70
     1
  0
LTYPE
  2
CONTINUOUS
 70
     0
  3
Solid line
 72
    65
 73
     0
 40
0.0
  0
ENDTAB
  0
TABLE
  2
LAYER
 70
     2
  0
LAYER
  2
0
 70
     0
 62
     7
  6
CONTINUOUS
  0
LAYER
  2
LAYER_1
 70
     0
 62
     7
  6
CONTINUOUS
  0
ENDTAB
  0
TABLE
  2
STYLE
 70
     1
  0
STYLE
  2
STANDARD
 70
     0
 40
0.0
 41
1.0
 50
0.0
 71
     0
 42
0.2
  3
txt
  4

  0
ENDTAB
  0
TABLE
  2
VIEW
 70
     0
  0
ENDTAB
  0
TABLE
  2
UCS
 70
     0
  0
ENDTAB
  0
TABLE
  2
APPID
 70
     1
  0
APPID
  2
ACAD
 70
     0
  0
ENDTAB
  0
TABLE
  2
DIMSTYLE
 70
     1
  0
DIMSTYLE
  2
STANDARD
 70
     0
  3

  4

  5

  6

  7

 40
1.0
 41
0.18
 42
0.0625
 43
0.38
 44
0.18
 45
0.0
 46
0.0
 47
0.0
 48
0.0
140
0.18
141
0.09
142
0.0
143
25.4
144
1.0
145
0.0
146
1.0
147
0.09
 71
     0
 72
     0
 73
     1
 74
     1
 75
     0
 76
     0
 77
     0
 78
     0
170
     0
171
     2
172
     0
173
     0
174
     0
175
     0
176
     0
177
     0
178
     0
  0
ENDTAB
  0
ENDSEC
  0
SECTION
  2
BLOCKS
  0
BLOCK
  8
0
  2
$MODEL_SPACE
 70
     0
 10
0.0
 20
0.0
 30
0.0
  3
$MODEL_SPACE
  1

  0
ENDBLK
  5
21
  8
0
  0
BLOCK
 67
     1
  8
0
  2
$PAPER_SPACE
 70
     0
 10
0.0
 20
0.0
 30
0.0
  3
$PAPER_SPACE
  1

  0
ENDBLK
  5
76
 67
     1
  8
0
  0
ENDSEC
  0
SECTION
  2
ENTITIES
  0
LINE
  5
595
  8
LAYER_1
 62
     4
 10
166.7236061851388
 20
98.36207436772368
 30
0.0
 11
165.6139921851388
 21
101.7468283677237
 31
0.0
  0
LINE
  5
596
  8
LAYER_1
 62
     4
 10
165.6139921851388
 20
101.7468283677237
 30
0.0
 11
164.8876961851388
 21
104.7491983677237
 31
0.0
  0
LINE
  5
597
  8
LAYER_1
 62
     4
 10
164.8876961851388
 20
104.7491983677237
 30
0.0
 11
164.5506351851388
 21
107.3380713677237
 31
0.0
  0
LINE
  5
598
  8
LAYER_1
 62
     4
 10
164.5506351851388
 20
107.3380713677237
 30
0.0
 11
164.6087261851388
 21
109.4823333677237
 31
0.0
  0
LINE
  5
599
  8
LAYER_1
 62
     4
 10
164.6087261851388
 20
109.4823333677237
 30
0.0
 11
164.7742061851388
 21
111.4095573677237
 31
0.0
  0
LINE
  5
59A
  8
LAYER_1
 62
     4
 10
164.7742061851388
 20
111.4095573677237
 30
0.0
 11
164.7166871851388
 21
113.1231043677237
 31
0.0
  0
LINE
  5
59B
  8
LAYER_1
 62
     4
 10
164.7166871851388
 20
113.1231043677237
 30
0.0
 11
164.4294161851388
 21
114.6359163677237
 31
0.0
  0
LINE
  5
59C
  8
LAYER_1
 62
     4
 10
164.4294161851388
 20
114.6359163677237
 30
0.0
 11
163.9056441851388
 21
115.9609403677237
 31
0.0
  0
LINE
  5
59D
  8
LAYER_1
 62
     4
 10
163.9056441851388
 20
115.9609403677237
 30
0.0
 11
163.1386181851388
 21
117.1111193677237
 31
0.0
  0
LINE
  5
59E
  8
LAYER_1
 62
     4
 10
163.1386181851388
 20
117.1111193677237
 30
0.0
 11
162.1215891851388
 21
118.0993983677237
 31
0.0
  0
LINE
  5
59F
  8
LAYER_1
 62
     4
 10
162.1215891851388
 20
118.0993983677237
 30
0.0
 11
160.8478061851388
 21
118.9387213677237
 31
0.0
  0
LINE
  5
5A0
  8
LAYER_1
 62
     4
 10
160.8478061851388
 20
118.9387213677237
 30
0.0
 11
159.3105171851388
 21
119.6420333677237
 31
0.0
  0
LINE
  5
5A1
  8
LAYER_1
 62
     4
 10
159.3105171851388
 20
119.6420333677237
 30
0.0
 11
157.2274021851388
 21
120.5521103677237
 31
0.0
  0
LINE
  5
5A2
  8
LAYER_1
 62
     4
 10
157.2274021851388
 20
120.5521103677237
 30
0.0
 11
156.5543071851388
 21
121.0077893677237
 31
0.0
  0
LINE
  5
5A3
  8
LAYER_1
 62
     4
 10
156.5543071851388
 20
121.0077893677237
 30
0.0
 11
156.0814001851388
 21
121.5319803677237
 31
0.0
  0
LINE
  5
5A4
  8
LAYER_1
 62
     4
 10
156.0814001851388
 20
121.5319803677237
 30
0.0
 11
155.7745931851388
 21
122.1757473677237
 31
0.0
  0
LINE
  5
5A5
  8
LAYER_1
 62
     4
 10
155.7745931851388
 20
122.1757473677237
 30
0.0
 11
155.5997961851388
 21
122.9901553677237
 31
0.0
  0
LINE
  5
5A6
  8
LAYER_1
 62
     4
 10
155.5997961851388
 20
122.9901553677237
 30
0.0
 11
155.5098731851388
 21
125.3351473677237
 31
0.0
  0
LINE
  5
5A7
  8
LAYER_1
 62
     4
 10
155.5098731851388
 20
125.3351473677237
 30
0.0
 11
153.6941201851388
 21
173.7200873677237
 31
0.0
  0
LINE
  5
5A8
  8
LAYER_1
 62
     4
 10
153.6941201851388
 20
173.7200873677237
 30
0.0
 11
151.8566561851388
 21
217.8747643677237
 31
0.0
  0
LINE
  5
5A9
  8
LAYER_1
 62
     4
 10
151.8566561851388
 20
217.8747643677237
 30
0.0
 11
154.7625291851388
 21
220.5364213677237
 31
0.0
  0
LINE
  5
5AA
  8
LAYER_1
 62
     4
 10
154.7625291851388
 20
220.5364213677237
 30
0.0
 11
155.6338771851388
 21
221.4355673677237
 31
0.0
  0
LINE
  5
5AB
  8
LAYER_1
 62
     4
 10
155.6338771851388
 20
221.4355673677237
 30
0.0
 11
156.3402211851388
 21
222.3758433677237
 31
0.0
  0
LINE
  5
5AC
  8
LAYER_1
 62
     4
 10
156.3402211851388
 20
222.3758433677237
 30
0.0
 11
156.8850431851388
 21
223.3457663677237
 31
0.0
  0
LINE
  5
5AD
  8
LAYER_1
 62
     4
 10
156.8850431851388
 20
223.3457663677237
 30
0.0
 11
157.2718251851388
 21
224.3338503677237
 31
0.0
  0
LINE
  5
5AE
  8
LAYER_1
 62
     4
 10
157.2718251851388
 20
224.3338503677237
 30
0.0
 11
157.5040501851388
 21
225.3286103677237
 31
0.0
  0
LINE
  5
5AF
  8
LAYER_1
 62
     4
 10
157.5040501851388
 20
225.3286103677237
 30
0.0
 11
157.5852011851388
 21
226.3185623677237
 31
0.0
  0
LINE
  5
5B0
  8
LAYER_1
 62
     4
 10
157.5852011851388
 20
226.3185623677237
 30
0.0
 11
157.3082101851388
 21
228.2380983677237
 31
0.0
  0
LINE
  5
5B1
  8
LAYER_1
 62
     4
 10
157.3082101851388
 20
228.2380983677237
 30
0.0
 11
156.4687121851388
 21
230.0005793677237
 31
0.0
  0
LINE
  5
5B2
  8
LAYER_1
 62
     4
 10
156.4687121851388
 20
230.0005793677237
 30
0.0
 11
155.0945691851388
 21
231.5141253677237
 31
0.0
  0
LINE
  5
5B3
  8
LAYER_1
 62
     4
 10
155.0945691851388
 20
231.5141253677237
 30
0.0
 11
153.2136421851388
 21
232.6868543677237
 31
0.0
  0
LINE
  5
5B4
  8
LAYER_1
 62
     4
 10
153.2136421851388
 20
232.6868543677237
 30
0.0
 11
152.0918401851388
 21
233.1167013677237
 31
0.0
  0
LINE
  5
5B5
  8
LAYER_1
 62
     4
 10
152.0918401851388
 20
233.1167013677237
 30
0.0
 11
150.8537901851388
 21
233.4268883677237
 31
0.0
  0
LINE
  5
5B6
  8
LAYER_1
 62
     4
 10
150.8537901851388
 20
233.4268883677237
 30
0.0
 11
148.8205221851388
 21
234.1618003677237
 31
0.0
  0
LINE
  5
5B7
  8
LAYER_1
 62
     4
 10
148.8205221851388
 20
234.1618003677237
 30
0.0
 11
146.2494931851388
 21
235.6906213677237
 31
0.0
  0
LINE
  5
5B8
  8
LAYER_1
 62
     4
 10
146.2494931851388
 20
235.6906213677237
 30
0.0
 11
143.1534301851388
 21
238.0047203677237
 31
0.0
  0
LINE
  5
5B9
  8
LAYER_1
 62
     4
 10
143.1534301851388
 20
238.0047203677237
 30
0.0
 11
139.5450581851388
 21
241.0954673677237
 31
0.0
  0
LINE
  5
5BA
  8
LAYER_1
 62
     4
 10
139.5450581851388
 20
241.0954673677237
 30
0.0
 11
135.2254161851388
 21
245.0713853677237
 31
0.0
  0
LINE
  5
5BB
  8
LAYER_1
 62
     4
 10
135.2254161851388
 20
245.0713853677237
 30
0.0
 11
133.9013441851388
 21
246.4313603677237
 31
0.0
  0
LINE
  5
5BC
  8
LAYER_1
 62
     4
 10
133.9013441851388
 20
246.4313603677237
 30
0.0
 11
133.0452221851388
 21
247.5064113677237
 31
0.0
  0
LINE
  5
5BD
  8
LAYER_1
 62
     4
 10
133.0452221851388
 20
247.5064113677237
 30
0.0
 11
132.5901391851388
 21
248.3968363677237
 31
0.0
  0
LINE
  5
5BE
  8
LAYER_1
 62
     4
 10
132.5901391851388
 20
248.3968363677237
 30
0.0
 11
132.4691841851388
 21
249.2029353677237
 31
0.0
  0
LINE
  5
5BF
  8
LAYER_1
 62
     4
 10
132.4691841851388
 20
249.2029353677237
 30
0.0
 11
132.6154461851388
 21
250.0250073677237
 31
0.0
  0
LINE
  5
5C0
  8
LAYER_1
 62
     4
 10
132.6154461851388
 20
250.0250073677237
 30
0.0
 11
132.9620131851388
 21
250.9633503677237
 31
0.0
  0
LINE
  5
5C1
  8
LAYER_1
 62
     4
 10
132.9620131851388
 20
250.9633503677237
 30
0.0
 11
133.3046901851388
 21
252.1220493677237
 31
0.0
  0
LINE
  5
5C2
  8
LAYER_1
 62
     4
 10
133.3046901851388
 20
252.1220493677237
 30
0.0
 11
133.3848741851388
 21
253.2491583677237
 31
0.0
  0
LINE
  5
5C3
  8
LAYER_1
 62
     4
 10
133.3848741851388
 20
253.2491583677237
 30
0.0
 11
133.2270711851388
 21
254.3307833677237
 31
0.0
  0
LINE
  5
5C4
  8
LAYER_1
 62
     4
 10
133.2270711851388
 20
254.3307833677237
 30
0.0
 11
132.8557861851388
 21
255.3530343677237
 31
0.0
  0
LINE
  5
5C5
  8
LAYER_1
 62
     4
 10
132.8557861851388
 20
255.3530343677237
 30
0.0
 11
132.2955241851388
 21
256.3020203677237
 31
0.0
  0
LINE
  5
5C6
  8
LAYER_1
 62
     4
 10
132.2955241851388
 20
256.3020203677237
 30
0.0
 11
131.5707891851388
 21
257.1638483677237
 31
0.0
  0
LINE
  5
5C7
  8
LAYER_1
 62
     4
 10
131.5707891851388
 20
257.1638483677237
 30
0.0
 11
130.7060871851388
 21
257.9246283677237
 31
0.0
  0
LINE
  5
5C8
  8
LAYER_1
 62
     4
 10
130.7060871851388
 20
257.9246283677237
 30
0.0
 11
129.7259221851388
 21
258.5704683677237
 31
0.0
  0
LINE
  5
5C9
  8
LAYER_1
 62
     4
 10
129.7259221851388
 20
258.5704683677237
 30
0.0
 11
128.6548001851388
 21
259.0874753677236
 31
0.0
  0
LINE
  5
5CA
  8
LAYER_1
 62
     4
 10
128.6548001851388
 20
259.0874753677236
 30
0.0
 11
127.5172241851388
 21
259.4617603677236
 31
0.0
  0
LINE
  5
5CB
  8
LAYER_1
 62
     4
 10
127.5172241851388
 20
259.4617603677236
 30
0.0
 11
126.3377001851388
 21
259.6794303677236
 31
0.0
  0
LINE
  5
5CC
  8
LAYER_1
 62
     4
 10
126.3377001851388
 20
259.6794303677236
 30
0.0
 11
125.1407341851388
 21
259.7265933677237
 31
0.0
  0
LINE
  5
5CD
  8
LAYER_1
 62
     4
 10
125.1407341851388
 20
259.7265933677237
 30
0.0
 11
123.9508281851388
 21
259.5893593677237
 31
0.0
  0
LINE
  5
5CE
  8
LAYER_1
 62
     4
 10
123.9508281851388
 20
259.5893593677237
 30
0.0
 11
122.7924901851388
 21
259.2538363677237
 31
0.0
  0
LINE
  5
5CF
  8
LAYER_1
 62
     4
 10
122.7924901851388
 20
259.2538363677237
 30
0.0
 11
121.6902231851388
 21
258.7061323677236
 31
0.0
  0
LINE
  5
5D0
  8
LAYER_1
 62
     4
 10
121.6902231851388
 20
258.7061323677236
 30
0.0
 11
120.6685321851388
 21
257.9323563677236
 31
0.0
  0
LINE
  5
5D1
  8
LAYER_1
 62
     4
 10
120.6685321851388
 20
257.9323563677236
 30
0.0
 11
119.8627561851388
 21
257.0068393677237
 31
0.0
  0
LINE
  5
5D2
  8
LAYER_1
 62
     4
 10
119.8627561851388
 20
257.0068393677237
 30
0.0
 11
119.2289331851388
 21
255.9030283677237
 31
0.0
  0
LINE
  5
5D3
  8
LAYER_1
 62
     4
 10
119.2289331851388
 20
255.9030283677237
 30
0.0
 11
118.7758451851388
 21
254.6876533677237
 31
0.0
  0
LINE
  5
5D4
  8
LAYER_1
 62
     4
 10
118.7758451851388
 20
254.6876533677237
 30
0.0
 11
118.5122741851388
 21
253.4274433677237
 31
0.0
  0
LINE
  5
5D5
  8
LAYER_1
 62
     4
 10
118.5122741851388
 20
253.4274433677237
 30
0.0
 11
118.4470041851388
 21
252.1891313677237
 31
0.0
  0
LINE
  5
5D6
  8
LAYER_1
 62
     4
 10
118.4470041851388
 20
252.1891313677237
 30
0.0
 11
118.5888161851388
 21
251.0394453677237
 31
0.0
  0
LINE
  5
5D7
  8
LAYER_1
 62
     4
 10
118.5888161851388
 20
251.0394453677237
 30
0.0
 11
118.9464941851388
 21
250.0451163677237
 31
0.0
  0
LINE
  5
5D8
  8
LAYER_1
 62
     4
 10
118.9464941851388
 20
250.0451163677237
 30
0.0
 11
119.5288201851388
 21
249.2728753677237
 31
0.0
  0
LINE
  5
5D9
  8
LAYER_1
 62
     4
 10
119.5288201851388
 20
249.2728753677237
 30
0.0
 11
119.6041701851388
 21
248.8619553677237
 31
0.0
  0
LINE
  5
5DA
  8
LAYER_1
 62
     4
 10
119.6041701851388
 20
248.8619553677237
 30
0.0
 11
119.2971851851388
 21
248.1740433677237
 31
0.0
  0
LINE
  5
5DB
  8
LAYER_1
 62
     4
 10
119.2971851851388
 20
248.1740433677237
 30
0.0
 11
116.7139744683415
 21
248.4796014236236
 31
0.0
  0
LINE
  5
5DC
  8
LAYER_1
 62
     4
 10
117.5289332184446
 20
245.8309854857884
 30
0.0
 11
115.1857051851388
 21
243.4900413677237
 31
0.0
  0
LINE
  5
5DD
  8
LAYER_1
 62
     4
 10
115.1857051851388
 20
243.4900413677237
 30
0.0
 11
112.0577151851388
 21
240.5749193677237
 31
0.0
  0
LINE
  5
5DE
  8
LAYER_1
 62
     4
 10
112.0577151851388
 20
240.5749193677237
 30
0.0
 11
108.7161301851388
 21
237.7244123677237
 31
0.0
  0
LINE
  5
5DF
  8
LAYER_1
 62
     4
 10
108.7161301851388
 20
237.7244123677237
 30
0.0
 11
105.5368751851388
 21
235.2735463677237
 31
0.0
  0
LINE
  5
5E0
  8
LAYER_1
 62
     4
 10
105.5368751851388
 20
235.2735463677237
 30
0.0
 11
102.8958801851388
 21
233.5573423677237
 31
0.0
  0
LINE
  5
5E1
  8
LAYER_1
 62
     4
 10
102.8958801851388
 20
233.5573423677237
 30
0.0
 11
101.8947061851388
 21
233.0794343677237
 31
0.0
  0
LINE
  5
5E2
  8
LAYER_1
 62
     4
 10
101.8947061851388
 20
233.0794343677237
 30
0.0
 11
101.1690711851388
 21
232.9108253677237
 31
0.0
  0
LINE
  5
5E3
  8
LAYER_1
 62
     4
 10
101.1690711851388
 20
232.9108253677237
 30
0.0
 11
100.2482861851388
 21
232.8167243677237
 31
0.0
  0
LINE
  5
5E4
  8
LAYER_1
 62
     4
 10
100.2482861851388
 20
232.8167243677237
 30
0.0
 11
99.39598818513878
 21
232.5470343677237
 31
0.0
  0
LINE
  5
5E5
  8
LAYER_1
 62
     4
 10
99.39598818513878
 20
232.5470343677237
 30
0.0
 11
98.61763318513877
 21
232.1206733677237
 31
0.0
  0
LINE
  5
5E6
  8
LAYER_1
 62
     4
 10
98.61763318513877
 20
232.1206733677237
 30
0.0
 11
97.91868218513878
 21
231.5565603677237
 31
0.0
  0
LINE
  5
5E7
  8
LAYER_1
 62
     4
 10
97.91868218513878
 20
231.5565603677237
 30
0.0
 11
96.78082418513877
 21
230.0907493677237
 31
0.0
  0
LINE
  5
5E8
  8
LAYER_1
 62
     4
 10
96.78082418513877
 20
230.0907493677237
 30
0.0
 11
96.02608418513877
 21
228.3009463677237
 31
0.0
  0
LINE
  5
5E9
  8
LAYER_1
 62
     4
 10
96.02608418513877
 20
228.3009463677237
 30
0.0
 11
95.69813218513878
 21
226.3384993677237
 31
0.0
  0
LINE
  5
5EA
  8
LAYER_1
 62
     4
 10
95.69813218513878
 20
226.3384993677237
 30
0.0
 11
95.84063718513878
 21
224.3547523677237
 31
0.0
  0
LINE
  5
5EB
  8
LAYER_1
 62
     4
 10
95.84063718513878
 20
224.3547523677237
 30
0.0
 11
96.49727018513877
 21
222.5010513677237
 31
0.0
  0
LINE
  5
5EC
  8
LAYER_1
 62
     4
 10
96.49727018513877
 20
222.5010513677237
 30
0.0
 11
97.03203218513878
 21
221.6702653677237
 31
0.0
  0
LINE
  5
5ED
  8
LAYER_1
 62
     4
 10
97.03203218513878
 20
221.6702653677237
 30
0.0
 11
97.71170218513878
 21
220.9287443677237
 31
0.0
  0
LINE
  5
5EE
  8
LAYER_1
 62
     4
 10
97.71170218513878
 20
220.9287443677237
 30
0.0
 11
98.55825118513877
 21
219.9543463677237
 31
0.0
  0
LINE
  5
5EF
  8
LAYER_1
 62
     4
 10
98.55825118513877
 20
219.9543463677237
 30
0.0
 11
99.25150218513878
 21
218.7775413677237
 31
0.0
  0
LINE
  5
5F0
  8
LAYER_1
 62
     4
 10
99.25150218513878
 20
218.7775413677237
 30
0.0
 11
99.71991518513877
 21
217.5466073677237
 31
0.0
  0
LINE
  5
5F1
  8
LAYER_1
 62
     4
 10
99.71991518513877
 20
217.5466073677237
 30
0.0
 11
99.89195018513878
 21
216.4098223677237
 31
0.0
  0
LINE
  5
5F2
  8
LAYER_1
 62
     4
 10
99.89195018513878
 20
216.4098223677237
 30
0.0
 11
99.82846218513878
 21
215.0232803677237
 31
0.0
  0
LINE
  5
5F3
  8
LAYER_1
 62
     4
 10
99.82846218513878
 20
215.0232803677237
 30
0.0
 11
99.70264818513877
 21
214.6351113677237
 31
0.0
  0
LINE
  5
5F4
  8
LAYER_1
 62
     4
 10
99.70264818513877
 20
214.6351113677237
 30
0.0
 11
99.47282918513878
 21
214.4347453677237
 31
0.0
  0
LINE
  5
5F5
  8
LAYER_1
 62
     4
 10
99.47282918513878
 20
214.4347453677237
 30
0.0
 11
98.57729618513878
 21
214.5506253677237
 31
0.0
  0
LINE
  5
5F6
  8
LAYER_1
 62
     4
 10
98.57729618513878
 20
214.5506253677237
 30
0.0
 11
96.89411218513878
 21
215.2773263677237
 31
0.0
  0
LINE
  5
5F7
  8
LAYER_1
 62
     4
 10
96.89411218513878
 20
215.2773263677237
 30
0.0
 11
93.48471918513877
 21
216.6053613677237
 31
0.0
  0
LINE
  5
5F8
  8
LAYER_1
 62
     4
 10
93.48471918513877
 20
216.6053613677237
 30
0.0
 11
89.74763218513877
 21
217.6055103677237
 31
0.0
  0
LINE
  5
5F9
  8
LAYER_1
 62
     4
 10
89.74763218513877
 20
217.6055103677237
 30
0.0
 11
85.76951018513877
 21
218.2743413677237
 31
0.0
  0
LINE
  5
5FA
  8
LAYER_1
 62
     4
 10
85.76951018513877
 20
218.2743413677237
 30
0.0
 11
81.63700818513878
 21
218.6084233677237
 31
0.0
  0
LINE
  5
5FB
  8
LAYER_1
 62
     4
 10
81.63700818513878
 20
218.6084233677237
 30
0.0
 11
77.43678518513879
 21
218.6043253677237
 31
0.0
  0
LINE
  5
5FC
  8
LAYER_1
 62
     4
 10
77.43678518513879
 20
218.6043253677237
 30
0.0
 11
73.72490040040059
 21
218.2242578260443
 31
0.0
  0
LINE
  5
5FD
  8
LAYER_1
 62
     4
 10
69.14075743107041
 20
217.7149086072299
 30
0.0
 11
65.29635718513877
 21
216.5286353677237
 31
0.0
  0
LINE
  5
5FE
  8
LAYER_1
 62
     4
 10
65.29635718513877
 20
216.5286353677237
 30
0.0
 11
62.60176418513878
 21
215.7248623677237
 31
0.0
  0
LINE
  5
5FF
  8
LAYER_1
 62
     4
 10
62.60176418513878
 20
215.7248623677237
 30
0.0
 11
61.66290118513878
 21
215.5734153677237
 31
0.0
  0
LINE
  5
600
  8
LAYER_1
 62
     4
 10
61.66290118513878
 20
215.5734153677237
 30
0.0
 11
60.87747218513879
 21
215.6111073677237
 31
0.0
  0
LINE
  5
601
  8
LAYER_1
 62
     4
 10
60.87747218513879
 20
215.6111073677237
 30
0.0
 11
60.15633718513878
 21
215.8545763677237
 31
0.0
  0
LINE
  5
602
  8
LAYER_1
 62
     4
 10
60.15633718513878
 20
215.8545763677237
 30
0.0
 11
59.41035518513878
 21
216.3204573677237
 31
0.0
  0
LINE
  5
603
  8
LAYER_1
 62
     4
 10
59.41035518513878
 20
216.3204573677237
 30
0.0
 11
57.48728818513878
 21
217.9859963677237
 31
0.0
  0
LINE
  5
604
  8
LAYER_1
 62
     4
 10
57.48728818513878
 20
217.9859963677237
 30
0.0
 11
55.95644718513877
 21
219.2057843677237
 31
0.0
  0
LINE
  5
605
  8
LAYER_1
 62
     4
 10
55.95644718513877
 20
219.2057843677237
 30
0.0
 11
54.39469718513878
 21
220.0955923677237
 31
0.0
  0
LINE
  5
606
  8
LAYER_1
 62
     4
 10
54.39469718513878
 20
220.0955923677237
 30
0.0
 11
52.81319718513878
 21
220.6549793677237
 31
0.0
  0
LINE
  5
607
  8
LAYER_1
 62
     4
 10
52.81319718513878
 20
220.6549793677237
 30
0.0
 11
51.22310518513878
 21
220.8835053677237
 31
0.0
  0
LINE
  5
608
  8
LAYER_1
 62
     4
 10
51.22310518513878
 20
220.8835053677237
 30
0.0
 11
49.63557918513878
 21
220.7807263677237
 31
0.0
  0
LINE
  5
609
  8
LAYER_1
 62
     4
 10
49.63557918513878
 20
220.7807263677237
 30
0.0
 11
48.06177718513878
 21
220.3462033677237
 31
0.0
  0
LINE
  5
60A
  8
LAYER_1
 62
     4
 10
48.06177718513878
 20
220.3462033677237
 30
0.0
 11
46.51285818513877
 21
219.5794933677237
 31
0.0
  0
LINE
  5
60B
  8
LAYER_1
 62
     4
 10
46.51285818513877
 20
219.5794933677237
 30
0.0
 11
44.99997918513877
 21
218.4801563677237
 31
0.0
  0
LINE
  5
60C
  8
LAYER_1
 62
     4
 10
44.99997918513877
 20
218.4801563677237
 30
0.0
 11
43.73073118513877
 21
217.1757763677237
 31
0.0
  0
LINE
  5
60D
  8
LAYER_1
 62
     4
 10
43.73073118513877
 20
217.1757763677237
 30
0.0
 11
42.81775718513877
 21
215.7457253677237
 31
0.0
  0
LINE
  5
60E
  8
LAYER_1
 62
     4
 10
42.81775718513877
 20
215.7457253677237
 30
0.0
 11
42.26155618513879
 21
214.2290793677237
 31
0.0
  0
LINE
  5
60F
  8
LAYER_1
 62
     4
 10
42.26155618513879
 20
214.2290793677237
 30
0.0
 11
42.06262918513879
 21
212.6649163677237
 31
0.0
  0
LINE
  5
610
  8
LAYER_1
 62
     4
 10
42.06262918513879
 20
212.6649163677237
 30
0.0
 11
42.22147418513877
 21
211.0923123677237
 31
0.0
  0
LINE
  5
611
  8
LAYER_1
 62
     4
 10
42.22147418513877
 20
211.0923123677237
 30
0.0
 11
42.73859218513879
 21
209.5503453677237
 31
0.0
  0
LINE
  5
612
  8
LAYER_1
 62
     4
 10
42.73859218513879
 20
209.5503453677237
 30
0.0
 11
43.61448018513879
 21
208.0780903677237
 31
0.0
  0
LINE
  5
613
  8
LAYER_1
 62
     4
 10
43.61448018513879
 20
208.0780903677237
 30
0.0
 11
44.84963918513877
 21
206.7146253677237
 31
0.0
  0
LINE
  5
614
  8
LAYER_1
 62
     4
 10
44.84963918513877
 20
206.7146253677237
 30
0.0
 11
46.17532818513878
 21
205.1268533677237
 31
0.0
  0
LINE
  5
615
  8
LAYER_1
 62
     4
 10
46.17532818513878
 20
205.1268533677237
 30
0.0
 11
47.44748318513878
 21
202.8512233677237
 31
0.0
  0
LINE
  5
616
  8
LAYER_1
 62
     4
 10
47.44748318513878
 20
202.8512233677237
 30
0.0
 11
48.65334218513878
 21
199.9145803677237
 31
0.0
  0
LINE
  5
617
  8
LAYER_1
 62
     4
 10
48.65334218513878
 20
199.9145803677237
 30
0.0
 11
49.78014018513876
 21
196.3437683677237
 31
0.0
  0
LINE
  5
618
  8
LAYER_1
 62
     4
 10
49.78014018513876
 20
196.3437683677237
 30
0.0
 11
50.90609718513876
 21
192.6434523677237
 31
0.0
  0
LINE
  5
619
  8
LAYER_1
 62
     4
 10
50.90609718513876
 20
192.6434523677237
 30
0.0
 11
52.17624818513879
 21
189.1082203677237
 31
0.0
  0
LINE
  5
61A
  8
LAYER_1
 62
     4
 10
52.17624818513879
 20
189.1082203677237
 30
0.0
 11
53.60561118513878
 21
185.7093103677237
 31
0.0
  0
LINE
  5
61B
  8
LAYER_1
 62
     4
 10
53.60561118513878
 20
185.7093103677237
 30
0.0
 11
55.20920618513877
 21
182.4179623677237
 31
0.0
  0
LINE
  5
61C
  8
LAYER_1
 62
     4
 10
55.20920618513877
 20
182.4179623677237
 30
0.0
 11
57.00205218513877
 21
179.2054143677237
 31
0.0
  0
LINE
  5
61D
  8
LAYER_1
 62
     4
 10
57.00205218513877
 20
179.2054143677237
 30
0.0
 11
58.99916818513877
 21
176.0429073677237
 31
0.0
  0
LINE
  5
61E
  8
LAYER_1
 62
     4
 10
58.99916818513877
 20
176.0429073677237
 30
0.0
 11
61.21557418513878
 21
172.9016803677237
 31
0.0
  0
LINE
  5
61F
  8
LAYER_1
 62
     4
 10
61.21557418513878
 20
172.9016803677237
 30
0.0
 11
63.66628918513878
 21
169.7529713677237
 31
0.0
  0
LINE
  5
620
  8
LAYER_1
 62
     4
 10
63.66628918513878
 20
169.7529713677237
 30
0.0
 11
66.09524818513877
 21
166.5388583677237
 31
0.0
  0
LINE
  5
621
  8
LAYER_1
 62
     4
 10
66.09524818513877
 20
166.5388583677237
 30
0.0
 11
68.07506518513877
 21
163.4355573677237
 31
0.0
  0
LINE
  5
622
  8
LAYER_1
 62
     4
 10
68.07506518513877
 20
163.4355573677237
 30
0.0
 11
69.55633018513878
 21
160.5288723677237
 31
0.0
  0
LINE
  5
623
  8
LAYER_1
 62
     4
 10
69.55633018513878
 20
160.5288723677237
 30
0.0
 11
70.48963018513878
 21
157.9046023677237
 31
0.0
  0
LINE
  5
624
  8
LAYER_1
 62
     4
 10
70.48963018513878
 20
157.9046023677237
 30
0.0
 11
70.98933418513879
 21
155.4048163677237
 31
0.0
  0
LINE
  5
625
  8
LAYER_1
 62
     4
 10
70.98933418513879
 20
155.4048163677237
 30
0.0
 11
71.27449418513878
 21
152.6398483677237
 31
0.0
  0
LINE
  5
626
  8
LAYER_1
 62
     4
 10
71.27449418513878
 20
152.6398483677237
 30
0.0
 11
71.35364018513879
 21
149.7261173677237
 31
0.0
  0
LINE
  5
627
  8
LAYER_1
 62
     4
 10
71.35364018513879
 20
149.7261173677237
 30
0.0
 11
71.23530318513879
 21
146.7800443677237
 31
0.0
  0
LINE
  5
628
  8
LAYER_1
 62
     4
 10
71.23530318513879
 20
146.7800443677237
 30
0.0
 11
70.92801618513879
 21
143.9180523677237
 31
0.0
  0
LINE
  5
629
  8
LAYER_1
 62
     4
 10
70.92801618513879
 20
143.9180523677237
 30
0.0
 11
70.44031018513879
 21
141.2565593677237
 31
0.0
  0
LINE
  5
62A
  8
LAYER_1
 62
     4
 10
70.44031018513879
 20
141.2565593677237
 30
0.0
 11
69.78071618513879
 21
138.9119873677237
 31
0.0
  0
LINE
  5
62B
  8
LAYER_1
 62
     4
 10
69.78071618513879
 20
138.9119873677237
 30
0.0
 11
68.95776718513876
 21
137.0007583677237
 31
0.0
  0
LINE
  5
62C
  8
LAYER_1
 62
     4
 10
68.95776718513876
 20
137.0007583677237
 30
0.0
 11
67.87020218513878
 21
134.4923403677237
 31
0.0
  0
LINE
  5
62D
  8
LAYER_1
 62
     4
 10
67.87020218513878
 20
134.4923403677237
 30
0.0
 11
67.36632318513877
 21
132.1112453677237
 31
0.0
  0
LINE
  5
62E
  8
LAYER_1
 62
     4
 10
67.36632318513877
 20
132.1112453677237
 30
0.0
 11
67.41656018513878
 21
129.9213133677237
 31
0.0
  0
LINE
  5
62F
  8
LAYER_1
 62
     4
 10
67.41656018513878
 20
129.9213133677237
 30
0.0
 11
67.99134718513876
 21
127.9863893677237
 31
0.0
  0
LINE
  5
630
  8
LAYER_1
 62
     4
 10
67.99134718513876
 20
127.9863893677237
 30
0.0
 11
69.06111818513877
 21
126.3703143677237
 31
0.0
  0
LINE
  5
631
  8
LAYER_1
 62
     4
 10
69.06111818513877
 20
126.3703143677237
 30
0.0
 11
69.77238218513877
 21
125.7017963677237
 31
0.0
  0
LINE
  5
632
  8
LAYER_1
 62
     4
 10
69.77238218513877
 20
125.7017963677237
 30
0.0
 11
70.59630418513878
 21
125.1369313677237
 31
0.0
  0
LINE
  5
633
  8
LAYER_1
 62
     4
 10
70.59630418513878
 20
125.1369313677237
 30
0.0
 11
71.52918818513878
 21
124.6837003677237
 31
0.0
  0
LINE
  5
634
  8
LAYER_1
 62
     4
 10
71.52918818513878
 20
124.6837003677237
 30
0.0
 11
72.56733818513878
 21
124.3500843677237
 31
0.0
  0
LINE
  5
635
  8
LAYER_1
 62
     4
 10
72.56733818513878
 20
124.3500843677237
 30
0.0
 11
74.94465418513879
 21
124.0736143677237
 31
0.0
  0
LINE
  5
636
  8
LAYER_1
 62
     4
 10
74.94465418513879
 20
124.0736143677237
 30
0.0
 11
76.70479218513877
 21
124.2579673677237
 31
0.0
  0
LINE
  5
637
  8
LAYER_1
 62
     4
 10
76.70479218513877
 20
124.2579673677237
 30
0.0
 11
78.34956618513878
 21
124.8515393677237
 31
0.0
  0
LINE
  5
638
  8
LAYER_1
 62
     4
 10
78.34956618513878
 20
124.8515393677237
 30
0.0
 11
79.99980518513878
 21
125.9150963677237
 31
0.0
  0
LINE
  5
639
  8
LAYER_1
 62
     4
 10
79.99980518513878
 20
125.9150963677237
 30
0.0
 11
81.77633718513879
 21
127.5094073677237
 31
0.0
  0
LINE
  5
63A
  8
LAYER_1
 62
     4
 10
81.77633718513879
 20
127.5094073677237
 30
0.0
 11
83.81363618513878
 21
129.4621113677237
 31
0.0
  0
LINE
  5
63B
  8
LAYER_1
 62
     4
 10
83.81363618513878
 20
129.4621113677237
 30
0.0
 11
84.55917018513877
 21
130.0124823677237
 31
0.0
  0
LINE
  5
63C
  8
LAYER_1
 62
     4
 10
84.55917018513877
 20
130.0124823677237
 30
0.0
 11
85.23052718513877
 21
130.3072753677237
 31
0.0
  0
LINE
  5
63D
  8
LAYER_1
 62
     4
 10
85.23052718513877
 20
130.3072753677237
 30
0.0
 11
85.90863418513878
 21
130.3677993677237
 31
0.0
  0
LINE
  5
63E
  8
LAYER_1
 62
     4
 10
85.90863418513878
 20
130.3677993677237
 30
0.0
 11
86.67441418513879
 21
130.2153613677237
 31
0.0
  0
LINE
  5
63F
  8
LAYER_1
 62
     4
 10
86.67441418513879
 20
130.2153613677237
 30
0.0
 11
88.79269818513878
 21
129.3568343677237
 31
0.0
  0
LINE
  5
640
  8
LAYER_1
 62
     4
 10
88.79269818513878
 20
129.3568343677237
 30
0.0
 11
90.68619618513877
 21
128.4007623677237
 31
0.0
  0
LINE
  5
641
  8
LAYER_1
 62
     4
 10
90.68619618513877
 20
128.4007623677237
 30
0.0
 11
91.29900718513878
 21
127.9398563677237
 31
0.0
  0
LINE
  5
642
  8
LAYER_1
 62
     4
 10
91.29900718513878
 20
127.9398563677237
 30
0.0
 11
91.72322518513877
 21
127.4362143677237
 31
0.0
  0
LINE
  5
643
  8
LAYER_1
 62
     4
 10
91.72322518513877
 20
127.4362143677237
 30
0.0
 11
91.98437318513878
 21
126.8492203677237
 31
0.0
  0
LINE
  5
644
  8
LAYER_1
 62
     4
 10
91.98437318513878
 20
126.8492203677237
 30
0.0
 11
92.10797318513878
 21
126.1382563677237
 31
0.0
  0
LINE
  5
645
  8
LAYER_1
 62
     4
 10
92.10797318513878
 20
126.1382563677237
 30
0.0
 11
92.04462918513877
 21
124.1819533677237
 31
0.0
  0
LINE
  5
646
  8
LAYER_1
 62
     4
 10
92.04462918513877
 20
124.1819533677237
 30
0.0
 11
91.77765118513878
 21
122.4768993677237
 31
0.0
  0
LINE
  5
647
  8
LAYER_1
 62
     4
 10
91.77765118513878
 20
122.4768993677237
 30
0.0
 11
91.30705318513877
 21
121.3086333677237
 31
0.0
  0
LINE
  5
648
  8
LAYER_1
 62
     4
 10
91.30705318513877
 20
121.3086333677237
 30
0.0
 11
90.57803418513878
 21
120.5910003677237
 31
0.0
  0
LINE
  5
649
  8
LAYER_1
 62
     4
 10
90.57803418513878
 20
120.5910003677237
 30
0.0
 11
89.53579118513878
 21
120.2378443677237
 31
0.0
  0
LINE
  5
64A
  8
LAYER_1
 62
     4
 10
89.53579118513878
 20
120.2378443677237
 30
0.0
 11
88.51927918513877
 21
119.9906183677237
 31
0.0
  0
LINE
  5
64B
  8
LAYER_1
 62
     4
 10
88.51927918513877
 20
119.9906183677237
 30
0.0
 11
87.55023718513877
 21
119.6003603677237
 31
0.0
  0
LINE
  5
64C
  8
LAYER_1
 62
     4
 10
87.55023718513877
 20
119.6003603677237
 30
0.0
 11
85.78781118513878
 21
118.4571963677237
 31
0.0
  0
LINE
  5
64D
  8
LAYER_1
 62
     4
 10
85.78781118513878
 20
118.4571963677237
 30
0.0
 11
84.31501318513877
 21
116.9412483677237
 31
0.0
  0
LINE
  5
64E
  8
LAYER_1
 62
     4
 10
84.31501318513877
 20
116.9412483677237
 30
0.0
 11
83.19834018513878
 21
115.1854123677237
 31
0.0
  0
LINE
  5
64F
  8
LAYER_1
 62
     4
 10
83.19834018513878
 20
115.1854123677237
 30
0.0
 11
82.50429418513879
 21
113.3225833677237
 31
0.0
  0
LINE
  5
650
  8
LAYER_1
 62
     4
 10
82.50429418513879
 20
113.3225833677237
 30
0.0
 11
82.29937118513878
 21
111.4856573677237
 31
0.0
  0
LINE
  5
651
  8
LAYER_1
 62
     4
 10
82.29937118513878
 20
111.4856573677237
 30
0.0
 11
82.40111218513879
 21
110.6184383677237
 31
0.0
  0
LINE
  5
652
  8
LAYER_1
 62
     4
 10
82.40111218513879
 20
110.6184383677237
 30
0.0
 11
82.65007218513877
 21
109.8075303677237
 31
0.0
  0
LINE
  5
653
  8
LAYER_1
 62
     4
 10
82.65007218513877
 20
109.8075303677237
 30
0.0
 11
83.05456218513878
 21
109.0695463677237
 31
0.0
  0
LINE
  5
654
  8
LAYER_1
 62
     4
 10
83.05456218513878
 20
109.0695463677237
 30
0.0
 11
83.62289418513878
 21
108.4210983677237
 31
0.0
  0
LINE
  5
655
  8
LAYER_1
 62
     4
 10
83.62289418513878
 20
108.4210983677237
 30
0.0
 11
83.87638418513878
 21
108.0436973677237
 31
0.0
  0
LINE
  5
656
  8
LAYER_1
 62
     4
 10
83.87638418513878
 20
108.0436973677237
 30
0.0
 11
84.00731918513877
 21
107.4764333677237
 31
0.0
  0
LINE
  5
657
  8
LAYER_1
 62
     4
 10
84.00731918513877
 20
107.4764333677237
 30
0.0
 11
83.89129418513876
 21
105.7115363677237
 31
0.0
  0
LINE
  5
658
  8
LAYER_1
 62
     4
 10
83.89129418513876
 20
105.7115363677237
 30
0.0
 11
83.25434918513876
 21
103.0048553677237
 31
0.0
  0
LINE
  5
659
  8
LAYER_1
 62
     4
 10
83.25434918513876
 20
103.0048553677237
 30
0.0
 11
82.07601518513879
 21
99.23483836772367
 31
0.0
  0
LINE
  5
65A
  8
LAYER_1
 62
     4
 10
82.07601518513879
 20
99.23483836772367
 30
0.0
 11
79.35624218513878
 21
91.12289936772368
 31
0.0
  0
LINE
  5
65B
  8
LAYER_1
 62
     4
 10
79.35624218513878
 20
91.12289936772368
 30
0.0
 11
124.3589041851388
 21
91.12289936772368
 31
0.0
  0
LINE
  5
65C
  8
LAYER_1
 62
     4
 10
124.3589041851388
 20
91.12289936772368
 30
0.0
 11
169.3615571851388
 21
91.12289936772368
 31
0.0
  0
LINE
  5
65D
  8
LAYER_1
 62
     4
 10
169.3615571851388
 20
91.12289936772368
 30
0.0
 11
166.7236061851388
 21
98.36207436772368
 31
0.0
  0
LINE
  5
65E
  8
LAYER_1
 62
     4
 10
166.7236061851388
 20
98.36207436772368
 30
0.0
 11
166.7236061851388
 21
98.36207436772368
 31
0.0
  0
LINE
  5
65F
  8
LAYER_1
 62
     4
 10
116.2437731851388
 20
99.11095136772367
 30
0.0
 11
116.2437731851388
 21
105.1019933677237
 31
0.0
  0
LINE
  5
660
  8
LAYER_1
 62
     4
 10
116.2437731851388
 20
105.1019933677237
 30
0.0
 11
124.4196861851388
 21
105.1019933677237
 31
0.0
  0
LINE
  5
661
  8
LAYER_1
 62
     4
 10
124.4196861851388
 20
105.1019933677237
 30
0.0
 11
132.5955991851388
 21
105.1019933677237
 31
0.0
  0
LINE
  5
662
  8
LAYER_1
 62
     4
 10
132.5955991851388
 20
105.1019933677237
 30
0.0
 11
132.5955991851388
 21
99.11095136772367
 31
0.0
  0
LINE
  5
663
  8
LAYER_1
 62
     4
 10
132.5955991851388
 20
99.11095136772367
 30
0.0
 11
132.5955991851388
 21
93.11991236772367
 31
0.0
  0
LINE
  5
664
  8
LAYER_1
 62
     4
 10
132.5955991851388
 20
93.11991236772367
 30
0.0
 11
124.4196861851388
 21
93.11991236772367
 31
0.0
  0
LINE
  5
665
  8
LAYER_1
 62
     4
 10
124.4196861851388
 20
93.11991236772367
 30
0.0
 11
116.2437731851388
 21
93.11991236772367
 31
0.0
  0
LINE
  5
666
  8
LAYER_1
 62
     4
 10
116.2437731851388
 20
93.11991236772367
 30
0.0
 11
116.2437731851388
 21
99.11095136772367
 31
0.0
  0
LINE
  5
667
  8
LAYER_1
 62
     4
 10
116.2437731851388
 20
99.11095136772367
 30
0.0
 11
116.2437731851388
 21
99.11095136772367
 31
0.0
  0
LINE
  5
668
  8
LAYER_1
 62
     4
 10
82.94467518513876
 20
94.36804636772368
 30
0.0
 11
85.09716418513877
 21
100.6345363677237
 31
0.0
  0
LINE
  5
669
  8
LAYER_1
 62
     4
 10
85.09716418513877
 20
100.6345363677237
 30
0.0
 11
86.82339318513878
 21
105.6528883677237
 31
0.0
  0
LINE
  5
66A
  8
LAYER_1
 62
     4
 10
86.82339318513878
 20
105.6528883677237
 30
0.0
 11
91.17743018513878
 21
105.2725683677237
 31
0.0
  0
LINE
  5
66B
  8
LAYER_1
 62
     4
 10
91.17743018513878
 20
105.2725683677237
 30
0.0
 11
93.51604518513878
 21
104.9872613677237
 31
0.0
  0
LINE
  5
66C
  8
LAYER_1
 62
     4
 10
93.51604518513878
 20
104.9872613677237
 30
0.0
 11
94.28246518513878
 21
104.7845913677237
 31
0.0
  0
LINE
  5
66D
  8
LAYER_1
 62
     4
 10
94.28246518513878
 20
104.7845913677237
 30
0.0
 11
94.82848718513877
 21
104.5070883677237
 31
0.0
  0
LINE
  5
66E
  8
LAYER_1
 62
     4
 10
94.82848718513877
 20
104.5070883677237
 30
0.0
 11
95.19025318513877
 21
104.1286343677237
 31
0.0
  0
LINE
  5
66F
  8
LAYER_1
 62
     4
 10
95.19025318513877
 20
104.1286343677237
 30
0.0
 11
95.40390818513878
 21
103.6231133677237
 31
0.0
  0
LINE
  5
670
  8
LAYER_1
 62
     4
 10
95.40390818513878
 20
103.6231133677237
 30
0.0
 11
95.53145918513877
 21
102.1264023677237
 31
0.0
  0
LINE
  5
671
  8
LAYER_1
 62
     4
 10
95.53145918513877
 20
102.1264023677237
 30
0.0
 11
95.33132118513878
 21
99.25644236772368
 31
0.0
  0
LINE
  5
672
  8
LAYER_1
 62
     4
 10
95.33132118513878
 20
99.25644236772368
 30
0.0
 11
94.85013518513878
 21
96.24024936772368
 31
0.0
  0
LINE
  5
673
  8
LAYER_1
 62
     4
 10
94.85013518513878
 20
96.24024936772368
 30
0.0
 11
94.34942518513877
 21
94.47541736772368
 31
0.0
  0
LINE
  5
674
  8
LAYER_1
 62
     4
 10
94.34942518513877
 20
94.47541736772368
 30
0.0
 11
93.99122018513877
 21
93.92245636772367
 31
0.0
  0
LINE
  5
675
  8
LAYER_1
 62
     4
 10
93.99122018513877
 20
93.92245636772367
 30
0.0
 11
93.46851318513878
 21
93.54472236772368
 31
0.0
  0
LINE
  5
676
  8
LAYER_1
 62
     4
 10
93.46851318513878
 20
93.54472236772368
 30
0.0
 11
92.71185118513877
 21
93.30890736772368
 31
0.0
  0
LINE
  5
677
  8
LAYER_1
 62
     4
 10
92.71185118513877
 20
93.30890736772368
 30
0.0
 11
91.65178418513878
 21
93.18170536772368
 31
0.0
  0
LINE
  5
678
  8
LAYER_1
 62
     4
 10
91.65178418513878
 20
93.18170536772368
 30
0.0
 11
88.34362618513877
 21
93.11991236772367
 31
0.0
  0
LINE
  5
679
  8
LAYER_1
 62
     4
 10
88.34362618513877
 20
93.11991236772367
 30
0.0
 11
85.70191018513877
 21
93.18956736772367
 31
0.0
  0
LINE
  5
67A
  8
LAYER_1
 62
     4
 10
85.70191018513877
 20
93.18956736772367
 30
0.0
 11
83.96969918513877
 21
93.40966836772367
 31
0.0
  0
LINE
  5
67B
  8
LAYER_1
 62
     4
 10
83.96969918513877
 20
93.40966836772367
 30
0.0
 11
83.07471318513878
 21
93.79692536772367
 31
0.0
  0
LINE
  5
67C
  8
LAYER_1
 62
     4
 10
83.07471318513878
 20
93.79692536772367
 30
0.0
 11
82.91859318513879
 21
94.05845836772367
 31
0.0
  0
LINE
  5
67D
  8
LAYER_1
 62
     4
 10
82.91859318513879
 20
94.05845836772367
 30
0.0
 11
82.94467518513876
 21
94.36804636772368
 31
0.0
  0
LINE
  5
67E
  8
LAYER_1
 62
     4
 10
82.94467518513876
 20
94.36804636772368
 30
0.0
 11
82.94467518513876
 21
94.36804636772368
 31
0.0
  0
LINE
  5
67F
  8
LAYER_1
 62
     4
 10
87.05304918513879
 20
108.6533783677237
 30
0.0
 11
86.11041818513878
 21
109.4192443677237
 31
0.0
  0
LINE
  5
680
  8
LAYER_1
 62
     4
 10
86.11041818513878
 20
109.4192443677237
 30
0.0
 11
85.40430118513878
 21
110.3296383677237
 31
0.0
  0
LINE
  5
681
  8
LAYER_1
 62
     4
 10
85.40430118513878
 20
110.3296383677237
 30
0.0
 11
84.93842818513879
 21
111.3432463677237
 31
0.0
  0
LINE
  5
682
  8
LAYER_1
 62
     4
 10
84.93842818513879
 20
111.3432463677237
 30
0.0
 11
84.71653018513878
 21
112.4187543677237
 31
0.0
  0
LINE
  5
683
  8
LAYER_1
 62
     4
 10
84.71653018513878
 20
112.4187543677237
 30
0.0
 11
84.74233718513877
 21
113.5148473677237
 31
0.0
  0
LINE
  5
684
  8
LAYER_1
 62
     4
 10
84.74233718513877
 20
113.5148473677237
 30
0.0
 11
85.01957918513877
 21
114.5902123677237
 31
0.0
  0
LINE
  5
685
  8
LAYER_1
 62
     4
 10
85.01957918513877
 20
114.5902123677237
 30
0.0
 11
85.55198818513877
 21
115.6035323677237
 31
0.0
  0
LINE
  5
686
  8
LAYER_1
 62
     4
 10
85.55198818513877
 20
115.6035323677237
 30
0.0
 11
86.34329418513879
 21
116.5134963677237
 31
0.0
  0
LINE
  5
687
  8
LAYER_1
 62
     4
 10
86.34329418513879
 20
116.5134963677237
 30
0.0
 11
87.10297118513877
 21
116.9718293677237
 31
0.0
  0
LINE
  5
688
  8
LAYER_1
 62
     4
 10
87.10297118513877
 20
116.9718293677237
 30
0.0
 11
88.44083218513877
 21
117.3330653677237
 31
0.0
  0
LINE
  5
689
  8
LAYER_1
 62
     4
 10
88.44083218513877
 20
117.3330653677237
 30
0.0
 11
90.61739918513878
 21
117.6082973677237
 31
0.0
  0
LINE
  5
68A
  8
LAYER_1
 62
     4
 10
90.61739918513878
 20
117.6082973677237
 30
0.0
 11
93.89319318513877
 21
117.8086153677237
 31
0.0
  0
LINE
  5
68B
  8
LAYER_1
 62
     4
 10
93.89319318513877
 20
117.8086153677237
 30
0.0
 11
104.7845511851388
 21
118.0288763677237
 31
0.0
  0
LINE
  5
68C
  8
LAYER_1
 62
     4
 10
104.7845511851388
 20
118.0288763677237
 30
0.0
 11
123.1990781851388
 21
118.0825783677237
 31
0.0
  0
LINE
  5
68D
  8
LAYER_1
 62
     4
 10
123.1990781851388
 20
118.0825783677237
 30
0.0
 11
145.4498261851388
 21
117.9801353677237
 31
0.0
  0
LINE
  5
68E
  8
LAYER_1
 62
     4
 10
145.4498261851388
 20
117.9801353677237
 30
0.0
 11
152.3848511851388
 21
117.7617833677237
 31
0.0
  0
LINE
  5
68F
  8
LAYER_1
 62
     4
 10
152.3848511851388
 20
117.7617833677237
 30
0.0
 11
157.0978091851388
 21
117.3517483677237
 31
0.0
  0
LINE
  5
690
  8
LAYER_1
 62
     4
 10
157.0978091851388
 20
117.3517483677237
 30
0.0
 11
158.7549571851388
 21
117.0560363677237
 31
0.0
  0
LINE
  5
691
  8
LAYER_1
 62
     4
 10
158.7549571851388
 20
117.0560363677237
 30
0.0
 11
160.0173211851388
 21
116.6898293677237
 31
0.0
  0
LINE
  5
692
  8
LAYER_1
 62
     4
 10
160.0173211851388
 20
116.6898293677237
 30
0.0
 11
160.9384801851388
 21
116.2456013677237
 31
0.0
  0
LINE
  5
693
  8
LAYER_1
 62
     4
 10
160.9384801851388
 20
116.2456013677237
 30
0.0
 11
161.5720111851388
 21
115.7158293677237
 31
0.0
  0
LINE
  5
694
  8
LAYER_1
 62
     4
 10
161.5720111851388
 20
115.7158293677237
 30
0.0
 11
161.9714921851388
 21
115.0929863677237
 31
0.0
  0
LINE
  5
695
  8
LAYER_1
 62
     4
 10
161.9714921851388
 20
115.0929863677237
 30
0.0
 11
162.1905011851388
 21
114.3695493677237
 31
0.0
  0
LINE
  5
696
  8
LAYER_1
 62
     4
 10
162.1905011851388
 20
114.3695493677237
 30
0.0
 11
162.3014151851388
 21
112.5907903677237
 31
0.0
  0
LINE
  5
697
  8
LAYER_1
 62
     4
 10
162.3014151851388
 20
112.5907903677237
 30
0.0
 11
162.1895441851388
 21
110.8150053677237
 31
0.0
  0
LINE
  5
698
  8
LAYER_1
 62
     4
 10
162.1895441851388
 20
110.8150053677237
 30
0.0
 11
161.9712751851388
 21
110.0924403677237
 31
0.0
  0
LINE
  5
699
  8
LAYER_1
 62
     4
 10
161.9712751851388
 20
110.0924403677237
 30
0.0
 11
161.5750661851388
 21
109.4701203677237
 31
0.0
  0
LINE
  5
69A
  8
LAYER_1
 62
     4
 10
161.5750661851388
 20
109.4701203677237
 30
0.0
 11
160.9486321851388
 21
108.9405683677237
 31
0.0
  0
LINE
  5
69B
  8
LAYER_1
 62
     4
 10
160.9486321851388
 20
108.9405683677237
 30
0.0
 11
160.0396851851388
 21
108.4963023677237
 31
0.0
  0
LINE
  5
69C
  8
LAYER_1
 62
     4
 10
160.0396851851388
 20
108.4963023677237
 30
0.0
 11
158.7959381851388
 21
108.1298453677237
 31
0.0
  0
LINE
  5
69D
  8
LAYER_1
 62
     4
 10
158.7959381851388
 20
108.1298453677237
 30
0.0
 11
157.1651041851388
 21
107.8337163677237
 31
0.0
  0
LINE
  5
69E
  8
LAYER_1
 62
     4
 10
157.1651041851388
 20
107.8337163677237
 30
0.0
 11
152.5330251851388
 21
107.4225273677237
 31
0.0
  0
LINE
  5
69F
  8
LAYER_1
 62
     4
 10
152.5330251851388
 20
107.4225273677237
 30
0.0
 11
145.7251521851388
 21
107.2029023677237
 31
0.0
  0
LINE
  5
6A0
  8
LAYER_1
 62
     4
 10
145.7251521851388
 20
107.2029023677237
 30
0.0
 11
123.9088351851388
 21
107.0990033677237
 31
0.0
  0
LINE
  5
6A1
  8
LAYER_1
 62
     4
 10
123.9088351851388
 20
107.0990033677237
 30
0.0
 11
106.0378111851388
 21
107.1552393677237
 31
0.0
  0
LINE
  5
6A2
  8
LAYER_1
 62
     4
 10
106.0378111851388
 20
107.1552393677237
 30
0.0
 11
95.23161718513877
 21
107.3784963677237
 31
0.0
  0
LINE
  5
6A3
  8
LAYER_1
 62
     4
 10
95.23161718513877
 20
107.3784963677237
 30
0.0
 11
91.87152818513877
 21
107.5783293677237
 31
0.0
  0
LINE
  5
6A4
  8
LAYER_1
 62
     4
 10
91.87152818513877
 20
107.5783293677237
 30
0.0
 11
89.55008518513877
 21
107.8506013677237
 31
0.0
  0
LINE
  5
6A5
  8
LAYER_1
 62
     4
 10
89.55008518513877
 20
107.8506013677237
 30
0.0
 11
88.02476518513878
 21
108.2055423677237
 31
0.0
  0
LINE
  5
6A6
  8
LAYER_1
 62
     4
 10
88.02476518513878
 20
108.2055423677237
 30
0.0
 11
87.05304918513879
 21
108.6533783677237
 31
0.0
  0
LINE
  5
6A7
  8
LAYER_1
 62
     4
 10
87.05304918513879
 20
108.6533783677237
 30
0.0
 11
87.05304918513879
 21
108.6533783677237
 31
0.0
  0
LINE
  5
6A8
  8
LAYER_1
 62
     4
 10
151.1276701851388
 20
131.6213483677237
 30
0.0
 11
151.1276701851388
 21
136.0556913677237
 31
0.0
  0
LINE
  5
6A9
  8
LAYER_1
 62
     4
 10
151.1276701851388
 20
136.0556913677237
 30
0.0
 11
146.2221231851388
 21
136.0556913677237
 31
0.0
  0
LINE
  5
6AA
  8
LAYER_1
 62
     4
 10
146.2221231851388
 20
136.0556913677237
 30
0.0
 11
141.3165731851388
 21
136.0556913677237
 31
0.0
  0
LINE
  5
6AB
  8
LAYER_1
 62
     4
 10
141.3165731851388
 20
136.0556913677237
 30
0.0
 11
141.3165731851388
 21
131.0631603677237
 31
0.0
  0
LINE
  5
6AC
  8
LAYER_1
 62
     4
 10
141.3165731851388
 20
131.0631603677237
 30
0.0
 11
141.2416271851388
 21
128.4576853677237
 31
0.0
  0
LINE
  5
6AD
  8
LAYER_1
 62
     4
 10
141.2416271851388
 20
128.4576853677237
 30
0.0
 11
140.9350301851388
 21
126.9443243677237
 31
0.0
  0
LINE
  5
6AE
  8
LAYER_1
 62
     4
 10
140.9350301851388
 20
126.9443243677237
 30
0.0
 11
140.6565381851388
 21
126.5094273677237
 31
0.0
  0
LINE
  5
6AF
  8
LAYER_1
 62
     4
 10
140.6565381851388
 20
126.5094273677237
 30
0.0
 11
140.2741441851388
 21
126.2422483677237
 31
0.0
  0
LINE
  5
6B0
  8
LAYER_1
 62
     4
 10
140.2741441851388
 20
126.2422483677237
 30
0.0
 11
139.1363301851388
 21
126.0706303677237
 31
0.0
  0
LINE
  5
6B1
  8
LAYER_1
 62
     4
 10
139.1363301851388
 20
126.0706303677237
 30
0.0
 11
137.9985181851388
 21
126.2422483677237
 31
0.0
  0
LINE
  5
6B2
  8
LAYER_1
 62
     4
 10
137.9985181851388
 20
126.2422483677237
 30
0.0
 11
137.6161241851388
 21
126.5094273677237
 31
0.0
  0
LINE
  5
6B3
  8
LAYER_1
 62
     4
 10
137.6161241851388
 20
126.5094273677237
 30
0.0
 11
137.3376331851388
 21
126.9443243677237
 31
0.0
  0
LINE
  5
6B4
  8
LAYER_1
 62
     4
 10
137.3376331851388
 20
126.9443243677237
 30
0.0
 11
137.0310361851388
 21
128.4576853677237
 31
0.0
  0
LINE
  5
6B5
  8
LAYER_1
 62
     4
 10
137.0310361851388
 20
128.4576853677237
 30
0.0
 11
136.9560901851388
 21
131.0631603677237
 31
0.0
  0
LINE
  5
6B6
  8
LAYER_1
 62
     4
 10
136.9560901851388
 20
131.0631603677237
 30
0.0
 11
136.9560901851388
 21
136.0556913677237
 31
0.0
  0
LINE
  5
6B7
  8
LAYER_1
 62
     4
 10
136.9560901851388
 20
136.0556913677237
 30
0.0
 11
131.5054761851388
 21
136.0556913677237
 31
0.0
  0
LINE
  5
6B8
  8
LAYER_1
 62
     4
 10
131.5054761851388
 20
136.0556913677237
 30
0.0
 11
126.0548701851388
 21
136.0556913677237
 31
0.0
  0
LINE
  5
6B9
  8
LAYER_1
 62
     4
 10
126.0548701851388
 20
136.0556913677237
 30
0.0
 11
126.0548701851388
 21
131.0631603677237
 31
0.0
  0
LINE
  5
6BA
  8
LAYER_1
 62
     4
 10
126.0548701851388
 20
131.0631603677237
 30
0.0
 11
125.9799241851388
 21
128.4576853677237
 31
0.0
  0
LINE
  5
6BB
  8
LAYER_1
 62
     4
 10
125.9799241851388
 20
128.4576853677237
 30
0.0
 11
125.6733261851388
 21
126.9443243677237
 31
0.0
  0
LINE
  5
6BC
  8
LAYER_1
 62
     4
 10
125.6733261851388
 20
126.9443243677237
 30
0.0
 11
125.3948341851388
 21
126.5094273677237
 31
0.0
  0
LINE
  5
6BD
  8
LAYER_1
 62
     4
 10
125.3948341851388
 20
126.5094273677237
 30
0.0
 11
125.0124401851388
 21
126.2422483677237
 31
0.0
  0
LINE
  5
6BE
  8
LAYER_1
 62
     4
 10
125.0124401851388
 20
126.2422483677237
 30
0.0
 11
123.8746271851388
 21
126.0706303677237
 31
0.0
  0
LINE
  5
6BF
  8
LAYER_1
 62
     4
 10
123.8746271851388
 20
126.0706303677237
 30
0.0
 11
122.7368131851388
 21
126.2422483677237
 31
0.0
  0
LINE
  5
6C0
  8
LAYER_1
 62
     4
 10
122.7368131851388
 20
126.2422483677237
 30
0.0
 11
122.3544191851388
 21
126.5094273677237
 31
0.0
  0
LINE
  5
6C1
  8
LAYER_1
 62
     4
 10
122.3544191851388
 20
126.5094273677237
 30
0.0
 11
122.0759271851388
 21
126.9443243677237
 31
0.0
  0
LINE
  5
6C2
  8
LAYER_1
 62
     4
 10
122.0759271851388
 20
126.9443243677237
 30
0.0
 11
121.7693301851388
 21
128.4576853677237
 31
0.0
  0
LINE
  5
6C3
  8
LAYER_1
 62
     4
 10
121.7693301851388
 20
128.4576853677237
 30
0.0
 11
121.6943841851388
 21
131.0631603677237
 31
0.0
  0
LINE
  5
6C4
  8
LAYER_1
 62
     4
 10
121.6943841851388
 20
131.0631603677237
 30
0.0
 11
121.6943841851388
 21
136.0556913677237
 31
0.0
  0
LINE
  5
6C5
  8
LAYER_1
 62
     4
 10
121.6943841851388
 20
136.0556913677237
 30
0.0
 11
116.7888371851388
 21
136.0556913677237
 31
0.0
  0
LINE
  5
6C6
  8
LAYER_1
 62
     4
 10
116.7888371851388
 20
136.0556913677237
 30
0.0
 11
111.8832871851388
 21
136.0556913677237
 31
0.0
  0
LINE
  5
6C7
  8
LAYER_1
 62
     4
 10
111.8832871851388
 20
136.0556913677237
 30
0.0
 11
111.8832871851388
 21
131.5310793677237
 31
0.0
  0
LINE
  5
6C8
  8
LAYER_1
 62
     4
 10
111.8832871851388
 20
131.5310793677237
 30
0.0
 11
111.7854991851388
 21
129.4578863677237
 31
0.0
  0
LINE
  5
6C9
  8
LAYER_1
 62
     4
 10
111.7854991851388
 20
129.4578863677237
 30
0.0
 11
111.4823341851388
 21
127.9439723677237
 31
0.0
  0
LINE
  5
6CA
  8
LAYER_1
 62
     4
 10
111.4823341851388
 20
127.9439723677237
 30
0.0
 11
110.9590971851388
 21
126.9446403677237
 31
0.0
  0
LINE
  5
6CB
  8
LAYER_1
 62
     4
 10
110.9590971851388
 20
126.9446403677237
 30
0.0
 11
110.2010881851388
 21
126.4151923677237
 31
0.0
  0
LINE
  5
6CC
  8
LAYER_1
 62
     4
 10
110.2010881851388
 20
126.4151923677237
 30
0.0
 11
108.8277651851388
 21
126.0845823677237
 31
0.0
  0
LINE
  5
6CD
  8
LAYER_1
 62
     4
 10
108.8277651851388
 20
126.0845823677237
 30
0.0
 11
108.3730491851388
 21
126.1964513677237
 31
0.0
  0
LINE
  5
6CE
  8
LAYER_1
 62
     4
 10
108.3730491851388
 20
126.1964513677237
 30
0.0
 11
108.0383991851388
 21
126.5534653677237
 31
0.0
  0
LINE
  5
6CF
  8
LAYER_1
 62
     4
 10
108.0383991851388
 20
126.5534653677237
 30
0.0
 11
107.7978911851388
 21
127.2008943677237
 31
0.0
  0
LINE
  5
6D0
  8
LAYER_1
 62
     4
 10
107.7978911851388
 20
127.2008943677237
 30
0.0
 11
107.6256021851388
 21
128.1840103677237
 31
0.0
  0
LINE
  5
6D1
  8
LAYER_1
 62
     4
 10
107.6256021851388
 20
128.1840103677237
 30
0.0
 11
107.3819901851388
 21
131.3383863677237
 31
0.0
  0
LINE
  5
6D2
  8
LAYER_1
 62
     4
 10
107.3819901851388
 20
131.3383863677237
 30
0.0
 11
107.1154001851388
 21
136.0556913677237
 31
0.0
  0
LINE
  5
6D3
  8
LAYER_1
 62
     4
 10
107.1154001851388
 20
136.0556913677237
 30
0.0
 11
102.4732811851388
 21
136.0556913677237
 31
0.0
  0
LINE
  5
6D4
  8
LAYER_1
 62
     4
 10
102.4732811851388
 20
136.0556913677237
 30
0.0
 11
97.83115818513878
 21
136.0556913677237
 31
0.0
  0
LINE
  5
6D5
  8
LAYER_1
 62
     4
 10
97.83115818513878
 20
136.0556913677237
 30
0.0
 11
97.49890318513877
 21
131.3908403677237
 31
0.0
  0
LINE
  5
6D6
  8
LAYER_1
 62
     4
 10
97.49890318513877
 20
131.3908403677237
 30
0.0
 11
97.26318818513877
 21
129.5355323677237
 31
0.0
  0
LINE
  5
6D7
  8
LAYER_1
 62
     4
 10
97.26318818513877
 20
129.5355323677237
 30
0.0
 11
96.86821318513877
 21
127.9663353677237
 31
0.0
  0
LINE
  5
6D8
  8
LAYER_1
 62
     4
 10
96.86821318513877
 20
127.9663353677237
 30
0.0
 11
96.36645818513878
 21
126.8409433677237
 31
0.0
  0
LINE
  5
6D9
  8
LAYER_1
 62
     4
 10
96.36645818513878
 20
126.8409433677237
 30
0.0
 11
95.81040118513877
 21
126.3170493677237
 31
0.0
  0
LINE
  5
6DA
  8
LAYER_1
 62
     4
 10
95.81040118513877
 20
126.3170493677237
 30
0.0
 11
95.57101618513877
 21
126.3325943677237
 31
0.0
  0
LINE
  5
6DB
  8
LAYER_1
 62
     4
 10
95.57101618513877
 20
126.3325943677237
 30
0.0
 11
95.37008018513878
 21
126.5331453677237
 31
0.0
  0
LINE
  5
6DC
  8
LAYER_1
 62
     4
 10
95.37008018513878
 20
126.5331453677237
 30
0.0
 11
95.08313118513878
 21
127.4769283677237
 31
0.0
  0
LINE
  5
6DD
  8
LAYER_1
 62
     4
 10
95.08313118513878
 20
127.4769283677237
 30
0.0
 11
94.94869218513878
 21
129.1237223677237
 31
0.0
  0
LINE
  5
6DE
  8
LAYER_1
 62
     4
 10
94.94869218513878
 20
129.1237223677237
 30
0.0
 11
94.96590218513877
 21
131.4488543677237
 31
0.0
  0
LINE
  5
6DF
  8
LAYER_1
 62
     4
 10
94.96590218513877
 20
131.4488543677237
 30
0.0
 11
95.45181918513877
 21
138.0354323677237
 31
0.0
  0
LINE
  5
6E0
  8
LAYER_1
 62
     4
 10
95.45181918513877
 20
138.0354323677237
 30
0.0
 11
96.53399118513877
 21
147.0392643677237
 31
0.0
  0
LINE
  5
6E1
  8
LAYER_1
 62
     4
 10
96.53399118513877
 20
147.0392643677237
 30
0.0
 11
97.27983118513878
 21
152.5310513677237
 31
0.0
  0
LINE
  5
6E2
  8
LAYER_1
 62
     4
 10
97.27983118513878
 20
152.5310513677237
 30
0.0
 11
99.83428118513878
 21
146.2597093677237
 31
0.0
  0
LINE
  5
6E3
  8
LAYER_1
 62
     4
 10
99.83428118513878
 20
146.2597093677237
 30
0.0
 11
101.8751871851388
 21
141.6965223677237
 31
0.0
  0
LINE
  5
6E4
  8
LAYER_1
 62
     4
 10
101.8751871851388
 20
141.6965223677237
 30
0.0
 11
102.6803381851388
 21
140.2040523677237
 31
0.0
  0
LINE
  5
6E5
  8
LAYER_1
 62
     4
 10
102.6803381851388
 20
140.2040523677237
 30
0.0
 11
103.1949291851388
 21
139.5320033677237
 31
0.0
  0
LINE
  5
6E6
  8
LAYER_1
 62
     4
 10
103.1949291851388
 20
139.5320033677237
 30
0.0
 11
103.5159311851388
 21
139.5099233677237
 31
0.0
  0
LINE
  5
6E7
  8
LAYER_1
 62
     4
 10
103.5159311851388
 20
139.5099233677237
 30
0.0
 11
104.0340521851388
 21
139.6692773677237
 31
0.0
  0
LINE
  5
6E8
  8
LAYER_1
 62
     4
 10
104.0340521851388
 20
139.6692773677237
 30
0.0
 11
105.5414301851388
 21
140.4428463677237
 31
0.0
  0
LINE
  5
6E9
  8
LAYER_1
 62
     4
 10
105.5414301851388
 20
140.4428463677237
 30
0.0
 11
109.5991361851388
 21
143.1833243677237
 31
0.0
  0
LINE
  5
6EA
  8
LAYER_1
 62
     4
 10
109.5991361851388
 20
143.1833243677237
 30
0.0
 11
113.4444191851388
 21
146.3223403677237
 31
0.0
  0
LINE
  5
6EB
  8
LAYER_1
 62
     4
 10
113.4444191851388
 20
146.3223403677237
 30
0.0
 11
114.6862691851388
 21
147.5940813677237
 31
0.0
  0
LINE
  5
6EC
  8
LAYER_1
 62
     4
 10
114.6862691851388
 20
147.5940813677237
 30
0.0
 11
115.1536531851388
 21
148.4287963677237
 31
0.0
  0
LINE
  5
6ED
  8
LAYER_1
 62
     4
 10
115.1536531851388
 20
148.4287963677237
 30
0.0
 11
114.6375481851388
 21
150.0752843677237
 31
0.0
  0
LINE
  5
6EE
  8
LAYER_1
 62
     4
 10
114.6375481851388
 20
150.0752843677237
 30
0.0
 11
113.2323121851388
 21
153.6566793677237
 31
0.0
  0
LINE
  5
6EF
  8
LAYER_1
 62
     4
 10
113.2323121851388
 20
153.6566793677237
 30
0.0
 11
108.6129221851388
 21
164.5131263677237
 31
0.0
  0
LINE
  5
6F0
  8
LAYER_1
 62
     4
 10
108.6129221851388
 20
164.5131263677237
 30
0.0
 11
103.9935301851388
 21
175.4018513677237
 31
0.0
  0
LINE
  5
6F1
  8
LAYER_1
 62
     4
 10
103.9935301851388
 20
175.4018513677237
 30
0.0
 11
102.5882951851388
 21
179.0181803677237
 31
0.0
  0
LINE
  5
6F2
  8
LAYER_1
 62
     4
 10
102.5882951851388
 20
179.0181803677237
 30
0.0
 11
102.0721901851388
 21
180.7073253677237
 31
0.0
  0
LINE
  5
6F3
  8
LAYER_1
 62
     4
 10
102.0721901851388
 20
180.7073253677237
 30
0.0
 11
102.3743331851388
 21
181.7731043677237
 31
0.0
  0
LINE
  5
6F4
  8
LAYER_1
 62
     4
 10
102.3743331851388
 20
181.7731043677237
 30
0.0
 11
103.1969981851388
 21
183.6921533677237
 31
0.0
  0
LINE
  5
6F5
  8
LAYER_1
 62
     4
 10
103.1969981851388
 20
183.6921533677237
 30
0.0
 11
105.9013221851388
 21
189.0014583677237
 31
0.0
  0
LINE
  5
6F6
  8
LAYER_1
 62
     4
 10
105.9013221851388
 20
189.0014583677237
 30
0.0
 11
108.4415101851388
 21
193.9568883677237
 31
0.0
  0
LINE
  5
6F7
  8
LAYER_1
 62
     4
 10
108.4415101851388
 20
193.9568883677237
 30
0.0
 11
109.0865031851388
 21
195.4928823677237
 31
0.0
  0
LINE
  5
6F8
  8
LAYER_1
 62
     4
 10
109.0865031851388
 20
195.4928823677237
 30
0.0
 11
109.1716821851388
 21
196.0908973677237
 31
0.0
  0
LINE
  5
6F9
  8
LAYER_1
 62
     4
 10
109.1716821851388
 20
196.0908973677237
 30
0.0
 11
107.0151971851388
 21
196.3798483677237
 31
0.0
  0
LINE
  5
6FA
  8
LAYER_1
 62
     4
 10
107.0151971851388
 20
196.3798483677237
 30
0.0
 11
104.9598921851388
 21
196.2886963677237
 31
0.0
  0
LINE
  5
6FB
  8
LAYER_1
 62
     4
 10
104.9598921851388
 20
196.2886963677237
 30
0.0
 11
103.1212671851388
 21
195.8336433677237
 31
0.0
  0
LINE
  5
6FC
  8
LAYER_1
 62
     4
 10
103.1212671851388
 20
195.8336433677237
 30
0.0
 11
101.6148211851388
 21
195.0308933677237
 31
0.0
  0
LINE
  5
6FD
  8
LAYER_1
 62
     4
 10
101.6148211851388
 20
195.0308933677237
 30
0.0
 11
100.4919271851388
 21
194.2271083677237
 31
0.0
  0
LINE
  5
6FE
  8
LAYER_1
 62
     4
 10
100.4919271851388
 20
194.2271083677237
 30
0.0
 11
99.95612118513877
 21
193.9909413677237
 31
0.0
  0
LINE
  5
6FF
  8
LAYER_1
 62
     4
 10
99.95612118513877
 20
193.9909413677237
 30
0.0
 11
99.90900218513878
 21
194.3417443677237
 31
0.0
  0
LINE
  5
700
  8
LAYER_1
 62
     4
 10
99.90900218513878
 20
194.3417443677237
 30
0.0
 11
100.2521671851388
 21
195.2988693677237
 31
0.0
  0
LINE
  5
701
  8
LAYER_1
 62
     4
 10
100.2521671851388
 20
195.2988693677237
 30
0.0
 11
100.5355751851388
 21
196.4359473677237
 31
0.0
  0
LINE
  5
702
  8
LAYER_1
 62
     4
 10
100.5355751851388
 20
196.4359473677237
 30
0.0
 11
100.7676601851388
 21
198.1798583677237
 31
0.0
  0
LINE
  5
703
  8
LAYER_1
 62
     4
 10
100.7676601851388
 20
198.1798583677237
 30
0.0
 11
100.9820671851388
 21
202.5380443677237
 31
0.0
  0
LINE
  5
704
  8
LAYER_1
 62
     4
 10
100.9820671851388
 20
202.5380443677237
 30
0.0
 11
101.0614601851388
 21
205.1313383677237
 31
0.0
  0
LINE
  5
705
  8
LAYER_1
 62
     4
 10
101.0614601851388
 20
205.1313383677237
 30
0.0
 11
101.3300471851388
 21
206.7968483677237
 31
0.0
  0
LINE
  5
706
  8
LAYER_1
 62
     4
 10
101.3300471851388
 20
206.7968483677237
 30
0.0
 11
101.8334401851388
 21
207.6854853677237
 31
0.0
  0
LINE
  5
707
  8
LAYER_1
 62
     4
 10
101.8334401851388
 20
207.6854853677237
 30
0.0
 11
102.1874431851388
 21
207.8856373677237
 31
0.0
  0
LINE
  5
708
  8
LAYER_1
 62
     4
 10
102.1874431851388
 20
207.8856373677237
 30
0.0
 11
102.6172521851388
 21
207.9481623677237
 31
0.0
  0
LINE
  5
709
  8
LAYER_1
 62
     4
 10
102.6172521851388
 20
207.9481623677237
 30
0.0
 11
103.0422271851388
 21
207.8883553677237
 31
0.0
  0
LINE
  5
70A
  8
LAYER_1
 62
     4
 10
103.0422271851388
 20
207.8883553677237
 30
0.0
 11
103.3939611851388
 21
207.6985353677237
 31
0.0
  0
LINE
  5
70B
  8
LAYER_1
 62
     4
 10
103.3939611851388
 20
207.6985353677237
 30
0.0
 11
103.8981421851388
 21
206.8664463677237
 31
0.0
  0
LINE
  5
70C
  8
LAYER_1
 62
     4
 10
103.8981421851388
 20
206.8664463677237
 30
0.0
 11
104.1706731851388
 21
205.3270823677237
 31
0.0
  0
LINE
  5
70D
  8
LAYER_1
 62
     4
 10
104.1706731851388
 20
205.3270823677237
 30
0.0
 11
104.2524331851388
 21
202.9556283677237
 31
0.0
  0
LINE
  5
70E
  8
LAYER_1
 62
     4
 10
104.2524331851388
 20
202.9556283677237
 30
0.0
 11
104.2524331851388
 21
197.9630943677237
 31
0.0
  0
LINE
  5
70F
  8
LAYER_1
 62
     4
 10
104.2524331851388
 20
197.9630943677237
 30
0.0
 11
109.1579831851388
 21
197.9630943677237
 31
0.0
  0
LINE
  5
710
  8
LAYER_1
 62
     4
 10
109.1579831851388
 20
197.9630943677237
 30
0.0
 11
114.0635301851388
 21
197.9630943677237
 31
0.0
  0
LINE
  5
711
  8
LAYER_1
 62
     4
 10
114.0635301851388
 20
197.9630943677237
 30
0.0
 11
114.0635301851388
 21
202.9556283677237
 31
0.0
  0
LINE
  5
712
  8
LAYER_1
 62
     4
 10
114.0635301851388
 20
202.9556283677237
 30
0.0
 11
114.1316631851388
 21
205.7015233677237
 31
0.0
  0
LINE
  5
713
  8
LAYER_1
 62
     4
 10
114.1316631851388
 20
205.7015233677237
 30
0.0
 11
114.2551541851388
 21
206.5830173677237
 31
0.0
  0
LINE
  5
714
  8
LAYER_1
 62
     4
 10
114.2551541851388
 20
206.5830173677237
 30
0.0
 11
114.4723281851388
 21
207.1992833677237
 31
0.0
  0
LINE
  5
715
  8
LAYER_1
 62
     4
 10
114.4723281851388
 20
207.1992833677237
 30
0.0
 11
114.8087331851388
 21
207.5971253677237
 31
0.0
  0
LINE
  5
716
  8
LAYER_1
 62
     4
 10
114.8087331851388
 20
207.5971253677237
 30
0.0
 11
115.2899201851388
 21
207.8233493677237
 31
0.0
  0
LINE
  5
717
  8
LAYER_1
 62
     4
 10
115.2899201851388
 20
207.8233493677237
 30
0.0
 11
116.7888371851388
 21
207.9481623677237
 31
0.0
  0
LINE
  5
718
  8
LAYER_1
 62
     4
 10
116.7888371851388
 20
207.9481623677237
 30
0.0
 11
118.2877521851388
 21
207.8233493677237
 31
0.0
  0
LINE
  5
719
  8
LAYER_1
 62
     4
 10
118.2877521851388
 20
207.8233493677237
 30
0.0
 11
118.7689381851388
 21
207.5971253677237
 31
0.0
  0
LINE
  5
71A
  8
LAYER_1
 62
     4
 10
118.7689381851388
 20
207.5971253677237
 30
0.0
 11
119.1053431851388
 21
207.1992833677237
 31
0.0
  0
LINE
  5
71B
  8
LAYER_1
 62
     4
 10
119.1053431851388
 20
207.1992833677237
 30
0.0
 11
119.3225151851388
 21
206.5830173677237
 31
0.0
  0
LINE
  5
71C
  8
LAYER_1
 62
     4
 10
119.3225151851388
 20
206.5830173677237
 30
0.0
 11
119.4460061851388
 21
205.7015233677237
 31
0.0
  0
LINE
  5
71D
  8
LAYER_1
 62
     4
 10
119.4460061851388
 20
205.7015233677237
 30
0.0
 11
119.5141391851388
 21
202.9556283677237
 31
0.0
  0
LINE
  5
71E
  8
LAYER_1
 62
     4
 10
119.5141391851388
 20
202.9556283677237
 30
0.0
 11
119.5141391851388
 21
197.9630943677237
 31
0.0
  0
LINE
  5
71F
  8
LAYER_1
 62
     4
 10
119.5141391851388
 20
197.9630943677237
 30
0.0
 11
124.4196861851388
 21
197.9630943677237
 31
0.0
  0
LINE
  5
720
  8
LAYER_1
 62
     4
 10
124.4196861851388
 20
197.9630943677237
 30
0.0
 11
129.3252361851388
 21
197.9630943677237
 31
0.0
  0
LINE
  5
721
  8
LAYER_1
 62
     4
 10
129.3252361851388
 20
197.9630943677237
 30
0.0
 11
129.3252361851388
 21
202.9556283677237
 31
0.0
  0
LINE
  5
722
  8
LAYER_1
 62
     4
 10
129.3252361851388
 20
202.9556283677237
 30
0.0
 11
129.3933691851388
 21
205.7015233677237
 31
0.0
  0
LINE
  5
723
  8
LAYER_1
 62
     4
 10
129.3933691851388
 20
205.7015233677237
 30
0.0
 11
129.5168601851388
 21
206.5830173677237
 31
0.0
  0
LINE
  5
724
  8
LAYER_1
 62
     4
 10
129.5168601851388
 20
206.5830173677237
 30
0.0
 11
129.7340331851388
 21
207.1992833677237
 31
0.0
  0
LINE
  5
725
  8
LAYER_1
 62
     4
 10
129.7340331851388
 20
207.1992833677237
 30
0.0
 11
130.0704381851388
 21
207.5971253677237
 31
0.0
  0
LINE
  5
726
  8
LAYER_1
 62
     4
 10
130.0704381851388
 20
207.5971253677237
 30
0.0
 11
130.5516251851388
 21
207.8233493677237
 31
0.0
  0
LINE
  5
727
  8
LAYER_1
 62
     4
 10
130.5516251851388
 20
207.8233493677237
 30
0.0
 11
132.0505401851388
 21
207.9481623677237
 31
0.0
  0
LINE
  5
728
  8
LAYER_1
 62
     4
 10
132.0505401851388
 20
207.9481623677237
 30
0.0
 11
133.5494561851388
 21
207.8233493677237
 31
0.0
  0
LINE
  5
729
  8
LAYER_1
 62
     4
 10
133.5494561851388
 20
207.8233493677237
 30
0.0
 11
134.0306421851388
 21
207.5971253677237
 31
0.0
  0
LINE
  5
72A
  8
LAYER_1
 62
     4
 10
134.0306421851388
 20
207.5971253677237
 30
0.0
 11
134.3670471851388
 21
207.1992833677237
 31
0.0
  0
LINE
  5
72B
  8
LAYER_1
 62
     4
 10
134.3670471851388
 20
207.1992833677237
 30
0.0
 11
134.5842191851388
 21
206.5830173677237
 31
0.0
  0
LINE
  5
72C
  8
LAYER_1
 62
     4
 10
134.5842191851388
 20
206.5830173677237
 30
0.0
 11
134.7077091851388
 21
205.7015233677237
 31
0.0
  0
LINE
  5
72D
  8
LAYER_1
 62
     4
 10
134.7077091851388
 20
205.7015233677237
 30
0.0
 11
134.7758421851388
 21
202.9556283677237
 31
0.0
  0
LINE
  5
72E
  8
LAYER_1
 62
     4
 10
134.7758421851388
 20
202.9556283677237
 30
0.0
 11
134.7758421851388
 21
197.9630943677237
 31
0.0
  0
LINE
  5
72F
  8
LAYER_1
 62
     4
 10
134.7758421851388
 20
197.9630943677237
 30
0.0
 11
139.6813921851388
 21
197.9630943677237
 31
0.0
  0
LINE
  5
730
  8
LAYER_1
 62
     4
 10
139.6813921851388
 20
197.9630943677237
 30
0.0
 11
144.5869391851388
 21
197.9630943677237
 31
0.0
  0
LINE
  5
731
  8
LAYER_1
 62
     4
 10
144.5869391851388
 20
197.9630943677237
 30
0.0
 11
144.5869391851388
 21
202.9556283677237
 31
0.0
  0
LINE
  5
732
  8
LAYER_1
 62
     4
 10
144.5869391851388
 20
202.9556283677237
 30
0.0
 11
144.6550721851388
 21
205.7015233677237
 31
0.0
  0
LINE
  5
733
  8
LAYER_1
 62
     4
 10
144.6550721851388
 20
205.7015233677237
 30
0.0
 11
144.7785631851388
 21
206.5830173677237
 31
0.0
  0
LINE
  5
734
  8
LAYER_1
 62
     4
 10
144.7785631851388
 20
206.5830173677237
 30
0.0
 11
144.9957371851388
 21
207.1992833677237
 31
0.0
  0
LINE
  5
735
  8
LAYER_1
 62
     4
 10
144.9957371851388
 20
207.1992833677237
 30
0.0
 11
145.3321421851388
 21
207.5971253677237
 31
0.0
  0
LINE
  5
736
  8
LAYER_1
 62
     4
 10
145.3321421851388
 20
207.5971253677237
 30
0.0
 11
145.8133291851388
 21
207.8233493677237
 31
0.0
  0
LINE
  5
737
  8
LAYER_1
 62
     4
 10
145.8133291851388
 20
207.8233493677237
 30
0.0
 11
147.3122461851388
 21
207.9481623677237
 31
0.0
  0
LINE
  5
738
  8
LAYER_1
 62
     4
 10
147.3122461851388
 20
207.9481623677237
 30
0.0
 11
148.8450361851388
 21
207.8144973677237
 31
0.0
  0
LINE
  5
739
  8
LAYER_1
 62
     4
 10
148.8450361851388
 20
207.8144973677237
 30
0.0
 11
149.3276341851388
 21
207.5473383677237
 31
0.0
  0
LINE
  5
73A
  8
LAYER_1
 62
     4
 10
149.3276341851388
 20
207.5473383677237
 30
0.0
 11
149.6588631851388
 21
207.0576703677237
 31
0.0
  0
LINE
  5
73B
  8
LAYER_1
 62
     4
 10
149.6588631851388
 20
207.0576703677237
 30
0.0
 11
149.8670961851388
 21
206.2787753677237
 31
0.0
  0
LINE
  5
73C
  8
LAYER_1
 62
     4
 10
149.8670961851388
 20
206.2787753677237
 30
0.0
 11
149.9807061851388
 21
205.1439333677237
 31
0.0
  0
LINE
  5
73D
  8
LAYER_1
 62
     4
 10
149.9807061851388
 20
205.1439333677237
 30
0.0
 11
150.0375471851388
 21
201.5395363677237
 31
0.0
  0
LINE
  5
73E
  8
LAYER_1
 62
     4
 10
150.0375471851388
 20
201.5395363677237
 30
0.0
 11
150.2319171851388
 21
196.5494843677237
 31
0.0
  0
LINE
  5
73F
  8
LAYER_1
 62
     4
 10
150.2319171851388
 20
196.5494843677237
 30
0.0
 11
150.4423151851388
 21
194.6704243677237
 31
0.0
  0
LINE
  5
740
  8
LAYER_1
 62
     4
 10
150.4423151851388
 20
194.6704243677237
 30
0.0
 11
150.6992401851388
 21
193.5514843677237
 31
0.0
  0
LINE
  5
741
  8
LAYER_1
 62
     4
 10
150.6992401851388
 20
193.5514843677237
 30
0.0
 11
150.9384251851388
 21
192.7682943677237
 31
0.0
  0
LINE
  5
742
  8
LAYER_1
 62
     4
 10
150.9384251851388
 20
192.7682943677237
 30
0.0
 11
150.9153101851388
 21
192.2603693677237
 31
0.0
  0
LINE
  5
743
  8
LAYER_1
 62
     4
 10
150.9153101851388
 20
192.2603693677237
 30
0.0
 11
150.6820001851388
 21
192.0138753677237
 31
0.0
  0
LINE
  5
744
  8
LAYER_1
 62
     4
 10
150.6820001851388
 20
192.0138753677237
 30
0.0
 11
150.2905971851388
 21
192.0149783677237
 31
0.0
  0
LINE
  5
745
  8
LAYER_1
 62
     4
 10
150.2905971851388
 20
192.0149783677237
 30
0.0
 11
149.7932061851388
 21
192.2498463677237
 31
0.0
  0
LINE
  5
746
  8
LAYER_1
 62
     4
 10
149.7932061851388
 20
192.2498463677237
 30
0.0
 11
149.2419301851388
 21
192.7046443677237
 31
0.0
  0
LINE
  5
747
  8
LAYER_1
 62
     4
 10
149.2419301851388
 20
192.7046443677237
 30
0.0
 11
148.6888731851388
 21
193.3655393677237
 31
0.0
  0
LINE
  5
748
  8
LAYER_1
 62
     4
 10
148.6888731851388
 20
193.3655393677237
 30
0.0
 11
148.1861381851388
 21
194.2186973677237
 31
0.0
  0
LINE
  5
749
  8
LAYER_1
 62
     4
 10
148.1861381851388
 20
194.2186973677237
 30
0.0
 11
147.4941231851388
 21
195.2624343677237
 31
0.0
  0
LINE
  5
74A
  8
LAYER_1
 62
     4
 10
147.4941231851388
 20
195.2624343677237
 30
0.0
 11
146.5634161851388
 21
195.9577493677237
 31
0.0
  0
LINE
  5
74B
  8
LAYER_1
 62
     4
 10
146.5634161851388
 20
195.9577493677237
 30
0.0
 11
145.3123031851388
 21
196.3451983677237
 31
0.0
  0
LINE
  5
74C
  8
LAYER_1
 62
     4
 10
145.3123031851388
 20
196.3451983677237
 30
0.0
 11
143.6590711851388
 21
196.4653353677237
 31
0.0
  0
LINE
  5
74D
  8
LAYER_1
 62
     4
 10
143.6590711851388
 20
196.4653353677237
 30
0.0
 11
141.2347831851388
 21
196.3968573677237
 31
0.0
  0
LINE
  5
74E
  8
LAYER_1
 62
     4
 10
141.2347831851388
 20
196.3968573677237
 30
0.0
 11
140.2264501851388
 21
196.2322233677237
 31
0.0
  0
LINE
  5
74F
  8
LAYER_1
 62
     4
 10
140.2264501851388
 20
196.2322233677237
 30
0.0
 11
144.2611891851388
 21
188.5303423677237
 31
0.0
  0
LINE
  5
750
  8
LAYER_1
 62
     4
 10
144.2611891851388
 20
188.5303423677237
 30
0.0
 11
148.2959261851388
 21
181.0615673677237
 31
0.0
  0
LINE
  5
751
  8
LAYER_1
 62
     4
 10
148.2959261851388
 20
181.0615673677237
 30
0.0
 11
141.0941881851388
 21
164.5459883677237
 31
0.0
  0
LINE
  5
752
  8
LAYER_1
 62
     4
 10
141.0941881851388
 20
164.5459883677237
 30
0.0
 11
133.8924631851388
 21
148.0304033677237
 31
0.0
  0
LINE
  5
753
  8
LAYER_1
 62
     4
 10
133.8924631851388
 20
148.0304033677237
 30
0.0
 11
139.8309211851388
 21
143.3833943677237
 31
0.0
  0
LINE
  5
754
  8
LAYER_1
 62
     4
 10
139.8309211851388
 20
143.3833943677237
 30
0.0
 11
142.2561921851388
 21
141.6074673677237
 31
0.0
  0
LINE
  5
755
  8
LAYER_1
 62
     4
 10
142.2561921851388
 20
141.6074673677237
 30
0.0
 11
144.3259541851388
 21
140.3246873677237
 31
0.0
  0
LINE
  5
756
  8
LAYER_1
 62
     4
 10
144.3259541851388
 20
140.3246873677237
 30
0.0
 11
145.8557371851388
 21
139.6360823677237
 31
0.0
  0
LINE
  5
757
  8
LAYER_1
 62
     4
 10
145.8557371851388
 20
139.6360823677237
 30
0.0
 11
146.3604891851388
 21
139.5461663677237
 31
0.0
  0
LINE
  5
758
  8
LAYER_1
 62
     4
 10
146.3604891851388
 20
139.5461663677237
 30
0.0
 11
146.6610691851388
 21
139.6426793677237
 31
0.0
  0
LINE
  5
759
  8
LAYER_1
 62
     4
 10
146.6610691851388
 20
139.6426793677237
 30
0.0
 11
147.8959431851388
 21
141.8731413677237
 31
0.0
  0
LINE
  5
75A
  8
LAYER_1
 62
     4
 10
147.8959431851388
 20
141.8731413677237
 30
0.0
 11
149.6127381851388
 21
145.9630743677237
 31
0.0
  0
LINE
  5
75B
  8
LAYER_1
 62
     4
 10
149.6127381851388
 20
145.9630743677237
 30
0.0
 11
151.6727291851388
 21
151.3771893677237
 31
0.0
  0
LINE
  5
75C
  8
LAYER_1
 62
     4
 10
151.6727291851388
 20
151.3771893677237
 30
0.0
 11
152.3948171851388
 21
146.4623283677237
 31
0.0
  0
LINE
  5
75D
  8
LAYER_1
 62
     4
 10
152.3948171851388
 20
146.4623283677237
 30
0.0
 11
153.0332381851388
 21
139.9021433677237
 31
0.0
  0
LINE
  5
75E
  8
LAYER_1
 62
     4
 10
153.0332381851388
 20
139.9021433677237
 30
0.0
 11
153.2065131851388
 21
133.2732353677237
 31
0.0
  0
LINE
  5
75F
  8
LAYER_1
 62
     4
 10
153.2065131851388
 20
133.2732353677237
 30
0.0
 11
152.9296841851388
 21
128.2657613677237
 31
0.0
  0
LINE
  5
760
  8
LAYER_1
 62
     4
 10
152.9296841851388
 20
128.2657613677237
 30
0.0
 11
152.6271811851388
 21
126.8982373677237
 31
0.0
  0
LINE
  5
761
  8
LAYER_1
 62
     4
 10
152.6271811851388
 20
126.8982373677237
 30
0.0
 11
152.4357301851388
 21
126.5909593677237
 31
0.0
  0
LINE
  5
762
  8
LAYER_1
 62
     4
 10
152.4357301851388
 20
126.5909593677237
 30
0.0
 11
152.2177931851388
 21
126.5698813677237
 31
0.0
  0
LINE
  5
763
  8
LAYER_1
 62
     4
 10
152.2177931851388
 20
126.5698813677237
 30
0.0
 11
151.7945191851388
 21
127.1593933677237
 31
0.0
  0
LINE
  5
764
  8
LAYER_1
 62
     4
 10
151.7945191851388
 20
127.1593933677237
 30
0.0
 11
151.4478941851388
 21
128.3083103677237
 31
0.0
  0
LINE
  5
765
  8
LAYER_1
 62
     4
 10
151.4478941851388
 20
128.3083103677237
 30
0.0
 11
151.2136881851388
 21
129.8508783677237
 31
0.0
  0
LINE
  5
766
  8
LAYER_1
 62
     4
 10
151.2136881851388
 20
129.8508783677237
 30
0.0
 11
151.1276701851388
 21
131.6213483677237
 31
0.0
  0
LINE
  5
767
  8
LAYER_1
 62
     4
 10
151.1276701851388
 20
131.6213483677237
 30
0.0
 11
151.1276701851388
 21
131.6213483677237
 31
0.0
  0
LINE
  5
768
  8
LAYER_1
 62
     4
 10
84.47434518513877
 20
133.0540213677237
 30
0.0
 11
83.77278818513877
 21
133.1705253677237
 31
0.0
  0
LINE
  5
769
  8
LAYER_1
 62
     4
 10
83.77278818513877
 20
133.1705253677237
 30
0.0
 11
83.12906818513876
 21
133.4862643677237
 31
0.0
  0
LINE
  5
76A
  8
LAYER_1
 62
     4
 10
83.12906818513876
 20
133.4862643677237
 30
0.0
 11
82.56969318513878
 21
133.9580173677237
 31
0.0
  0
LINE
  5
76B
  8
LAYER_1
 62
     4
 10
82.56969318513878
 20
133.9580173677237
 30
0.0
 11
82.12116818513879
 21
134.5425663677237
 31
0.0
  0
LINE
  5
76C
  8
LAYER_1
 62
     4
 10
82.12116818513879
 20
134.5425663677237
 30
0.0
 11
81.81000318513877
 21
135.1966893677237
 31
0.0
  0
LINE
  5
76D
  8
LAYER_1
 62
     4
 10
81.81000318513877
 20
135.1966893677237
 30
0.0
 11
81.66270418513877
 21
135.8771673677237
 31
0.0
  0
LINE
  5
76E
  8
LAYER_1
 62
     4
 10
81.66270418513877
 20
135.8771673677237
 30
0.0
 11
81.70577818513878
 21
136.5407783677237
 31
0.0
  0
LINE
  5
76F
  8
LAYER_1
 62
     4
 10
81.70577818513878
 20
136.5407783677237
 30
0.0
 11
81.96573418513877
 21
137.1443043677237
 31
0.0
  0
LINE
  5
770
  8
LAYER_1
 62
     4
 10
81.96573418513877
 20
137.1443043677237
 30
0.0
 11
82.49583018513879
 21
137.5443823677237
 31
0.0
  0
LINE
  5
771
  8
LAYER_1
 62
     4
 10
82.49583018513879
 20
137.5443823677237
 30
0.0
 11
83.39923618513878
 21
137.8230683677237
 31
0.0
  0
LINE
  5
772
  8
LAYER_1
 62
     4
 10
83.39923618513878
 20
137.8230683677237
 30
0.0
 11
85.93908118513879
 21
138.0214873677237
 31
0.0
  0
LINE
  5
773
  8
LAYER_1
 62
     4
 10
85.93908118513879
 20
138.0214873677237
 30
0.0
 11
88.81147818513878
 21
137.7500063677237
 31
0.0
  0
LINE
  5
774
  8
LAYER_1
 62
     4
 10
88.81147818513878
 20
137.7500063677237
 30
0.0
 11
90.13057618513878
 21
137.4413173677237
 31
0.0
  0
LINE
  5
775
  8
LAYER_1
 62
     4
 10
90.13057618513878
 20
137.4413173677237
 30
0.0
 11
91.24264018513878
 21
137.0190713677237
 31
0.0
  0
LINE
  5
776
  8
LAYER_1
 62
     4
 10
91.24264018513878
 20
137.0190713677237
 30
0.0
 11
91.92728218513878
 21
136.5304143677237
 31
0.0
  0
LINE
  5
777
  8
LAYER_1
 62
     4
 10
91.92728218513878
 20
136.5304143677237
 30
0.0
 11
92.50095218513877
 21
135.8287383677237
 31
0.0
  0
LINE
  5
778
  8
LAYER_1
 62
     4
 10
92.50095218513877
 20
135.8287383677237
 30
0.0
 11
92.94787618513878
 21
134.9797723677237
 31
0.0
  0
LINE
  5
779
  8
LAYER_1
 62
     4
 10
92.94787618513878
 20
134.9797723677237
 30
0.0
 11
93.25227518513877
 21
134.0492463677237
 31
0.0
  0
LINE
  5
77A
  8
LAYER_1
 62
     4
 10
93.25227518513877
 20
134.0492463677237
 30
0.0
 11
93.39837318513878
 21
133.1028913677237
 31
0.0
  0
LINE
  5
77B
  8
LAYER_1
 62
     4
 10
93.39837318513878
 20
133.1028913677237
 30
0.0
 11
93.37039418513878
 21
132.2064373677237
 31
0.0
  0
LINE
  5
77C
  8
LAYER_1
 62
     4
 10
93.37039418513878
 20
132.2064373677237
 30
0.0
 11
93.15255918513877
 21
131.4256143677237
 31
0.0
  0
LINE
  5
77D
  8
LAYER_1
 62
     4
 10
93.15255918513877
 20
131.4256143677237
 30
0.0
 11
92.72909418513878
 21
130.8261533677237
 31
0.0
  0
LINE
  5
77E
  8
LAYER_1
 62
     4
 10
92.72909418513878
 20
130.8261533677237
 30
0.0
 11
92.25706818513878
 21
130.7150333677237
 31
0.0
  0
LINE
  5
77F
  8
LAYER_1
 62
     4
 10
92.25706818513878
 20
130.7150333677237
 30
0.0
 11
91.43174318513877
 21
130.8337183677237
 31
0.0
  0
LINE
  5
780
  8
LAYER_1
 62
     4
 10
91.43174318513877
 20
130.8337183677237
 30
0.0
 11
89.18620018513877
 21
131.6520993677237
 31
0.0
  0
LINE
  5
781
  8
LAYER_1
 62
     4
 10
89.18620018513877
 20
131.6520993677237
 30
0.0
 11
86.59727518513877
 21
132.6396683677237
 31
0.0
  0
LINE
  5
782
  8
LAYER_1
 62
     4
 10
86.59727518513877
 20
132.6396683677237
 30
0.0
 11
84.47434518513877
 21
133.0540213677237
 31
0.0
  0
LINE
  5
783
  8
LAYER_1
 62
     4
 10
84.47434518513877
 20
133.0540213677237
 30
0.0
 11
84.47434518513877
 21
133.0540213677237
 31
0.0
  0
LINE
  5
784
  8
LAYER_1
 62
     4
 10
74.45745418513879
 20
139.0512123677237
 30
0.0
 11
74.14766118513877
 21
139.1981353677237
 31
0.0
  0
LINE
  5
785
  8
LAYER_1
 62
     4
 10
74.14766118513877
 20
139.1981353677237
 30
0.0
 11
73.88367118513877
 21
139.6463303677237
 31
0.0
  0
LINE
  5
786
  8
LAYER_1
 62
     4
 10
73.88367118513877
 20
139.6463303677237
 30
0.0
 11
73.48755418513876
 21
141.4910843677237
 31
0.0
  0
LINE
  5
787
  8
LAYER_1
 62
     4
 10
73.48755418513876
 20
141.4910843677237
 30
0.0
 11
73.25801518513877
 21
144.6745763677237
 31
0.0
  0
LINE
  5
788
  8
LAYER_1
 62
     4
 10
73.25801518513877
 20
144.6745763677237
 30
0.0
 11
73.18396618513877
 21
149.2859053677237
 31
0.0
  0
LINE
  5
789
  8
LAYER_1
 62
     4
 10
73.18396618513877
 20
149.2859053677237
 30
0.0
 11
73.12508718513878
 21
153.1570703677237
 31
0.0
  0
LINE
  5
78A
  8
LAYER_1
 62
     4
 10
73.12508718513878
 20
153.1570703677237
 30
0.0
 11
72.90422618513877
 21
156.3995423677237
 31
0.0
  0
LINE
  5
78B
  8
LAYER_1
 62
     4
 10
72.90422618513877
 20
156.3995423677237
 30
0.0
 11
72.45504118513877
 21
159.1904283677237
 31
0.0
  0
LINE
  5
78C
  8
LAYER_1
 62
     4
 10
72.45504118513877
 20
159.1904283677237
 30
0.0
 11
71.71119618513878
 21
161.7068313677237
 31
0.0
  0
LINE
  5
78D
  8
LAYER_1
 62
     4
 10
71.71119618513878
 20
161.7068313677237
 30
0.0
 11
70.60634918513877
 21
164.1258563677237
 31
0.0
  0
LINE
  5
78E
  8
LAYER_1
 62
     4
 10
70.60634918513877
 20
164.1258563677237
 30
0.0
 11
69.07416318513877
 21
166.6246073677237
 31
0.0
  0
LINE
  5
78F
  8
LAYER_1
 62
     4
 10
69.07416318513877
 20
166.6246073677237
 30
0.0
 11
67.04829718513877
 21
169.3801913677237
 31
0.0
  0
LINE
  5
790
  8
LAYER_1
 62
     4
 10
67.04829718513877
 20
169.3801913677237
 30
0.0
 11
64.46241318513877
 21
172.5697103677237
 31
0.0
  0
LINE
  5
791
  8
LAYER_1
 62
     4
 10
64.46241318513877
 20
172.5697103677237
 30
0.0
 11
60.93118318513878
 21
177.2161833677237
 31
0.0
  0
LINE
  5
792
  8
LAYER_1
 62
     4
 10
60.93118318513878
 20
177.2161833677237
 30
0.0
 11
57.94935718513877
 21
182.0736333677237
 31
0.0
  0
LINE
  5
793
  8
LAYER_1
 62
     4
 10
57.94935718513877
 20
182.0736333677237
 30
0.0
 11
55.39366918513876
 21
187.3680373677237
 31
0.0
  0
LINE
  5
794
  8
LAYER_1
 62
     4
 10
55.39366918513876
 20
187.3680373677237
 30
0.0
 11
53.14085418513876
 21
193.3253703677237
 31
0.0
  0
LINE
  5
795
  8
LAYER_1
 62
     4
 10
53.14085418513876
 20
193.3253703677237
 30
0.0
 11
51.48096618513877
 21
198.6651013677237
 31
0.0
  0
LINE
  5
796
  8
LAYER_1
 62
     4
 10
51.48096618513877
 20
198.6651013677237
 30
0.0
 11
51.11656218513879
 21
200.4658933677237
 31
0.0
  0
LINE
  5
797
  8
LAYER_1
 62
     4
 10
51.11656218513879
 20
200.4658933677237
 30
0.0
 11
51.07761818513878
 21
201.8264213677237
 31
0.0
  0
LINE
  5
798
  8
LAYER_1
 62
     4
 10
51.07761818513878
 20
201.8264213677237
 30
0.0
 11
51.37546018513878
 21
202.8510213677237
 31
0.0
  0
LINE
  5
799
  8
LAYER_1
 62
     4
 10
51.37546018513878
 20
202.8510213677237
 30
0.0
 11
52.02141318513877
 21
203.6440323677237
 31
0.0
  0
LINE
  5
79A
  8
LAYER_1
 62
     4
 10
52.02141318513877
 20
203.6440323677237
 30
0.0
 11
53.02680218513878
 21
204.3097923677237
 31
0.0
  0
LINE
  5
79B
  8
LAYER_1
 62
     4
 10
53.02680218513878
 20
204.3097923677237
 30
0.0
 11
54.40295218513877
 21
204.9526383677237
 31
0.0
  0
LINE
  5
79C
  8
LAYER_1
 62
     4
 10
54.40295218513877
 20
204.9526383677237
 30
0.0
 11
55.91344518513877
 21
205.7906983677237
 31
0.0
  0
LINE
  5
79D
  8
LAYER_1
 62
     4
 10
55.91344518513877
 20
205.7906983677237
 30
0.0
 11
57.37723818513878
 21
206.9496873677237
 31
0.0
  0
LINE
  5
79E
  8
LAYER_1
 62
     4
 10
57.37723818513878
 20
206.9496873677237
 30
0.0
 11
58.64251118513879
 21
208.2905333677237
 31
0.0
  0
LINE
  5
79F
  8
LAYER_1
 62
     4
 10
58.64251118513879
 20
208.2905333677237
 30
0.0
 11
59.55744418513878
 21
209.6741683677237
 31
0.0
  0
LINE
  5
7A0
  8
LAYER_1
 62
     4
 10
59.55744418513878
 20
209.6741683677237
 30
0.0
 11
60.57943418513877
 21
211.2778413677237
 31
0.0
  0
LINE
  5
7A1
  8
LAYER_1
 62
     4
 10
60.57943418513877
 20
211.2778413677237
 30
0.0
 11
61.90221018513877
 21
212.5166643677237
 31
0.0
  0
LINE
  5
7A2
  8
LAYER_1
 62
     4
 10
61.90221018513877
 20
212.5166643677237
 30
0.0
 11
63.68778618513876
 21
213.5068113677237
 31
0.0
  0
LINE
  5
7A3
  8
LAYER_1
 62
     4
 10
63.68778618513876
 20
213.5068113677237
 30
0.0
 11
66.09817618513877
 21
214.3644613677237
 31
0.0
  0
LINE
  5
7A4
  8
LAYER_1
 62
     4
 10
66.09817618513877
 20
214.3644613677237
 30
0.0
 11
70.05297518513878
 21
215.4031743677237
 31
0.0
  0
LINE
  5
7A5
  8
LAYER_1
 62
     4
 10
70.05297518513878
 20
215.4031743677237
 30
0.0
 11
73.87672318513877
 21
216.1086933677237
 31
0.0
  0
LINE
  5
7A6
  8
LAYER_1
 62
     4
 10
73.87672318513877
 20
216.1086933677237
 30
0.0
 11
77.60010118513877
 21
216.4799003677237
 31
0.0
  0
LINE
  5
7A7
  8
LAYER_1
 62
     4
 10
77.60010118513877
 20
216.4799003677237
 30
0.0
 11
81.25379118513878
 21
216.5156753677237
 31
0.0
  0
LINE
  5
7A8
  8
LAYER_1
 62
     4
 10
81.25379118513878
 20
216.5156753677237
 30
0.0
 11
84.86847618513879
 21
216.2149003677237
 31
0.0
  0
LINE
  5
7A9
  8
LAYER_1
 62
     4
 10
84.86847618513879
 20
216.2149003677237
 30
0.0
 11
88.47483718513878
 21
215.5764573677237
 31
0.0
  0
LINE
  5
7AA
  8
LAYER_1
 62
     4
 10
88.47483718513878
 20
215.5764573677237
 30
0.0
 11
92.10355718513877
 21
214.5992263677237
 31
0.0
  0
LINE
  5
7AB
  8
LAYER_1
 62
     4
 10
92.10355718513877
 20
214.5992263677237
 30
0.0
 11
95.78531818513878
 21
213.2820883677237
 31
0.0
  0
LINE
  5
7AC
  8
LAYER_1
 62
     4
 10
95.78531818513878
 20
213.2820883677237
 30
0.0
 11
97.90532418513878
 21
212.3396623677237
 31
0.0
  0
LINE
  5
7AD
  8
LAYER_1
 62
     4
 10
97.90532418513878
 20
212.3396623677237
 30
0.0
 11
99.04289618513877
 21
211.4878043677237
 31
0.0
  0
LINE
  5
7AE
  8
LAYER_1
 62
     4
 10
99.04289618513877
 20
211.4878043677237
 30
0.0
 11
99.30609318513878
 21
211.0174453677237
 31
0.0
  0
LINE
  5
7AF
  8
LAYER_1
 62
     4
 10
99.30609318513878
 20
211.0174453677237
 30
0.0
 11
99.39906718513878
 21
210.4756553677237
 31
0.0
  0
LINE
  5
7B0
  8
LAYER_1
 62
     4
 10
99.39906718513878
 20
210.4756553677237
 30
0.0
 11
99.17486618513878
 21
209.0523563677237
 31
0.0
  0
LINE
  5
7B1
  8
LAYER_1
 62
     4
 10
99.17486618513878
 20
209.0523563677237
 30
0.0
 11
98.60182018513878
 21
207.1127493677237
 31
0.0
  0
LINE
  5
7B2
  8
LAYER_1
 62
     4
 10
98.60182018513878
 20
207.1127493677237
 30
0.0
 11
98.17862418513877
 21
206.1032503677237
 31
0.0
  0
LINE
  5
7B3
  8
LAYER_1
 62
     4
 10
98.17862418513877
 20
206.1032503677237
 30
0.0
 11
97.55520718513877
 21
206.1441733677237
 31
0.0
  0
LINE
  5
7B4
  8
LAYER_1
 62
     4
 10
97.55520718513877
 20
206.1441733677237
 30
0.0
 11
96.09173118513877
 21
206.5122113677237
 31
0.0
  0
LINE
  5
7B5
  8
LAYER_1
 62
     4
 10
96.09173118513877
 20
206.5122113677237
 30
0.0
 11
91.51872218513877
 21
207.9829293677237
 31
0.0
  0
LINE
  5
7B6
  8
LAYER_1
 62
     4
 10
91.51872218513877
 20
207.9829293677237
 30
0.0
 11
87.93758118513878
 21
209.0525143677237
 31
0.0
  0
LINE
  5
7B7
  8
LAYER_1
 62
     4
 10
87.93758118513878
 20
209.0525143677237
 30
0.0
 11
84.21700918513876
 21
209.8144443677237
 31
0.0
  0
LINE
  5
7B8
  8
LAYER_1
 62
     4
 10
84.21700918513876
 20
209.8144443677237
 30
0.0
 11
80.43570818513878
 21
210.2688583677237
 31
0.0
  0
LINE
  5
7B9
  8
LAYER_1
 62
     4
 10
80.43570818513878
 20
210.2688583677237
 30
0.0
 11
76.67238218513877
 21
210.4158963677237
 31
0.0
  0
LINE
  5
7BA
  8
LAYER_1
 62
     4
 10
76.67238218513877
 20
210.4158963677237
 30
0.0
 11
73.00573218513877
 21
210.2556963677237
 31
0.0
  0
LINE
  5
7BB
  8
LAYER_1
 62
     4
 10
73.00573218513877
 20
210.2556963677237
 30
0.0
 11
69.51446218513878
 21
209.7883993677237
 31
0.0
  0
LINE
  5
7BC
  8
LAYER_1
 62
     4
 10
69.51446218513878
 20
209.7883993677237
 30
0.0
 11
66.27727318513878
 21
209.0141443677237
 31
0.0
  0
LINE
  5
7BD
  8
LAYER_1
 62
     4
 10
66.27727318513878
 20
209.0141443677237
 30
0.0
 11
63.37286918513878
 21
207.9330713677237
 31
0.0
  0
LINE
  5
7BE
  8
LAYER_1
 62
     4
 10
63.37286918513878
 20
207.9330713677237
 30
0.0
 11
57.92226018513877
 21
205.4518953677237
 31
0.0
  0
LINE
  5
7BF
  8
LAYER_1
 62
     4
 10
57.92226018513877
 20
205.4518953677237
 30
0.0
 11
58.06840018513877
 21
200.4593583677237
 31
0.0
  0
LINE
  5
7C0
  8
LAYER_1
 62
     4
 10
58.06840018513877
 20
200.4593583677237
 30
0.0
 11
58.29094118513878
 21
198.1200943677237
 31
0.0
  0
LINE
  5
7C1
  8
LAYER_1
 62
     4
 10
58.29094118513878
 20
198.1200943677237
 30
0.0
 11
58.82779918513877
 21
195.6437793677237
 31
0.0
  0
LINE
  5
7C2
  8
LAYER_1
 62
     4
 10
58.82779918513877
 20
195.6437793677237
 30
0.0
 11
59.68244218513878
 21
193.0230193677237
 31
0.0
  0
LINE
  5
7C3
  8
LAYER_1
 62
     4
 10
59.68244218513878
 20
193.0230193677237
 30
0.0
 11
60.85834218513877
 21
190.2504193677237
 31
0.0
  0
LINE
  5
7C4
  8
LAYER_1
 62
     4
 10
60.85834218513877
 20
190.2504193677237
 30
0.0
 11
62.35896718513878
 21
187.3185833677237
 31
0.0
  0
LINE
  5
7C5
  8
LAYER_1
 62
     4
 10
62.35896718513878
 20
187.3185833677237
 30
0.0
 11
64.18778718513879
 21
184.2201173677237
 31
0.0
  0
LINE
  5
7C6
  8
LAYER_1
 62
     4
 10
64.18778718513879
 20
184.2201173677237
 30
0.0
 11
66.34827318513878
 21
180.9476253677237
 31
0.0
  0
LINE
  5
7C7
  8
LAYER_1
 62
     4
 10
66.34827318513878
 20
180.9476253677237
 30
0.0
 11
68.84389318513878
 21
177.4937113677237
 31
0.0
  0
LINE
  5
7C8
  8
LAYER_1
 62
     4
 10
68.84389318513878
 20
177.4937113677237
 30
0.0
 11
71.36927318513877
 21
174.0125373677237
 31
0.0
  0
LINE
  5
7C9
  8
LAYER_1
 62
     4
 10
71.36927318513877
 20
174.0125373677237
 30
0.0
 11
73.52211018513877
 21
170.7766733677237
 31
0.0
  0
LINE
  5
7CA
  8
LAYER_1
 62
     4
 10
73.52211018513877
 20
170.7766733677237
 30
0.0
 11
75.32534418513878
 21
167.7368643677237
 31
0.0
  0
LINE
  5
7CB
  8
LAYER_1
 62
     4
 10
75.32534418513878
 20
167.7368643677237
 30
0.0
 11
76.80191718513878
 21
164.8438573677237
 31
0.0
  0
LINE
  5
7CC
  8
LAYER_1
 62
     4
 10
76.80191718513878
 20
164.8438573677237
 30
0.0
 11
77.97476718513879
 21
162.0483983677237
 31
0.0
  0
LINE
  5
7CD
  8
LAYER_1
 62
     4
 10
77.97476718513879
 20
162.0483983677237
 30
0.0
 11
78.86683618513878
 21
159.3012343677237
 31
0.0
  0
LINE
  5
7CE
  8
LAYER_1
 62
     4
 10
78.86683618513878
 20
159.3012343677237
 30
0.0
 11
79.50106318513876
 21
156.5531093677237
 31
0.0
  0
LINE
  5
7CF
  8
LAYER_1
 62
     4
 10
79.50106318513876
 20
156.5531093677237
 30
0.0
 11
79.90038918513876
 21
153.7547703677237
 31
0.0
  0
LINE
  5
7D0
  8
LAYER_1
 62
     4
 10
79.90038918513876
 20
153.7547703677237
 30
0.0
 11
80.13754418513877
 21
150.5621163677237
 31
0.0
  0
LINE
  5
7D1
  8
LAYER_1
 62
     4
 10
80.13754418513877
 20
150.5621163677237
 30
0.0
 11
80.19075318513877
 21
147.5784113677237
 31
0.0
  0
LINE
  5
7D2
  8
LAYER_1
 62
     4
 10
80.19075318513877
 20
147.5784113677237
 30
0.0
 11
80.07302418513878
 21
144.8823873677237
 31
0.0
  0
LINE
  5
7D3
  8
LAYER_1
 62
     4
 10
80.07302418513878
 20
144.8823873677237
 30
0.0
 11
79.79736518513879
 21
142.5527773677237
 31
0.0
  0
LINE
  5
7D4
  8
LAYER_1
 62
     4
 10
79.79736518513879
 20
142.5527773677237
 30
0.0
 11
79.37678518513879
 21
140.6683143677237
 31
0.0
  0
LINE
  5
7D5
  8
LAYER_1
 62
     4
 10
79.37678518513879
 20
140.6683143677237
 30
0.0
 11
78.82429018513876
 21
139.3077333677237
 31
0.0
  0
LINE
  5
7D6
  8
LAYER_1
 62
     4
 10
78.82429018513876
 20
139.3077333677237
 30
0.0
 11
78.15289018513879
 21
138.5497653677237
 31
0.0
  0
LINE
  5
7D7
  8
LAYER_1
 62
     4
 10
78.15289018513879
 20
138.5497653677237
 30
0.0
 11
77.77666518513878
 21
138.4213663677237
 31
0.0
  0
LINE
  5
7D8
  8
LAYER_1
 62
     4
 10
77.77666518513878
 20
138.4213663677237
 30
0.0
 11
77.37559218513879
 21
138.4731453677237
 31
0.0
  0
LINE
  5
7D9
  8
LAYER_1
 62
     4
 10
77.37559218513879
 20
138.4731453677237
 30
0.0
 11
75.83997618513878
 21
138.8814053677237
 31
0.0
  0
LINE
  5
7DA
  8
LAYER_1
 62
     4
 10
75.83997618513878
 20
138.8814053677237
 30
0.0
 11
74.45745418513879
 21
139.0512123677237
 31
0.0
  0
LINE
  5
7DB
  8
LAYER_1
 62
     4
 10
74.45745418513879
 20
139.0512123677237
 30
0.0
 11
74.45745418513879
 21
139.0512123677237
 31
0.0
  0
LINE
  5
7DC
  8
LAYER_1
 62
     4
 10
85.15412218513878
 20
140.0360913677237
 30
0.0
 11
81.86256418513877
 21
140.0497203677237
 31
0.0
  0
LINE
  5
7DD
  8
LAYER_1
 62
     4
 10
81.86256418513877
 20
140.0497203677237
 30
0.0
 11
82.27358718513877
 21
147.5049783677237
 31
0.0
  0
LINE
  5
7DE
  8
LAYER_1
 62
     4
 10
82.27358718513877
 20
147.5049783677237
 30
0.0
 11
82.31716718513879
 21
151.2600483677237
 31
0.0
  0
LINE
  5
7DF
  8
LAYER_1
 62
     4
 10
82.31716718513879
 20
151.2600483677237
 30
0.0
 11
82.02028218513878
 21
154.9012853677237
 31
0.0
  0
LINE
  5
7E0
  8
LAYER_1
 62
     4
 10
82.02028218513878
 20
154.9012853677237
 30
0.0
 11
81.37348518513876
 21
158.4563093677237
 31
0.0
  0
LINE
  5
7E1
  8
LAYER_1
 62
     4
 10
81.37348518513876
 20
158.4563093677237
 30
0.0
 11
80.36732818513879
 21
161.9527453677237
 31
0.0
  0
LINE
  5
7E2
  8
LAYER_1
 62
     4
 10
80.36732818513879
 20
161.9527453677237
 30
0.0
 11
78.99236518513878
 21
165.4182123677237
 31
0.0
  0
LINE
  5
7E3
  8
LAYER_1
 62
     4
 10
78.99236518513878
 20
165.4182123677237
 30
0.0
 11
77.23914818513877
 21
168.8803343677237
 31
0.0
  0
LINE
  5
7E4
  8
LAYER_1
 62
     4
 10
77.23914818513877
 20
168.8803343677237
 30
0.0
 11
75.09823018513878
 21
172.3667323677237
 31
0.0
  0
LINE
  5
7E5
  8
LAYER_1
 62
     4
 10
75.09823018513878
 20
172.3667323677237
 30
0.0
 11
72.56016418513879
 21
175.9050293677237
 31
0.0
  0
LINE
  5
7E6
  8
LAYER_1
 62
     4
 10
72.56016418513879
 20
175.9050293677237
 30
0.0
 11
69.93314018513878
 21
179.4848443677237
 31
0.0
  0
LINE
  5
7E7
  8
LAYER_1
 62
     4
 10
69.93314018513878
 20
179.4848443677237
 30
0.0
 11
67.55561318513877
 21
183.0328903677237
 31
0.0
  0
LINE
  5
7E8
  8
LAYER_1
 62
     4
 10
67.55561318513877
 20
183.0328903677237
 30
0.0
 11
65.45709218513876
 21
186.4908043677237
 31
0.0
  0
LINE
  5
7E9
  8
LAYER_1
 62
     4
 10
65.45709218513876
 20
186.4908043677237
 30
0.0
 11
63.66708618513879
 21
189.8002233677237
 31
0.0
  0
LINE
  5
7EA
  8
LAYER_1
 62
     4
 10
63.66708618513879
 20
189.8002233677237
 30
0.0
 11
62.21510518513877
 21
192.9027823677237
 31
0.0
  0
LINE
  5
7EB
  8
LAYER_1
 62
     4
 10
62.21510518513877
 20
192.9027823677237
 30
0.0
 11
61.13065718513879
 21
195.7401193677237
 31
0.0
  0
LINE
  5
7EC
  8
LAYER_1
 62
     4
 10
61.13065718513879
 20
195.7401193677237
 30
0.0
 11
60.44325318513877
 21
198.2538693677237
 31
0.0
  0
LINE
  5
7ED
  8
LAYER_1
 62
     4
 10
60.44325318513877
 20
198.2538693677237
 30
0.0
 11
60.18240018513878
 21
200.3856703677237
 31
0.0
  0
LINE
  5
7EE
  8
LAYER_1
 62
     4
 10
60.18240018513878
 20
200.3856703677237
 30
0.0
 11
60.24987018513879
 21
202.6663413677237
 31
0.0
  0
LINE
  5
7EF
  8
LAYER_1
 62
     4
 10
60.24987018513879
 20
202.6663413677237
 30
0.0
 11
60.43534418513879
 21
203.4735833677237
 31
0.0
  0
LINE
  5
7F0
  8
LAYER_1
 62
     4
 10
60.43534418513879
 20
203.4735833677237
 30
0.0
 11
60.77474018513878
 21
204.1329523677237
 31
0.0
  0
LINE
  5
7F1
  8
LAYER_1
 62
     4
 10
60.77474018513878
 20
204.1329523677237
 30
0.0
 11
61.30763118513879
 21
204.7000893677237
 31
0.0
  0
LINE
  5
7F2
  8
LAYER_1
 62
     4
 10
61.30763118513879
 20
204.7000893677237
 30
0.0
 11
62.07358818513878
 21
205.2306343677237
 31
0.0
  0
LINE
  5
7F3
  8
LAYER_1
 62
     4
 10
62.07358818513878
 20
205.2306343677237
 30
0.0
 11
64.46299118513876
 21
206.4045193677237
 31
0.0
  0
LINE
  5
7F4
  8
LAYER_1
 62
     4
 10
64.46299118513876
 20
206.4045193677237
 30
0.0
 11
66.73608118513879
 21
207.2097983677237
 31
0.0
  0
LINE
  5
7F5
  8
LAYER_1
 62
     4
 10
66.73608118513879
 20
207.2097983677237
 30
0.0
 11
69.41039818513879
 21
207.7963763677237
 31
0.0
  0
LINE
  5
7F6
  8
LAYER_1
 62
     4
 10
69.41039818513879
 20
207.7963763677237
 30
0.0
 11
72.39859618513877
 21
208.1633063677237
 31
0.0
  0
LINE
  5
7F7
  8
LAYER_1
 62
     4
 10
72.39859618513877
 20
208.1633063677237
 30
0.0
 11
75.61333018513876
 21
208.3096423677237
 31
0.0
  0
LINE
  5
7F8
  8
LAYER_1
 62
     4
 10
75.61333018513876
 20
208.3096423677237
 30
0.0
 11
78.96725618513877
 21
208.2344393677237
 31
0.0
  0
LINE
  5
7F9
  8
LAYER_1
 62
     4
 10
78.96725618513877
 20
208.2344393677237
 30
0.0
 11
82.37302818513878
 21
207.9367503677237
 31
0.0
  0
LINE
  5
7FA
  8
LAYER_1
 62
     4
 10
82.37302818513878
 20
207.9367503677237
 30
0.0
 11
85.74330118513878
 21
207.4156293677237
 31
0.0
  0
LINE
  5
7FB
  8
LAYER_1
 62
     4
 10
85.74330118513878
 20
207.4156293677237
 30
0.0
 11
88.99073018513877
 21
206.6701303677237
 31
0.0
  0
LINE
  5
7FC
  8
LAYER_1
 62
     4
 10
88.99073018513877
 20
206.6701303677237
 30
0.0
 11
92.58674418513877
 21
205.7405183677237
 31
0.0
  0
LINE
  5
7FD
  8
LAYER_1
 62
     4
 10
92.58674418513877
 20
205.7405183677237
 30
0.0
 11
95.20344618513877
 21
204.8717683677237
 31
0.0
  0
LINE
  5
7FE
  8
LAYER_1
 62
     4
 10
95.20344618513877
 20
204.8717683677237
 30
0.0
 11
96.17995318513877
 21
204.3096103677237
 31
0.0
  0
LINE
  5
7FF
  8
LAYER_1
 62
     4
 10
96.17995318513877
 20
204.3096103677237
 30
0.0
 11
96.95410918513878
 21
203.5819373677237
 31
0.0
  0
LINE
  5
800
  8
LAYER_1
 62
     4
 10
96.95410918513878
 20
203.5819373677237
 30
0.0
 11
97.54007518513878
 21
202.6285093677237
 31
0.0
  0
LINE
  5
801
  8
LAYER_1
 62
     4
 10
97.54007518513878
 20
202.6285093677237
 30
0.0
 11
97.95200818513878
 21
201.3890813677237
 31
0.0
  0
LINE
  5
802
  8
LAYER_1
 62
     4
 10
97.95200818513878
 20
201.3890813677237
 30
0.0
 11
98.20406818513878
 21
199.8034113677237
 31
0.0
  0
LINE
  5
803
  8
LAYER_1
 62
     4
 10
98.20406818513878
 20
199.8034113677237
 30
0.0
 11
98.31041418513878
 21
197.8112563677237
 31
0.0
  0
LINE
  5
804
  8
LAYER_1
 62
     4
 10
98.31041418513878
 20
197.8112563677237
 30
0.0
 11
98.14260318513878
 21
192.3665193677237
 31
0.0
  0
LINE
  5
805
  8
LAYER_1
 62
     4
 10
98.14260318513878
 20
192.3665193677237
 30
0.0
 11
96.68141818513878
 21
173.9485353677237
 31
0.0
  0
LINE
  5
806
  8
LAYER_1
 62
     4
 10
96.68141818513878
 20
173.9485353677237
 30
0.0
 11
94.96282018513878
 21
153.3117523677237
 31
0.0
  0
LINE
  5
807
  8
LAYER_1
 62
     4
 10
94.96282018513878
 20
153.3117523677237
 30
0.0
 11
94.34819518513878
 21
147.0618393677237
 31
0.0
  0
LINE
  5
808
  8
LAYER_1
 62
     4
 10
94.34819518513878
 20
147.0618393677237
 30
0.0
 11
93.80024618513878
 21
142.9555803677237
 31
0.0
  0
LINE
  5
809
  8
LAYER_1
 62
     4
 10
93.80024618513878
 20
142.9555803677237
 30
0.0
 11
93.24664418513878
 21
140.5664753677237
 31
0.0
  0
LINE
  5
80A
  8
LAYER_1
 62
     4
 10
93.24664418513878
 20
140.5664753677237
 30
0.0
 11
92.94512018513878
 21
139.8825753677237
 31
0.0
  0
LINE
  5
80B
  8
LAYER_1
 62
     4
 10
92.94512018513878
 20
139.8825753677237
 30
0.0
 11
92.61505918513878
 21
139.4680263677237
 31
0.0
  0
LINE
  5
80C
  8
LAYER_1
 62
     4
 10
92.61505918513878
 20
139.4680263677237
 30
0.0
 11
92.24742018513878
 21
139.2695163677237
 31
0.0
  0
LINE
  5
80D
  8
LAYER_1
 62
     4
 10
92.24742018513878
 20
139.2695163677237
 30
0.0
 11
91.83316118513878
 21
139.2337323677237
 31
0.0
  0
LINE
  5
80E
  8
LAYER_1
 62
     4
 10
91.83316118513878
 20
139.2337323677237
 30
0.0
 11
90.82862018513877
 21
139.4370953677237
 31
0.0
  0
LINE
  5
80F
  8
LAYER_1
 62
     4
 10
90.82862018513877
 20
139.4370953677237
 30
0.0
 11
88.17877318513878
 21
139.8545113677237
 31
0.0
  0
LINE
  5
810
  8
LAYER_1
 62
     4
 10
88.17877318513878
 20
139.8545113677237
 30
0.0
 11
85.15412218513878
 21
140.0360913677237
 31
0.0
  0
LINE
  5
811
  8
LAYER_1
 62
     4
 10
85.15412218513878
 20
140.0360913677237
 30
0.0
 11
85.15412218513878
 21
140.0360913677237
 31
0.0
  0
LINE
  5
812
  8
LAYER_1
 62
     4
 10
98.77995818513878
 20
222.4506363677237
 30
0.0
 11
97.96386618513877
 21
223.6699913677237
 31
0.0
  0
LINE
  5
813
  8
LAYER_1
 62
     4
 10
97.96386618513877
 20
223.6699913677237
 30
0.0
 11
97.83840318513877
 21
224.1533973677237
 31
0.0
  0
LINE
  5
814
  8
LAYER_1
 62
     4
 10
97.83840318513877
 20
224.1533973677237
 30
0.0
 11
97.93815718513878
 21
224.4645153677237
 31
0.0
  0
LINE
  5
815
  8
LAYER_1
 62
     4
 10
97.93815718513878
 20
224.4645153677237
 30
0.0
 11
100.4114831851388
 21
224.6345193677237
 31
0.0
  0
LINE
  5
816
  8
LAYER_1
 62
     4
 10
100.4114831851388
 20
224.6345193677237
 30
0.0
 11
106.7487221851388
 21
224.7337043677237
 31
0.0
  0
LINE
  5
817
  8
LAYER_1
 62
     4
 10
106.7487221851388
 20
224.7337043677237
 30
0.0
 11
127.1773021851388
 21
224.6900213677237
 31
0.0
  0
LINE
  5
818
  8
LAYER_1
 62
     4
 10
127.1773021851388
 20
224.6900213677237
 30
0.0
 11
143.1516211851388
 21
224.5023023677237
 31
0.0
  0
LINE
  5
819
  8
LAYER_1
 62
     4
 10
143.1516211851388
 20
224.5023023677237
 30
0.0
 11
151.5065291851388
 21
224.2119713677237
 31
0.0
  0
LINE
  5
81A
  8
LAYER_1
 62
     4
 10
151.5065291851388
 20
224.2119713677237
 30
0.0
 11
153.4995611851388
 21
223.9777533677237
 31
0.0
  0
LINE
  5
81B
  8
LAYER_1
 62
     4
 10
153.4995611851388
 20
223.9777533677237
 30
0.0
 11
154.3951691851388
 21
223.6571933677237
 31
0.0
  0
LINE
  5
81C
  8
LAYER_1
 62
     4
 10
154.3951691851388
 20
223.6571933677237
 30
0.0
 11
154.5155471851388
 21
223.4582133677237
 31
0.0
  0
LINE
  5
81D
  8
LAYER_1
 62
     4
 10
154.5155471851388
 20
223.4582133677237
 30
0.0
 11
154.4624971851388
 21
223.2300623677237
 31
0.0
  0
LINE
  5
81E
  8
LAYER_1
 62
     4
 10
154.4624971851388
 20
223.2300623677237
 30
0.0
 11
153.9706861851388
 21
222.6761323677237
 31
0.0
  0
LINE
  5
81F
  8
LAYER_1
 62
     4
 10
153.9706861851388
 20
222.6761323677237
 30
0.0
 11
153.2364801851388
 21
222.1513533677237
 31
0.0
  0
LINE
  5
820
  8
LAYER_1
 62
     4
 10
153.2364801851388
 20
222.1513533677237
 30
0.0
 11
152.1669891851388
 21
221.7423243677237
 31
0.0
  0
LINE
  5
821
  8
LAYER_1
 62
     4
 10
152.1669891851388
 20
221.7423243677237
 30
0.0
 11
150.5372391851388
 21
221.4349373677237
 31
0.0
  0
LINE
  5
822
  8
LAYER_1
 62
     4
 10
150.5372391851388
 20
221.4349373677237
 30
0.0
 11
148.1222551851388
 21
221.2150803677237
 31
0.0
  0
LINE
  5
823
  8
LAYER_1
 62
     4
 10
148.1222551851388
 20
221.2150803677237
 30
0.0
 11
140.0366881851388
 21
220.9815143677237
 31
0.0
  0
LINE
  5
824
  8
LAYER_1
 62
     4
 10
140.0366881851388
 20
220.9815143677237
 30
0.0
 11
126.1104881851388
 21
220.9287443677237
 31
0.0
  0
LINE
  5
825
  8
LAYER_1
 62
     4
 10
126.1104881851388
 20
220.9287443677237
 30
0.0
 11
112.7559461851388
 21
220.9857633677237
 31
0.0
  0
LINE
  5
826
  8
LAYER_1
 62
     4
 10
112.7559461851388
 20
220.9857633677237
 30
0.0
 11
104.6616211851388
 21
221.2076183677237
 31
0.0
  0
LINE
  5
827
  8
LAYER_1
 62
     4
 10
104.6616211851388
 20
221.2076183677237
 30
0.0
 11
102.1594101851388
 21
221.4041723677237
 31
0.0
  0
LINE
  5
828
  8
LAYER_1
 62
     4
 10
102.1594101851388
 20
221.4041723677237
 30
0.0
 11
100.4590971851388
 21
221.6705103677237
 31
0.0
  0
LINE
  5
829
  8
LAYER_1
 62
     4
 10
100.4590971851388
 20
221.6705103677237
 30
0.0
 11
99.38963118513878
 21
222.0161563677237
 31
0.0
  0
LINE
  5
82A
  8
LAYER_1
 62
     4
 10
99.38963118513878
 20
222.0161563677237
 30
0.0
 11
98.77995818513878
 21
222.4506363677237
 31
0.0
  0
LINE
  5
82B
  8
LAYER_1
 62
     4
 10
98.77995818513878
 20
222.4506363677237
 30
0.0
 11
98.77995818513878
 21
222.4506363677237
 31
0.0
  0
LINE
  5
82C
  8
LAYER_1
 62
     4
 10
97.71170218513878
 20
227.7185903677237
 30
0.0
 11
97.90192218513877
 21
228.6696703677237
 31
0.0
  0
LINE
  5
82D
  8
LAYER_1
 62
     4
 10
97.90192218513877
 20
228.6696703677237
 30
0.0
 11
98.18166918513877
 21
229.0659853677237
 31
0.0
  0
LINE
  5
82E
  8
LAYER_1
 62
     4
 10
98.18166918513877
 20
229.0659853677237
 30
0.0
 11
98.62181518513877
 21
229.4136093677237
 31
0.0
  0
LINE
  5
82F
  8
LAYER_1
 62
     4
 10
98.62181518513877
 20
229.4136093677237
 30
0.0
 11
100.0952321851388
 21
229.9751673677237
 31
0.0
  0
LINE
  5
830
  8
LAYER_1
 62
     4
 10
100.0952321851388
 20
229.9751673677237
 30
0.0
 11
102.5460241851388
 21
230.3791033677237
 31
0.0
  0
LINE
  5
831
  8
LAYER_1
 62
     4
 10
102.5460241851388
 20
230.3791033677237
 30
0.0
 11
106.1980391851388
 21
230.6501763677237
 31
0.0
  0
LINE
  5
832
  8
LAYER_1
 62
     4
 10
106.1980391851388
 20
230.6501763677237
 30
0.0
 11
111.2751281851388
 21
230.8131453677237
 31
0.0
  0
LINE
  5
833
  8
LAYER_1
 62
     4
 10
111.2751281851388
 20
230.8131453677237
 30
0.0
 11
126.5999291851388
 21
230.9138093677237
 31
0.0
  0
LINE
  5
834
  8
LAYER_1
 62
     4
 10
126.5999291851388
 20
230.9138093677237
 30
0.0
 11
141.9247321851388
 21
230.8131453677237
 31
0.0
  0
LINE
  5
835
  8
LAYER_1
 62
     4
 10
141.9247321851388
 20
230.8131453677237
 30
0.0
 11
147.0018211851388
 21
230.6501763677237
 31
0.0
  0
LINE
  5
836
  8
LAYER_1
 62
     4
 10
147.0018211851388
 20
230.6501763677237
 30
0.0
 11
150.6538361851388
 21
230.3791033677237
 31
0.0
  0
LINE
  5
837
  8
LAYER_1
 62
     4
 10
150.6538361851388
 20
230.3791033677237
 30
0.0
 11
153.1046261851388
 21
229.9751673677237
 31
0.0
  0
LINE
  5
838
  8
LAYER_1
 62
     4
 10
153.1046261851388
 20
229.9751673677237
 30
0.0
 11
154.5780431851388
 21
229.4136093677237
 31
0.0
  0
LINE
  5
839
  8
LAYER_1
 62
     4
 10
154.5780431851388
 20
229.4136093677237
 30
0.0
 11
155.0181891851388
 21
229.0659853677237
 31
0.0
  0
LINE
  5
83A
  8
LAYER_1
 62
     4
 10
155.0181891851388
 20
229.0659853677237
 30
0.0
 11
155.2979361851388
 21
228.6696703677237
 31
0.0
  0
LINE
  5
83B
  8
LAYER_1
 62
     4
 10
155.2979361851388
 20
228.6696703677237
 30
0.0
 11
155.4881561851388
 21
227.7185903677237
 31
0.0
  0
LINE
  5
83C
  8
LAYER_1
 62
     4
 10
155.4881561851388
 20
227.7185903677237
 30
0.0
 11
154.8985431851388
 21
227.5581273677237
 31
0.0
  0
LINE
  5
83D
  8
LAYER_1
 62
     4
 10
154.8985431851388
 20
227.5581273677237
 30
0.0
 11
153.2086941851388
 21
227.4084293677237
 31
0.0
  0
LINE
  5
83E
  8
LAYER_1
 62
     4
 10
153.2086941851388
 20
227.4084293677237
 30
0.0
 11
147.0022401851388
 21
227.1544333677237
 31
0.0
  0
LINE
  5
83F
  8
LAYER_1
 62
     4
 10
147.0022401851388
 20
227.1544333677237
 30
0.0
 11
126.5999291851388
 21
226.9197833677237
 31
0.0
  0
LINE
  5
840
  8
LAYER_1
 62
     4
 10
126.5999291851388
 20
226.9197833677237
 30
0.0
 11
106.1976191851388
 21
227.1544333677237
 31
0.0
  0
LINE
  5
841
  8
LAYER_1
 62
     4
 10
106.1976191851388
 20
227.1544333677237
 30
0.0
 11
99.99116318513877
 21
227.4084293677237
 31
0.0
  0
LINE
  5
842
  8
LAYER_1
 62
     4
 10
99.99116318513877
 20
227.4084293677237
 30
0.0
 11
98.30131518513878
 21
227.5581273677237
 31
0.0
  0
LINE
  5
843
  8
LAYER_1
 62
     4
 10
98.30131518513878
 20
227.5581273677237
 30
0.0
 11
97.71170218513878
 21
227.7185903677237
 31
0.0
  0
LINE
  5
844
  8
LAYER_1
 62
     4
 10
97.71170218513878
 20
227.7185903677237
 30
0.0
 11
97.71170218513878
 21
227.7185903677237
 31
0.0
  0
LINE
  5
845
  8
LAYER_1
 62
     4
 10
133.1184581851388
 20
240.0701703677237
 30
0.0
 11
130.4394921851388
 21
244.4527763677237
 31
0.0
  0
LINE
  5
846
  8
LAYER_1
 62
     4
 10
130.4394921851388
 20
244.4527763677237
 30
0.0
 11
129.3252361851388
 21
246.6649393677237
 31
0.0
  0
LINE
  5
847
  8
LAYER_1
 62
     4
 10
129.3252361851388
 20
246.6649393677237
 30
0.0
 11
129.8843491851388
 21
246.4161683677237
 31
0.0
  0
LINE
  5
848
  8
LAYER_1
 62
     4
 10
129.8843491851388
 20
246.4161683677237
 30
0.0
 11
131.4066871851388
 21
245.2461013677237
 31
0.0
  0
LINE
  5
849
  8
LAYER_1
 62
     4
 10
131.4066871851388
 20
245.2461013677237
 30
0.0
 11
136.4110261851388
 21
240.8988713677237
 31
0.0
  0
LINE
  5
84A
  8
LAYER_1
 62
     4
 10
136.4110261851388
 20
240.8988713677237
 30
0.0
 11
141.4153661851388
 21
236.1781903677237
 31
0.0
  0
LINE
  5
84B
  8
LAYER_1
 62
     4
 10
141.4153661851388
 20
236.1781903677237
 30
0.0
 11
142.9377031851388
 21
234.6038803677237
 31
0.0
  0
LINE
  5
84C
  8
LAYER_1
 62
     4
 10
142.9377031851388
 20
234.6038803677237
 30
0.0
 11
143.4968161851388
 21
233.8614793677237
 31
0.0
  0
LINE
  5
84D
  8
LAYER_1
 62
     4
 10
143.4968161851388
 20
233.8614793677237
 30
0.0
 11
143.2370111851388
 21
233.6615793677237
 31
0.0
  0
LINE
  5
84E
  8
LAYER_1
 62
     4
 10
143.2370111851388
 20
233.6615793677237
 30
0.0
 11
142.5296231851388
 21
233.5643733677237
 31
0.0
  0
LINE
  5
84F
  8
LAYER_1
 62
     4
 10
142.5296231851388
 20
233.5643733677237
 30
0.0
 11
140.2042481851388
 21
233.6993223677237
 31
0.0
  0
LINE
  5
850
  8
LAYER_1
 62
     4
 10
140.2042481851388
 20
233.6993223677237
 30
0.0
 11
138.4045351851388
 21
234.1711463677237
 31
0.0
  0
LINE
  5
851
  8
LAYER_1
 62
     4
 10
138.4045351851388
 20
234.1711463677237
 30
0.0
 11
137.6006421851388
 21
234.6073513677237
 31
0.0
  0
LINE
  5
852
  8
LAYER_1
 62
     4
 10
137.6006421851388
 20
234.6073513677237
 30
0.0
 11
136.8133131851388
 21
235.2197153677237
 31
0.0
  0
LINE
  5
853
  8
LAYER_1
 62
     4
 10
136.8133131851388
 20
235.2197153677237
 30
0.0
 11
135.1461121851388
 21
237.1008003677237
 31
0.0
  0
LINE
  5
854
  8
LAYER_1
 62
     4
 10
135.1461121851388
 20
237.1008003677237
 30
0.0
 11
133.1184581851388
 21
240.0701703677237
 31
0.0
  0
LINE
  5
855
  8
LAYER_1
 62
     4
 10
133.1184581851388
 20
240.0701703677237
 30
0.0
 11
133.1184581851388
 21
240.0701703677237
 31
0.0
  0
LINE
  5
856
  8
LAYER_1
 62
     4
 10
115.1536531851388
 20
240.3996193677237
 30
0.0
 11
120.1837991851388
 21
244.8422153677237
 31
0.0
  0
LINE
  5
857
  8
LAYER_1
 62
     4
 10
120.1837991851388
 20
244.8422153677237
 30
0.0
 11
121.8011671851388
 21
246.1138163677237
 31
0.0
  0
LINE
  5
858
  8
LAYER_1
 62
     4
 10
121.8011671851388
 20
246.1138163677237
 30
0.0
 11
122.4987181851388
 21
246.4860073677237
 31
0.0
  0
LINE
  5
859
  8
LAYER_1
 62
     4
 10
122.4987181851388
 20
246.4860073677237
 30
0.0
 11
122.3430931851388
 21
245.8876723677237
 31
0.0
  0
LINE
  5
85A
  8
LAYER_1
 62
     4
 10
122.3430931851388
 20
245.8876723677237
 30
0.0
 11
121.6374581851388
 21
244.5167513677237
 31
0.0
  0
LINE
  5
85B
  8
LAYER_1
 62
     4
 10
121.6374581851388
 20
244.5167513677237
 30
0.0
 11
119.0312681851388
 21
240.2726533677237
 31
0.0
  0
LINE
  5
85C
  8
LAYER_1
 62
     4
 10
119.0312681851388
 20
240.2726533677237
 30
0.0
 11
117.0743211851388
 21
237.5026823677237
 31
0.0
  0
LINE
  5
85D
  8
LAYER_1
 62
     4
 10
117.0743211851388
 20
237.5026823677237
 30
0.0
 11
115.3694411851388
 21
235.5934773677237
 31
0.0
  0
LINE
  5
85E
  8
LAYER_1
 62
     4
 10
115.3694411851388
 20
235.5934773677237
 30
0.0
 11
113.7802141851388
 21
234.4172683677237
 31
0.0
  0
LINE
  5
85F
  8
LAYER_1
 62
     4
 10
113.7802141851388
 20
234.4172683677237
 30
0.0
 11
112.1702281851388
 21
233.8462843677237
 31
0.0
  0
LINE
  5
860
  8
LAYER_1
 62
     4
 10
112.1702281851388
 20
233.8462843677237
 30
0.0
 11
109.9006501851388
 21
233.5490303677237
 31
0.0
  0
LINE
  5
861
  8
LAYER_1
 62
     4
 10
109.9006501851388
 20
233.5490303677237
 30
0.0
 11
108.6739581851388
 21
233.6239633677237
 31
0.0
  0
LINE
  5
862
  8
LAYER_1
 62
     4
 10
108.6739581851388
 20
233.6239633677237
 30
0.0
 11
109.0355001851388
 21
234.2637833677237
 31
0.0
  0
LINE
  5
863
  8
LAYER_1
 62
     4
 10
109.0355001851388
 20
234.2637833677237
 30
0.0
 11
110.3777081851388
 21
235.7545513677237
 31
0.0
  0
LINE
  5
864
  8
LAYER_1
 62
     4
 10
110.3777081851388
 20
235.7545513677237
 30
0.0
 11
115.1536531851388
 21
240.3996193677237
 31
0.0
  0
LINE
  5
865
  8
LAYER_1
 62
     4
 10
115.1536531851388
 20
240.3996193677237
 30
0.0
 11
115.1536531851388
 21
240.3996193677237
 31
0.0
  0
LINE
  5
866
  8
LAYER_1
 62
     4
 10
127.1449931851388
 20
238.9018633677237
 30
0.0
 11
127.2746741851388
 21
242.4278373677237
 31
0.0
  0
LINE
  5
867
  8
LAYER_1
 62
     4
 10
127.2746741851388
 20
242.4278373677237
 30
0.0
 11
127.4150491851388
 21
243.5004523677237
 31
0.0
  0
LINE
  5
868
  8
LAYER_1
 62
     4
 10
127.4150491851388
 20
243.5004523677237
 30
0.0
 11
127.5864681851388
 21
243.8943943677237
 31
0.0
  0
LINE
  5
869
  8
LAYER_1
 62
     4
 10
127.5864681851388
 20
243.8943943677237
 30
0.0
 11
128.7628011851388
 21
242.5383573677237
 31
0.0
  0
LINE
  5
86A
  8
LAYER_1
 62
     4
 10
128.7628011851388
 20
242.5383573677237
 30
0.0
 11
130.8346061851388
 21
239.4937963677237
 31
0.0
  0
LINE
  5
86B
  8
LAYER_1
 62
     4
 10
130.8346061851388
 20
239.4937963677237
 30
0.0
 11
132.8071571851388
 21
236.2960373677237
 31
0.0
  0
LINE
  5
86C
  8
LAYER_1
 62
     4
 10
132.8071571851388
 20
236.2960373677237
 30
0.0
 11
133.6857241851388
 21
234.4804063677237
 31
0.0
  0
LINE
  5
86D
  8
LAYER_1
 62
     4
 10
133.6857241851388
 20
234.4804063677237
 30
0.0
 11
133.4276721851388
 21
234.2586673677237
 31
0.0
  0
LINE
  5
86E
  8
LAYER_1
 62
     4
 10
133.4276721851388
 20
234.2586673677237
 30
0.0
 11
132.7250531851388
 21
234.0770813677237
 31
0.0
  0
LINE
  5
86F
  8
LAYER_1
 62
     4
 10
132.7250531851388
 20
234.0770813677237
 30
0.0
 11
130.4153591851388
 21
233.9093273677237
 31
0.0
  0
LINE
  5
870
  8
LAYER_1
 62
     4
 10
130.4153591851388
 20
233.9093273677237
 30
0.0
 11
128.5553381851388
 21
234.0029373677237
 31
0.0
  0
LINE
  5
871
  8
LAYER_1
 62
     4
 10
128.5553381851388
 20
234.0029373677237
 30
0.0
 11
127.9753591851388
 21
234.2018583677237
 31
0.0
  0
LINE
  5
872
  8
LAYER_1
 62
     4
 10
127.9753591851388
 20
234.2018583677237
 30
0.0
 11
127.5810421851388
 21
234.5749983677237
 31
0.0
  0
LINE
  5
873
  8
LAYER_1
 62
     4
 10
127.5810421851388
 20
234.5749983677237
 30
0.0
 11
127.3366161851388
 21
235.1769633677237
 31
0.0
  0
LINE
  5
874
  8
LAYER_1
 62
     4
 10
127.3366161851388
 20
235.1769633677237
 30
0.0
 11
127.2063121851388
 21
236.0623583677237
 31
0.0
  0
LINE
  5
875
  8
LAYER_1
 62
     4
 10
127.2063121851388
 20
236.0623583677237
 30
0.0
 11
127.1449931851388
 21
238.9018633677237
 31
0.0
  0
LINE
  5
876
  8
LAYER_1
 62
     4
 10
127.1449931851388
 20
238.9018633677237
 30
0.0
 11
127.1449931851388
 21
238.9018633677237
 31
0.0
  0
LINE
  5
877
  8
LAYER_1
 62
     4
 10
120.7078461851388
 20
238.9018633677237
 30
0.0
 11
123.2091031851388
 21
242.4278373677237
 31
0.0
  0
LINE
  5
878
  8
LAYER_1
 62
     4
 10
123.2091031851388
 20
242.4278373677237
 30
0.0
 11
124.5131891851388
 21
243.8943943677237
 31
0.0
  0
LINE
  5
879
  8
LAYER_1
 62
     4
 10
124.5131891851388
 20
243.8943943677237
 30
0.0
 11
124.6885211851388
 21
243.5004523677237
 31
0.0
  0
LINE
  5
87A
  8
LAYER_1
 62
     4
 10
124.6885211851388
 20
243.5004523677237
 30
0.0
 11
124.8321011851388
 21
242.4278373677237
 31
0.0
  0
LINE
  5
87B
  8
LAYER_1
 62
     4
 10
124.8321011851388
 20
242.4278373677237
 30
0.0
 11
124.9647441851388
 21
238.9018633677237
 31
0.0
  0
LINE
  5
87C
  8
LAYER_1
 62
     4
 10
124.9647441851388
 20
238.9018633677237
 30
0.0
 11
124.9647441851388
 21
233.9093273677237
 31
0.0
  0
LINE
  5
87D
  8
LAYER_1
 62
     4
 10
124.9647441851388
 20
233.9093273677237
 30
0.0
 11
121.1593931851388
 21
233.9093273677237
 31
0.0
  0
LINE
  5
87E
  8
LAYER_1
 62
     4
 10
121.1593931851388
 20
233.9093273677237
 30
0.0
 11
117.3540491851388
 21
233.9093273677237
 31
0.0
  0
LINE
  5
87F
  8
LAYER_1
 62
     4
 10
117.3540491851388
 20
233.9093273677237
 30
0.0
 11
120.7078461851388
 21
238.9018633677237
 31
0.0
  0
LINE
  5
880
  8
LAYER_1
 62
     4
 10
120.7078461851388
 20
238.9018633677237
 30
0.0
 11
120.7078461851388
 21
238.9018633677237
 31
0.0
  0
LINE
  5
881
  8
LAYER_1
 62
     4
 10
76.90336118513876
 20
221.6552493677237
 30
0.0
 11
78.21582918513879
 21
222.9036583677237
 31
0.0
  0
LINE
  5
882
  8
LAYER_1
 62
     4
 10
78.21582918513879
 20
222.9036583677237
 30
0.0
 11
79.97770118513877
 21
224.9590793677237
 31
0.0
  0
LINE
  5
883
  8
LAYER_1
 62
     4
 10
79.97770118513877
 20
224.9590793677237
 30
0.0
 11
81.95848918513879
 21
227.5362213677237
 31
0.0
  0
LINE
  5
884
  8
LAYER_1
 62
     4
 10
81.95848918513879
 20
227.5362213677237
 30
0.0
 11
83.92770618513877
 21
230.3497913677237
 31
0.0
  0
LINE
  5
885
  8
LAYER_1
 62
     4
 10
83.92770618513877
 20
230.3497913677237
 30
0.0
 11
86.08069418513877
 21
233.4731583677237
 31
0.0
  0
LINE
  5
886
  8
LAYER_1
 62
     4
 10
86.08069418513877
 20
233.4731583677237
 30
0.0
 11
88.00399718513877
 21
235.9389693677237
 31
0.0
  0
LINE
  5
887
  8
LAYER_1
 62
     4
 10
88.00399718513877
 20
235.9389693677237
 30
0.0
 11
89.83930718513878
 21
237.8335473677237
 31
0.0
  0
LINE
  5
888
  8
LAYER_1
 62
     4
 10
89.83930718513878
 20
237.8335473677237
 30
0.0
 11
91.72831618513878
 21
239.2432173677237
 31
0.0
  0
LINE
  5
889
  8
LAYER_1
 62
     4
 10
91.72831618513878
 20
239.2432173677237
 30
0.0
 11
93.81271518513877
 21
240.2543013677237
 31
0.0
  0
LINE
  5
88A
  8
LAYER_1
 62
     4
 10
93.81271518513877
 20
240.2543013677237
 30
0.0
 11
96.23419718513878
 21
240.9531253677237
 31
0.0
  0
LINE
  5
88B
  8
LAYER_1
 62
     4
 10
96.23419718513878
 20
240.9531253677237
 30
0.0
 11
99.13445318513878
 21
241.4260133677237
 31
0.0
  0
LINE
  5
88C
  8
LAYER_1
 62
     4
 10
99.13445318513878
 20
241.4260133677237
 30
0.0
 11
102.6551771851388
 21
241.7592873677237
 31
0.0
  0
LINE
  5
88D
  8
LAYER_1
 62
     4
 10
102.6551771851388
 20
241.7592873677237
 30
0.0
 11
107.2344611851388
 21
242.1830373677237
 31
0.0
  0
LINE
  5
88E
  8
LAYER_1
 62
     4
 10
107.2344611851388
 20
242.1830373677237
 30
0.0
 11
110.0870001851388
 21
242.7437603677237
 31
0.0
  0
LINE
  5
88F
  8
LAYER_1
 62
     4
 10
110.0870001851388
 20
242.7437603677237
 30
0.0
 11
111.0792311851388
 21
243.1430173677237
 31
0.0
  0
LINE
  5
890
  8
LAYER_1
 62
     4
 10
111.0792311851388
 20
243.1430173677237
 30
0.0
 11
111.8959651851388
 21
243.6575543677237
 31
0.0
  0
LINE
  5
891
  8
LAYER_1
 62
     4
 10
111.8959651851388
 20
243.6575543677237
 30
0.0
 11
113.3445271851388
 21
245.1405213677237
 31
0.0
  0
LINE
  5
892
  8
LAYER_1
 62
     4
 10
113.3445271851388
 20
245.1405213677237
 30
0.0
 11
114.0278611851388
 21
246.1316663677237
 31
0.0
  0
LINE
  5
893
  8
LAYER_1
 62
     4
 10
114.0278611851388
 20
246.1316663677237
 30
0.0
 11
117.5289332184446
 21
245.8309854857884
 31
0.0
  0
LINE
  5
894
  8
LAYER_1
 62
     4
 10
116.7139744683415
 20
248.4796014236236
 30
0.0
 11
114.8289961851388
 21
249.1414973677237
 31
0.0
  0
LINE
  5
895
  8
LAYER_1
 62
     4
 10
114.8289961851388
 20
249.1414973677237
 30
0.0
 11
114.7210741851388
 21
250.1081033677237
 31
0.0
  0
LINE
  5
896
  8
LAYER_1
 62
     4
 10
114.7210741851388
 20
250.1081033677237
 30
0.0
 11
114.4463301851388
 21
251.0319723677237
 31
0.0
  0
LINE
  5
897
  8
LAYER_1
 62
     4
 10
114.4463301851388
 20
251.0319723677237
 30
0.0
 11
114.0171601851388
 21
251.8984633677237
 31
0.0
  0
LINE
  5
898
  8
LAYER_1
 62
     4
 10
114.0171601851388
 20
251.8984633677237
 30
0.0
 11
113.4459631851388
 21
252.6929353677237
 31
0.0
  0
LINE
  5
899
  8
LAYER_1
 62
     4
 10
113.4459631851388
 20
252.6929353677237
 30
0.0
 11
112.7451341851388
 21
253.4007473677237
 31
0.0
  0
LINE
  5
89A
  8
LAYER_1
 62
     4
 10
112.7451341851388
 20
253.4007473677237
 30
0.0
 11
111.9270711851388
 21
254.0072583677237
 31
0.0
  0
LINE
  5
89B
  8
LAYER_1
 62
     4
 10
111.9270711851388
 20
254.0072583677237
 30
0.0
 11
111.0041711851388
 21
254.4978283677237
 31
0.0
  0
LINE
  5
89C
  8
LAYER_1
 62
     4
 10
111.0041711851388
 20
254.4978283677237
 30
0.0
 11
109.9888291851388
 21
254.8578143677237
 31
0.0
  0
LINE
  5
89D
  8
LAYER_1
 62
     4
 10
109.9888291851388
 20
254.8578143677237
 30
0.0
 11
108.8934451851388
 21
255.0725773677237
 31
0.0
  0
LINE
  5
89E
  8
LAYER_1
 62
     4
 10
108.8934451851388
 20
255.0725773677237
 30
0.0
 11
107.7304131851388
 21
255.1274743677237
 31
0.0
  0
LINE
  5
89F
  8
LAYER_1
 62
     4
 10
107.7304131851388
 20
255.1274743677237
 30
0.0
 11
106.5121321851388
 21
255.0078663677237
 31
0.0
  0
LINE
  5
8A0
  8
LAYER_1
 62
     4
 10
106.5121321851388
 20
255.0078663677237
 30
0.0
 11
105.2509971851388
 21
254.6991113677237
 31
0.0
  0
LINE
  5
8A1
  8
LAYER_1
 62
     4
 10
105.2509971851388
 20
254.6991113677237
 30
0.0
 11
103.9989961851388
 21
254.1650523677237
 31
0.0
  0
LINE
  5
8A2
  8
LAYER_1
 62
     4
 10
103.9989961851388
 20
254.1650523677237
 30
0.0
 11
102.8741051851388
 21
253.4402393677237
 31
0.0
  0
LINE
  5
8A3
  8
LAYER_1
 62
     4
 10
102.8741051851388
 20
253.4402393677237
 30
0.0
 11
101.9994631851388
 21
252.6198333677237
 31
0.0
  0
LINE
  5
8A4
  8
LAYER_1
 62
     4
 10
101.9994631851388
 20
252.6198333677237
 30
0.0
 11
101.4982071851388
 21
251.7989903677237
 31
0.0
  0
LINE
  5
8A5
  8
LAYER_1
 62
     4
 10
101.4982071851388
 20
251.7989903677237
 30
0.0
 11
100.9791791851388
 21
250.8984203677237
 31
0.0
  0
LINE
  5
8A6
  8
LAYER_1
 62
     4
 10
100.9791791851388
 20
250.8984203677237
 30
0.0
 11
100.0942101851388
 21
250.3036353677237
 31
0.0
  0
LINE
  5
8A7
  8
LAYER_1
 62
     4
 10
100.0942101851388
 20
250.3036353677237
 30
0.0
 11
98.74185018513877
 21
249.9726573677237
 31
0.0
  0
LINE
  5
8A8
  8
LAYER_1
 62
     4
 10
98.74185018513877
 20
249.9726573677237
 30
0.0
 11
96.82064718513878
 21
249.8635073677237
 31
0.0
  0
LINE
  5
8A9
  8
LAYER_1
 62
     4
 10
96.82064718513878
 20
249.8635073677237
 30
0.0
 11
93.63593618513878
 21
249.5934723677237
 31
0.0
  0
LINE
  5
8AA
  8
LAYER_1
 62
     4
 10
93.63593618513878
 20
249.5934723677237
 30
0.0
 11
90.52971018513878
 21
248.8379243677237
 31
0.0
  0
LINE
  5
8AB
  8
LAYER_1
 62
     4
 10
90.52971018513878
 20
248.8379243677237
 30
0.0
 11
87.54517118513877
 21
247.6261003677237
 31
0.0
  0
LINE
  5
8AC
  8
LAYER_1
 62
     4
 10
87.54517118513877
 20
247.6261003677237
 30
0.0
 11
84.72552318513878
 21
245.9872383677237
 31
0.0
  0
LINE
  5
8AD
  8
LAYER_1
 62
     4
 10
84.72552318513878
 20
245.9872383677237
 30
0.0
 11
82.11396818513877
 21
243.9505743677237
 31
0.0
  0
LINE
  5
8AE
  8
LAYER_1
 62
     4
 10
82.11396818513877
 20
243.9505743677237
 30
0.0
 11
79.75370918513879
 21
241.5453463677237
 31
0.0
  0
LINE
  5
8AF
  8
LAYER_1
 62
     4
 10
79.75370918513879
 20
241.5453463677237
 30
0.0
 11
77.68795018513877
 21
238.8007913677237
 31
0.0
  0
LINE
  5
8B0
  8
LAYER_1
 62
     4
 10
77.68795018513877
 20
238.8007913677237
 30
0.0
 11
75.95989218513877
 21
235.7461483677237
 31
0.0
  0
LINE
  5
8B1
  8
LAYER_1
 62
     4
 10
75.95989218513877
 20
235.7461483677237
 30
0.0
 11
74.62381118513876
 21
233.1258693677237
 31
0.0
  0
LINE
  5
8B2
  8
LAYER_1
 62
     4
 10
74.62381118513876
 20
233.1258693677237
 30
0.0
 11
74.09752318513877
 21
232.3450793677237
 31
0.0
  0
LINE
  5
8B3
  8
LAYER_1
 62
     4
 10
74.09752318513877
 20
232.3450793677237
 30
0.0
 11
73.58720618513878
 21
231.8658373677237
 31
0.0
  0
LINE
  5
8B4
  8
LAYER_1
 62
     4
 10
73.58720618513878
 20
231.8658373677237
 30
0.0
 11
73.03396118513878
 21
231.6496313677237
 31
0.0
  0
LINE
  5
8B5
  8
LAYER_1
 62
     4
 10
73.03396118513878
 20
231.6496313677237
 30
0.0
 11
72.37889018513879
 21
231.6579463677237
 31
0.0
  0
LINE
  5
8B6
  8
LAYER_1
 62
     4
 10
72.37889018513879
 20
231.6579463677237
 30
0.0
 11
70.52767618513879
 21
232.1940933677237
 31
0.0
  0
LINE
  5
8B7
  8
LAYER_1
 62
     4
 10
70.52767618513879
 20
232.1940933677237
 30
0.0
 11
69.29209718513879
 21
232.5338323677237
 31
0.0
  0
LINE
  5
8B8
  8
LAYER_1
 62
     4
 10
69.29209718513879
 20
232.5338323677237
 30
0.0
 11
68.09642718513878
 21
232.6955013677237
 31
0.0
  0
LINE
  5
8B9
  8
LAYER_1
 62
     4
 10
68.09642718513878
 20
232.6955013677237
 30
0.0
 11
66.95197118513879
 21
232.6911253677237
 31
0.0
  0
LINE
  5
8BA
  8
LAYER_1
 62
     4
 10
66.95197118513879
 20
232.6911253677237
 30
0.0
 11
65.87003518513878
 21
232.5327273677237
 31
0.0
  0
LINE
  5
8BB
  8
LAYER_1
 62
     4
 10
65.87003518513878
 20
232.5327273677237
 30
0.0
 11
64.86192218513877
 21
232.2323313677237
 31
0.0
  0
LINE
  5
8BC
  8
LAYER_1
 62
     4
 10
64.86192218513877
 20
232.2323313677237
 30
0.0
 11
63.93893918513878
 21
231.8019613677237
 31
0.0
  0
LINE
  5
8BD
  8
LAYER_1
 62
     4
 10
63.93893918513878
 20
231.8019613677237
 30
0.0
 11
63.11239118513878
 21
231.2536413677237
 31
0.0
  0
LINE
  5
8BE
  8
LAYER_1
 62
     4
 10
63.11239118513878
 20
231.2536413677237
 30
0.0
 11
62.39358318513878
 21
230.5993943677237
 31
0.0
  0
LINE
  5
8BF
  8
LAYER_1
 62
     4
 10
62.39358318513878
 20
230.5993943677237
 30
0.0
 11
61.79382018513878
 21
229.8512453677237
 31
0.0
  0
LINE
  5
8C0
  8
LAYER_1
 62
     4
 10
61.79382018513878
 20
229.8512453677237
 30
0.0
 11
61.32440718513878
 21
229.0212183677237
 31
0.0
  0
LINE
  5
8C1
  8
LAYER_1
 62
     4
 10
61.32440718513878
 20
229.0212183677237
 30
0.0
 11
60.99665018513876
 21
228.1213363677237
 31
0.0
  0
LINE
  5
8C2
  8
LAYER_1
 62
     4
 10
60.99665018513876
 20
228.1213363677237
 30
0.0
 11
60.82185318513878
 21
227.1636233677237
 31
0.0
  0
LINE
  5
8C3
  8
LAYER_1
 62
     4
 10
60.82185318513878
 20
227.1636233677237
 30
0.0
 11
60.81132218513876
 21
226.1601033677237
 31
0.0
  0
LINE
  5
8C4
  8
LAYER_1
 62
     4
 10
60.81132218513876
 20
226.1601033677237
 30
0.0
 11
60.97636218513877
 21
225.1228003677237
 31
0.0
  0
LINE
  5
8C5
  8
LAYER_1
 62
     4
 10
60.97636218513877
 20
225.1228003677237
 30
0.0
 11
61.32827818513879
 21
224.0637383677237
 31
0.0
  0
LINE
  5
8C6
  8
LAYER_1
 62
     4
 10
61.32827818513879
 20
224.0637383677237
 30
0.0
 11
61.87837518513878
 21
222.9949413677237
 31
0.0
  0
LINE
  5
8C7
  8
LAYER_1
 62
     4
 10
61.87837518513878
 20
222.9949413677237
 30
0.0
 11
62.88828218513878
 21
221.6773703677237
 31
0.0
  0
LINE
  5
8C8
  8
LAYER_1
 62
     4
 10
62.88828218513878
 20
221.6773703677237
 30
0.0
 11
63.47714018513877
 21
221.2118373677237
 31
0.0
  0
LINE
  5
8C9
  8
LAYER_1
 62
     4
 10
63.47714018513877
 20
221.2118373677237
 30
0.0
 11
64.17820218513877
 21
220.8523653677237
 31
0.0
  0
LINE
  5
8CA
  8
LAYER_1
 62
     4
 10
64.17820218513877
 20
220.8523653677237
 30
0.0
 11
66.08574218513878
 21
220.3832883677237
 31
0.0
  0
LINE
  5
8CB
  8
LAYER_1
 62
     4
 10
66.08574218513878
 20
220.3832883677237
 30
0.0
 11
68.94851318513877
 21
220.1335013677237
 31
0.0
  0
LINE
  5
8CC
  8
LAYER_1
 62
     4
 10
68.94851318513877
 20
220.1335013677237
 30
0.0
 11
69.14075743107041
 21
217.7149086072299
 31
0.0
  0
LINE
  5
8CD
  8
LAYER_1
 62
     4
 10
73.72490040040059
 20
218.2242578260443
 30
0.0
 11
73.76954318513877
 21
220.3103723677237
 31
0.0
  0
LINE
  5
8CE
  8
LAYER_1
 62
     4
 10
73.76954318513877
 20
220.3103723677237
 30
0.0
 11
75.46892418513879
 21
220.8218063677237
 31
0.0
  0
LINE
  5
8CF
  8
LAYER_1
 62
     4
 10
75.46892418513879
 20
220.8218063677237
 30
0.0
 11
76.90336118513876
 21
221.6552493677237
 31
0.0
  0
LINE
  5
8D0
  8
LAYER_1
 62
     4
 10
76.90336118513876
 20
221.6552493677237
 30
0.0
 11
76.90336118513876
 21
221.6552493677237
 31
0.0
  0
LINE
  5
8D1
  8
LAYER_1
 62
     4
 10
77.56707218513877
 20
233.5469313677237
 30
0.0
 11
79.01394418513878
 21
236.2866543677237
 31
0.0
  0
LINE
  5
8D2
  8
LAYER_1
 62
     4
 10
79.01394418513878
 20
236.2866543677237
 30
0.0
 11
80.72012918513879
 21
238.9183753677237
 31
0.0
  0
LINE
  5
8D3
  8
LAYER_1
 62
     4
 10
80.72012918513879
 20
238.9183753677237
 30
0.0
 11
82.50551518513878
 21
241.1891973677237
 31
0.0
  0
LINE
  5
8D4
  8
LAYER_1
 62
     4
 10
82.50551518513878
 20
241.1891973677237
 30
0.0
 11
84.18998618513878
 21
242.8462213677237
 31
0.0
  0
LINE
  5
8D5
  8
LAYER_1
 62
     4
 10
84.18998618513878
 20
242.8462213677237
 30
0.0
 11
86.58220918513878
 21
244.4904533677237
 31
0.0
  0
LINE
  5
8D6
  8
LAYER_1
 62
     4
 10
86.58220918513878
 20
244.4904533677237
 30
0.0
 11
89.17933618513878
 21
245.8000693677237
 31
0.0
  0
LINE
  5
8D7
  8
LAYER_1
 62
     4
 10
89.17933618513878
 20
245.8000693677237
 30
0.0
 11
91.84358218513877
 21
246.7541073677237
 31
0.0
  0
LINE
  5
8D8
  8
LAYER_1
 62
     4
 10
91.84358218513877
 20
246.7541073677237
 30
0.0
 11
94.43716418513877
 21
247.3316023677237
 31
0.0
  0
LINE
  5
8D9
  8
LAYER_1
 62
     4
 10
94.43716418513877
 20
247.3316023677237
 30
0.0
 11
96.82229618513878
 21
247.5115933677237
 31
0.0
  0
LINE
  5
8DA
  8
LAYER_1
 62
     4
 10
96.82229618513878
 20
247.5115933677237
 30
0.0
 11
98.86119518513877
 21
247.2731163677237
 31
0.0
  0
LINE
  5
8DB
  8
LAYER_1
 62
     4
 10
98.86119518513877
 20
247.2731163677237
 30
0.0
 11
99.70775018513878
 21
246.9904013677237
 31
0.0
  0
LINE
  5
8DC
  8
LAYER_1
 62
     4
 10
99.70775018513878
 20
246.9904013677237
 30
0.0
 11
100.4160771851388
 21
246.5952083677237
 31
0.0
  0
LINE
  5
8DD
  8
LAYER_1
 62
     4
 10
100.4160771851388
 20
246.5952083677237
 30
0.0
 11
100.9689531851388
 21
246.0849163677237
 31
0.0
  0
LINE
  5
8DE
  8
LAYER_1
 62
     4
 10
100.9689531851388
 20
246.0849163677237
 30
0.0
 11
101.3491571851388
 21
245.4569063677237
 31
0.0
  0
LINE
  5
8DF
  8
LAYER_1
 62
     4
 10
101.3491571851388
 20
245.4569063677237
 30
0.0
 11
101.4217251851388
 21
245.1101253677237
 31
0.0
  0
LINE
  5
8E0
  8
LAYER_1
 62
     4
 10
101.4217251851388
 20
245.1101253677237
 30
0.0
 11
101.3288611851388
 21
244.7962933677237
 31
0.0
  0
LINE
  5
8E1
  8
LAYER_1
 62
     4
 10
101.3288611851388
 20
244.7962933677237
 30
0.0
 11
100.6155721851388
 21
244.2531863677237
 31
0.0
  0
LINE
  5
8E2
  8
LAYER_1
 62
     4
 10
100.6155721851388
 20
244.2531863677237
 30
0.0
 11
99.14676718513877
 21
243.7990143677237
 31
0.0
  0
LINE
  5
8E3
  8
LAYER_1
 62
     4
 10
99.14676718513877
 20
243.7990143677237
 30
0.0
 11
96.85992418513878
 21
243.4052043677237
 31
0.0
  0
LINE
  5
8E4
  8
LAYER_1
 62
     4
 10
96.85992418513878
 20
243.4052043677237
 30
0.0
 11
94.67102518513877
 21
242.9503273677237
 31
0.0
  0
LINE
  5
8E5
  8
LAYER_1
 62
     4
 10
94.67102518513877
 20
242.9503273677237
 30
0.0
 11
92.58387518513878
 21
242.1804223677237
 31
0.0
  0
LINE
  5
8E6
  8
LAYER_1
 62
     4
 10
92.58387518513878
 20
242.1804223677237
 30
0.0
 11
90.55516718513877
 21
241.0586903677237
 31
0.0
  0
LINE
  5
8E7
  8
LAYER_1
 62
     4
 10
90.55516718513877
 20
241.0586903677237
 30
0.0
 11
88.54159518513878
 21
239.5483283677237
 31
0.0
  0
LINE
  5
8E8
  8
LAYER_1
 62
     4
 10
88.54159518513878
 20
239.5483283677237
 30
0.0
 11
86.49985018513878
 21
237.6125343677237
 31
0.0
  0
LINE
  5
8E9
  8
LAYER_1
 62
     4
 10
86.49985018513878
 20
237.6125343677237
 30
0.0
 11
84.38662718513878
 21
235.2145083677237
 31
0.0
  0
LINE
  5
8EA
  8
LAYER_1
 62
     4
 10
84.38662718513878
 20
235.2145083677237
 30
0.0
 11
82.15861818513876
 21
232.3174483677237
 31
0.0
  0
LINE
  5
8EB
  8
LAYER_1
 62
     4
 10
82.15861818513876
 20
232.3174483677237
 30
0.0
 11
79.77251718513877
 21
228.8845523677237
 31
0.0
  0
LINE
  5
8EC
  8
LAYER_1
 62
     4
 10
79.77251718513877
 20
228.8845523677237
 30
0.0
 11
77.51229618513877
 21
225.6047633677237
 31
0.0
  0
LINE
  5
8ED
  8
LAYER_1
 62
     4
 10
77.51229618513877
 20
225.6047633677237
 30
0.0
 11
76.14559018513877
 21
223.9841223677237
 31
0.0
  0
LINE
  5
8EE
  8
LAYER_1
 62
     4
 10
76.14559018513877
 20
223.9841223677237
 30
0.0
 11
75.71529618513877
 21
223.7254623677237
 31
0.0
  0
LINE
  5
8EF
  8
LAYER_1
 62
     4
 10
75.71529618513877
 20
223.7254623677237
 30
0.0
 11
75.40997118513879
 21
223.7969673677237
 31
0.0
  0
LINE
  5
8F0
  8
LAYER_1
 62
     4
 10
75.40997118513879
 20
223.7969673677237
 30
0.0
 11
75.19681218513877
 21
224.1704293677237
 31
0.0
  0
LINE
  5
8F1
  8
LAYER_1
 62
     4
 10
75.19681218513877
 20
224.1704293677237
 30
0.0
 11
75.04301418513877
 21
224.8176393677237
 31
0.0
  0
LINE
  5
8F2
  8
LAYER_1
 62
     4
 10
75.04301418513877
 20
224.8176393677237
 30
0.0
 11
75.11321218513878
 21
226.2461913677237
 31
0.0
  0
LINE
  5
8F3
  8
LAYER_1
 62
     4
 10
75.11321218513878
 20
226.2461913677237
 30
0.0
 11
75.61250218513878
 21
228.3682103677237
 31
0.0
  0
LINE
  5
8F4
  8
LAYER_1
 62
     4
 10
75.61250218513878
 20
228.3682103677237
 30
0.0
 11
76.45806318513878
 21
230.8972663677237
 31
0.0
  0
LINE
  5
8F5
  8
LAYER_1
 62
     4
 10
76.45806318513878
 20
230.8972663677237
 30
0.0
 11
77.56707218513877
 21
233.5469313677237
 31
0.0
  0
LINE
  5
8F6
  8
LAYER_1
 62
     4
 10
77.56707218513877
 20
233.5469313677237
 30
0.0
 11
77.56707218513877
 21
233.5469313677237
 31
0.0
  0
LINE
  5
8F7
  8
LAYER_1
 62
     4
 10
97.52836742429528
 20
99.11095136772367
 30
0.0
 11
97.52836742429528
 21
105.1019933677237
 31
0.0
  0
LINE
  5
8F8
  8
LAYER_1
 62
     4
 10
97.52836742429528
 20
105.1019933677237
 30
0.0
 11
105.7042804242953
 21
105.1019933677237
 31
0.0
  0
LINE
  5
8F9
  8
LAYER_1
 62
     4
 10
105.7042804242953
 20
105.1019933677237
 30
0.0
 11
113.8801934242953
 21
105.1019933677237
 31
0.0
  0
LINE
  5
8FA
  8
LAYER_1
 62
     4
 10
113.8801934242953
 20
105.1019933677237
 30
0.0
 11
113.8801934242953
 21
99.11095136772367
 31
0.0
  0
LINE
  5
8FB
  8
LAYER_1
 62
     4
 10
113.8801934242953
 20
99.11095136772367
 30
0.0
 11
113.8801934242953
 21
93.11991236772367
 31
0.0
  0
LINE
  5
8FC
  8
LAYER_1
 62
     4
 10
113.8801934242953
 20
93.11991236772367
 30
0.0
 11
105.7042804242953
 21
93.11991236772367
 31
0.0
  0
LINE
  5
8FD
  8
LAYER_1
 62
     4
 10
105.7042804242953
 20
93.11991236772367
 30
0.0
 11
97.52836742429528
 21
93.11991236772367
 31
0.0
  0
LINE
  5
8FE
  8
LAYER_1
 62
     4
 10
97.52836742429528
 20
93.11991236772367
 30
0.0
 11
97.52836742429528
 21
99.11095136772367
 31
0.0
  0
LINE
  5
8FF
  8
LAYER_1
 62
     4
 10
97.52836742429528
 20
99.11095136772367
 30
0.0
 11
97.52836742429528
 21
99.11095136772367
 31
0.0
  0
LINE
  5
900
  8
LAYER_1
 62
     4
 10
135.0620108457671
 20
99.11095136772367
 30
0.0
 11
135.0620108457671
 21
105.1019933677237
 31
0.0
  0
LINE
  5
901
  8
LAYER_1
 62
     4
 10
135.0620108457671
 20
105.1019933677237
 30
0.0
 11
143.2379238457671
 21
105.1019933677237
 31
0.0
  0
LINE
  5
902
  8
LAYER_1
 62
     4
 10
143.2379238457671
 20
105.1019933677237
 30
0.0
 11
151.4138368457672
 21
105.1019933677237
 31
0.0
  0
LINE
  5
903
  8
LAYER_1
 62
     4
 10
151.4138368457672
 20
105.1019933677237
 30
0.0
 11
151.4138368457672
 21
99.11095136772367
 31
0.0
  0
LINE
  5
904
  8
LAYER_1
 62
     4
 10
151.4138368457672
 20
99.11095136772367
 30
0.0
 11
151.4138368457672
 21
93.11991236772367
 31
0.0
  0
LINE
  5
905
  8
LAYER_1
 62
     4
 10
151.4138368457672
 20
93.11991236772367
 30
0.0
 11
143.2379238457671
 21
93.11991236772367
 31
0.0
  0
LINE
  5
906
  8
LAYER_1
 62
     4
 10
143.2379238457671
 20
93.11991236772367
 30
0.0
 11
135.0620108457671
 21
93.11991236772367
 31
0.0
  0
LINE
  5
907
  8
LAYER_1
 62
     4
 10
135.0620108457671
 20
93.11991236772367
 30
0.0
 11
135.0620108457671
 21
99.11095136772367
 31
0.0
  0
LINE
  5
908
  8
LAYER_1
 62
     4
 10
135.0620108457671
 20
99.11095136772367
 30
0.0
 11
135.0620108457671
 21
99.11095136772367
 31
0.0
  0
LINE
  5
909
  8
LAYER_1
 62
     4
 10
163.5999976876788
 20
100.6345363677237
 30
0.0
 11
161.8737686876788
 21
105.6528883677237
 31
0.0
  0
LINE
  5
90A
  8
LAYER_1
 62
     4
 10
161.8737686876788
 20
105.6528883677237
 30
0.0
 11
157.5197316876788
 21
105.2725683677237
 31
0.0
  0
LINE
  5
90B
  8
LAYER_1
 62
     4
 10
157.5197316876788
 20
105.2725683677237
 30
0.0
 11
155.1811166876788
 21
104.9872613677237
 31
0.0
  0
LINE
  5
90C
  8
LAYER_1
 62
     4
 10
155.1811166876788
 20
104.9872613677237
 30
0.0
 11
154.4146966876788
 21
104.7845913677237
 31
0.0
  0
LINE
  5
90D
  8
LAYER_1
 62
     4
 10
154.4146966876788
 20
104.7845913677237
 30
0.0
 11
153.8686746876788
 21
104.5070883677237
 31
0.0
  0
LINE
  5
90E
  8
LAYER_1
 62
     4
 10
153.8686746876788
 20
104.5070883677237
 30
0.0
 11
153.5069086876788
 21
104.1286343677237
 31
0.0
  0
LINE
  5
90F
  8
LAYER_1
 62
     4
 10
153.5069086876788
 20
104.1286343677237
 30
0.0
 11
153.2932536876788
 21
103.6231133677237
 31
0.0
  0
LINE
  5
910
  8
LAYER_1
 62
     4
 10
153.2932536876788
 20
103.6231133677237
 30
0.0
 11
153.1657026876788
 21
102.1264023677237
 31
0.0
  0
LINE
  5
911
  8
LAYER_1
 62
     4
 10
153.1657026876788
 20
102.1264023677237
 30
0.0
 11
153.3658406876788
 21
99.25644236772368
 31
0.0
  0
LINE
  5
912
  8
LAYER_1
 62
     4
 10
153.3658406876788
 20
99.25644236772368
 30
0.0
 11
153.8470266876788
 21
96.24024936772368
 31
0.0
  0
LINE
  5
913
  8
LAYER_1
 62
     4
 10
153.8470266876788
 20
96.24024936772368
 30
0.0
 11
154.3477366876788
 21
94.47541736772368
 31
0.0
  0
LINE
  5
914
  8
LAYER_1
 62
     4
 10
154.3477366876788
 20
94.47541736772368
 30
0.0
 11
154.7059416876788
 21
93.92245636772367
 31
0.0
  0
LINE
  5
915
  8
LAYER_1
 62
     4
 10
154.7059416876788
 20
93.92245636772367
 30
0.0
 11
155.2286486876788
 21
93.54472236772368
 31
0.0
  0
LINE
  5
916
  8
LAYER_1
 62
     4
 10
155.2286486876788
 20
93.54472236772368
 30
0.0
 11
155.9853106876788
 21
93.30890736772368
 31
0.0
  0
LINE
  5
917
  8
LAYER_1
 62
     4
 10
155.9853106876788
 20
93.30890736772368
 30
0.0
 11
157.0453776876788
 21
93.18170536772368
 31
0.0
  0
LINE
  5
918
  8
LAYER_1
 62
     4
 10
157.0453776876788
 20
93.18170536772368
 30
0.0
 11
160.3535356876788
 21
93.11991236772367
 31
0.0
  0
LINE
  5
919
  8
LAYER_1
 62
     4
 10
160.3535356876788
 20
93.11991236772367
 30
0.0
 11
162.9952516876788
 21
93.18956736772367
 31
0.0
  0
LINE
  5
91A
  8
LAYER_1
 62
     4
 10
165.7524866876788
 20
94.36804636772368
 30
0.0
 11
163.5999976876788
 21
100.6345363677237
 31
0.0
  0
LINE
  5
91B
  8
LAYER_1
 62
     4
 10
162.9952516876788
 20
93.18956736772367
 30
0.0
 11
164.7274626876788
 21
93.40966836772367
 31
0.0
  0
LINE
  5
91C
  8
LAYER_1
 62
     4
 10
164.7274626876788
 20
93.40966836772367
 30
0.0
 11
165.6224486876788
 21
93.79692536772367
 31
0.0
  0
LINE
  5
91D
  8
LAYER_1
 62
     4
 10
165.6224486876788
 20
93.79692536772367
 30
0.0
 11
165.7785686876788
 21
94.05845836772367
 31
0.0
  0
LINE
  5
91E
  8
LAYER_1
 62
     4
 10
165.7785686876788
 20
94.05845836772367
 30
0.0
 11
165.7524866876788
 21
94.36804636772368
 31
0.0
  0
LINE
  5
91F
  8
LAYER_1
 62
     4
 10
165.7524866876788
 20
94.36804636772368
 30
0.0
 11
165.7524866876788
 21
94.36804636772368
 31
0.0
  0
ENDSEC
  0
EOF
