  0
SECTION
  2
HEADER
  9
$ACADVER
  1
AC1009
  9
$DWGCODEPAGE
  3
ansi_1252
  9
$INSBASE
 10
0.0
 20
0.0
 30
0.0
  9
$EXTMIN
 10
0.2508952179189126
 20
-0.0574811764026482
 30
0.0
  9
$EXTMAX
 10
46.4687025617374
 20
26.91694912773287
 30
0.0
  9
$LIMMIN
 10
-0.069395
 20
-0.681391
  9
$LIMMAX
 10
114.3494
 20
85.13274
  9
$ORTHOMODE
 70
     0
  9
$REGENMODE
 70
     1
  9
$FILLMODE
 70
     1
  9
$QTEXTMODE
 70
     0
  9
$MIRRTEXT
 70
     1
  9
$DRAGMODE
 70
     2
  9
$LTSCALE
 40
1.0
  9
$OSMODE
 70
    37
  9
$ATTMODE
 70
     1
  9
$TEXTSIZE
 40
0.2
  9
$TRACEWID
 40
0.05
  9
$TEXTSTYLE
  7
STANDARD
  9
$CLAYER
  8
0
  9
$CELTYPE
  6
CONTINUOUS
  9
$CECOLOR
 62
   256
  9
$DIMSCALE
 40
1.0
  9
$DIMASZ
 40
0.18
  9
$DIMEXO
 40
0.0625
  9
$DIMDLI
 40
0.38
  9
$DIMRND
 40
0.0
  9
$DIMDLE
 40
0.0
  9
$DIMEXE
 40
0.18
  9
$DIMTP
 40
0.0
  9
$DIMTM
 40
0.0
  9
$DIMTXT
 40
0.18
  9
$DIMCEN
 40
0.09
  9
$DIMTSZ
 40
0.0
  9
$DIMTOL
 70
     0
  9
$DIMLIM
 70
     0
  9
$DIMTIH
 70
     1
  9
$DIMTOH
 70
     1
  9
$DIMSE1
 70
     0
  9
$DIMSE2
 70
     0
  9
$DIMTAD
 70
     0
  9
$DIMZIN
 70
     0
  9
$DIMBLK
  1

  9
$DIMASO
 70
     1
  9
$DIMSHO
 70
     1
  9
$DIMPOST
  1

  9
$DIMAPOST
  1

  9
$DIMALT
 70
     0
  9
$DIMALTD
 70
     2
  9
$DIMALTF
 40
25.4
  9
$DIMLFAC
 40
1.0
  9
$DIMTOFL
 70
     0
  9
$DIMTVP
 40
0.0
  9
$DIMTIX
 70
     0
  9
$DIMSOXD
 70
     0
  9
$DIMSAH
 70
     0
  9
$DIMBLK1
  1

  9
$DIMBLK2
  1

  9
$DIMSTYLE
  2
STANDARD
  9
$DIMCLRD
 70
     0
  9
$DIMCLRE
 70
     0
  9
$DIMCLRT
 70
     0
  9
$DIMTFAC
 40
1.0
  9
$DIMGAP
 40
0.09
  9
$LUNITS
 70
     2
  9
$LUPREC
 70
     4
  9
$SKETCHINC
 40
0.1
  9
$FILLETRAD
 40
0.0
  9
$AUNITS
 70
     0
  9
$AUPREC
 70
     0
  9
$MENU
  1
.
  9
$ELEVATION
 40
0.0
  9
$PELEVATION
 40
0.0
  9
$THICKNESS
 40
0.0
  9
$LIMCHECK
 70
     0
  9
$CHAMFERA
 40
0.0
  9
$CHAMFERB
 40
0.0
  9
$SKPOLY
 70
     0
  9
$TDCREATE
 40
2453353.508792488
  9
$TDUPDATE
 40
9808431.864108149
  9
$TDINDWG
 40
9791572.06217926
  9
$TDUSRTIMER
 40
9791572.06217926
  9
$USRTIMER
 70
     1
  9
$ANGBASE
 50
0.0
  9
$ANGDIR
 70
     0
  9
$PDMODE
 70
     0
  9
$PDSIZE
 40
0.0
  9
$PLINEWID
 40
0.0
  9
$COORDS
 70
     1
  9
$SPLFRAME
 70
     0
  9
$SPLINETYPE
 70
     6
  9
$SPLINESEGS
 70
     8
  9
$ATTDIA
 70
     0
  9
$ATTREQ
 70
     1
  9
$HANDLING
 70
     1
  9
$HANDSEED
  5
513C
  9
$SURFTAB1
 70
     6
  9
$SURFTAB2
 70
     6
  9
$SURFTYPE
 70
     6
  9
$SURFU
 70
     6
  9
$SURFV
 70
     6
  9
$UCSNAME
  2

  9
$UCSORG
 10
0.0
 20
0.0
 30
0.0
  9
$UCSXDIR
 10
1.0
 20
0.0
 30
0.0
  9
$UCSYDIR
 10
0.0
 20
1.0
 30
0.0
  9
$PUCSNAME
  2

  9
$PUCSORG
 10
0.0
 20
0.0
 30
0.0
  9
$PUCSXDIR
 10
1.0
 20
0.0
 30
0.0
  9
$PUCSYDIR
 10
0.0
 20
1.0
 30
0.0
  9
$USERI1
 70
     0
  9
$USERI2
 70
     0
  9
$USERI3
 70
     0
  9
$USERI4
 70
     0
  9
$USERI5
 70
     0
  9
$USERR1
 40
0.0
  9
$USERR2
 40
0.0
  9
$USERR3
 40
0.0
  9
$USERR4
 40
0.0
  9
$USERR5
 40
0.0
  9
$WORLDVIEW
 70
     1
  9
$SHADEDGE
 70
     3
  9
$SHADEDIF
 70
    70
  9
$TILEMODE
 70
     1
  9
$MAXACTVP
 70
    64
  9
$PLIMCHECK
 70
     0
  9
$PEXTMIN
 10
0.0
 20
0.0
 30
0.0
  9
$PEXTMAX
 10
0.0
 20
0.0
 30
0.0
  9
$PLIMMIN
 10
0.0
 20
0.0
  9
$PLIMMAX
 10
0.0
 20
0.0
  9
$UNITMODE
 70
     0
  9
$VISRETAIN
 70
     1
  9
$PLINEGEN
 70
     0
  9
$PSLTSCALE
 70
     1
  0
ENDSEC
  0
SECTION
  2
TABLES
  0
TABLE
  2
VPORT
 70
     1
  0
VPORT
  2
*ACTIVE
 70
     0
 10
0.0
 20
0.0
 11
1.0
 21
1.0
 12
11.11452335196066
 22
8.813858014312071
 13
0.0
 23
0.0
 14
1.0
 24
1.0
 15
0.0
 25
0.0
 16
0.0
 26
0.0
 36
1.0
 17
0.0
 27
0.0
 37
0.0
 40
28.45193805768201
 41
1.831013916500993
 42
50.0
 43
0.0
 44
0.0
 50
0.0
 51
0.0
 71
    16
 72
   100
 73
     1
 74
     1
 75
     0
 76
     0
 77
     0
 78
     0
  0
ENDTAB
  0
TABLE
  2
LTYPE
 70
     8
  0
LTYPE
  2
CONTINUOUS
 70
     0
  3
Solid line
 72
    65
 73
     0
 40
0.0
  0
LTYPE
  2
HIDDEN
 70
     0
  3
 _ _ _ _ _ _ _ _ _ _ _
 72
    65
 73
     2
 40
0.375
 49
0.25
 49
-0.125
  0
LTYPE
  2
DASHED
 70
     0
  3
 ___ ___ ___ ___ ___ ___ ___ 
 72
    65
 73
     2
 40
0.75
 49
0.5
 49
-0.25
  0
LTYPE
  2
CENTER
 70
     0
  3
___ _ ___ _ ___ _ ___
 72
    65
 73
     4
 40
2.0
 49
1.25
 49
-0.25
 49
0.25
 49
-0.25
  0
LTYPE
  2
BORDER
 70
     0
  3
___ ___ . ___ ___ . ___ ___
 72
    65
 73
     6
 40
1.75
 49
0.5
 49
-0.25
 49
0.5
 49
-0.25
 49
0.0
 49
-0.25
  0
LTYPE
  2
DOT
 70
     0
  3
.................
 72
    65
 73
     2
 40
0.25
 49
0.0
 49
-0.25
  0
LTYPE
  2
DASHDOT
 70
     0
  3
__ . __ . __ . __
 72
    65
 73
     4
 40
1.0
 49
0.5
 49
-0.25
 49
0.0
 49
-0.25
  0
LTYPE
  2
DIVIDE
 70
     0
  3
___ .. ___ .. ___ .. ___
 72
    65
 73
     6
 40
1.25
 49
0.5
 49
-0.25
 49
0.0
 49
-0.25
 49
0.0
 49
-0.25
  0
ENDTAB
  0
TABLE
  2
LAYER
 70
     9
  0
LAYER
  2
0
 70
     0
 62
     7
  6
CONTINUOUS
  0
LAYER
  2
BLACK
 70
     0
 62
     8
  6
CONTINUOUS
  0
LAYER
  2
WHITE
 70
     0
 62
     7
  6
CONTINUOUS
  0
LAYER
  2
RED
 70
     0
 62
     1
  6
CONTINUOUS
  0
LAYER
  2
YELLOW
 70
     0
 62
     2
  6
CONTINUOUS
  0
LAYER
  2
GREEN
 70
     0
 62
     3
  6
CONTINUOUS
  0
LAYER
  2
CYAN
 70
     0
 62
     4
  6
CONTINUOUS
  0
LAYER
  2
BLUE
 70
     0
 62
     5
  6
CONTINUOUS
  0
LAYER
  2
MAGENTA
 70
     0
 62
     6
  6
CONTINUOUS
  0
ENDTAB
  0
TABLE
  2
STYLE
 70
     1
  0
STYLE
  2
STANDARD
 70
     0
 40
0.0
 41
1.0
 50
0.0
 71
     0
 42
0.2
  3
txt
  4

  0
ENDTAB
  0
TABLE
  2
VIEW
 70
     0
  0
ENDTAB
  0
TABLE
  2
UCS
 70
     0
  0
ENDTAB
  0
TABLE
  2
APPID
 70
     1
  0
APPID
  2
ACAD
 70
     0
  0
ENDTAB
  0
TABLE
  2
DIMSTYLE
 70
     1
  0
DIMSTYLE
  2
STANDARD
 70
     0
  3

  4

  5

  6

  7

 40
1.0
 41
0.18
 42
0.0625
 43
0.38
 44
0.18
 45
0.0
 46
0.0
 47
0.0
 48
0.0
140
0.18
141
0.09
142
0.0
143
25.4
144
1.0
145
0.0
146
1.0
147
0.09
 71
     0
 72
     0
 73
     1
 74
     1
 75
     0
 76
     0
 77
     0
 78
     0
170
     0
171
     2
172
     0
173
     0
174
     0
175
     0
176
     0
177
     0
178
     0
  0
ENDTAB
  0
ENDSEC
  0
SECTION
  2
BLOCKS
  0
BLOCK
  8
0
  2
$MODEL_SPACE
 70
     0
 10
0.0
 20
0.0
 30
0.0
  3
$MODEL_SPACE
  1

  0
ENDBLK
  5
21
  8
0
  0
BLOCK
 67
     1
  8
0
  2
$PAPER_SPACE
 70
     0
 10
0.0
 20
0.0
 30
0.0
  3
$PAPER_SPACE
  1

  0
ENDBLK
  5
76
 67
     1
  8
0
  0
ENDSEC
  0
SECTION
  2
ENTITIES
  0
ARC
  5
4D86
  8
WHITE
  6
CONTINUOUS
 10
12.86100469996447
 20
12.43032518012907
 30
0.0
 40
1.272234412511275
 50
338.0843417472828
 51
352.1429289367786
  0
ARC
  5
4D87
  8
WHITE
  6
CONTINUOUS
 10
13.70657915150209
 20
12.09050743328759
 30
0.0
 40
0.3609850000000012
 50
290.6807237498942
 51
338.0300237498942
  0
ARC
  5
4D88
  8
WHITE
  6
CONTINUOUS
 10
13.83056126362621
 20
11.76206834552054
 30
0.0
 40
0.0099950000000011
 50
198.1285237498934
 51
290.6657237498934
  0
LINE
  5
4D89
  8
WHITE
  6
CONTINUOUS
 10
13.82099910278798
 20
11.75894183306987
 30
0.0
 11
13.81338900590405
 21
11.78173751084915
 31
0.0
  0
ARC
  5
4D8A
  8
WHITE
  6
CONTINUOUS
 10
13.82283872096734
 20
11.78496676544162
 30
0.0
 40
0.009992
 50
110.8645437499098
 51
198.8528237499097
  0
ARC
  5
4D8B
  8
WHITE
  6
CONTINUOUS
 10
13.70656970885684
 20
12.09051072516403
 30
0.0
 40
0.317017999999999
 50
290.8331237498948
 51
338.0261237498949
  0
ARC
  5
4D8C
  8
WHITE
  6
CONTINUOUS
 10
12.87804734935215
 20
12.42465366433943
 30
0.0
 40
1.210340999999999
 50
338.0332237498946
 51
6.037423749894435
  0
ARC
  5
4D8D
  8
WHITE
  6
CONTINUOUS
 10
14.09171279526315
 20
12.55300364175132
 30
0.0
 40
0.0100400000000006
 50
97.11490374988003
 51
185.92332374988
  0
LINE
  5
4D8E
  8
WHITE
  6
CONTINUOUS
 10
14.09047549984881
 20
12.56288149071035
 30
0.0
 11
14.11433795950319
 21
12.56571414304402
 31
0.0
  0
ARC
  5
4D8F
  8
WHITE
  6
CONTINUOUS
 10
14.11547381172797
 20
12.5558187077467
 30
0.0
 40
0.0099499999999981
 50
5.357023749880426
 51
96.54840374988042
  0
ARC
  5
4D90
  8
WHITE
  6
CONTINUOUS
 10
12.86443841260596
 20
12.42402963655416
 30
0.0
 40
1.267985434178902
 50
352.4035222310873
 51
6.008389051065204
  0
LINE
  5
4D91
  8
WHITE
  6
CONTINUOUS
 10
13.20587291745664
 20
12.85095780095665
 30
0.0
 11
13.25370927832207
 21
13.01673005731807
 31
0.0
  0
ARC
  5
4D92
  8
WHITE
  6
CONTINUOUS
 10
11.43539552270906
 20
13.54160037572874
 30
0.0
 40
1.892559000000003
 50
343.8986237498943
 51
349.0585237498943
  0
ARC
  5
4D93
  8
WHITE
  6
CONTINUOUS
 10
13.37286848882691
 20
13.16706320686222
 30
0.0
 40
0.0807820000000008
 50
71.84950374989346
 51
169.0672237498934
  0
ARC
  5
4D94
  8
WHITE
  6
CONTINUOUS
 10
13.31969191459911
 20
13.00462469032935
 30
0.0
 40
0.2516939999999998
 50
45.82992374989368
 51
71.86325374989366
  0
ARC
  5
4D95
  8
WHITE
  6
CONTINUOUS
 10
12.25392332050467
 20
11.9078111189591
 30
0.0
 40
1.780990000000002
 50
30.73562374989426
 51
45.82372374989436
  0
ARC
  5
4D96
  8
WHITE
  6
CONTINUOUS
 10
13.51883676695998
 20
12.37047397458573
 30
0.0
 40
0.5056729999999987
 50
184.0000237498941
 51
207.6952237498941
  0
ARC
  5
4D97
  8
WHITE
  6
CONTINUOUS
 10
15.22027924076595
 20
12.48916546050217
 30
0.0
 40
2.211273000000002
 50
174.1167237498945
 51
183.9925237498946
  0
ARC
  5
4D98
  8
WHITE
  6
CONTINUOUS
 10
13.03060085894528
 20
12.71476439287392
 30
0.0
 40
0.0099720000000001
 50
83.93778374988153
 51
173.8693237498816
  0
LINE
  5
4D99
  8
WHITE
  6
CONTINUOUS
 10
13.03166782397453
 20
12.72478146757797
 30
0.0
 11
13.05560030893848
 21
12.72210395689624
 31
0.0
  0
ARC
  5
4D9A
  8
WHITE
  6
CONTINUOUS
 10
13.05453793473791
 20
12.7121911842741
 30
0.0
 40
0.0099719999999985
 50
354.4443237498961
 51
83.86930374989611
  0
ARC
  5
4D9B
  8
WHITE
  6
CONTINUOUS
 10
15.22027438894937
 20
12.48927305446054
 30
0.0
 40
2.167218999999998
 50
174.1218237498945
 51
183.9944237498946
  0
ARC
  5
4D9C
  8
WHITE
  6
CONTINUOUS
 10
13.51894436091834
 20
12.37047882640229
 30
0.0
 40
0.4617260000000032
 50
183.9961237498945
 51
231.3610237498945
  0
LINE
  5
4D9D
  8
WHITE
  6
CONTINUOUS
 10
13.23062952733555
 20
12.00981684055388
 30
0.0
 11
13.20329641670825
 21
11.9752478434114
 31
0.0
  0
ARC
  5
4D9E
  8
WHITE
  6
CONTINUOUS
 10
13.51883676695998
 20
12.37047397458573
 30
0.0
 40
0.5057459999999987
 50
207.694923749894
 51
231.397023749894
  0
ARC
  5
4D9F
  8
WHITE
  6
CONTINUOUS
 10
13.28179538792019
 20
11.48548779058563
 30
0.0
 40
1.110484533045002
 50
125.8990422638888
 51
144.2917618631553
  0
LINE
  5
4DA0
  8
WHITE
  6
CONTINUOUS
 10
12.38005573688786
 20
12.13364695322226
 30
0.0
 11
12.34519064286146
 21
12.16037374162886
 31
0.0
  0
ARC
  5
4DA1
  8
WHITE
  6
CONTINUOUS
 10
13.82803681540195
 20
11.02226613569608
 30
0.0
 40
1.869252
 50
120.4478837498943
 51
142.4931437498943
  0
ARC
  5
4DA2
  8
WHITE
  6
CONTINUOUS
 10
12.88580771702121
 20
12.62507989838487
 30
0.0
 40
0.0099839999999984
 50
30.17212374987603
 51
120.169533749876
  0
LINE
  5
4DA3
  8
WHITE
  6
CONTINUOUS
 10
12.89444067878473
 20
12.63009770380058
 30
0.0
 11
12.90652414565095
 21
12.60925849247932
 31
0.0
  0
ARC
  5
4DA4
  8
WHITE
  6
CONTINUOUS
 10
12.89789118388746
 20
12.60424068706361
 30
0.0
 40
0.0099839999999999
 50
300.4689237498679
 51
30.16952374986806
  0
ARC
  5
4DA5
  8
WHITE
  6
CONTINUOUS
 10
13.42102860215871
 20
11.64485582047055
 30
0.0
 40
1.082849185420846
 50
118.5860068141485
 51
136.8783202205388
  0
ARC
  5
4DA6
  8
WHITE
  6
CONTINUOUS
 10
8.798797374389569
 20
12.96574006221669
 30
0.0
 40
0.4343230000000004
 50
121.1831837498945
 51
181.5720237498944
  0
ARC
  5
4DA7
  8
WHITE
  6
CONTINUOUS
 10
8.56834709870579
 20
12.74657624645945
 30
0.0
 40
0.2906210000000007
 50
48.10772374989394
 51
134.5118337498939
  0
LINE
  5
4DA8
  8
WHITE
  6
CONTINUOUS
 10
7.651218517674362
 20
12.80908775224255
 30
0.0
 11
7.503862217769605
 21
12.87888585593012
 31
0.0
  0
ARC
  5
4DA9
  8
WHITE
  6
CONTINUOUS
 10
9.210116125784307
 20
16.48347143764192
 30
0.0
 40
3.988017999999999
 50
241.0360237498944
 51
244.6690237498946
  0
ARC
  5
4DAA
  8
WHITE
  6
CONTINUOUS
 10
8.021464712258659
 20
14.33596871400605
 30
0.0
 40
1.533527999999999
 50
231.2598237498948
 51
241.0375237498948
  0
ARC
  5
4DAB
  8
WHITE
  6
CONTINUOUS
 10
7.16796761469438
 20
13.27214679401694
 30
0.0
 40
0.1697020000000021
 50
172.8506237498942
 51
231.2559237498942
  0
ARC
  5
4DAC
  8
WHITE
  6
CONTINUOUS
 10
7.101051823430272
 20
13.28054258936323
 30
0.0
 40
0.1021769999999968
 50
146.0184637498945
 51
172.8486237498946
  0
ARC
  5
4DAD
  8
WHITE
  6
CONTINUOUS
 10
7.024540452087205
 20
13.33210292736842
 30
0.0
 40
0.009985999999998
 50
47.82362374987733
 51
145.9765037498772
  0
LINE
  5
4DAE
  8
WHITE
  6
CONTINUOUS
 10
7.031238875546183
 20
13.33950017842298
 30
0.0
 11
7.049269269069118
 21
13.32314312766778
 31
0.0
  0
ARC
  5
4DAF
  8
WHITE
  6
CONTINUOUS
 10
7.042570845610126
 20
13.31574587661321
 30
0.0
 40
0.0099760000000026
 50
328.830623749884
 51
47.81142374988389
  0
ARC
  5
4DB0
  8
WHITE
  6
CONTINUOUS
 10
7.100953672117139
 20
13.28053444567023
 30
0.0
 40
0.0581619999999984
 50
148.9213337498933
 51
172.7750237498932
  0
ARC
  5
4DB1
  8
WHITE
  6
CONTINUOUS
 10
7.167972205523054
 20
13.27225109609886
 30
0.0
 40
0.1256960000000009
 50
172.8696237498948
 51
231.2664237498948
  0
ARC
  5
4DB2
  8
WHITE
  6
CONTINUOUS
 10
8.021458561489848
 20
14.33598144852776
 30
0.0
 40
1.489535
 50
231.2586237498946
 51
241.0398237498947
  0
ARC
  5
4DB3
  8
WHITE
  6
CONTINUOUS
 10
9.210116125784307
 20
16.48347143764192
 30
0.0
 40
3.944005999999999
 50
241.0369237498944
 51
244.6697237498945
  0
LINE
  5
4DB4
  8
WHITE
  6
CONTINUOUS
 10
7.522724397658049
 20
12.9186531058961
 30
0.0
 11
7.826003647624017
 21
12.77507492600768
 31
0.0
  0
ARC
  5
4DB5
  8
WHITE
  6
CONTINUOUS
 10
7.821730169055503
 20
12.76600625571241
 30
0.0
 40
0.0100170000000023
 50
302.7323237499128
 51
64.72702374991286
  0
LINE
  5
4DB6
  8
WHITE
  6
CONTINUOUS
 10
7.82714932839691
 20
12.7575828530726
 30
0.0
 11
7.803246910108708
 21
12.7423629450579
 31
0.0
  0
ARC
  5
4DB7
  8
WHITE
  6
CONTINUOUS
 10
7.797827750767294
 20
12.75078634769771
 30
0.0
 40
0.0100159999999991
 50
244.7464237499261
 51
302.7252237499262
  0
LINE
  5
4DB8
  8
WHITE
  6
CONTINUOUS
 10
7.79355756407524
 20
12.74172712004769
 30
0.0
 11
7.651221809550801
 21
12.8090971948878
 31
0.0
  0
LINE
  5
4DB9
  8
WHITE
  6
CONTINUOUS
 10
7.651221809550801
 20
12.8090971948878
 30
0.0
 11
7.660579263081903
 21
12.81251746730582
 31
0.0
  0
ARC
  5
4DBA
  8
WHITE
  6
CONTINUOUS
 10
7.85459283200284
 20
14.64092792124512
 30
0.0
 40
0.3589970000000034
 50
180.7006237498947
 51
210.7807237498948
  0
ARC
  5
4DBB
  8
WHITE
  6
CONTINUOUS
 10
7.306318616463319
 20
14.63416614821479
 30
0.0
 40
0.1892999999999991
 50
0.7200237498945165
 51
83.82984374989442
  0
ARC
  5
4DBC
  8
WHITE
  6
CONTINUOUS
 10
7.367963978009097
 20
15.2046600023446
 30
0.0
 40
0.3845210000000016
 50
237.1607237498941
 51
263.8348237498941
  0
ARC
  5
4DBD
  8
WHITE
  6
CONTINUOUS
 10
8.056281967667555
 20
15.09792531626486
 30
0.0
 40
0.9747939999999977
 50
223.8516237498948
 51
227.5638237498947
  0
ARC
  5
4DBE
  8
WHITE
  6
CONTINUOUS
 10
7.548185079655593
 20
14.60985150894414
 30
0.0
 40
0.2702660000000019
 50
213.9877237498953
 51
223.8614237498954
  0
ARC
  5
4DBF
  8
WHITE
  6
CONTINUOUS
 10
7.30904936486446
 20
14.44858369345903
 30
0.0
 40
0.0181940000000003
 50
34.12122374990516
 51
128.4539137499052
  0
ARC
  5
4DC0
  8
WHITE
  6
CONTINUOUS
 10
7.212899132996181
 20
14.569483573987
 30
0.0
 40
0.1361539999999992
 50
237.185823749894
 51
308.5005237498939
  0
ARC
  5
4DC1
  8
WHITE
  6
CONTINUOUS
 10
7.133670055842838
 20
14.44659558705
 30
0.0
 40
0.0099560000000021
 50
57.25002374986514
 51
140.6978837498651
  0
ARC
  5
4DC2
  8
WHITE
  6
CONTINUOUS
 10
7.032624668443173
 20
14.52942501772085
 30
0.0
 40
0.1207150000000003
 50
284.978423749898
 51
320.6528237498981
  0
ARC
  5
4DC3
  8
WHITE
  6
CONTINUOUS
 10
4.133591688173755
 20
25.33264335300456
 30
0.0
 40
11.30611
 50
284.7749237498944
 51
285.0209237498943
  0
ARC
  5
4DC4
  8
WHITE
  6
CONTINUOUS
 10
7.007617090813572
 20
14.43557651234596
 30
0.0
 40
0.0363799999999983
 50
234.1477237499052
 51
284.7786237499051
  0
ARC
  5
4DC5
  8
WHITE
  6
CONTINUOUS
 10
6.994853002094008
 20
14.41779736334609
 30
0.0
 40
0.0144989999999977
 50
141.0853037498894
 51
233.9106237498894
  0
ARC
  5
4DC6
  8
WHITE
  6
CONTINUOUS
 10
7.087364895140684
 20
14.34344979415302
 30
0.0
 40
0.1332489999999982
 50
122.6780337498937
 51
141.2006737498937
  0
ARC
  5
4DC7
  8
WHITE
  6
CONTINUOUS
 10
6.831719607618584
 20
14.74241137722554
 30
0.0
 40
0.3406200000000012
 50
302.6415237498945
 51
319.9353237498945
  0
ARC
  5
4DC8
  8
WHITE
  6
CONTINUOUS
 10
7.043370284173204
 20
14.56447099812634
 30
0.0
 40
0.0641580000000013
 50
319.888623749896
 51
21.31272374989602
  0
ARC
  5
4DC9
  8
WHITE
  6
CONTINUOUS
 10
7.140152436030608
 20
14.60219402003407
 30
0.0
 40
0.0397119999999993
 50
128.3143937498934
 51
201.2690237498934
  0
ARC
  5
4DCA
  8
WHITE
  6
CONTINUOUS
 10
7.212206228383305
 20
14.51056798111723
 30
0.0
 40
0.156287
 50
97.13270374989412
 51
128.2150037498941
  0
ARC
  5
4DCB
  8
WHITE
  6
CONTINUOUS
 10
7.217144318463578
 20
14.4716323256539
 30
0.0
 40
0.1956070000000002
 50
67.59864374989596
 51
97.14981374989596
  0
ARC
  5
4DCC
  8
WHITE
  6
CONTINUOUS
 10
7.251988997467539
 20
14.55612089852095
 30
0.0
 40
0.1042039999999983
 50
34.395423749895
 51
67.610813749895
  0
ARC
  5
4DCD
  8
WHITE
  6
CONTINUOUS
 10
7.300738341595984
 20
14.58948264977963
 30
0.0
 40
0.0451520000000012
 50
337.1649237498967
 51
34.40022374989672
  0
ARC
  5
4DCE
  8
WHITE
  6
CONTINUOUS
 10
7.4077660876839
 20
14.5444399626113
 30
0.0
 40
0.0709329999999982
 50
157.178902749896
 51
211.826323749896
  0
ARC
  5
4DCF
  8
WHITE
  6
CONTINUOUS
 10
7.703403778254046
 20
14.72737569754123
 30
0.0
 40
0.4186280000000034
 50
211.7630237498954
 51
221.8679237498953
  0
ARC
  5
4DD0
  8
WHITE
  6
CONTINUOUS
 10
6.760528991480317
 20
13.882255238159
 30
0.0
 40
0.8475999999999996
 50
38.57252374989457
 51
41.8723237498947
  0
LINE
  5
4DD1
  8
WHITE
  6
CONTINUOUS
 10
7.423190144834518
 20
14.41073017515722
 30
0.0
 11
7.474277954060266
 21
14.34672536089679
 31
0.0
  0
ARC
  5
4DD2
  8
WHITE
  6
CONTINUOUS
 10
7.457414783560868
 20
14.35108976013477
 30
0.0
 40
0.0174179999999981
 50
231.3294237499111
 51
345.4677237499109
  0
ARC
  5
4DD3
  8
WHITE
  6
CONTINUOUS
 10
8.056291410312813
 20
15.09792202438841
 30
0.0
 40
0.97477
 50
227.5636237498946
 51
231.2752237498946
  0
LINE
  5
4DD4
  8
WHITE
  6
CONTINUOUS
 10
7.398523395072647
 20
14.37849343437618
 30
0.0
 11
7.408526341323846
 21
14.37893521067226
 31
0.0
  0
ARC
  5
4DD5
  8
WHITE
  6
CONTINUOUS
 10
0.4208455494882202
 20
4.831252783893113
 30
0.0
 40
12.85606999999999
 50
59.94312374989442
 51
61.16437374989442
  0
ARC
  5
4DD6
  8
WHITE
  6
CONTINUOUS
 10
7.186658537813148
 20
16.04916224618731
 30
0.0
 40
0.339014999999998
 50
195.4931237498951
 51
202.214123749895
  0
ARC
  5
4DD7
  8
WHITE
  6
CONTINUOUS
 10
6.86352061782404
 20
15.9171473437516
 30
0.0
 40
0.0100080000000001
 50
239.3415237499039
 51
22.47562374990406
  0
ARC
  5
4DD8
  8
WHITE
  6
CONTINUOUS
 10
0.4208364360306049
 20
4.831257020034085
 30
0.0
 40
12.81209
 50
59.8369237498945
 51
62.38542374989441
  0
ARC
  5
4DD9
  8
WHITE
  6
CONTINUOUS
 10
6.842014105645514
 20
17.10626294369717
 30
0.0
 40
1.040928
 50
228.3302237498946
 51
242.3862237498948
  0
ARC
  5
4DDA
  8
WHITE
  6
CONTINUOUS
 10
6.156531199944066
 20
16.33616359439793
 30
0.0
 40
0.0099819999999988
 50
134.9560037498953
 51
228.6226237498953
  0
LINE
  5
4DDB
  8
WHITE
  6
CONTINUOUS
 10
6.149536601767426
 20
16.34316643641726
 30
0.0
 11
6.166411183071023
 21
16.36019036974153
 31
0.0
  0
ARC
  5
4DDC
  8
WHITE
  6
CONTINUOUS
 10
6.173503932560745
 20
16.35319567141522
 30
0.0
 40
0.0099700000000005
 50
48.15142374989411
 51
135.374183749894
  0
ARC
  5
4DDD
  8
WHITE
  6
CONTINUOUS
 10
6.842012806693287
 20
17.10616808426051
 30
0.0
 40
0.9968619999999989
 50
228.4028237498949
 51
242.3824237498949
  0
ARC
  5
4DDE
  8
WHITE
  6
CONTINUOUS
 10
0.4208292799005342
 20
4.83135800414076
 30
0.0
 40
12.85603
 50
61.16415374989443
 51
62.38529374989442
  0
ARC
  5
4DDF
  8
WHITE
  6
CONTINUOUS
 10
5.2994921072784
 20
15.90123957834134
 30
0.0
 40
0.797429999999999
 50
337.5498237498942
 51
359.7458237498943
  0
LINE
  5
4DE0
  8
WHITE
  6
CONTINUOUS
 10
6.0364118100951
 20
15.59675407310253
 30
0.0
 11
5.995872007128714
 21
15.61370398683229
 31
0.0
  0
ARC
  5
4DE1
  8
WHITE
  6
CONTINUOUS
 10
5.2994921072784
 20
15.90123957834134
 30
0.0
 40
0.7534100000000038
 50
337.5639237498945
 51
21.1810237498945
  0
ARC
  5
4DE2
  8
WHITE
  6
CONTINUOUS
 10
6.01130301760632
 20
16.1770633924657
 30
0.0
 40
0.0100300000000006
 50
111.940663749935
 51
201.202823749935
  0
LINE
  5
4DE3
  8
WHITE
  6
CONTINUOUS
 10
6.007580841527943
 20
16.18631429000278
 30
0.0
 11
6.029755030669325
 21
16.19542246961906
 31
0.0
  0
ARC
  5
4DE4
  8
WHITE
  6
CONTINUOUS
 10
6.033486649392959
 20
16.18616828020554
 30
0.0
 40
0.009972000000002
 50
21.19982374989316
 51
111.9417737498932
  0
ARC
  5
4DE5
  8
WHITE
  6
CONTINUOUS
 10
5.299392396025151
 20
15.90134847125193
 30
0.0
 40
0.7974379999999972
 50
359.7387237498946
 51
21.20622374989465
  0
ARC
  5
4DE6
  8
WHITE
  6
CONTINUOUS
 10
5.986982854863097
 20
16.69948680626349
 30
0.0
 40
0.8801560000000022
 50
178.0910237498943
 51
197.4654237498944
  0
ARC
  5
4DE7
  8
WHITE
  6
CONTINUOUS
 10
5.380460044684856
 20
16.71972458364817
 30
0.0
 40
0.273299
 50
138.0648137498947
 51
178.0961237498947
  0
ARC
  5
4DE8
  8
WHITE
  6
CONTINUOUS
 10
5.27485137983248
 20
16.81458684436392
 30
0.0
 40
0.1313429999999981
 50
47.5725237498972
 51
138.0637437498971
  0
ARC
  5
4DE9
  8
WHITE
  6
CONTINUOUS
 10
4.021718210965975
 20
15.44309187824608
 30
0.0
 40
1.989083000000001
 50
25.98882374989435
 51
47.58132374989433
  0
ARC
  5
4DEA
  8
WHITE
  6
CONTINUOUS
 10
5.571442861076516
 20
15.85316586098049
 30
0.0
 40
0.4208955264366082
 50
201.8609364046381
 51
232.2299921518527
  0
LINE
  5
4DEB
  8
WHITE
  6
CONTINUOUS
 10
5.313687131907589
 20
15.52049581755756
 30
0.0
 11
5.28534772709062
 21
15.48680714535726
 31
0.0
  0
ARC
  5
4DEC
  8
WHITE
  6
CONTINUOUS
 10
5.72995809231038
 20
16.00991242743645
 30
0.0
 40
0.6865280000000006
 50
190.9561237498942
 51
229.6370237498943
  0
ARC
  5
4DED
  8
WHITE
  6
CONTINUOUS
 10
5.065644830369966
 20
15.88136128660097
 30
0.0
 40
0.0099629999999984
 50
99.37704374993311
 51
191.1882237499331
  0
LINE
  5
4DEE
  8
WHITE
  6
CONTINUOUS
 10
5.064012070810843
 20
15.89122873795489
 30
0.0
 11
5.08766635329826
 21
15.89525653139618
 31
0.0
  0
ARC
  5
4DEF
  8
WHITE
  6
CONTINUOUS
 10
5.089400123062855
 20
15.88537504656831
 30
0.0
 40
0.0100280000000021
 50
11.1949237498877
 51
99.9610737498877
  0
ARC
  5
4DF0
  8
WHITE
  6
CONTINUOUS
 10
5.4955272627457
 20
15.94396496829404
 30
0.0
 40
0.4003892668949664
 50
188.1340138423232
 51
218.1850010490037
  0
ARC
  5
4DF1
  8
WHITE
  6
CONTINUOUS
 10
3.622875598637773
 20
13.82910988668261
 30
0.0
 40
0.1785870000000014
 50
268.9836237498948
 51
306.017123749895
  0
ARC
  5
4DF2
  8
WHITE
  6
CONTINUOUS
 10
2.220781025770709
 20
14.42066256568655
 30
0.0
 40
1.677154999999998
 50
311.1132237498944
 51
333.9725237498944
  0
ARC
  5
4DF3
  8
WHITE
  6
CONTINUOUS
 10
3.63071647195385
 20
12.80511598220581
 30
0.0
 40
0.4671100000000024
 50
131.1090737498947
 51
157.2999917498946
  0
ARC
  5
4DF4
  8
WHITE
  6
CONTINUOUS
 10
2.262001081016312
 20
13.37783070448095
 30
0.0
 40
1.016638999999999
 50
316.8763237498945
 51
337.2918237498947
  0
ARC
  5
4DF5
  8
WHITE
  6
CONTINUOUS
 10
3.362528368266279
 20
12.34722968230106
 30
0.0
 40
0.4911059999999998
 50
136.8860437498943
 51
156.2137097498943
  0
ARC
  5
4DF6
  8
WHITE
  6
CONTINUOUS
 10
0.4595361720491127
 20
13.62679608589339
 30
0.0
 40
2.681332999999998
 50
324.2025237498945
 51
336.2131237498946
  0
ARC
  5
4DF7
  8
WHITE
  6
CONTINUOUS
 10
2.80550138010463
 20
11.93500028347128
 30
0.0
 40
0.2109419999999997
 50
144.2039737498943
 51
186.0016237498942
  0
ARC
  5
4DF8
  8
WHITE
  6
CONTINUOUS
 10
2.208596880716957
 20
11.87216152146285
 30
0.0
 40
0.3892219999999991
 50
326.5758237498947
 51
6.013623749894729
  0
ARC
  5
4DF9
  8
WHITE
  6
CONTINUOUS
 10
3.996527047542369
 20
10.69270969427548
 30
0.0
 40
1.752697
 50
146.5908937498946
 51
167.0772237498945
  0
ARC
  5
4DFA
  8
WHITE
  6
CONTINUOUS
 10
4.663073781519785
 20
10.53977696682956
 30
0.0
 40
2.436552999999999
 50
167.0773237498945
 51
173.0441237498944
  0
ARC
  5
4DFB
  8
WHITE
  6
CONTINUOUS
 10
1.208612813496927
 20
10.96125406194455
 30
0.0
 40
1.043501000000001
 50
328.2845237498942
 51
353.0425237498943
  0
ARC
  5
4DFC
  8
WHITE
  6
CONTINUOUS
 10
4.946236723144491
 20
8.651160278300509
 30
0.0
 40
3.350417999999997
 50
148.2800837498945
 51
155.4522347498945
  0
ARC
  5
4DFD
  8
WHITE
  6
CONTINUOUS
 10
2.480164910652995
 20
9.777465823272625
 30
0.0
 40
0.6392609999999989
 50
155.4501267498943
 51
168.7185237498944
  0
ARC
  5
4DFE
  8
WHITE
  6
CONTINUOUS
 10
0.3356342370919627
 20
10.2052940325528
 30
0.0
 40
1.547469999999999
 50
333.4093237498946
 51
348.7175237498946
  0
ARC
  5
4DFF
  8
WHITE
  6
CONTINUOUS
 10
-0.6330579623909571
 20
10.69014916685678
 30
0.0
 40
2.630815000000002
 50
321.3472237498945
 51
333.4099237498945
  0
ARC
  5
4E00
  8
WHITE
  6
CONTINUOUS
 10
2.50683935724437
 20
8.178887398452911
 30
0.0
 40
1.389869000000002
 50
141.3481237498944
 51
153.4964177498944
  0
ARC
  5
4E01
  8
WHITE
  6
CONTINUOUS
 10
11.35386705946236
 20
3.766888327177913
 30
0.0
 40
11.27595
 50
153.4948807498944
 51
157.5942247498944
  0
ARC
  5
4E02
  8
WHITE
  6
CONTINUOUS
 10
40.78700421793289
 20
-8.367992080605459
 30
0.0
 40
43.1125
 50
157.5942917498944
 51
158.5397047498944
  0
ARC
  5
4E03
  8
WHITE
  6
CONTINUOUS
 10
0.1780710984336515
 20
7.59580580735209
 30
0.0
 40
0.5215029999999999
 50
319.9014237498942
 51
338.5384237498942
  0
ARC
  5
4E04
  8
WHITE
  6
CONTINUOUS
 10
0.5616877398814744
 20
7.47971878340325
 30
0.0
 40
0.2203430000000008
 50
273.9805237498934
 51
306.7868237498934
  0
ARC
  5
4E05
  8
WHITE
  6
CONTINUOUS
 10
12.92751266855203
 20
2.460301393363789
 30
0.0
 40
13.15763
 50
158.4030387498944
 51
160.9725237498944
  0
ARC
  5
4E06
  8
WHITE
  6
CONTINUOUS
 10
0.0234906866769506
 20
6.910437437914069
 30
0.0
 40
0.4922229999999994
 50
306.178823749895
 51
340.972423749895
  0
ARC
  5
4E07
  8
WHITE
  6
CONTINUOUS
 10
0.3282999809482803
 20
6.691567144704106
 30
0.0
 40
0.1789800000000003
 50
265.4267237498949
 51
338.689323749895
  0
ARC
  5
4E08
  8
WHITE
  6
CONTINUOUS
 10
3.795546504556931
 20
5.339170987267725
 30
0.0
 40
3.552545000000001
 50
158.6919027498944
 51
176.0615237498945
  0
ARC
  5
4E09
  8
WHITE
  6
CONTINUOUS
 10
2.747168703114575
 20
5.411300159998703
 30
0.0
 40
2.502186000000001
 50
176.0604237498944
 51
196.7382237498944
  0
ARC
  5
4E0A
  8
WHITE
  6
CONTINUOUS
 10
0.7869487996719187
 20
4.555113355290583
 30
0.0
 40
0.4564840000000007
 50
141.2384637498943
 51
162.7226237498943
  0
ARC
  5
4E0B
  8
WHITE
  6
CONTINUOUS
 10
4.300897417769612
 20
5.170437255930127
 30
0.0
 40
3.883875999999999
 50
184.8674237498944
 51
194.9386237498945
  0
ARC
  5
4E0C
  8
WHITE
  6
CONTINUOUS
 10
-0.4465241510968809
 20
4.545013489812282
 30
0.0
 40
1.063419999999999
 50
339.3063237498944
 51
350.8602237498945
  0
ARC
  5
4E0D
  8
WHITE
  6
CONTINUOUS
 10
3.0381122794923
 20
4.645893845479723
 30
0.0
 40
2.449652
 50
186.3230237498945
 51
203.2469237498945
  0
ARC
  5
4E0E
  8
WHITE
  6
CONTINUOUS
 10
5.841674370171301
 20
5.850295756052592
 30
0.0
 40
5.500926
 50
203.2477237498943
 51
214.6551237498943
  0
ARC
  5
4E0F
  8
WHITE
  6
CONTINUOUS
 10
1.54910258081221
 20
2.838143625150426
 30
0.0
 40
0.259725
 50
163.0714237498943
 51
206.4971237498942
  0
LINE
  5
4E10
  8
WHITE
  6
CONTINUOUS
 10
1.300658082077689
 20
2.913762116999656
 30
0.0
 11
1.560095884227639
 21
2.523157885947814
 31
0.0
  0
LINE
  5
4E11
  8
WHITE
  6
CONTINUOUS
 10
1.560095884227639
 20
2.523157885947814
 30
0.0
 11
1.568906321021768
 21
2.684097653263093
 31
0.0
  0
LINE
  5
4E12
  8
WHITE
  6
CONTINUOUS
 10
1.568906321021768
 20
2.684097653263093
 30
0.0
 11
1.661176519905958
 21
2.532443952922915
 31
0.0
  0
LINE
  5
4E13
  8
WHITE
  6
CONTINUOUS
 10
1.661176519905958
 20
2.532443952922915
 30
0.0
 11
1.820775381356498
 21
2.152975103365151
 31
0.0
  0
LINE
  5
4E14
  8
WHITE
  6
CONTINUOUS
 10
1.820775381356498
 20
2.152975103365151
 30
0.0
 11
1.921725424409967
 21
2.040041170149751
 31
0.0
  0
LINE
  5
4E15
  8
WHITE
  6
CONTINUOUS
 10
1.921725424409967
 20
2.040041170149751
 30
0.0
 11
2.071100397113749
 21
1.807558227681382
 31
0.0
  0
LINE
  5
4E16
  8
WHITE
  6
CONTINUOUS
 10
2.071100397113749
 20
1.807558227681382
 30
0.0
 11
2.041926176838878
 21
2.047882614182948
 31
0.0
  0
LINE
  5
4E17
  8
WHITE
  6
CONTINUOUS
 10
2.041926176838878
 20
2.047882614182948
 30
0.0
 11
2.215283021579658
 21
1.751014603433186
 31
0.0
  0
LINE
  5
4E18
  8
WHITE
  6
CONTINUOUS
 10
2.215283021579658
 20
1.751014603433186
 30
0.0
 11
2.361328738166943
 21
1.520586117026875
 31
0.0
  0
LINE
  5
4E19
  8
WHITE
  6
CONTINUOUS
 10
2.361328738166943
 20
1.520586117026875
 30
0.0
 11
2.336964876634767
 21
1.672760934852427
 31
0.0
  0
LINE
  5
4E1A
  8
WHITE
  6
CONTINUOUS
 10
2.336964876634767
 20
1.672760934852427
 30
0.0
 11
2.615043613279212
 21
1.293918910658659
 31
0.0
  0
LINE
  5
4E1B
  8
WHITE
  6
CONTINUOUS
 10
2.615043613279212
 20
1.293918910658659
 30
0.0
 11
2.613114919470522
 21
1.435506250351136
 31
0.0
  0
ARC
  5
4E1C
  8
WHITE
  6
CONTINUOUS
 10
2.623117156945007
 20
1.435642215434822
 30
0.0
 40
0.0099989999999995
 50
40.06122374991201
 51
180.7805237499119
  0
LINE
  5
4E1D
  8
WHITE
  6
CONTINUOUS
 10
2.630728904284787
 20
1.44204434816036
 30
0.0
 11
2.836400358305745
 21
1.196221810971625
 31
0.0
  0
LINE
  5
4E1E
  8
WHITE
  6
CONTINUOUS
 10
2.836400358305745
 20
1.196221810971625
 30
0.0
 11
2.81246781205455
 21
1.300907834675533
 31
0.0
  0
LINE
  5
4E1F
  8
WHITE
  6
CONTINUOUS
 10
2.81246781205455
 20
1.300907834675533
 30
0.0
 11
2.962729980131844
 21
1.151136827382022
 31
0.0
  0
ARC
  5
4E20
  8
WHITE
  6
CONTINUOUS
 10
2.969832272416504
 20
1.158234428688324
 30
0.0
 40
0.010041
 50
224.973623749912
 51
3.702423749911958
  0
LINE
  5
4E21
  8
WHITE
  6
CONTINUOUS
 10
2.979723742657352
 20
1.15887286229834
 30
0.0
 11
2.976797970661163
 21
1.204735146445843
 31
0.0
  0
LINE
  5
4E22
  8
WHITE
  6
CONTINUOUS
 10
2.976797970661163
 20
1.204735146445843
 30
0.0
 11
3.138133342439652
 21
0.9317093110124439
 31
0.0
  0
LINE
  5
4E23
  8
WHITE
  6
CONTINUOUS
 10
3.138133342439652
 20
0.9317093110124439
 30
0.0
 11
3.124879906217021
 21
1.089841765822628
 31
0.0
  0
LINE
  5
4E24
  8
WHITE
  6
CONTINUOUS
 10
3.124879906217021
 20
1.089841765822628
 30
0.0
 11
3.245343004380043
 21
0.8945702518479362
 31
0.0
  0
LINE
  5
4E25
  8
WHITE
  6
CONTINUOUS
 10
3.245343004380043
 20
0.8945702518479362
 30
0.0
 11
3.239625817715176
 21
1.020703368108658
 31
0.0
  0
LINE
  5
4E26
  8
WHITE
  6
CONTINUOUS
 10
3.239625817715176
 20
1.020703368108658
 30
0.0
 11
3.374327881941611
 21
0.7648139974459784
 31
0.0
  0
LINE
  5
4E27
  8
WHITE
  6
CONTINUOUS
 10
3.374327881941611
 20
0.7648139974459784
 30
0.0
 11
3.385377213769079
 21
0.9749783010519089
 31
0.0
  0
LINE
  5
4E28
  8
WHITE
  6
CONTINUOUS
 10
3.385377213769079
 20
0.9749783010519089
 30
0.0
 11
3.45594140318261
 21
0.8011299197755424
 31
0.0
  0
ARC
  5
4E29
  8
WHITE
  6
CONTINUOUS
 10
4.68157151367382
 20
1.299171197364332
 30
0.0
 40
1.322955999999999
 50
202.1147237498944
 51
210.9391237498943
  0
ARC
  5
4E2A
  8
WHITE
  6
CONTINUOUS
 10
3.416282294514751
 20
0.5407656842060806
 30
0.0
 40
0.1523059999999992
 50
321.5094237498938
 51
30.93132374989386
  0
ARC
  5
4E2B
  8
WHITE
  6
CONTINUOUS
 10
3.775612544018085
 20
0.2551316578351468
 30
0.0
 40
0.3067259999999991
 50
141.5226637498946
 51
194.5118237498946
  0
ARC
  5
4E2C
  8
WHITE
  6
CONTINUOUS
 10
4.625383078696139
 20
6.026667821433286
 30
0.0
 40
5.957374223198678
 50
258.9544124466734
 51
287.9556115005806
  0
ARC
  5
4E2D
  8
WHITE
  6
CONTINUOUS
 10
5.195928483928274
 20
17.03624130292971
 30
0.0
 40
0.191422
 50
147.9787537498945
 51
148.8670237498945
  0
ARC
  5
4E2E
  8
WHITE
  6
CONTINUOUS
 10
5.989564345480961
 20
16.57777003231508
 30
0.0
 40
1.110839986571034
 50
149.5126870846383
 51
176.4055757797211
  0
ARC
  5
4E2F
  8
WHITE
  6
CONTINUOUS
 10
6.192740114354198
 20
16.57247499513273
 30
0.0
 40
1.313981000000001
 50
176.7306237498945
 51
206.1560237498944
  0
ARC
  5
4E30
  8
WHITE
  6
CONTINUOUS
 10
5.004377296011558
 20
15.98882959929657
 30
0.0
 40
0.0099739999999997
 50
256.8731237499109
 51
26.31792374991072
  0
ARC
  5
4E31
  8
WHITE
  6
CONTINUOUS
 10
4.946781247841734
 20
15.73852887729358
 30
0.0
 40
0.2468559999999991
 50
77.04825374989518
 51
144.6294937498952
  0
ARC
  5
4E32
  8
WHITE
  6
CONTINUOUS
 10
8.872403594283423
 20
12.95284086096482
 30
0.0
 40
5.060388999999999
 50
144.6393537498943
 51
153.9562157498943
  0
ARC
  5
4E33
  8
WHITE
  6
CONTINUOUS
 10
7.264953895548903
 20
13.73841795281406
 30
0.0
 40
3.271176999999999
 50
153.9569777498944
 51
168.3167237498943
  0
ARC
  5
4E34
  8
WHITE
  6
CONTINUOUS
 10
2.936557820436651
 20
14.63343675918226
 30
0.0
 40
1.148765999999998
 50
325.8412237498943
 51
348.3182237498943
  0
ARC
  5
4E35
  8
WHITE
  6
CONTINUOUS
 10
1.458453588296219
 20
15.63629520060287
 30
0.0
 40
2.934947999999999
 50
317.4234237498944
 51
325.8429237498946
  0
LINE
  5
4E36
  8
WHITE
  6
CONTINUOUS
 10
3.619709432628781
 20
13.65055003119207
 30
0.0
 11
3.609709778254036
 21
13.65011769754122
 31
0.0
  0
LINE
  5
4E37
  8
WHITE
  6
CONTINUOUS
 10
3.243142072661435
 20
6.296540123884949
 30
0.0
 11
3.217223458210498
 21
6.253786307284049
 31
0.0
  0
ARC
  5
4E38
  8
WHITE
  6
CONTINUOUS
 10
3.687677669395679
 20
7.031468054596601
 30
0.0
 40
0.9089060000000014
 50
229.7289237498945
 51
238.8286237498944
  0
ARC
  5
4E39
  8
WHITE
  6
CONTINUOUS
 10
3.106671515415577
 20
6.345587207651441
 30
0.0
 40
0.0099900000000018
 50
139.0184737498958
 51
229.4327237498959
  0
LINE
  5
4E3A
  8
WHITE
  6
CONTINUOUS
 10
3.099079296283716
 20
6.352182038403928
 30
0.0
 11
3.114831602556663
 21
6.370300409828616
 31
0.0
  0
ARC
  5
4E3B
  8
WHITE
  6
CONTINUOUS
 10
3.122326657938345
 20
6.363700268176693
 30
0.0
 40
0.0099820000000013
 50
49.46262374991593
 51
138.6226537499159
  0
ARC
  5
4E3C
  8
WHITE
  6
CONTINUOUS
 10
3.687682521212256
 20
7.031360460638251
 30
0.0
 40
0.8648830000000004
 50
229.746623749894
 51
248.5717237498942
  0
ARC
  5
4E3D
  8
WHITE
  6
CONTINUOUS
 10
2.587945680553666
 20
4.229820057998435
 30
0.0
 40
2.144799000000001
 50
60.63522374989455
 51
68.56589374989457
  0
ARC
  5
4E3E
  8
WHITE
  6
CONTINUOUS
 10
2.527692167368198
 20
4.122691933246768
 30
0.0
 40
2.267682999999999
 50
46.21642374989472
 51
60.63572374989472
  0
ARC
  5
4E3F
  8
WHITE
  6
CONTINUOUS
 10
10.18467182669599
 20
12.11164385865159
 30
0.0
 40
8.798075000000001
 50
226.2152237498945
 51
230.3437237498944
  0
ARC
  5
4E40
  8
WHITE
  6
CONTINUOUS
 10
4.171539452604289
 20
4.857551461672404
 30
0.0
 40
0.6242300000000012
 50
21.86112374989447
 51
50.34152374989457
  0
ARC
  5
4E41
  8
WHITE
  6
CONTINUOUS
 10
0.44455799455557
 20
3.362245100072189
 30
0.0
 40
4.639926999999999
 50
16.57952374989455
 51
21.86122374989455
  0
ARC
  5
4E42
  8
WHITE
  6
CONTINUOUS
 10
2.181878066783082
 20
3.879456839165941
 30
0.0
 40
2.827315000000001
 50
3.28002374989456
 51
16.58002374989457
  0
ARC
  5
4E43
  8
WHITE
  6
CONTINUOUS
 10
2.397529663517325
 20
3.891796769877605
 30
0.0
 40
2.611285
 50
343.9680237498945
 51
3.280423749894458
  0
ARC
  5
4E44
  8
WHITE
  6
CONTINUOUS
 10
18.96662067927457
 20
-0.8693331058061649
 30
0.0
 40
14.62827
 50
163.9680237498944
 51
167.2717237498944
  0
ARC
  5
4E45
  8
WHITE
  6
CONTINUOUS
 10
7.048842614503858
 20
1.822672386641786
 30
0.0
 40
2.410275
 50
167.2724237498944
 51
185.2924237498945
  0
ARC
  5
4E46
  8
WHITE
  6
CONTINUOUS
 10
5.247760859652868
 20
1.655814334553066
 30
0.0
 40
0.6014620000000016
 50
185.2910237498945
 51
225.0927237498946
  0
ARC
  5
4E47
  8
WHITE
  6
CONTINUOUS
 10
5.419513644956989
 20
1.828178222755541
 30
0.0
 40
0.8448410000000014
 50
225.0947237498946
 51
251.6772237498946
  0
ARC
  5
4E48
  8
WHITE
  6
CONTINUOUS
 10
9.147958299685524
 20
13.08330302724594
 30
0.0
 40
12.70144
 50
251.6721237498944
 51
253.9117237498944
  0
ARC
  5
4E49
  8
WHITE
  6
CONTINUOUS
 10
5.524073721974272
 20
0.5184764901388608
 30
0.0
 40
0.3755649999999989
 50
67.75199374989506
 51
73.90885374989507
  0
LINE
  5
4E4A
  8
WHITE
  6
CONTINUOUS
 10
5.666253626070063
 20
0.866045548704653
 30
0.0
 11
5.592346393902421
 21
0.8439366462145177
 31
0.0
  0
ARC
  5
4E4B
  8
WHITE
  6
CONTINUOUS
 10
9.147944005223696
 20
13.08341391308075
 30
0.0
 40
12.74547
 50
251.6723237498944
 51
253.8013237498944
  0
ARC
  5
4E4C
  8
WHITE
  6
CONTINUOUS
 10
5.419616318899013
 20
1.828077828225679
 30
0.0
 40
0.8887879999999989
 50
225.0830237498943
 51
251.6687237498942
  0
ARC
  5
4E4D
  8
WHITE
  6
CONTINUOUS
 10
5.247752075382895
 20
1.655819514958564
 30
0.0
 40
0.6454929999999994
 50
185.2939237498945
 51
225.0901237498945
  0
ARC
  5
4E4E
  8
WHITE
  6
CONTINUOUS
 10
7.048839669613397
 20
1.8225728058825
 30
0.0
 40
2.454299999999999
 50
167.2698237498944
 51
185.2908237498944
  0
ARC
  5
4E4F
  8
WHITE
  6
CONTINUOUS
 10
18.96651833452019
 20
-0.8692317670117706
 30
0.0
 40
14.67221
 50
163.9681237498944
 51
167.2719237498944
  0
ARC
  5
4E50
  8
WHITE
  6
CONTINUOUS
 10
2.397436103032913
 20
3.891892928266501
 30
0.0
 40
2.567343000000002
 50
343.9675237498944
 51
3.278723749894352
  0
ARC
  5
4E51
  8
WHITE
  6
CONTINUOUS
 10
2.181773106325888
 20
3.87945954146557
 30
0.0
 40
2.783348000000001
 50
3.280323749894484
 51
16.58142374989457
  0
ARC
  5
4E52
  8
WHITE
  6
CONTINUOUS
 10
0.4445583237432125
 20
3.362246044336713
 30
0.0
 40
4.595947999999997
 50
16.58072374989442
 51
21.86122374989452
  0
ARC
  5
4E53
  8
WHITE
  6
CONTINUOUS
 10
4.171539452604289
 20
4.857551461672404
 30
0.0
 40
0.5802319999999989
 50
21.86122374989435
 51
50.34542374989425
  0
ARC
  5
4E54
  8
WHITE
  6
CONTINUOUS
 10
10.18467052774376
 20
12.11154899921493
 30
0.0
 40
8.842035000000001
 50
226.2149237498946
 51
230.3431237498944
  0
ARC
  5
4E55
  8
WHITE
  6
CONTINUOUS
 10
2.527692496555844
 20
4.122692877511293
 30
0.0
 40
2.223701999999999
 50
46.21602374989436
 51
60.63672374989435
  0
ARC
  5
4E56
  8
WHITE
  6
CONTINUOUS
 10
2.587936567096051
 20
4.229824294139407
 30
0.0
 40
2.100814999999999
 50
60.63582374989451
 51
68.5678937498944
  0
ARC
  5
4E57
  8
WHITE
  6
CONTINUOUS
 10
3.687668226750418
 20
7.031471346473051
 30
0.0
 40
0.9089460000000003
 50
238.8287237498946
 51
248.5694237498947
  0
LINE
  5
4E58
  8
WHITE
  6
CONTINUOUS
 10
3.217223458210498
 20
6.253786307284049
 30
0.0
 11
3.226995474756965
 21
6.256117405011633
 31
0.0
  0
LINE
  5
4E59
  8
WHITE
  6
CONTINUOUS
 10
5.331394642589313
 20
7.4229883025215
 30
0.0
 11
5.315394048767029
 21
7.342764170258604
 31
0.0
  0
LINE
  5
4E5A
  8
WHITE
  6
CONTINUOUS
 10
5.315394048767029
 20
7.342764170258604
 30
0.0
 11
5.312386124967883
 21
7.270221120319825
 31
0.0
  0
LINE
  5
4E5B
  8
WHITE
  6
CONTINUOUS
 10
5.312386124967883
 20
7.270221120319825
 30
0.0
 11
5.22706221858606
 21
7.498576173252197
 31
0.0
  0
LINE
  5
4E5C
  8
WHITE
  6
CONTINUOUS
 10
5.22706221858606
 20
7.498576173252197
 30
0.0
 11
5.206863042915888
 21
7.366483229450335
 31
0.0
  0
LINE
  5
4E5D
  8
WHITE
  6
CONTINUOUS
 10
5.206863042915888
 20
7.366483229450335
 30
0.0
 11
5.166044976784445
 21
7.418541526361466
 31
0.0
  0
LINE
  5
4E5E
  8
WHITE
  6
CONTINUOUS
 10
5.166044976784445
 20
7.418541526361466
 30
0.0
 11
5.04792009231037
 21
7.625046427436441
 31
0.0
  0
LINE
  5
4E5F
  8
WHITE
  6
CONTINUOUS
 10
5.04792009231037
 20
7.625046427436441
 30
0.0
 11
4.999993865885003
 21
7.465183090111648
 31
0.0
  0
LINE
  5
4E60
  8
WHITE
  6
CONTINUOUS
 10
4.999993865885003
 20
7.465183090111648
 30
0.0
 11
4.915349343637082
 21
7.56993544308483
 31
0.0
  0
LINE
  5
4E61
  8
WHITE
  6
CONTINUOUS
 10
4.915349343637082
 20
7.56993544308483
 30
0.0
 11
4.751552206067334
 21
7.892037974313571
 31
0.0
  0
LINE
  5
4E62
  8
WHITE
  6
CONTINUOUS
 10
4.751552206067334
 20
7.892037974313571
 30
0.0
 11
4.718036625988422
 21
7.702062516972433
 31
0.0
  0
LINE
  5
4E63
  8
WHITE
  6
CONTINUOUS
 10
4.718036625988422
 20
7.702062516972433
 30
0.0
 11
4.590102743827583
 21
7.894343650459984
 31
0.0
  0
LINE
  5
4E64
  8
WHITE
  6
CONTINUOUS
 10
4.590102743827583
 20
7.894343650459984
 30
0.0
 11
4.601396839622943
 21
7.807082216251242
 31
0.0
  0
LINE
  5
4E65
  8
WHITE
  6
CONTINUOUS
 10
4.601396839622943
 20
7.807082216251242
 30
0.0
 11
4.497239062510403
 21
8.015982845180361
 31
0.0
  0
LINE
  5
4E66
  8
WHITE
  6
CONTINUOUS
 10
4.497239062510403
 20
8.015982845180361
 30
0.0
 11
4.48061640582241
 21
7.914350279116942
 31
0.0
  0
LINE
  5
4E67
  8
WHITE
  6
CONTINUOUS
 10
4.48061640582241
 20
7.914350279116942
 30
0.0
 11
4.43283260013455
 21
8.038107801773091
 31
0.0
  0
LINE
  5
4E68
  8
WHITE
  6
CONTINUOUS
 10
4.43283260013455
 20
8.038107801773091
 30
0.0
 11
4.3247558503727
 21
8.167751060992035
 31
0.0
  0
LINE
  5
4E69
  8
WHITE
  6
CONTINUOUS
 10
4.3247558503727
 20
8.167751060992035
 30
0.0
 11
4.325931167286552
 21
8.08175090151455
 31
0.0
  0
LINE
  5
4E6A
  8
WHITE
  6
CONTINUOUS
 10
4.325931167286552
 20
8.08175090151455
 30
0.0
 11
4.259365332751244
 21
8.262359878790381
 31
0.0
  0
LINE
  5
4E6B
  8
WHITE
  6
CONTINUOUS
 10
4.259365332751244
 20
8.262359878790381
 30
0.0
 11
4.172740220491072
 21
8.513016247003744
 31
0.0
  0
LINE
  5
4E6C
  8
WHITE
  6
CONTINUOUS
 10
4.172740220491072
 20
8.513016247003744
 30
0.0
 11
4.137680761244933
 21
8.216299753331128
 31
0.0
  0
LINE
  5
4E6D
  8
WHITE
  6
CONTINUOUS
 10
4.137680761244933
 20
8.216299753331128
 30
0.0
 11
4.079725716476915
 21
8.417629020170161
 31
0.0
  0
LINE
  5
4E6E
  8
WHITE
  6
CONTINUOUS
 10
4.079725716476915
 20
8.417629020170161
 30
0.0
 11
3.984161313973182
 21
8.664454580382433
 31
0.0
  0
LINE
  5
4E6F
  8
WHITE
  6
CONTINUOUS
 10
3.984161313973182
 20
8.664454580382433
 30
0.0
 11
3.964200514952921
 21
8.587877361168928
 31
0.0
  0
LINE
  5
4E70
  8
WHITE
  6
CONTINUOUS
 10
3.964200514952921
 20
8.587877361168928
 30
0.0
 11
3.887816015020938
 21
8.747551720945765
 31
0.0
  0
ARC
  5
4E71
  8
WHITE
  6
CONTINUOUS
 10
2.838946464605915
 20
8.246013126307041
 30
0.0
 40
1.162607
 50
25.55562374989414
 51
41.87462374989413
  0
ARC
  5
4E72
  8
WHITE
  6
CONTINUOUS
 10
-5.009040400491369
 20
1.210555891826166
 30
0.0
 40
11.7025
 50
41.87512374989441
 51
43.80922374989442
  0
LINE
  5
4E73
  8
WHITE
  6
CONTINUOUS
 10
6.825426185112104
 20
6.66637116304673
 30
0.0
 11
6.849234721239473
 21
6.710302204548984
 31
0.0
  0
ARC
  5
4E74
  8
WHITE
  6
CONTINUOUS
 10
6.999063880036598
 20
6.988071923694445
 30
0.0
 40
0.3155999999999999
 50
241.6571237498942
 51
254.1154237498944
  0
ARC
  5
4E75
  8
WHITE
  6
CONTINUOUS
 10
6.569310348780629
 20
5.477471442213973
 30
0.0
 40
1.254982000000001
 50
44.80582374989438
 51
74.12018374989434
  0
ARC
  5
4E76
  8
WHITE
  6
CONTINUOUS
 10
5.194885048032237
 20
4.11192488466873
 30
0.0
 40
3.192477999999999
 50
29.37822374989451
 51
44.81092374989441
  0
LINE
  5
4E77
  8
WHITE
  6
CONTINUOUS
 10
7.976801805740752
 20
5.678069047384749
 30
0.0
 11
7.932657404869904
 21
5.666665242241187
 31
0.0
  0
ARC
  5
4E78
  8
WHITE
  6
CONTINUOUS
 10
5.194885048032237
 20
4.11192488466873
 30
0.0
 40
3.148431999999999
 50
29.5915237498945
 51
44.81162374989448
  0
ARC
  5
4E79
  8
WHITE
  6
CONTINUOUS
 10
6.569308062265467
 20
5.477373749983737
 30
0.0
 40
1.211023000000001
 50
44.81032374989442
 51
74.12017374989443
  0
ARC
  5
4E7A
  8
WHITE
  6
CONTINUOUS
 10
6.999073322681841
 20
6.988068631818003
 30
0.0
 40
0.3595959999999986
 50
230.7672237498947
 51
254.1194237498947
  0
ARC
  5
4E7B
  8
WHITE
  6
CONTINUOUS
 10
6.777945354250765
 20
6.717331568271941
 30
0.0
 40
0.0100120000000013
 50
138.6203737499218
 51
231.0482237499218
  0
LINE
  5
4E7C
  8
WHITE
  6
CONTINUOUS
 10
6.770448652930863
 20
6.723926988601235
 30
0.0
 11
6.786305937459364
 21
6.741951575347724
 31
0.0
  0
ARC
  5
4E7D
  8
WHITE
  6
CONTINUOUS
 10
6.793799346902826
 20
6.735346712373183
 30
0.0
 40
0.0099819999999983
 50
50.28012374988629
 51
138.6226537498863
  0
ARC
  5
4E7E
  8
WHITE
  6
CONTINUOUS
 10
6.999063880036598
 20
6.988071923694445
 30
0.0
 40
0.315585
 50
230.9354237498957
 51
241.6586237498958
  0
LINE
  5
4E7F
  8
WHITE
  6
CONTINUOUS
 10
6.849244163884745
 20
6.710298912672535
 30
0.0
 11
6.839679749134429
 21
6.707469713053545
 31
0.0
  0
LINE
  5
4E80
  8
WHITE
  6
CONTINUOUS
 10
7.703122625171982
 20
7.68672419965036
 30
0.0
 11
7.761393055706744
 21
7.725524867496326
 31
0.0
  0
LINE
  5
4E81
  8
WHITE
  6
CONTINUOUS
 10
7.761393055706744
 20
7.725524867496326
 30
0.0
 11
7.815203200488373
 21
7.64484447261265
 31
0.0
  0
ARC
  5
4E82
  8
WHITE
  6
CONTINUOUS
 10
10.21418331315674
 20
8.073268263060349
 30
0.0
 40
2.43694
 50
190.1253237498944
 51
192.8605237498944
  0
LINE
  5
4E83
  8
WHITE
  6
CONTINUOUS
 10
7.838357722464128
 20
7.530848680532113
 30
0.0
 11
7.670820286622519
 21
7.781891950092597
 31
0.0
  0
ARC
  5
4E84
  8
WHITE
  6
CONTINUOUS
 10
-0.174688012792366
 20
2.545835244173425
 30
0.0
 40
9.432294999999998
 50
33.71902374989453
 51
38.64622374989445
  0
ARC
  5
4E85
  8
WHITE
  6
CONTINUOUS
 10
14.5822403214572
 20
14.34565215583487
 30
0.0
 40
9.462148999999997
 50
215.1481237498944
 51
218.6463237498944
  0
ARC
  5
4E86
  8
WHITE
  6
CONTINUOUS
 10
2.160625291058505
 20
5.600031007542587
 30
0.0
 40
5.729343000000003
 50
35.14792374989442
 51
46.90992374989442
  0
ARC
  5
4E87
  8
WHITE
  6
CONTINUOUS
 10
8.488070630070613
 20
12.36405210358286
 30
0.0
 40
3.532897000000001
 50
213.1548237498943
 51
226.9101237498942
  0
ARC
  5
4E88
  8
WHITE
  6
CONTINUOUS
 10
8.807264860033857
 20
12.57251614930337
 30
0.0
 40
3.914165
 50
200.9094237498944
 51
213.1542237498944
  0
ARC
  5
4E89
  8
WHITE
  6
CONTINUOUS
 10
5.58413424525634
 20
11.34109720577364
 30
0.0
 40
0.4638230000000014
 50
184.9351237498943
 51
200.9071237498944
  0
ARC
  5
4E8A
  8
WHITE
  6
CONTINUOUS
 10
5.132028080880243
 20
11.30203798492726
 30
0.0
 40
0.0100240000000014
 50
93.04569374986286
 51
184.7847237498629
  0
LINE
  5
4E8B
  8
WHITE
  6
CONTINUOUS
 10
5.131489452223274
 20
11.31212764692209
 30
0.0
 11
5.155378774852206
 21
11.31345770869921
 31
0.0
  0
ARC
  5
4E8C
  8
WHITE
  6
CONTINUOUS
 10
5.155915410584964
 20
11.30345346349578
 30
0.0
 40
0.0100070000000033
 50
5.337023749902748
 51
93.07114374990262
  0
ARC
  5
4E8D
  8
WHITE
  6
CONTINUOUS
 10
5.584233695521686
 20
11.34120020890332
 30
0.0
 40
0.4198530000000006
 50
185.0285237498944
 51
200.9073237498943
  0
ARC
  5
4E8E
  8
WHITE
  6
CONTINUOUS
 10
8.807256716340856
 20
12.57261430061647
 30
0.0
 40
3.870201000000003
 50
200.9100237498945
 51
213.1552237498945
  0
ARC
  5
4E8F
  8
WHITE
  6
CONTINUOUS
 10
8.488061187425348
 20
12.36405539545931
 30
0.0
 40
3.488874999999997
 50
213.1546237498945
 51
226.9106237498946
  0
ARC
  5
4E90
  8
WHITE
  6
CONTINUOUS
 10
2.160622346168026
 20
5.599931426783307
 30
0.0
 40
5.773375999999998
 50
35.14862374989459
 51
46.9104237498946
  0
ARC
  5
4E91
  8
WHITE
  6
CONTINUOUS
 10
14.5822357306285
 20
14.34554785375295
 30
0.0
 40
9.418163000000002
 50
215.1477237498944
 51
218.6457237498945
  0
ARC
  5
4E92
  8
WHITE
  6
CONTINUOUS
 10
-0.1746025960009696
 20
2.545837237097633
 30
0.0
 40
9.476251999999999
 50
33.71892374989453
 51
38.64662374989452
  0
LINE
  5
4E93
  8
WHITE
  6
CONTINUOUS
 10
7.707476615919017
 20
7.806295270000067
 30
0.0
 11
7.761389763830298
 21
7.725515424851068
 31
0.0
  0
LINE
  5
4E94
  8
WHITE
  6
CONTINUOUS
 10
7.761389763830298
 20
7.725515424851068
 30
0.0
 11
7.751549495494469
 21
7.727484464992575
 31
0.0
  0
LINE
  5
4E95
  8
WHITE
  6
CONTINUOUS
 10
10.08750287255258
 20
7.130250348242004
 30
0.0
 11
10.08525349576663
 21
7.104325904099941
 31
0.0
  0
ARC
  5
4E96
  8
WHITE
  6
CONTINUOUS
 10
10.07264952815197
 20
7.097547157875969
 30
0.0
 40
0.0143120000000015
 50
305.2512237499085
 51
28.24072374990849
  0
ARC
  5
4E97
  8
WHITE
  6
CONTINUOUS
 10
10.03716144378676
 20
7.148065034593888
 30
0.0
 40
0.0760540000000002
 50
276.9624237498991
 51
305.118323749899
  0
ARC
  5
4E98
  8
WHITE
  6
CONTINUOUS
 10
10.03941278601019
 20
7.129096712101024
 30
0.0
 40
0.0570369999999993
 50
214.9149237498964
 51
277.0209237498963
  0
ARC
  5
4E99
  8
WHITE
  6
CONTINUOUS
 10
10.129360768865
 20
7.192236048337257
 30
0.0
 40
0.166915999999997
 50
188.0811237498953
 51
215.0133237498953
  0
ARC
  5
4E9A
  8
WHITE
  6
CONTINUOUS
 10
10.01627507067478
 20
7.176188018401199
 30
0.0
 40
0.0526279999999989
 50
113.1067137498993
 51
188.0946237498993
  0
ARC
  5
4E9B
  8
WHITE
  6
CONTINUOUS
 10
10.02195145929908
 20
7.162761063713493
 30
0.0
 40
0.067224
 50
48.13392374988894
 51
113.072583749889
  0
ARC
  5
4E9C
  8
WHITE
  6
CONTINUOUS
 10
10.02286419300434
 20
7.161976897160216
 30
0.0
 40
0.0671500000000018
 50
354.9675237498921
 51
49.16112374989204
  0
LINE
  5
4E9D
  8
WHITE
  6
CONTINUOUS
 10
10.08975424226275
 20
7.156089375592661
 30
0.0
 11
10.08750287255258
 21
7.130250348242004
 31
0.0
  0
LINE
  5
4E9E
  8
WHITE
  6
CONTINUOUS
 10
10.08750287255258
 20
7.130250348242004
 30
0.0
 11
10.08110168409158
 21
7.137861766394131
 31
0.0
  0
ARC
  5
4E9F
  8
WHITE
  6
CONTINUOUS
 10
10.0346039986922
 20
7.408661374504074
 30
0.0
 40
0.0904709999999968
 50
2.610823749896016
 51
41.56732374989614
  0
ARC
  5
4EA0
  8
WHITE
  6
CONTINUOUS
 10
10.09646019899155
 20
7.397994557522178
 30
0.0
 40
0.0323779999999992
 50
292.1207237498948
 51
27.18732374989486
  0
ARC
  5
4EA1
  8
WHITE
  6
CONTINUOUS
 10
10.08466040255666
 20
7.426847009828613
 30
0.0
 40
0.0635830000000008
 50
243.2503237498915
 51
292.1803237498916
  0
ARC
  5
4EA2
  8
WHITE
  6
CONTINUOUS
 10
10.21204500018899
 20
7.67899728959457
 30
0.0
 40
0.3461069999999997
 50
233.8606237498942
 51
243.2085237498942
  0
ARC
  5
4EA3
  8
WHITE
  6
CONTINUOUS
 10
10.04121243684704
 20
7.445054337356169
 30
0.0
 40
0.0564200000000031
 50
160.4511977498964
 51
233.8497237498964
  0
ARC
  5
4EA4
  8
WHITE
  6
CONTINUOUS
 10
10.04034753930995
 20
7.442634161277791
 30
0.0
 40
0.0564619999999998
 50
80.59666374989089
 51
157.8484277498909
  0
ARC
  5
4EA5
  8
WHITE
  6
CONTINUOUS
 10
10.0347083007741
 20
7.408656783675397
 30
0.0
 40
0.0904260000000008
 50
41.60752374989054
 51
80.58902374989043
  0
LINE
  5
4EA6
  8
WHITE
  6
CONTINUOUS
 10
10.10229537656674
 20
7.468683575075584
 30
0.0
 11
10.09228410863912
 21
7.469250773878137
 31
0.0
  0
ARC
  5
4EA7
  8
WHITE
  6
CONTINUOUS
 10
10.18941508428208
 20
7.680489973769284
 30
0.0
 40
0.0892769999999982
 50
227.9585237498939
 51
265.5105237498938
  0
ARC
  5
4EA8
  8
WHITE
  6
CONTINUOUS
 10
10.17425169769885
 20
7.663483721762212
 30
0.0
 40
0.0665109999999965
 50
197.9066237498976
 51
227.8520237498978
  0
LINE
  5
4EA9
  8
WHITE
  6
CONTINUOUS
 10
10.11092555427798
 20
7.643019312182677
 30
0.0
 11
10.09734571185044
 21
7.684840555345012
 31
0.0
  0
ARC
  5
4EAA
  8
WHITE
  6
CONTINUOUS
 10
10.11188196385752
 20
7.689537168761792
 30
0.0
 40
0.0152770000000028
 50
148.859163749889
 51
197.9108237498889
  0
ARC
  5
4EAB
  8
WHITE
  6
CONTINUOUS
 10
10.1696608050604
 20
7.655023449616341
 30
0.0
 40
0.0826170000000015
 50
116.630423749895
 51
149.091243749895
  0
ARC
  5
4EAC
  8
WHITE
  6
CONTINUOUS
 10
10.16102963347243
 20
7.672308092424888
 30
0.0
 40
0.0632399999999994
 50
50.52482374989631
 51
116.6567637498963
  0
ARC
  5
4EAD
  8
WHITE
  6
CONTINUOUS
 10
10.09068076314994
 20
7.587043827082653
 30
0.0
 40
0.1738279999999993
 50
21.39392374989484
 51
50.49382374989472
  0
ARC
  5
4EAE
  8
WHITE
  6
CONTINUOUS
 10
10.21781241208177
 20
7.636881378586267
 30
0.0
 40
0.0372769999999989
 50
303.0659237498841
 51
21.3545237498841
  0
ARC
  5
4EAF
  8
WHITE
  6
CONTINUOUS
 10
10.18942452692732
 20
7.680486681892841
 30
0.0
 40
0.0893050000000005
 50
265.5090237498919
 51
303.064723749892
  0
LINE
  5
4EB0
  8
WHITE
  6
CONTINUOUS
 10
10.18242782778459
 20
7.591489615081027
 30
0.0
 11
10.19004253781315
 21
7.597900246187294
 31
0.0
  0
ARC
  5
4EB1
  8
WHITE
  6
CONTINUOUS
 10
10.30965213204366
 20
7.71553253711123
 30
0.0
 40
0.1921170000000029
 50
26.09122374989455
 51
39.97132374989455
  0
ARC
  5
4EB2
  8
WHITE
  6
CONTINUOUS
 10
10.43611762313089
 20
7.777463406345149
 30
0.0
 40
0.0512180000000001
 50
292.5623237498965
 51
26.09472374989651
  0
ARC
  5
4EB3
  8
WHITE
  6
CONTINUOUS
 10
10.42878208088025
 20
7.795365984927255
 30
0.0
 40
0.0686699999999988
 50
248.1747237498894
 51
292.4890237498893
  0
ARC
  5
4EB4
  8
WHITE
  6
CONTINUOUS
 10
10.44600053454741
 20
7.838194976898954
 30
0.0
 40
0.1161460000000023
 50
216.3161237498938
 51
248.1455237498938
  0
ARC
  5
4EB5
  8
WHITE
  6
CONTINUOUS
 10
10.41668007271587
 20
7.816698811706416
 30
0.0
 40
0.0797800000000002
 50
154.761911749893
 51
216.343223749893
  0
ARC
  5
4EB6
  8
WHITE
  6
CONTINUOUS
 10
10.39202626294582
 20
7.828364747752143
 30
0.0
 40
0.0525049999999994
 50
53.84452374988999
 51
154.80109474989
  0
ARC
  5
4EB7
  8
WHITE
  6
CONTINUOUS
 10
10.30955727260701
 20
7.715533836063475
 30
0.0
 40
0.1921800000000007
 50
39.95282374989366
 51
53.83912374989377
  0
LINE
  5
4EB8
  8
WHITE
  6
CONTINUOUS
 10
10.45688701461273
 20
7.838953562284729
 30
0.0
 11
10.44687349277301
 21
7.839818073918966
 31
0.0
  0
LINE
  5
4EB9
  8
WHITE
  6
CONTINUOUS
 10
10.69288080097821
 20
7.77516186300592
 30
0.0
 11
10.67384862108978
 21
7.791804613039933
 31
0.0
  0
ARC
  5
4EBA
  8
WHITE
  6
CONTINUOUS
 10
10.67562716538153
 20
7.801128827763019
 30
0.0
 40
0.0094920000000008
 50
188.6646237499012
 51
259.2338237499013
  0
ARC
  5
4EBB
  8
WHITE
  6
CONTINUOUS
 10
11.12427831683071
 20
7.86663969100972
 30
0.0
 40
0.4628970000000015
 50
181.0898237498943
 51
188.3154237498943
  0
ARC
  5
4EBC
  8
WHITE
  6
CONTINUOUS
 10
10.70404579948142
 20
7.858617947915427
 30
0.0
 40
0.0426000000000007
 50
65.35283374989314
 51
181.0495237498931
  0
ARC
  5
4EBD
  8
WHITE
  6
CONTINUOUS
 10
10.28732282846495
 20
6.947263212849435
 30
0.0
 40
1.044743999999998
 50
61.7868437498942
 51
65.42469374989416
  0
ARC
  5
4EBE
  8
WHITE
  6
CONTINUOUS
 10
10.74406483554074
 20
7.798556629640835
 30
0.0
 40
0.0786450000000025
 50
1.07072374989495
 51
61.80374374989496
  0
ARC
  5
4EBF
  8
WHITE
  6
CONTINUOUS
 10
10.76416810237977
 20
7.798929674408829
 30
0.0
 40
0.0585000000000007
 50
281.5162237498963
 51
1.074323749896226
  0
ARC
  5
4EC0
  8
WHITE
  6
CONTINUOUS
 10
10.76104918171028
 20
7.814589174204723
 30
0.0
 40
0.0744889999999998
 50
228.8257237498981
 51
281.456923749898
  0
LINE
  5
4EC1
  8
WHITE
  6
CONTINUOUS
 10
10.71200784030329
 20
7.758517814019658
 30
0.0
 11
10.69288080097821
 21
7.77516186300592
 31
0.0
  0
LINE
  5
4EC2
  8
WHITE
  6
CONTINUOUS
 10
10.69288080097821
 20
7.77516186300592
 30
0.0
 11
10.70287690248862
 21
7.775796650051763
 31
0.0
  0
LINE
  5
4EC3
  8
WHITE
  6
CONTINUOUS
 10
10.91561077376362
 20
7.084327952269753
 30
0.0
 11
10.99846828335677
 21
7.183266680804259
 31
0.0
  0
ARC
  5
4EC4
  8
WHITE
  6
CONTINUOUS
 10
10.53099508292133
 20
7.57493277823248
 30
0.0
 40
0.6098689999999977
 50
320.0427237498942
 51
331.3701237498941
  0
ARC
  5
4EC5
  8
WHITE
  6
CONTINUOUS
 10
12.85509823981344
 20
6.306076423626408
 30
0.0
 40
2.038011
 50
149.3640337498945
 51
151.3665687498945
  0
ARC
  5
4EC6
  8
WHITE
  6
CONTINUOUS
 10
10.99591735261789
 20
7.407154933627769
 30
0.0
 40
0.1227960000000022
 50
329.368623749895
 51
55.05882374989499
  0
ARC
  5
4EC7
  8
WHITE
  6
CONTINUOUS
 10
10.80208155890447
 20
7.129889777007822
 30
0.0
 40
0.4611100000000007
 50
55.04642374989494
 51
70.34492374989495
  0
ARC
  5
4EC8
  8
WHITE
  6
CONTINUOUS
 10
10.82173389527675
 20
7.184864513706696
 30
0.0
 40
0.4027390000000014
 50
70.34769374989453
 51
101.3538637498945
  0
ARC
  5
4EC9
  8
WHITE
  6
CONTINUOUS
 10
8.934511271790573
 20
16.58492151874139
 30
0.0
 40
9.184900999999998
 50
280.4313237498945
 51
281.3521237498944
  0
ARC
  5
4ECA
  8
WHITE
  6
CONTINUOUS
 10
10.64427843249271
 20
7.297551311638387
 30
0.0
 40
0.2584520000000016
 50
100.4250837498956
 51
145.3870237498956
  0
ARC
  5
4ECB
  8
WHITE
  6
CONTINUOUS
 10
11.65446593092787
 20
6.600849036771045
 30
0.0
 40
1.485604
 50
145.4033637498944
 51
156.0751387498944
  0
ARC
  5
4ECC
  8
WHITE
  6
CONTINUOUS
 10
10.67183086166674
 20
7.036808783947542
 30
0.0
 40
0.4105790000000033
 50
156.0755547498941
 51
192.471023749894
  0
ARC
  5
4ECD
  8
WHITE
  6
CONTINUOUS
 10
10.55656985608776
 20
7.011331282246626
 30
0.0
 40
0.2925719999999987
 50
192.4745237498944
 51
225.1022237498945
  0
ARC
  5
4ECE
  8
WHITE
  6
CONTINUOUS
 10
10.4413387724029
 20
6.895656756732958
 30
0.0
 40
0.1292680000000024
 50
225.0910237498931
 51
304.0391237498931
  0
ARC
  5
4ECF
  8
WHITE
  6
CONTINUOUS
 10
1.251399622042317
 20
20.4967336499157
 30
0.0
 40
16.54403
 50
304.0459237498944
 51
304.5707237498945
  0
ARC
  5
4ED0
  8
WHITE
  6
CONTINUOUS
 10
10.76107837044344
 20
6.696587195159957
 30
0.0
 40
0.2153900000000018
 50
92.53614374989549
 51
124.5738737498955
  0
LINE
  5
4ED1
  8
WHITE
  6
CONTINUOUS
 10
11.39339055223689
 20
9.834098518877465
 30
0.0
 11
11.4868146929363
 21
9.752464537383375
 31
0.0
  0
ARC
  5
4ED2
  8
WHITE
  6
CONTINUOUS
 10
11.3056255929227
 20
9.545377665428013
 30
0.0
 40
0.2751670000000004
 50
7.626723749894414
 51
48.81502374989431
  0
ARC
  5
4ED3
  8
WHITE
  6
CONTINUOUS
 10
9.383454262129394
 20
9.287870430430058
 30
0.0
 40
2.214504000000001
 50
3.648423749894426
 51
7.629823749894549
  0
ARC
  5
4ED4
  8
WHITE
  6
CONTINUOUS
 10
11.14196983785397
 20
8.931580862053398
 30
0.0
 40
0.6715860000000016
 50
47.75962374989442
 51
62.8190637498943
  0
ARC
  5
4ED5
  8
WHITE
  6
CONTINUOUS
 10
11.40062991895345
 20
9.435255716047148
 30
0.0
 40
0.1053939999999985
 50
62.82956374989657
 51
122.7965537498966
  0
ARC
  5
4ED6
  8
WHITE
  6
CONTINUOUS
 10
11.36394847848535
 20
9.492162520782486
 30
0.0
 40
0.0377350000000007
 50
122.7859137498886
 51
269.4070237498885
  0
ARC
  5
4ED7
  8
WHITE
  6
CONTINUOUS
 10
11.37552049372554
 20
10.58851911079473
 30
0.0
 40
1.134030999999999
 50
269.3960237498942
 51
276.7987237498943
  0
ARC
  5
4ED8
  8
WHITE
  6
CONTINUOUS
 10
11.50784631791931
 20
9.478819447439168
 30
0.0
 40
0.0164869999999985
 50
276.6985237498888
 51
19.54492374988875
  0
LINE
  5
4ED9
  8
WHITE
  6
CONTINUOUS
 10
12.02410130798597
 20
10.93218892002047
 30
0.0
 11
12.02175101815063
 21
11.10467627068043
 31
0.0
  0
ARC
  5
4EDA
  8
WHITE
  6
CONTINUOUS
 10
12.76657499447392
 20
11.11482506833998
 30
0.0
 40
0.744899000000002
 50
167.7945237498947
 51
180.7805237498945
  0
ARC
  5
4EDB
  8
WHITE
  6
CONTINUOUS
 10
12.48001239167082
 20
11.17682344553414
 30
0.0
 40
0.4517499999999985
 50
146.4431537498942
 51
167.7963237498943
  0
ARC
  5
4EDC
  8
WHITE
  6
CONTINUOUS
 10
12.62240546174839
 20
11.08246001567975
 30
0.0
 40
0.6225510000000002
 50
123.5235637498941
 51
146.4497437498941
  0
ARC
  5
4EDD
  8
WHITE
  6
CONTINUOUS
 10
12.27902135914939
 20
9.74305547220445
 30
0.0
 40
0.3456690000000012
 50
320.6145237498939
 51
340.2904237498939
  0
ARC
  5
4EDE
  8
WHITE
  6
CONTINUOUS
 10
12.1773768382622
 20
9.826475020714451
 30
0.0
 40
0.4772279999999993
 50
302.3885237498938
 51
320.6168237498939
  0
ARC
  5
4EDF
  8
WHITE
  6
CONTINUOUS
 10
16.95438569933173
 20
2.297152356406377
 30
0.0
 40
8.439678999999998
 50
122.3935037498944
 51
125.5098337498944
  0
LINE
  5
4EE0
  8
WHITE
  6
CONTINUOUS
 10
12.05224169769885
 20
9.167213721762213
 30
0.0
 11
12.01684087581833
 21
9.195927617530341
 31
0.0
  0
ARC
  5
4EE1
  8
WHITE
  6
CONTINUOUS
 10
16.95437625668647
 20
2.297155648282825
 30
0.0
 40
8.483655000000001
 50
122.3935837498944
 51
125.5917237498944
  0
ARC
  5
4EE2
  8
WHITE
  6
CONTINUOUS
 10
12.17727383513252
 20
9.826574470979793
 30
0.0
 40
0.4332840000000009
 50
302.3906237498939
 51
320.611023749894
  0
ARC
  5
4EE3
  8
WHITE
  6
CONTINUOUS
 10
12.27891376519103
 20
9.743050620387873
 30
0.0
 40
0.301737000000001
 50
320.6200237498952
 51
359.9641237498954
  0
ARC
  5
4EE4
  8
WHITE
  6
CONTINUOUS
 10
12.55484641997399
 20
9.742909112699746
 30
0.0
 40
0.0259030000000013
 50
359.8957237498954
 51
65.1149437498954
  0
LINE
  5
4EE5
  8
WHITE
  6
CONTINUOUS
 10
12.56572429260972
 20
9.766365610454542
 30
0.0
 11
12.54528840337308
 21
9.775883327150691
 31
0.0
  0
ARC
  5
4EE6
  8
WHITE
  6
CONTINUOUS
 10
12.54956803271043
 20
9.784939262924272
 30
0.0
 40
0.0100170000000021
 50
154.9806337498969
 51
244.727023749897
  0
LINE
  5
4EE7
  8
WHITE
  6
CONTINUOUS
 10
12.54040779485492
 20
9.789223483090275
 30
0.0
 11
12.55062330635309
 21
9.810962285376309
 31
0.0
  0
ARC
  5
4EE8
  8
WHITE
  6
CONTINUOUS
 10
12.55967924212666
 20
9.806682656038987
 30
0.0
 40
0.0100170000000013
 50
64.74867374987691
 51
154.7270277498769
  0
LINE
  5
4EE9
  8
WHITE
  6
CONTINUOUS
 10
12.56394942881873
 20
9.815741883689004
 30
0.0
 11
12.58438531805536
 21
9.806224166992855
 31
0.0
  0
ARC
  5
4EEA
  8
WHITE
  6
CONTINUOUS
 10
12.55475156053734
 20
9.742910411651995
 30
0.0
 40
0.0699039999999981
 50
359.879623749891
 51
64.91193374989099
  0
ARC
  5
4EEB
  8
WHITE
  6
CONTINUOUS
 10
12.27892190888406
 20
9.742952469074769
 30
0.0
 40
0.3457339999999977
 50
340.3119237498944
 51
359.9684237498944
  0
LINE
  5
4EEC
  8
WHITE
  6
CONTINUOUS
 10
12.63451289133064
 20
11.30194764664995
 30
0.0
 11
12.46896095528493
 21
11.3122918368799
 31
0.0
  0
ARC
  5
4EED
  8
WHITE
  6
CONTINUOUS
 10
12.45501102386568
 20
11.08827849193503
 30
0.0
 40
0.2244439999999988
 50
86.43665374989465
 51
101.0733737498946
  0
ARC
  5
4EEE
  8
WHITE
  6
CONTINUOUS
 10
12.44006589309958
 20
11.1645810008478
 30
0.0
 40
0.1466589999999993
 50
101.071393749894
 51
148.8253837498941
  0
ARC
  5
4EEF
  8
WHITE
  6
CONTINUOUS
 10
12.74610971076184
 20
10.97923479891556
 30
0.0
 40
0.5044209999999995
 50
148.8076537498943
 51
169.7177237498943
  0
ARC
  5
4EF0
  8
WHITE
  6
CONTINUOUS
 10
11.11493374695725
 20
11.27514020019464
 30
0.0
 40
1.153330000000003
 50
341.8271237498946
 51
349.7180237498945
  0
ARC
  5
4EF1
  8
WHITE
  6
CONTINUOUS
 10
12.86945885105305
 20
11.14593065876044
 30
0.0
 40
0.302235
 50
232.8492237498934
 51
243.7831237498934
  0
ARC
  5
4EF2
  8
WHITE
  6
CONTINUOUS
 10
12.66825315531213
 20
10.88036358079064
 30
0.0
 40
0.0309250000000003
 50
52.87302374988973
 51
120.5704637498898
  0
ARC
  5
4EF3
  8
WHITE
  6
CONTINUOUS
 10
12.56220059305878
 20
11.06013438498168
 30
0.0
 40
0.1777289999999989
 50
272.8105237498946
 51
300.5334237498946
  0
ARC
  5
4EF4
  8
WHITE
  6
CONTINUOUS
 10
12.53516594752876
 20
11.60511882232011
 30
0.0
 40
0.7233630000000005
 50
259.152323749895
 51
272.8324237498948
  0
ARC
  5
4EF5
  8
WHITE
  6
CONTINUOUS
 10
12.39474236146263
 20
10.87214170461702
 30
0.0
 40
0.0229650000000017
 50
79.22595374991249
 51
180.7738237499124
  0
LINE
  5
4EF6
  8
WHITE
  6
CONTINUOUS
 10
12.37174609829757
 20
10.87182408779841
 30
0.0
 11
12.37211146827989
 21
10.84492455425642
 31
0.0
  0
ARC
  5
4EF7
  8
WHITE
  6
CONTINUOUS
 10
12.35510954094285
 20
10.84469879592196
 30
0.0
 40
0.0170000000000012
 50
263.3733237498802
 51
0.7805237498802516
  0
LINE
  5
4EF8
  8
WHITE
  6
CONTINUOUS
 10
12.35314781444943
 20
10.82777109882031
 30
0.0
 11
12.32649550365885
 21
10.83090963821343
 31
0.0
  0
ARC
  5
4EF9
  8
WHITE
  6
CONTINUOUS
 10
12.01050708754782
 20
10.73969524305763
 30
0.0
 40
0.328888000000001
 50
16.1013237498947
 51
22.4782237498947
  0
ARC
  5
4EFA
  8
WHITE
  6
CONTINUOUS
 10
12.3820457276349
 20
10.89347002357198
 30
0.0
 40
0.0732010000000006
 50
150.5026537498901
 51
202.5092237498901
  0
ARC
  5
4EFB
  8
WHITE
  6
CONTINUOUS
 10
12.67010061727975
 20
10.73028046553688
 30
0.0
 40
0.4042480000000002
 50
134.4877537498942
 51
150.4730737498942
  0
ARC
  5
4EFC
  8
WHITE
  6
CONTINUOUS
 10
12.30561471797372
 20
11.10125093526065
 30
0.0
 40
0.1158520000000018
 50
314.5215237498966
 51
345.9295237498966
  0
ARC
  5
4EFD
  8
WHITE
  6
CONTINUOUS
 10
12.46346110115512
 20
11.0616951984257
 30
0.0
 40
0.0468620000000004
 50
80.4537137498982
 51
165.9436237498982
  0
ARC
  5
4EFE
  8
WHITE
  6
CONTINUOUS
 10
12.70964851631363
 20
12.53288055670573
 30
0.0
 40
1.444786000000001
 50
260.5019237498944
 51
263.6038237498943
  0
ARC
  5
4EFF
  8
WHITE
  6
CONTINUOUS
 10
12.53539503910585
 20
10.97886908194727
 30
0.0
 40
0.1189369999999971
 50
34.47182374989511
 51
83.58380374989513
  0
ARC
  5
4F00
  8
WHITE
  6
CONTINUOUS
 10
12.79766656802135
 20
11.15895998710444
 30
0.0
 40
0.1991649999999978
 50
214.4786237498948
 51
241.4755237498948
  0
ARC
  5
4F01
  8
WHITE
  6
CONTINUOUS
 10
12.50995251903509
 20
10.62969294777936
 30
0.0
 40
0.4032230000000006
 50
50.80012374989374
 51
61.46921374989364
  0
LINE
  5
4F02
  8
WHITE
  6
CONTINUOUS
 10
12.7648182615851
 20
10.94219155221533
 30
0.0
 11
12.83904577662116
 21
10.88158906289706
 31
0.0
  0
LINE
  5
4F03
  8
WHITE
  6
CONTINUOUS
 10
12.83904577662116
 20
10.88158906289706
 30
0.0
 11
12.85022260231173
 21
10.83934531463198
 31
0.0
  0
ARC
  5
4F04
  8
WHITE
  6
CONTINUOUS
 10
13.15244687309686
 20
12.18298522645672
 30
0.0
 40
1.377211
 50
254.7327237498948
 51
257.3234237498946
  0
ARC
  5
4F05
  8
WHITE
  6
CONTINUOUS
 10
12.86944126471477
 20
11.14603210194998
 30
0.0
 40
0.3022889999999991
 50
243.7917237498944
 51
254.7258237498944
  0
LINE
  5
4F06
  8
WHITE
  6
CONTINUOUS
 10
12.73592858707157
 20
10.87478472461974
 30
0.0
 11
12.74538774478009
 21
10.87801068733576
 31
0.0
  0
LINE
  5
4F07
  8
WHITE
  6
CONTINUOUS
 10
14.37087148188719
 20
4.011916509624491
 30
0.0
 11
14.52642989772607
 21
4.221457465672948
 31
0.0
  0
LINE
  5
4F08
  8
WHITE
  6
CONTINUOUS
 10
14.52642989772607
 20
4.221457465672948
 30
0.0
 11
14.54601792684569
 21
4.031311450160628
 31
0.0
  0
LINE
  5
4F09
  8
WHITE
  6
CONTINUOUS
 10
14.54601792684569
 20
4.031311450160628
 30
0.0
 11
14.66598186316353
 21
4.277364699038023
 31
0.0
  0
LINE
  5
4F0A
  8
WHITE
  6
CONTINUOUS
 10
14.66598186316353
 20
4.277364699038023
 30
0.0
 11
14.67104190643473
 21
4.125621517108508
 31
0.0
  0
LINE
  5
4F0B
  8
WHITE
  6
CONTINUOUS
 10
14.67104190643473
 20
4.125621517108508
 30
0.0
 11
14.81447441779683
 21
4.337197599840849
 31
0.0
  0
LINE
  5
4F0C
  8
WHITE
  6
CONTINUOUS
 10
14.81447441779683
 20
4.337197599840849
 30
0.0
 11
14.78177517708381
 21
4.241942709379574
 31
0.0
  0
LINE
  5
4F0D
  8
WHITE
  6
CONTINUOUS
 10
14.78177517708381
 20
4.241942709379574
 30
0.0
 11
14.90347327478418
 21
4.352503348922365
 31
0.0
  0
LINE
  5
4F0E
  8
WHITE
  6
CONTINUOUS
 10
14.90347327478418
 20
4.352503348922365
 30
0.0
 11
14.99356627927456
 21
4.515151094193831
 31
0.0
  0
LINE
  5
4F0F
  8
WHITE
  6
CONTINUOUS
 10
14.99356627927456
 20
4.515151094193831
 30
0.0
 11
14.99832620906095
 21
4.385603804494556
 31
0.0
  0
LINE
  5
4F10
  8
WHITE
  6
CONTINUOUS
 10
14.99832620906095
 20
4.385603804494556
 30
0.0
 11
15.02191013068293
 21
4.342921341574431
 31
0.0
  0
LINE
  5
4F11
  8
WHITE
  6
CONTINUOUS
 10
15.02191013068293
 20
4.342921341574431
 30
0.0
 11
15.15909270110068
 21
4.58031371060423
 31
0.0
  0
LINE
  5
4F12
  8
WHITE
  6
CONTINUOUS
 10
15.15909270110068
 20
4.58031371060423
 30
0.0
 11
15.14445340704706
 21
4.399494755100072
 31
0.0
  0
LINE
  5
4F13
  8
WHITE
  6
CONTINUOUS
 10
15.14445340704706
 20
4.399494755100072
 30
0.0
 11
15.29056269919566
 21
4.6421096368527
 31
0.0
  0
LINE
  5
4F14
  8
WHITE
  6
CONTINUOUS
 10
15.29056269919566
 20
4.6421096368527
 30
0.0
 11
15.21372992466851
 21
4.39443793730174
 31
0.0
  0
LINE
  5
4F15
  8
WHITE
  6
CONTINUOUS
 10
15.21372992466851
 20
4.39443793730174
 30
0.0
 11
15.16303689377995
 21
4.290036598616204
 31
0.0
  0
LINE
  5
4F16
  8
WHITE
  6
CONTINUOUS
 10
15.16303689377995
 20
4.290036598616204
 30
0.0
 11
15.24066134826355
 21
4.325997907909986
 31
0.0
  0
LINE
  5
4F17
  8
WHITE
  6
CONTINUOUS
 10
15.24066134826355
 20
4.325997907909986
 30
0.0
 11
15.5613881660619
 21
4.847314425531419
 31
0.0
  0
LINE
  5
4F18
  8
WHITE
  6
CONTINUOUS
 10
15.5613881660619
 20
4.847314425531419
 30
0.0
 11
15.66563919558972
 21
4.998354568680158
 31
0.0
  0
LINE
  5
4F19
  8
WHITE
  6
CONTINUOUS
 10
15.66563919558972
 20
4.998354568680158
 30
0.0
 11
15.74596974233077
 21
5.209763735369505
 31
0.0
  0
LINE
  5
4F1A
  8
WHITE
  6
CONTINUOUS
 10
15.74596974233077
 20
5.209763735369505
 30
0.0
 11
15.75983191732057
 21
4.999639081402979
 31
0.0
  0
LINE
  5
4F1B
  8
WHITE
  6
CONTINUOUS
 10
15.75983191732057
 20
4.999639081402979
 30
0.0
 11
16.01056437343706
 21
5.431787025340915
 31
0.0
  0
LINE
  5
4F1C
  8
WHITE
  6
CONTINUOUS
 10
16.01056437343706
 20
5.431787025340915
 30
0.0
 11
16.04607525437323
 21
5.328659415870243
 31
0.0
  0
LINE
  5
4F1D
  8
WHITE
  6
CONTINUOUS
 10
16.04607525437323
 20
5.328659415870243
 30
0.0
 11
16.11518956353093
 21
5.548024241832961
 31
0.0
  0
LINE
  5
4F1E
  8
WHITE
  6
CONTINUOUS
 10
16.11518956353093
 20
5.548024241832961
 30
0.0
 11
16.13654571130615
 21
5.456513677130285
 31
0.0
  0
LINE
  5
4F1F
  8
WHITE
  6
CONTINUOUS
 10
16.13654571130615
 20
5.456513677130285
 30
0.0
 11
16.18743080941473
 21
5.692728475334127
 31
0.0
  0
LINE
  5
4F20
  8
WHITE
  6
CONTINUOUS
 10
16.18743080941473
 20
5.692728475334127
 30
0.0
 11
16.20092059496378
 21
5.810618458733229
 31
0.0
  0
LINE
  5
4F21
  8
WHITE
  6
CONTINUOUS
 10
16.20092059496378
 20
5.810618458733229
 30
0.0
 11
16.25630599542643
 21
5.716564105215731
 31
0.0
  0
LINE
  5
4F22
  8
WHITE
  6
CONTINUOUS
 10
16.25630599542643
 20
5.716564105215731
 30
0.0
 11
16.28655692507673
 21
5.625172095962782
 31
0.0
  0
ARC
  5
4F23
  8
WHITE
  6
CONTINUOUS
 10
-30.23933231068322
 20
7.429046797255481
 30
0.0
 40
46.56085
 50
357.7796237498944
 51
358.2112237498944
  0
ARC
  5
4F24
  8
WHITE
  6
CONTINUOUS
 10
18.4301982057952
 20
5.909096535206214
 30
0.0
 40
2.132343999999999
 50
163.6720237498944
 51
178.2109237498944
  0
ARC
  5
4F25
  8
WHITE
  6
CONTINUOUS
 10
15.10771617939704
 20
7.829818941792148
 30
0.0
 40
0.6842310000000009
 50
140.8259237498943
 51
160.1234937498943
  0
ARC
  5
4F26
  8
WHITE
  6
CONTINUOUS
 10
78.27964459833837
 20
-15.01985689633549
 30
0.0
 40
67.86166999999998
 50
160.1147237498944
 51
160.7376207498944
  0
ARC
  5
4F27
  8
WHITE
  6
CONTINUOUS
 10
18.97673235139323
 20
5.704024457644634
 30
0.0
 40
5.041959999999999
 50
160.7376177498944
 51
169.8945237498945
  0
ARC
  5
4F28
  8
WHITE
  6
CONTINUOUS
 10
12.78563098875885
 20
6.807384847085388
 30
0.0
 40
1.246725000000002
 50
331.4871237498944
 51
349.8969237498945
  0
ARC
  5
4F29
  8
WHITE
  6
CONTINUOUS
 10
22.87261979648781
 20
1.32748811773445
 30
0.0
 40
10.23266999999999
 50
151.4862447498944
 51
153.7582387498944
  0
ARC
  5
4F2A
  8
WHITE
  6
CONTINUOUS
 10
13.12756990670689
 20
6.131480956215876
 30
0.0
 40
0.6321110000000004
 50
308.3573237498947
 51
333.7574237498946
  0
ARC
  5
4F2B
  8
WHITE
  6
CONTINUOUS
 10
12.90857867796827
 20
6.408023386478504
 30
0.0
 40
0.9848959999999998
 50
293.090823749894
 51
308.3636237498939
  0
ARC
  5
4F2C
  8
WHITE
  6
CONTINUOUS
 10
13.60696577471613
 20
4.76978498914553
 30
0.0
 40
0.7959580000000005
 50
113.0858737498942
 51
131.3280837498942
  0
ARC
  5
4F2D
  8
WHITE
  6
CONTINUOUS
 10
12.93661517926097
 20
5.532030222238467
 30
0.0
 40
0.219013
 50
271.0417237498934
 51
311.3364237498936
  0
ARC
  5
4F2E
  8
WHITE
  6
CONTINUOUS
 10
12.98494856649733
 20
2.872238728103209
 30
0.0
 40
2.441225
 50
91.0410537498944
 51
101.8832537498944
  0
ARC
  5
4F2F
  8
WHITE
  6
CONTINUOUS
 10
12.48023127015771
 20
5.270880884097219
 30
0.0
 40
0.009981999999998
 50
192.3110237498867
 51
281.7527237498867
  0
LINE
  5
4F30
  8
WHITE
  6
CONTINUOUS
 10
12.47045504237159
 20
5.268750351235608
 30
0.0
 11
12.46544071198651
 21
5.292187274898694
 31
0.0
  0
ARC
  5
4F31
  8
WHITE
  6
CONTINUOUS
 10
12.47521693977262
 20
5.294317807760301
 30
0.0
 40
0.0100020000000007
 50
102.3064337499298
 51
192.3151237499299
  0
ARC
  5
4F32
  8
WHITE
  6
CONTINUOUS
 10
12.9849580091426
 20
2.87223543622676
 30
0.0
 40
2.48514
 50
91.04103374989444
 51
101.8865437498944
  0
ARC
  5
4F33
  8
WHITE
  6
CONTINUOUS
 10
12.93662462190622
 20
5.532026930362024
 30
0.0
 40
0.1750009999999999
 50
271.042423749893
 51
311.3317237498932
  0
ARC
  5
4F34
  8
WHITE
  6
CONTINUOUS
 10
13.60696577471613
 20
4.76978498914553
 30
0.0
 40
0.8400309999999999
 50
113.0924637498944
 51
131.3292937498945
  0
ARC
  5
4F35
  8
WHITE
  6
CONTINUOUS
 10
12.90857867796827
 20
6.408023386478504
 30
0.0
 40
0.9408979999999995
 50
293.0851237498944
 51
308.3667237498943
  0
ARC
  5
4F36
  8
WHITE
  6
CONTINUOUS
 10
13.12756990670689
 20
6.131480956215876
 30
0.0
 40
0.5881449999999997
 50
308.3616237498941
 51
333.7492237498942
  0
ARC
  5
4F37
  8
WHITE
  6
CONTINUOUS
 10
22.87261979648781
 20
1.32748811773445
 30
0.0
 40
10.27666999999999
 50
151.4859877498944
 51
153.7586897498944
  0
ARC
  5
4F38
  8
WHITE
  6
CONTINUOUS
 10
12.78562613694229
 20
6.807492441043745
 30
0.0
 40
1.202714999999997
 50
331.4853237498945
 51
349.8919237498945
  0
ARC
  5
4F39
  8
WHITE
  6
CONTINUOUS
 10
18.97673235139323
 20
5.704024457644634
 30
0.0
 40
5.085919999999996
 50
160.7372597498944
 51
169.8945237498945
  0
ARC
  5
4F3A
  8
WHITE
  6
CONTINUOUS
 10
78.27964130646191
 20
-15.01986633898076
 30
0.0
 40
67.90563
 50
160.1146387498944
 51
160.7375877498944
  0
ARC
  5
4F3B
  8
WHITE
  6
CONTINUOUS
 10
15.1077128875206
 20
7.82980949914689
 30
0.0
 40
0.7282540000000009
 50
122.3165937498943
 51
160.1158227498943
  0
ARC
  5
4F3C
  8
WHITE
  6
CONTINUOUS
 10
14.72370793800365
 20
8.436842453562459
 30
0.0
 40
0.0099639999999973
 50
30.9405237498969
 51
122.2373437498968
  0
LINE
  5
4F3D
  8
WHITE
  6
CONTINUOUS
 10
14.73224733928273
 20
8.441956417367045
 30
0.0
 11
14.74472401638166
 21
8.421424916482582
 31
0.0
  0
ARC
  5
4F3E
  8
WHITE
  6
CONTINUOUS
 10
14.7361927587956
 20
8.416212801364878
 30
0.0
 40
0.0099980000000005
 50
302.2303237498881
 51
31.44942374988814
  0
ARC
  5
4F3F
  8
WHITE
  6
CONTINUOUS
 10
15.10761343725526
 20
7.829706496017213
 30
0.0
 40
0.6842480000000009
 50
122.3474337498951
 51
140.8141237498951
  0
LINE
  5
4F40
  8
WHITE
  6
CONTINUOUS
 10
15.56388812115783
 20
4.296596972816763
 30
0.0
 11
15.5812288412558
 21
4.249736850895417
 31
0.0
  0
ARC
  5
4F41
  8
WHITE
  6
CONTINUOUS
 10
16.13094440146807
 20
2.76978125339917
 30
0.0
 40
1.578743
 50
110.3769737498944
 51
137.7645937498944
  0
ARC
  5
4F42
  8
WHITE
  6
CONTINUOUS
 10
16.5217072298801
 20
2.415373896207704
 30
0.0
 40
2.106256999999999
 50
137.7717637498944
 51
156.0308857498944
  0
ARC
  5
4F43
  8
WHITE
  6
CONTINUOUS
 10
12.13442898712599
 20
4.365990212441213
 30
0.0
 40
2.695095999999997
 50
319.6905237498945
 51
336.0288237498944
  0
ARC
  5
4F44
  8
WHITE
  6
CONTINUOUS
 10
13.59918934390922
 20
3.123328882192201
 30
0.0
 40
0.7741760000000004
 50
285.3764237498944
 51
319.6927237498945
  0
ARC
  5
4F45
  8
WHITE
  6
CONTINUOUS
 10
13.80183517164088
 20
2.386518927232345
 30
0.0
 40
0.0100160000000036
 50
194.5502237499008
 51
285.232923749901
  0
LINE
  5
4F46
  8
WHITE
  6
CONTINUOUS
 10
13.79207680897929
 20
2.383983972762346
 30
0.0
 11
13.78616168762945
 21
2.407206474789835
 31
0.0
  0
ARC
  5
4F47
  8
WHITE
  6
CONTINUOUS
 10
13.79582420329145
 20
2.409739895418491
 30
0.0
 40
0.0099919999999997
 50
105.3903237498988
 51
194.6777237498988
  0
ARC
  5
4F48
  8
WHITE
  6
CONTINUOUS
 10
13.59928290439365
 20
3.123232723803303
 30
0.0
 40
0.7301420000000007
 50
285.4010237498941
 51
319.6959237498942
  0
ARC
  5
4F49
  8
WHITE
  6
CONTINUOUS
 10
12.13432139316762
 20
4.365985360624643
 30
0.0
 40
2.651180999999999
 50
319.6926237498943
 51
336.0289237498944
  0
ARC
  5
4F4A
  8
WHITE
  6
CONTINUOUS
 10
16.52170263905142
 20
2.415269594125796
 30
0.0
 40
2.150340999999999
 50
137.7704637498943
 51
156.0293967498943
  0
ARC
  5
4F4B
  8
WHITE
  6
CONTINUOUS
 10
16.13104385173341
 20
2.769884256528849
 30
0.0
 40
1.622728000000001
 50
82.98502374989445
 51
137.7707737498945
  0
LINE
  5
4F4C
  8
WHITE
  6
CONTINUOUS
 10
16.32922153686064
 20
4.380431209311539
 30
0.0
 11
16.32381321654496
 21
4.336757379946995
 31
0.0
  0
ARC
  5
4F4D
  8
WHITE
  6
CONTINUOUS
 10
16.13104385173341
 20
2.769884256528849
 30
0.0
 40
1.578685
 50
82.98609374989451
 51
110.3817337498945
  0
LINE
  5
4F4E
  8
WHITE
  6
CONTINUOUS
 10
15.58122554937935
 20
4.24972740825017
 30
0.0
 11
15.585402175587
 21
4.258882794289077
 31
0.0
  0
LINE
  5
4F4F
  8
WHITE
  6
CONTINUOUS
 10
19.16962768196709
 20
1.41976218978402
 30
0.0
 11
19.21578317028015
 21
1.722912731695526
 31
0.0
  0
ARC
  5
4F50
  8
WHITE
  6
CONTINUOUS
 10
16.14583814075233
 20
3.11491458854681
 30
0.0
 40
3.370794999999999
 50
335.6090237498943
 51
349.9033237498945
  0
ARC
  5
4F51
  8
WHITE
  6
CONTINUOUS
 10
18.97015033098229
 20
2.611942524592529
 30
0.0
 40
0.5021110000000021
 50
349.9092237498944
 51
15.47842374989439
  0
LINE
  5
4F52
  8
WHITE
  6
CONTINUOUS
 10
19.45406605148848
 20
2.745952561332212
 30
0.0
 11
19.56227896018354
 21
2.620709740812412
 31
0.0
  0
ARC
  5
4F53
  8
WHITE
  6
CONTINUOUS
 10
17.83107186887861
 20
2.631926920292624
 30
0.0
 40
1.731249000000003
 50
359.6287237498945
 51
21.37602374989446
  0
ARC
  5
4F54
  8
WHITE
  6
CONTINUOUS
 10
19.61373942582513
 20
3.329674053508024
 30
0.0
 40
0.1830990000000004
 50
172.6151237498946
 51
201.3732237498946
  0
ARC
  5
4F55
  8
WHITE
  6
CONTINUOUS
 10
17.81480051522504
 20
3.561990800276295
 30
0.0
 40
1.630813999999996
 50
352.6444237498944
 51
30.82962374989437
  0
ARC
  5
4F56
  8
WHITE
  6
CONTINUOUS
 10
-44.1278554246306
 20
-24.64193115699683
 30
0.0
 40
69.6824
 50
24.62912374989452
 51
27.28352374989442
  0
ARC
  5
4F57
  8
WHITE
  6
CONTINUOUS
 10
16.19787469756279
 20
6.745963002208526
 30
0.0
 40
1.697485000000002
 50
19.05212374989436
 51
29.89622374989438
  0
LINE
  5
4F58
  8
WHITE
  6
CONTINUOUS
 10
17.66938921436778
 20
7.591981867088098
 30
0.0
 11
17.86989989881465
 21
7.453201222102393
 31
0.0
  0
LINE
  5
4F59
  8
WHITE
  6
CONTINUOUS
 10
17.86989989881465
 20
7.453201222102393
 30
0.0
 11
17.60962376274171
 21
7.89759966842162
 31
0.0
  0
LINE
  5
4F5A
  8
WHITE
  6
CONTINUOUS
 10
17.60962376274171
 20
7.89759966842162
 30
0.0
 11
17.4808756089793
 21
8.164370572762348
 31
0.0
  0
ARC
  5
4F5B
  8
WHITE
  6
CONTINUOUS
 10
12.18879207053869
 20
6.52692529884753
 30
0.0
 40
5.539618999999998
 50
17.19272374989451
 51
43.75272374989451
  0
LINE
  5
4F5C
  8
WHITE
  6
CONTINUOUS
 10
16.1901759020804
 20
10.35779449139073
 30
0.0
 11
15.7909057175655
 21
10.7419927765996
 31
0.0
  0
LINE
  5
4F5D
  8
WHITE
  6
CONTINUOUS
 10
15.7909057175655
 20
10.7419927765996
 30
0.0
 11
15.14024885758456
 21
11.34398319733712
 31
0.0
  0
LINE
  5
4F5E
  8
WHITE
  6
CONTINUOUS
 10
15.14024885758456
 20
11.34398319733712
 30
0.0
 11
15.2697954505904
 21
11.28263901227793
 31
0.0
  0
LINE
  5
4F5F
  8
WHITE
  6
CONTINUOUS
 10
15.2697954505904
 20
11.28263901227793
 30
0.0
 11
14.95636608986105
 21
11.60579747547019
 31
0.0
  0
LINE
  5
4F60
  8
WHITE
  6
CONTINUOUS
 10
14.95636608986105
 20
11.60579747547019
 30
0.0
 11
14.28555545957122
 21
12.54115250282086
 31
0.0
  0
ARC
  5
4F61
  8
WHITE
  6
CONTINUOUS
 10
15.0538676683071
 20
13.35339429816716
 30
0.0
 40
1.118047
 50
211.8146237498944
 51
226.5922237498943
  0
ARC
  5
4F62
  8
WHITE
  6
CONTINUOUS
 10
9.217649453311875
 20
9.732651403351532
 30
0.0
 40
5.750093999999997
 50
31.81522374989445
 51
38.86652374989445
  0
ARC
  5
4F63
  8
WHITE
  6
CONTINUOUS
 10
12.97959576845678
 20
12.76448588967621
 30
0.0
 40
0.9184869999999999
 50
38.86942374989448
 51
61.05606374989451
  0
ARC
  5
4F64
  8
WHITE
  6
CONTINUOUS
 10
13.32784416660619
 20
13.39418330374615
 30
0.0
 40
0.1988639999999982
 50
61.05707374989374
 51
159.5468447498937
  0
ARC
  5
4F65
  8
WHITE
  6
CONTINUOUS
 10
17.47456016334045
 20
11.85043403445781
 30
0.0
 40
4.623546999999997
 50
159.5790487498944
 51
167.2468237498944
  0
ARC
  5
4F66
  8
WHITE
  6
CONTINUOUS
 10
12.95531032390651
 20
12.87326310780113
 30
0.0
 40
0.0099679999999998
 50
241.4118237498445
 51
347.4413237498444
  0
ARC
  5
4F67
  8
WHITE
  6
CONTINUOUS
 10
7.71829996108163
 20
3.317336089866716
 30
0.0
 40
10.8869
 50
61.27545374989448
 51
64.39998374989449
  0
ARC
  5
4F68
  8
WHITE
  6
CONTINUOUS
 10
11.76891166014272
 20
11.77159912494632
 30
0.0
 40
1.512394000000001
 50
64.40015374989449
 51
78.82038374989448
  0
ARC
  5
4F69
  8
WHITE
  6
CONTINUOUS
 10
12.04528840146807
 20
13.16998925339916
 30
0.0
 40
0.0868839999999994
 50
78.82395374989635
 51
160.7188837498964
  0
ARC
  5
4F6A
  8
WHITE
  6
CONTINUOUS
 10
12.74558893650686
 20
12.92511053847197
 30
0.0
 40
0.8287529999999983
 50
160.7253647498942
 51
188.7491237498942
  0
ARC
  5
4F6B
  8
WHITE
  6
CONTINUOUS
 10
13.14297920048835
 20
12.98632647261266
 30
0.0
 40
1.230892999999997
 50
188.7520237498945
 51
210.3800237498945
  0
ARC
  5
4F6C
  8
WHITE
  6
CONTINUOUS
 10
14.07315009720899
 20
13.53144833136896
 30
0.0
 40
2.309063000000001
 50
210.3764237498942
 51
216.4310237498943
  0
ARC
  5
4F6D
  8
WHITE
  6
CONTINUOUS
 10
12.1331742414463
 20
12.09958905827058
 30
0.0
 40
0.1021230000000022
 50
313.5592237498962
 51
36.41602374989617
  0
ARC
  5
4F6E
  8
WHITE
  6
CONTINUOUS
 10
13.24033839793018
 20
10.93516454500347
 30
0.0
 40
1.504584
 50
133.5557837498945
 51
153.2481177498945
  0
ARC
  5
4F6F
  8
WHITE
  6
CONTINUOUS
 10
12.76724312401536
 20
11.17354808344407
 30
0.0
 40
0.9748420000000022
 50
153.2428977498942
 51
185.8600237498943
  0
ARC
  5
4F70
  8
WHITE
  6
CONTINUOUS
 10
10.32793747508353
 20
10.92299253194046
 30
0.0
 40
1.477419000000001
 50
352.1260237498944
 51
5.867523749894586
  0
ARC
  5
4F71
  8
WHITE
  6
CONTINUOUS
 10
11.31799437180417
 20
10.78606639069676
 30
0.0
 40
0.4778399999999969
 50
327.9882237498942
 51
352.1264237498941
  0
ARC
  5
4F72
  8
WHITE
  6
CONTINUOUS
 10
35.36331118579246
 20
-4.247275239184857
 30
0.0
 40
27.88019999999999
 50
147.9859837498944
 51
150.1615337498944
  0
ARC
  5
4F73
  8
WHITE
  6
CONTINUOUS
 10
11.32454751508898
 20
9.541238080722614
 30
0.0
 40
0.1675910000000015
 50
150.1451037498945
 51
223.1702237498945
  0
ARC
  5
4F74
  8
WHITE
  6
CONTINUOUS
 10
11.41243032172934
 20
9.623545594942236
 30
0.0
 40
0.2880250000000015
 50
223.1492237498945
 51
283.7019237498944
  0
ARC
  5
4F75
  8
WHITE
  6
CONTINUOUS
 10
11.8279450750291
 20
9.514993044118995
 30
0.0
 40
0.3872229999999993
 50
206.2470237498947
 51
291.5516237498947
  0
ARC
  5
4F76
  8
WHITE
  6
CONTINUOUS
 10
12.20870575348875
 20
9.37406673877133
 30
0.0
 40
0.3239359999999995
 50
222.5771237498953
 51
300.1303237498954
  0
ARC
  5
4F77
  8
WHITE
  6
CONTINUOUS
 10
13.27677929002435
 20
7.533547938934603
 30
0.0
 40
1.803992
 50
102.8692037498944
 51
120.1263337498945
  0
ARC
  5
4F78
  8
WHITE
  6
CONTINUOUS
 10
12.99642692562102
 20
8.760638974177507
 30
0.0
 40
0.5452919999999993
 50
69.72632374989492
 51
102.8694237498949
  0
ARC
  5
4F79
  8
WHITE
  6
CONTINUOUS
 10
12.23938965687697
 20
6.710733855657981
 30
0.0
 40
2.730530999999999
 50
64.19205374989443
 51
69.72962374989446
  0
ARC
  5
4F7A
  8
WHITE
  6
CONTINUOUS
 10
13.29309466191167
 20
8.889692479144166
 30
0.0
 40
0.3100969999999977
 50
12.53962374989454
 51
64.19068374989455
  0
ARC
  5
4F7B
  8
WHITE
  6
CONTINUOUS
 10
3.131895790010745
 20
6.632865266979245
 30
0.0
 40
10.71891
 50
10.57262374989452
 51
12.52272374989441
  0
ARC
  5
4F7C
  8
WHITE
  6
CONTINUOUS
 10
13.04900751345609
 20
8.483927446078436
 30
0.0
 40
0.630480000000003
 50
334.3659237498947
 51
10.57002374989471
  0
ARC
  5
4F7D
  8
WHITE
  6
CONTINUOUS
 10
13.85343658108436
 20
7.973045064257786
 30
0.0
 40
0.3352230000000004
 50
116.008123749895
 51
134.741093749895
  0
ARC
  5
4F7E
  8
WHITE
  6
CONTINUOUS
 10
13.33470476886499
 20
8.155494048337246
 30
0.0
 40
0.3902599999999971
 50
338.5729237498941
 51
17.73432374989412
  0
ARC
  5
4F7F
  8
WHITE
  6
CONTINUOUS
 10
12.20064177798188
 20
8.600178258433871
 30
0.0
 40
1.608382000000002
 50
327.9470237498946
 51
338.5848237498946
  0
ARC
  5
4F80
  8
WHITE
  6
CONTINUOUS
 10
13.45398266245597
 20
8.355835357358888
 30
0.0
 40
0.6190929999999996
 50
280.226123749894
 51
300.563123749894
  0
ARC
  5
4F81
  8
WHITE
  6
CONTINUOUS
 10
11.90503616905551
 20
9.046398255712408
 30
0.0
 40
2.229526
 50
310.1676237498944
 51
326.7134237498943
  0
ARC
  5
4F82
  8
WHITE
  6
CONTINUOUS
 10
12.88910675144767
 20
7.880597945466114
 30
0.0
 40
0.7039780000000009
 50
273.1825237498945
 51
310.1661237498944
  0
ARC
  5
4F83
  8
WHITE
  6
CONTINUOUS
 10
12.95534309135786
 20
6.689285390560684
 30
0.0
 40
0.4892290000000014
 50
93.18207374989417
 51
127.4022237498942
  0
ARC
  5
4F84
  8
WHITE
  6
CONTINUOUS
 10
12.50365052230084
 20
7.279990217067695
 30
0.0
 40
0.254441999999999
 50
255.9303237498934
 51
307.4072237498935
  0
ARC
  5
4F85
  8
WHITE
  6
CONTINUOUS
 10
17.13876488289413
 20
25.78054503432174
 30
0.0
 40
19.32676
 50
255.0196237498945
 51
255.9346237498945
  0
ARC
  5
4F86
  8
WHITE
  6
CONTINUOUS
 10
12.42852404114694
 20
8.177747875252482
 30
0.0
 40
1.104617999999999
 50
234.4884237498945
 51
255.0218237498946
  0
ARC
  5
4F87
  8
WHITE
  6
CONTINUOUS
 10
9.015154148916711
 20
3.395204761767651
 30
0.0
 40
4.771117999999998
 50
54.48302374989446
 51
57.95112374989445
  0
ARC
  5
4F88
  8
WHITE
  6
CONTINUOUS
 10
11.1959014446032
 20
6.878635351915971
 30
0.0
 40
0.6613590000000023
 50
57.94582374989444
 51
69.42662374989445
  0
ARC
  5
4F89
  8
WHITE
  6
CONTINUOUS
 10
11.60286443113197
 20
7.963186116101578
 30
0.0
 40
0.4970850000000022
 50
230.3509237498942
 51
249.4393237498941
  0
ARC
  5
4F8A
  8
WHITE
  6
CONTINUOUS
 10
11.73087881404121
 20
8.117442940159272
 30
0.0
 40
0.6974339999999989
 50
205.7914237498945
 51
230.3396237498945
  0
ARC
  5
4F8B
  8
WHITE
  6
CONTINUOUS
 10
8.949225956237431
 20
6.773418873755681
 30
0.0
 40
2.391821999999996
 50
25.78772374989439
 51
34.47722374989439
  0
ARC
  5
4F8C
  8
WHITE
  6
CONTINUOUS
 10
10.59458471579655
 20
7.903333422401754
 30
0.0
 40
0.3958889999999993
 50
34.47062374989461
 51
76.58235374989451
  0
ARC
  5
4F8D
  8
WHITE
  6
CONTINUOUS
 10
10.66687036173478
 20
8.206251143724384
 30
0.0
 40
0.0844749999999999
 50
76.59622374989444
 51
167.3026237498945
  0
ARC
  5
4F8E
  8
WHITE
  6
CONTINUOUS
 10
10.75564381880377
 20
8.186158124538085
 30
0.0
 40
0.1755540000000008
 50
167.2746237498941
 51
228.662023749894
  0
ARC
  5
4F8F
  8
WHITE
  6
CONTINUOUS
 10
8.917643099250089
 20
6.095925124674171
 30
0.0
 40
2.620273000000001
 50
48.67462374989437
 51
55.63642374989438
  0
ARC
  5
4F90
  8
WHITE
  6
CONTINUOUS
 10
10.33513794562374
 20
8.169028748568572
 30
0.0
 40
0.1097279999999979
 50
55.61312374989417
 51
122.3266737498942
  0
ARC
  5
4F91
  8
WHITE
  6
CONTINUOUS
 10
10.35200417776417
 20
8.142254307147979
 30
0.0
 40
0.1413550000000008
 50
122.3003937498964
 51
185.6922237498964
  0
ARC
  5
4F92
  8
WHITE
  6
CONTINUOUS
 10
10.20139554910721
 20
8.127203969142808
 30
0.0
 40
0.0100399999999995
 50
234.8488237499126
 51
5.923323749912479
  0
ARC
  5
4F93
  8
WHITE
  6
CONTINUOUS
 10
10.0750399116055
 20
7.946962860148378
 30
0.0
 40
0.2102359999999992
 50
54.9735237498951
 51
123.329423749895
  0
ARC
  5
4F94
  8
WHITE
  6
CONTINUOUS
 10
10.04399525029104
 20
7.99424782925983
 30
0.0
 40
0.1536530000000011
 50
123.3432437498942
 51
201.3158237498944
  0
ARC
  5
4F95
  8
WHITE
  6
CONTINUOUS
 10
9.89149416823906
 20
7.934763938390326
 30
0.0
 40
0.0100299999999985
 50
279.3936237499288
 51
21.20282374992879
  0
ARC
  5
4F96
  8
WHITE
  6
CONTINUOUS
 10
9.922785857720637
 20
7.744773916890797
 30
0.0
 40
0.1825369999999982
 50
99.35010374989415
 51
212.3631237498943
  0
ARC
  5
4F97
  8
WHITE
  6
CONTINUOUS
 10
9.395683972294041
 20
7.410667781090009
 30
0.0
 40
0.4415320000000023
 50
12.40832374989471
 51
32.37182374989472
  0
ARC
  5
4F98
  8
WHITE
  6
CONTINUOUS
 10
9.993416960455708
 20
7.28018917991978
 30
0.0
 40
0.2801799999999998
 50
126.456083749894
 51
229.977623749894
  0
ARC
  5
4F99
  8
WHITE
  6
CONTINUOUS
 10
8.716909207019842
 20
5.759959011189348
 30
0.0
 40
1.704888
 50
32.9454237498944
 51
49.9809237498945
  0
ARC
  5
4F9A
  8
WHITE
  6
CONTINUOUS
 10
10.52283471144222
 20
6.930268396683971
 30
0.0
 40
0.4471080000000019
 50
212.9421237498936
 51
250.6994237498936
  0
ARC
  5
4F9B
  8
WHITE
  6
CONTINUOUS
 10
10.06991822484542
 20
5.636377272721521
 30
0.0
 40
0.9237920000000004
 50
53.4031237498949
 51
70.7115837498949
  0
ARC
  5
4F9C
  8
WHITE
  6
CONTINUOUS
 10
10.42327077158646
 20
6.112240439410869
 30
0.0
 40
0.3310930000000013
 50
21.21352374989442
 51
53.40182374989444
  0
ARC
  5
4F9D
  8
WHITE
  6
CONTINUOUS
 10
11.62900420715592
 20
6.580305730743024
 30
0.0
 40
0.9622669999999972
 50
201.2174237498946
 51
218.4687237498946
  0
ARC
  5
4F9E
  8
WHITE
  6
CONTINUOUS
 10
11.39071826185726
 20
5.997704991322692
 30
0.0
 40
0.5153780000000026
 50
163.4072237498947
 51
181.7811237498947
  0
ARC
  5
4F9F
  8
WHITE
  6
CONTINUOUS
 10
6.996312824491621
 20
1.505127001881954
 30
0.0
 40
6.061432999999997
 50
42.71452374989458
 51
49.94762374989457
  0
ARC
  5
4FA0
  8
WHITE
  6
CONTINUOUS
 10
-13.88977761442523
 20
2.279687409529254
 30
0.0
 40
25.55849999999999
 50
7.502523749894518
 51
7.782523749894525
  0
ARC
  5
4FA1
  8
WHITE
  6
CONTINUOUS
 10
11.44320691337446
 20
5.741994214346237
 30
0.0
 40
0.0099720000000001
 50
49.00732374989252
 51
187.6917237498925
  0
ARC
  5
4FA2
  8
WHITE
  6
CONTINUOUS
 10
14.50509365143406
 20
9.294743073510738
 30
0.0
 40
4.680051
 50
229.2445237498944
 51
234.0810237498944
  0
LINE
  5
4FA3
  8
WHITE
  6
CONTINUOUS
 10
11.75956893487398
 20
5.504589903827798
 30
0.0
 11
11.71299563945965
 21
5.604965752786837
 31
0.0
  0
LINE
  5
4FA4
  8
WHITE
  6
CONTINUOUS
 10
11.71299563945965
 20
5.604965752786837
 30
0.0
 11
12.04749580410789
 21
5.321196412740566
 31
0.0
  0
LINE
  5
4FA5
  8
WHITE
  6
CONTINUOUS
 10
12.04749580410789
 20
5.321196412740566
 30
0.0
 11
12.01361281131976
 21
5.451746549085653
 31
0.0
  0
LINE
  5
4FA6
  8
WHITE
  6
CONTINUOUS
 10
12.01361281131976
 20
5.451746549085653
 30
0.0
 11
12.16094480152251
 21
5.32543674122064
 31
0.0
  0
ARC
  5
4FA7
  8
WHITE
  6
CONTINUOUS
 10
12.16744666136738
 20
5.333029600929436
 30
0.0
 40
0.0099899999999993
 50
229.4327237499065
 51
340.3501237499064
  0
LINE
  5
4FA8
  8
WHITE
  6
CONTINUOUS
 10
12.17689129954945
 20
5.329652307692268
 30
0.0
 11
12.18092644610001
 21
5.341409267006458
 31
0.0
  0
ARC
  5
4FA9
  8
WHITE
  6
CONTINUOUS
 10
12.19037567511075
 20
5.338136275851204
 30
0.0
 40
0.0099949999999995
 50
51.46172374990372
 51
160.8953237499038
  0
LINE
  5
4FAA
  8
WHITE
  6
CONTINUOUS
 10
12.19657337738317
 20
5.345919892397669
 30
0.0
 11
12.32681037098773
 21
5.241688073374677
 31
0.0
  0
ARC
  5
4FAB
  8
WHITE
  6
CONTINUOUS
 10
12.32051451740222
 20
5.233896313135173
 30
0.0
 40
0.010012
 50
294.7867237498934
 51
51.04822374989342
  0
LINE
  5
4FAC
  8
WHITE
  6
CONTINUOUS
 10
12.32473160789073
 20
5.224758816332898
 30
0.0
 11
12.17473554965151
 21
5.15721084735752
 31
0.0
  0
ARC
  5
4FAD
  8
WHITE
  6
CONTINUOUS
 10
15.44225542348467
 20
-2.089649522815282
 30
0.0
 40
7.949445999999999
 50
114.2700437498945
 51
119.1335137498945
  0
ARC
  5
4FAE
  8
WHITE
  6
CONTINUOUS
 10
10.80386402617893
 20
6.232538724347597
 30
0.0
 40
1.578089
 50
283.8251237498945
 51
299.1319237498944
  0
ARC
  5
4FAF
  8
WHITE
  6
CONTINUOUS
 10
11.29150071987873
 20
4.250897009012171
 30
0.0
 40
0.4626330000000001
 50
103.8224837498938
 51
141.4030337498938
  0
ARC
  5
4FB0
  8
WHITE
  6
CONTINUOUS
 10
11.47208098794244
 20
4.107044529763297
 30
0.0
 40
0.6934940000000029
 50
141.4213637498948
 51
187.1711237498948
  0
ARC
  5
4FB1
  8
WHITE
  6
CONTINUOUS
 10
9.985988658918064
 20
3.92017764896319
 30
0.0
 40
0.8041840000000007
 50
339.4897237498946
 51
7.163223749894653
  0
ARC
  5
4FB2
  8
WHITE
  6
CONTINUOUS
 10
11.25437128485357
 20
3.445611595894746
 30
0.0
 40
0.5500689999999989
 50
159.4820177498943
 51
175.5548237498942
  0
ARC
  5
4FB3
  8
WHITE
  6
CONTINUOUS
 10
10.76180387181779
 20
3.483906062652126
 30
0.0
 40
0.0560319999999995
 50
175.5583237498947
 51
294.5985237498946
  0
ARC
  5
4FB4
  8
WHITE
  6
CONTINUOUS
 10
10.6360429595304
 20
3.75882048695475
 30
0.0
 40
0.3582759999999999
 50
294.5839237498946
 51
330.4938237498946
  0
ARC
  5
4FB5
  8
WHITE
  6
CONTINUOUS
 10
10.57123534418137
 20
3.795439321299561
 30
0.0
 40
0.432737999999998
 50
330.500223749894
 51
355.981623749894
  0
ARC
  5
4FB6
  8
WHITE
  6
CONTINUOUS
 10
11.12632103355407
 20
3.756396924157093
 30
0.0
 40
0.1237370000000009
 50
146.9234437498962
 51
175.9592237498962
  0
ARC
  5
4FB7
  8
WHITE
  6
CONTINUOUS
 10
11.12582866964062
 20
3.755592149793236
 30
0.0
 40
0.1237050000000001
 50
108.7188037498941
 51
146.4866837498941
  0
ARC
  5
4FB8
  8
WHITE
  6
CONTINUOUS
 10
11.25455226049651
 20
4.129175795785878
 30
0.0
 40
0.3067839999999992
 50
236.7019237498941
 51
279.327123749894
  0
ARC
  5
4FB9
  8
WHITE
  6
CONTINUOUS
 10
11.07927672722669
 20
5.197391864910927
 30
0.0
 40
1.389302000000001
 50
279.3200237498944
 51
298.3638237498943
  0
ARC
  5
4FBA
  8
WHITE
  6
CONTINUOUS
 10
12.03365062919974
 20
3.429529098439309
 30
0.0
 40
0.6197110000000002
 50
96.76349374989447
 51
118.3586337498945
  0
ARC
  5
4FBB
  8
WHITE
  6
CONTINUOUS
 10
11.97632314660347
 20
3.754473529355071
 30
0.0
 40
0.2909350000000005
 50
37.36682374989475
 51
93.08530374989476
  0
LINE
  5
4FBC
  8
WHITE
  6
CONTINUOUS
 10
12.20753425124356
 20
3.931042866135597
 30
0.0
 11
12.2286067623335
 21
3.992035509760569
 31
0.0
  0
ARC
  5
4FBD
  8
WHITE
  6
CONTINUOUS
 10
12.23804654869899
 20
3.988765810481764
 30
0.0
 40
0.0099949999999985
 50
21.19982374989722
 51
160.8953237498973
  0
LINE
  5
4FBE
  8
WHITE
  6
CONTINUOUS
 10
12.24740044936575
 20
3.992388536294801
 30
0.0
 11
12.29073671525226
 21
3.880570544187032
 31
0.0
  0
LINE
  5
4FBF
  8
WHITE
  6
CONTINUOUS
 10
12.29073671525226
 20
3.880570544187032
 30
0.0
 11
12.30857039575301
 21
4.010131032144576
 31
0.0
  0
ARC
  5
4FC0
  8
WHITE
  6
CONTINUOUS
 10
12.31849157305605
 20
4.00875861059062
 30
0.0
 40
0.0100120000000003
 50
55.97462374990494
 51
172.1649237499049
  0
LINE
  5
4FC1
  8
WHITE
  6
CONTINUOUS
 10
12.32407940024342
 20
4.017040777416041
 30
0.0
 11
12.43481011190486
 21
3.941944043166476
 31
0.0
  0
LINE
  5
4FC2
  8
WHITE
  6
CONTINUOUS
 10
12.43481011190486
 20
3.941944043166476
 30
0.0
 11
12.53393335479506
 21
3.793574446486664
 31
0.0
  0
ARC
  5
4FC3
  8
WHITE
  6
CONTINUOUS
 10
12.54226319695045
 20
3.799089764216959
 30
0.0
 40
0.0099850000000016
 50
213.5157237498874
 51
328.0553237498874
  0
LINE
  5
4FC4
  8
WHITE
  6
CONTINUOUS
 10
12.55073612061353
 20
3.793806094602054
 30
0.0
 11
12.60311031111565
 21
3.876631469755136
 31
0.0
  0
ARC
  5
4FC5
  8
WHITE
  6
CONTINUOUS
 10
12.6115880865953
 20
3.871240206181851
 30
0.0
 40
0.0100399999999996
 50
53.44302374987626
 51
147.5652737498763
  0
LINE
  5
4FC6
  8
WHITE
  6
CONTINUOUS
 10
12.61758108156061
 20
3.87931758269567
 30
0.0
 11
12.69113450297848
 21
3.824224040445026
 31
0.0
  0
ARC
  5
4FC7
  8
WHITE
  6
CONTINUOUS
 10
12.69712619899155
 20
3.832206557522177
 30
0.0
 40
0.0099800000000005
 50
233.1069237498947
 51
345.2287237498948
  0
LINE
  5
4FC8
  8
WHITE
  6
CONTINUOUS
 10
12.7068633811932
 20
3.829638039900736
 30
0.0
 11
12.72264247712463
 21
3.890453325245666
 31
0.0
  0
ARC
  5
4FC9
  8
WHITE
  6
CONTINUOUS
 10
12.73227665619661
 20
3.887984257889578
 30
0.0
 40
0.0099449999999982
 50
24.285623749896
 51
165.6264237498958
  0
LINE
  5
4FCA
  8
WHITE
  6
CONTINUOUS
 10
12.74141614592312
 20
3.892115931586673
 30
0.0
 11
12.77945668205047
 21
3.808820973088922
 31
0.0
  0
ARC
  5
4FCB
  8
WHITE
  6
CONTINUOUS
 10
12.78860561442222
 20
3.812949354909579
 30
0.0
 40
0.0100310000000002
 50
204.279123749884
 51
319.8506237498839
  0
LINE
  5
4FCC
  8
WHITE
  6
CONTINUOUS
 10
12.79618088779274
 20
3.806548938254242
 30
0.0
 11
12.82217463769068
 21
3.83730639858898
 31
0.0
  0
ARC
  5
4FCD
  8
WHITE
  6
CONTINUOUS
 10
12.82985750501958
 20
3.830910833750227
 30
0.0
 40
0.0099999999999984
 50
28.38472374989918
 51
140.2413737498992
  0
LINE
  5
4FCE
  8
WHITE
  6
CONTINUOUS
 10
12.83859702277711
 20
3.835626735505574
 30
0.0
 11
12.88436727151842
 21
3.750050079634031
 31
0.0
  0
ARC
  5
4FCF
  8
WHITE
  6
CONTINUOUS
 10
12.89320164871259
 20
3.754764682437136
 30
0.0
 40
0.0100180000000016
 50
208.1129237499082
 51
306.4030237499081
  0
LINE
  5
4FD0
  8
WHITE
  6
CONTINUOUS
 10
12.89912291119729
 20
3.746748701487345
 30
0.0
 11
13.12766154012639
 21
3.914072478599875
 31
0.0
  0
LINE
  5
4FD1
  8
WHITE
  6
CONTINUOUS
 10
13.12766154012639
 20
3.914072478599875
 30
0.0
 11
13.08837708836424
 21
3.780425560379703
 31
0.0
  0
ARC
  5
4FD2
  8
WHITE
  6
CONTINUOUS
 10
13.09801352134834
 20
3.777659180191925
 30
0.0
 40
0.0100280000000021
 50
163.9718237498987
 51
302.2389237498986
  0
LINE
  5
4FD3
  8
WHITE
  6
CONTINUOUS
 10
13.10333452937664
 20
3.769227633859096
 30
0.0
 11
13.27219493841188
 21
3.875546612223499
 31
0.0
  0
ARC
  5
4FD4
  8
WHITE
  6
CONTINUOUS
 10
13.27751594644018
 20
3.867115065890651
 30
0.0
 40
0.0099639999999977
 50
355.0752237498871
 51
122.2373437498871
  0
LINE
  5
4FD5
  8
WHITE
  6
CONTINUOUS
 10
13.28752946827988
 20
3.866250554256418
 30
0.0
 11
13.27408507666198
 21
3.714953678763164
 31
0.0
  0
LINE
  5
4FD6
  8
WHITE
  6
CONTINUOUS
 10
13.27408507666198
 20
3.714953678763164
 30
0.0
 11
13.35276848011823
 21
3.819933155426654
 31
0.0
  0
LINE
  5
4FD7
  8
WHITE
  6
CONTINUOUS
 10
13.35276848011823
 20
3.819933155426654
 30
0.0
 11
13.4145975787711
 21
3.840082831845217
 31
0.0
  0
ARC
  5
4FD8
  8
WHITE
  6
CONTINUOUS
 10
13.41772409122177
 20
3.83052067100701
 30
0.0
 40
0.0100569999999973
 50
356.7297237498976
 51
108.1345437498977
  0
LINE
  5
4FD9
  8
WHITE
  6
CONTINUOUS
 10
13.42763105706747
 20
3.829958063033132
 30
0.0
 11
13.42162243766347
 21
3.727664654678247
 31
0.0
  0
ARC
  5
4FDA
  8
WHITE
  6
CONTINUOUS
 10
13.43163370559109
 20
3.727097455875695
 30
0.0
 40
0.0100240000000027
 50
176.7763237498965
 51
312.1412237498965
  0
LINE
  5
4FDB
  8
WHITE
  6
CONTINUOUS
 10
13.43834138854114
 20
3.719696895799498
 30
0.0
 11
13.46817605312134
 21
3.747103195976385
 31
0.0
  0
ARC
  5
4FDC
  8
WHITE
  6
CONTINUOUS
 10
13.47497530363163
 20
3.739691894302681
 30
0.0
 40
0.0100560000000016
 50
356.7843237498877
 51
132.5560037498877
  0
LINE
  5
4FDD
  8
WHITE
  6
CONTINUOUS
 10
13.48498042079042
 20
3.739137430021842
 30
0.0
 11
13.48473926580335
 21
3.734921858379428
 31
0.0
  0
ARC
  5
4FDE
  8
WHITE
  6
CONTINUOUS
 10
13.49475382560741
 20
3.734364102222138
 30
0.0
 40
0.0100240000000027
 50
176.7763237498965
 51
311.3108237498965
  0
LINE
  5
4FDF
  8
WHITE
  6
CONTINUOUS
 10
13.50134932377043
 20
3.726854388247446
 30
0.0
 11
13.69925688343842
 21
3.903765912536464
 31
0.0
  0
LINE
  5
4FE0
  8
WHITE
  6
CONTINUOUS
 10
13.69925688343842
 20
3.903765912536464
 30
0.0
 11
13.6714439750155
 21
3.793972172163626
 31
0.0
  0
ARC
  5
4FE1
  8
WHITE
  6
CONTINUOUS
 10
13.68118574804585
 20
3.791507956624093
 30
0.0
 40
0.0100420000000027
 50
165.7756237499019
 51
299.4018237499021
  0
LINE
  5
4FE2
  8
WHITE
  6
CONTINUOUS
 10
13.68610410319619
 20
3.782771991730906
 30
0.0
 11
13.76747341412287
 21
3.829384171891478
 31
0.0
  0
LINE
  5
4FE3
  8
WHITE
  6
CONTINUOUS
 10
13.76747341412287
 20
3.829384171891478
 30
0.0
 11
13.86034667715184
 21
3.898059069156405
 31
0.0
  0
ARC
  5
4FE4
  8
WHITE
  6
CONTINUOUS
 10
13.86625520511482
 20
3.890036937437817
 30
0.0
 40
0.0099619999999981
 50
3.069523749895989
 51
126.385063749896
  0
LINE
  5
4FE5
  8
WHITE
  6
CONTINUOUS
 10
13.87625000767299
 20
3.890576865047013
 30
0.0
 11
13.88079130716953
 21
3.806728602698394
 31
0.0
  0
LINE
  5
4FE6
  8
WHITE
  6
CONTINUOUS
 10
13.88079130716953
 20
3.806728602698394
 30
0.0
 11
13.94747316837513
 21
3.904348657943997
 31
0.0
  0
ARC
  5
4FE7
  8
WHITE
  6
CONTINUOUS
 10
13.95575074437188
 20
3.898656528674712
 30
0.0
 40
0.0100429999999999
 50
86.83563374991516
 51
145.5081137499151
  0
LINE
  5
4FE8
  8
WHITE
  6
CONTINUOUS
 10
13.95630979948142
 20
3.908765947915425
 30
0.0
 11
14.0452856321117
 21
3.90368289688808
 31
0.0
  0
LINE
  5
4FE9
  8
WHITE
  6
CONTINUOUS
 10
14.0452856321117
 20
3.90368289688808
 30
0.0
 11
14.21342280642113
 21
4.019774645153149
 31
0.0
  0
ARC
  5
4FEA
  8
WHITE
  6
CONTINUOUS
 10
14.21913572572987
 20
4.011555949820451
 30
0.0
 40
0.0100120000000017
 50
348.5719237499014
 51
124.7880137499014
  0
LINE
  5
4FEB
  8
WHITE
  6
CONTINUOUS
 10
14.22887169198379
 20
4.009591500507609
 30
0.0
 11
14.21173783867043
 21
3.923747179375487
 31
0.0
  0
ARC
  5
4FEC
  8
WHITE
  6
CONTINUOUS
 10
14.00656127042984
 20
3.964754323204584
 30
0.0
 40
0.2092350000000005
 50
304.9867237498947
 51
348.6972237498947
  0
ARC
  5
4FED
  8
WHITE
  6
CONTINUOUS
 10
14.59271355291725
 20
3.127368116645869
 30
0.0
 40
0.8129739999999996
 50
124.9925037498944
 51
144.6110737498944
  0
ARC
  5
4FEE
  8
WHITE
  6
CONTINUOUS
 10
14.87608518307102
 20
2.926108369741527
 30
0.0
 40
1.160546999999997
 50
144.6126837498944
 51
164.1115237498943
  0
ARC
  5
4FEF
  8
WHITE
  6
CONTINUOUS
 10
13.41638421423172
 20
3.34166514753441
 30
0.0
 40
0.3571249999999991
 50
292.8859237498949
 51
344.1012237498948
  0
ARC
  5
4FF0
  8
WHITE
  6
CONTINUOUS
 10
12.9822310880921
 20
4.370940121272339
 30
0.0
 40
1.474254
 50
286.3788237498943
 51
292.8742237498943
  0
ARC
  5
4FF1
  8
WHITE
  6
CONTINUOUS
 10
13.51486667508353
 20
2.558626931940466
 30
0.0
 40
0.4147679999999999
 50
106.3748837498939
 51
141.8289337498939
  0
ARC
  5
4FF2
  8
WHITE
  6
CONTINUOUS
 10
13.11929768773831
 20
2.869568850432778
 30
0.0
 40
0.0884570000000001
 50
245.4591237499
 51
321.8375237499002
  0
ARC
  5
4FF3
  8
WHITE
  6
CONTINUOUS
 10
12.9940156544821
 20
2.595137591513195
 30
0.0
 40
0.2132820000000005
 50
65.46503374989491
 51
128.8309537498949
  0
ARC
  5
4FF4
  8
WHITE
  6
CONTINUOUS
 10
12.7396950518967
 20
2.911200719993264
 30
0.0
 40
0.1923390000000009
 50
244.6274237498951
 51
308.8122237498952
  0
ARC
  5
4FF5
  8
WHITE
  6
CONTINUOUS
 10
12.97233357033458
 20
3.401718219517008
 30
0.0
 40
0.735281999999998
 50
226.0123237498949
 51
244.626723749895
  0
ARC
  5
4FF6
  8
WHITE
  6
CONTINUOUS
 10
12.7448280246549
 20
3.166091465346373
 30
0.0
 40
0.4077209999999981
 50
196.4630237498947
 51
226.0190237498946
  0
ARC
  5
4FF7
  8
WHITE
  6
CONTINUOUS
 10
9.393991990473378
 20
2.176456513461764
 30
0.0
 40
3.086238000000001
 50
16.45282374989447
 51
21.73252374989451
  0
ARC
  5
4FF8
  8
WHITE
  6
CONTINUOUS
 10
11.63761941172797
 20
3.0708029077467
 30
0.0
 40
0.6709540000000006
 50
21.7303237498945
 51
44.1619237498945
  0
ARC
  5
4FF9
  8
WHITE
  6
CONTINUOUS
 10
12.01466295533934
 20
3.436973524701388
 30
0.0
 40
0.1452970000000003
 50
44.16312374989457
 51
148.3484137498946
  0
ARC
  5
4FFA
  8
WHITE
  6
CONTINUOUS
 10
12.08839001834111
 20
3.391673678055584
 30
0.0
 40
0.2317839999999995
 50
148.3794837498937
 51
185.3846237498938
  0
ARC
  5
4FFB
  8
WHITE
  6
CONTINUOUS
 10
11.69425922438275
 20
3.354601426239011
 30
0.0
 40
0.1666309999999995
 50
5.358523749895036
 51
100.829773749895
  0
ARC
  5
4FFC
  8
WHITE
  6
CONTINUOUS
 10
11.69457882084486
 20
3.360803917843311
 30
0.0
 40
0.1641819999999996
 50
101.3444337498948
 51
177.9861237498948
  0
ARC
  5
4FFD
  8
WHITE
  6
CONTINUOUS
 10
13.30980061455829
 20
3.303896074463259
 30
0.0
 40
1.780322000000003
 50
177.9827237498945
 51
183.2078237498945
  0
ARC
  5
4FFE
  8
WHITE
  6
CONTINUOUS
 10
11.37000046743624
 20
3.106760893023603
 30
0.0
 40
0.1893329999999998
 50
31.00212374989465
 51
103.9121037498947
  0
ARC
  5
4FFF
  8
WHITE
  6
CONTINUOUS
 10
11.34704182206952
 20
3.199355393826437
 30
0.0
 40
0.0938489999999994
 50
103.8986837498956
 51
183.3438237498957
  0
ARC
  5
5000
  8
WHITE
  6
CONTINUOUS
 10
12.63133982473655
 20
3.274258097078581
 30
0.0
 40
1.380375000000002
 50
183.3382237498944
 51
195.5416237498945
  0
ARC
  5
5001
  8
WHITE
  6
CONTINUOUS
 10
11.29179234763762
 20
2.901773997963057
 30
0.0
 40
0.0100159999999998
 50
267.9105237498771
 51
15.23292374987719
  0
ARC
  5
5002
  8
WHITE
  6
CONTINUOUS
 10
11.28672673985425
 20
2.766795439492514
 30
0.0
 40
0.1250630000000008
 50
87.84720374989567
 51
201.9700237498956
  0
ARC
  5
5003
  8
WHITE
  6
CONTINUOUS
 10
10.39037246123131
 20
2.404948481375762
 30
0.0
 40
0.841579000000001
 50
6.502123749894346
 51
21.98522374989445
  0
ARC
  5
5004
  8
WHITE
  6
CONTINUOUS
 10
11.40055175229132
 20
2.288499606698938
 30
0.0
 40
0.2740690000000001
 50
129.4109437498948
 51
199.8636237498949
  0
ARC
  5
5005
  8
WHITE
  6
CONTINUOUS
 10
12.17690514937936
 20
2.569199608250168
 30
0.0
 40
1.099596000000001
 50
199.8746237498945
 51
216.4434237498944
  0
ARC
  5
5006
  8
WHITE
  6
CONTINUOUS
 10
15.40305069103129
 20
4.95147246363185
 30
0.0
 40
5.110012999999999
 50
216.4432237498944
 51
225.7361237498944
  0
ARC
  5
5007
  8
WHITE
  6
CONTINUOUS
 10
10.1105285201781
 20
-0.4789286079697259
 30
0.0
 40
2.472893999999998
 50
38.65002374989442
 51
45.73792374989453
  0
ARC
  5
5008
  8
WHITE
  6
CONTINUOUS
 10
11.38526878535703
 20
0.5405264582433667
 30
0.0
 40
0.8406070000000021
 50
21.45552374989444
 51
38.64832374989434
  0
ARC
  5
5009
  8
WHITE
  6
CONTINUOUS
 10
11.73581581820504
 20
0.6783175585019041
 30
0.0
 40
0.4639749999999973
 50
337.7798237498944
 51
21.45362374989443
  0
ARC
  5
500A
  8
WHITE
  6
CONTINUOUS
 10
12.78792489381948
 20
0.2436900301317611
 30
0.0
 40
0.6743694036406974
 50
157.3993752813579
 51
185.6185929407761
  0
ARC
  5
500B
  8
WHITE
  6
CONTINUOUS
 10
12.34169295893168
 20
0.2074259209185563
 30
0.0
 40
0.2288609999999983
 50
182.9340237498944
 51
197.6238237498941
  0
ARC
  5
500C
  8
WHITE
  6
CONTINUOUS
 10
6.425826052328315
 20
0.7307118535152846
 30
0.0
 40
0.3730187734820954
 50
275.5531850804062
 51
34.54129877666635
  0
ARC
  5
500D
  8
WHITE
  6
CONTINUOUS
 10
5.657718420246138
 20
-0.0381484481928851
 30
0.0
 40
1.455140000000001
 50
42.35392374989412
 51
68.9454137498941
  0
ARC
  5
500E
  8
WHITE
  6
CONTINUOUS
 10
5.174669994555575
 20
-1.293345899927816
 30
0.0
 40
2.800025999999998
 50
68.94834374989455
 51
78.53728374989454
  0
ARC
  5
500F
  8
WHITE
  6
CONTINUOUS
 10
5.787171871436772
 20
1.727283247901825
 30
0.0
 40
0.2820129999999999
 50
185.7245237498943
 51
258.5382237498943
  0
ARC
  5
5010
  8
WHITE
  6
CONTINUOUS
 10
8.442999260850304
 20
1.993282266625458
 30
0.0
 40
2.951159000000003
 50
171.1030237498946
 51
185.7199237498945
  0
ARC
  5
5011
  8
WHITE
  6
CONTINUOUS
 10
8.098528353243825
 20
2.047197843574702
 30
0.0
 40
2.602536
 50
159.5527037498945
 51
171.1028237498944
  0
LINE
  5
5012
  8
WHITE
  6
CONTINUOUS
 10
5.66002284707972
 20
2.956362447792964
 30
0.0
 11
5.687049983724169
 21
2.836919223599196
 31
0.0
  0
LINE
  5
5013
  8
WHITE
  6
CONTINUOUS
 10
5.687049983724169
 20
2.836919223599196
 30
0.0
 11
5.72551269065028
 21
2.979357648881546
 31
0.0
  0
LINE
  5
5014
  8
WHITE
  6
CONTINUOUS
 10
5.72551269065028
 20
2.979357648881546
 30
0.0
 11
5.778149710544152
 21
3.159994047629672
 31
0.0
  0
LINE
  5
5015
  8
WHITE
  6
CONTINUOUS
 10
5.778149710544152
 20
3.159994047629672
 30
0.0
 11
5.891887021742935
 21
3.496270666897607
 31
0.0
  0
ARC
  5
5016
  8
WHITE
  6
CONTINUOUS
 10
4.831412057040279
 20
3.85485371912239
 30
0.0
 40
1.119468
 50
341.3178237498943
 51
19.29202374989439
  0
ARC
  5
5017
  8
WHITE
  6
CONTINUOUS
 10
3.541731595861887
 20
3.403349807787516
 30
0.0
 40
2.485835999999998
 50
19.29342374989441
 51
36.58842374989433
  0
ARC
  5
5018
  8
WHITE
  6
CONTINUOUS
 10
13.68787106768116
 20
10.93516218822023
 30
0.0
 40
10.15028999999999
 50
214.8793237498944
 51
216.5875237498944
  0
ARC
  5
5019
  8
WHITE
  6
CONTINUOUS
 10
5.61338834725662
 20
5.306647183212748
 30
0.0
 40
0.3076990000000007
 50
153.5825357498945
 51
214.8786237498944
  0
ARC
  5
501A
  8
WHITE
  6
CONTINUOUS
 10
4.32514701510258
 20
5.946857752677985
 30
0.0
 40
1.130939999999999
 50
333.5720237498944
 51
344.7975237498944
  0
ARC
  5
501B
  8
WHITE
  6
CONTINUOUS
 10
4.409373939527672
 20
5.923899712563681
 30
0.0
 40
1.043623999999996
 50
344.8012237498944
 51
353.1822237498943
  0
ARC
  5
501C
  8
WHITE
  6
CONTINUOUS
 10
1.668849262973048
 20
6.251797091662875
 30
0.0
 40
3.803731
 50
353.1785237498945
 51
355.6279237498945
  0
ARC
  5
501D
  8
WHITE
  6
CONTINUOUS
 10
5.555450876090472
 20
5.954611056637706
 30
0.0
 40
0.0942829999999988
 50
143.8845437498924
 51
175.6081237498925
  0
ARC
  5
501E
  8
WHITE
  6
CONTINUOUS
 10
5.28453487200829
 20
6.152047470027281
 30
0.0
 40
0.2409400000000033
 50
323.9296237498954
 51
14.4703237498954
  0
LINE
  5
501F
  8
WHITE
  6
CONTINUOUS
 10
5.517732217769616
 20
6.212225855930116
 30
0.0
 11
5.604692361462629
 21
6.055091704617015
 31
0.0
  0
LINE
  5
5020
  8
WHITE
  6
CONTINUOUS
 10
5.604692361462629
 20
6.055091704617015
 30
0.0
 11
5.581081721103399
 21
6.305299484995306
 31
0.0
  0
LINE
  5
5021
  8
WHITE
  6
CONTINUOUS
 10
5.581081721103399
 20
6.305299484995306
 30
0.0
 11
5.566132607482498
 21
6.564920657671852
 31
0.0
  0
LINE
  5
5022
  8
WHITE
  6
CONTINUOUS
 10
5.566132607482498
 20
6.564920657671852
 30
0.0
 11
5.629639567613136
 21
6.44777582844339
 31
0.0
  0
LINE
  5
5023
  8
WHITE
  6
CONTINUOUS
 10
5.629639567613136
 20
6.44777582844339
 30
0.0
 11
5.618797315878208
 21
6.721850654133959
 31
0.0
  0
LINE
  5
5024
  8
WHITE
  6
CONTINUOUS
 10
5.618797315878208
 20
6.721850654133959
 30
0.0
 11
5.678278428410525
 21
6.62064972502796
 31
0.0
  0
LINE
  5
5025
  8
WHITE
  6
CONTINUOUS
 10
5.678278428410525
 20
6.62064972502796
 30
0.0
 11
5.631205588840512
 21
6.912036078817593
 31
0.0
  0
LINE
  5
5026
  8
WHITE
  6
CONTINUOUS
 10
5.631205588840512
 20
6.912036078817593
 30
0.0
 11
5.710233713755461
 21
6.778900629096544
 31
0.0
  0
LINE
  5
5027
  8
WHITE
  6
CONTINUOUS
 10
5.710233713755461
 20
6.778900629096544
 30
0.0
 11
5.607909123471057
 21
7.051233205229345
 31
0.0
  0
LINE
  5
5028
  8
WHITE
  6
CONTINUOUS
 10
5.607909123471057
 20
7.051233205229345
 30
0.0
 11
5.595180521756557
 21
7.156373338852959
 31
0.0
  0
ARC
  5
5029
  8
WHITE
  6
CONTINUOUS
 10
5.605067813360851
 20
7.157607342390858
 30
0.0
 40
0.0099599999999994
 50
135.7856437498555
 51
187.1207237498554
  0
LINE
  5
502A
  8
WHITE
  6
CONTINUOUS
 10
5.597964322273636
 20
7.164510473156955
 30
0.0
 11
5.650140888881328
 21
7.2181226946837
 31
0.0
  0
ARC
  5
502B
  8
WHITE
  6
CONTINUOUS
 10
5.657337940452972
 20
7.21112340552871
 30
0.0
 40
0.0100399999999969
 50
36.85752374988724
 51
135.7805237498872
  0
LINE
  5
502C
  8
WHITE
  6
CONTINUOUS
 10
5.665351928478554
 20
7.217130084804804
 30
0.0
 11
5.779685463925549
 21
7.061477528538635
 31
0.0
  0
ARC
  5
502D
  8
WHITE
  6
CONTINUOUS
 10
5.787707595644161
 20
7.067386056501618
 30
0.0
 40
0.0099620000000021
 50
216.3851237498622
 51
292.4829237498622
  0
LINE
  5
502E
  8
WHITE
  6
CONTINUOUS
 10
5.791534073804453
 20
7.058130568135866
 30
0.0
 11
5.824352941133331
 21
7.071587003297108
 31
0.0
  0
ARC
  5
502F
  8
WHITE
  6
CONTINUOUS
 10
5.828075117211714
 20
7.062336105760032
 30
0.0
 40
0.009972000000002
 50
26.81752374986328
 51
111.9417737498632
  0
LINE
  5
5030
  8
WHITE
  6
CONTINUOUS
 10
5.83702064122858
 20
7.066853106984691
 30
0.0
 11
5.925466904937931
 21
6.895147602018032
 31
0.0
  0
ARC
  5
5031
  8
WHITE
  6
CONTINUOUS
 10
5.934404285261788
 20
6.899762754555791
 30
0.0
 40
0.010061999999999
 50
207.3456237499302
 51
343.2596237499302
  0
LINE
  5
5032
  8
WHITE
  6
CONTINUOUS
 10
5.943941267980531
 20
6.896893371238321
 30
0.0
 11
5.971283604897121
 21
6.989874986151925
 31
0.0
  0
ARC
  5
5033
  8
WHITE
  6
CONTINUOUS
 10
5.980920037881187
 20
6.987108605964135
 30
0.0
 40
0.0100279999999972
 50
23.97722374985988
 51
163.9718237498599
  0
LINE
  5
5034
  8
WHITE
  6
CONTINUOUS
 10
5.989969519987614
 20
6.991133984655107
 30
0.0
 11
6.081662311387799
 21
6.786758908862485
 31
0.0
  0
LINE
  5
5035
  8
WHITE
  6
CONTINUOUS
 10
6.081662311387799
 20
6.786758908862485
 30
0.0
 11
6.116173765735315
 21
6.9471474986026
 31
0.0
  0
LINE
  5
5036
  8
WHITE
  6
CONTINUOUS
 10
6.116173765735315
 20
6.9471474986026
 30
0.0
 11
6.175072468415966
 21
6.778933273810107
 31
0.0
  0
ARC
  5
5037
  8
WHITE
  6
CONTINUOUS
 10
6.184536216953166
 20
6.782263538608035
 30
0.0
 40
0.0100239999999982
 50
199.3962237499117
 51
289.3995237499117
  0
LINE
  5
5038
  8
WHITE
  6
CONTINUOUS
 10
6.1878603309823
 20
6.772812524592528
 30
0.0
 11
6.331264824654912
 21
6.824369065346371
 31
0.0
  0
ARC
  5
5039
  8
WHITE
  6
CONTINUOUS
 10
6.334693240765947
 20
6.814913460502172
 30
0.0
 40
0.0100560000000024
 50
28.36102374988714
 51
109.9361337498871
  0
LINE
  5
503A
  8
WHITE
  6
CONTINUOUS
 10
6.343432758523473
 20
6.819629362257512
 30
0.0
 11
6.420596839350782
 21
6.676468777143896
 31
0.0
  0
ARC
  5
503B
  8
WHITE
  6
CONTINUOUS
 10
6.429434508421398
 20
6.681192822592248
 30
0.0
 40
0.0100180000000024
 50
208.1129237499171
 51
337.788123749917
  0
LINE
  5
503C
  8
WHITE
  6
CONTINUOUS
 10
6.438683798937117
 20
6.677407069700699
 30
0.0
 11
6.476612966170759
 21
6.770743401174364
 31
0.0
  0
ARC
  5
503D
  8
WHITE
  6
CONTINUOUS
 10
6.485865548562909
 20
6.766967090928077
 30
0.0
 40
0.0099920000000003
 50
31.19292374992791
 51
157.8078087499279
  0
LINE
  5
503E
  8
WHITE
  6
CONTINUOUS
 10
6.494485514816827
 20
6.772190641615254
 30
0.0
 11
6.638551369490937
 21
6.533926158284178
 31
0.0
  0
LINE
  5
503F
  8
WHITE
  6
CONTINUOUS
 10
6.638551369490937
 20
6.533926158284178
 30
0.0
 11
6.648856552509027
 21
6.637273957984828
 31
0.0
  0
LINE
  5
5040
  8
WHITE
  6
CONTINUOUS
 10
6.648856552509027
 20
6.637273957984828
 30
0.0
 11
6.722942415619652
 21
6.462166086981963
 31
0.0
  0
ARC
  5
5041
  8
WHITE
  6
CONTINUOUS
 10
6.732189760292403
 20
6.466090716455359
 30
0.0
 40
0.0100459999999975
 50
203.0055237498706
 51
327.5634237498705
  0
LINE
  5
5042
  8
WHITE
  6
CONTINUOUS
 10
6.740661385003254
 20
6.460712187403793
 30
0.0
 11
6.754086007945144
 21
6.481692304154365
 31
0.0
  0
ARC
  5
5043
  8
WHITE
  6
CONTINUOUS
 10
6.762554340779534
 20
6.476304332457548
 30
0.0
 40
0.0100399999999984
 50
15.92732374989795
 51
147.5652737498979
  0
LINE
  5
5044
  8
WHITE
  6
CONTINUOUS
 10
6.772117456577607
 20
6.479038672639874
 30
0.0
 11
6.853853428002307
 21
6.183129566366917
 31
0.0
  0
LINE
  5
5045
  8
WHITE
  6
CONTINUOUS
 10
6.853853428002307
 20
6.183129566366917
 30
0.0
 11
6.864320411809633
 21
6.274273939478892
 31
0.0
  0
ARC
  5
5046
  8
WHITE
  6
CONTINUOUS
 10
6.874238036248311
 20
6.273103971319967
 30
0.0
 40
0.0099840000000005
 50
65.51777374986074
 51
173.2996237498607
  0
LINE
  5
5047
  8
WHITE
  6
CONTINUOUS
 10
6.878408511687159
 20
6.282272091880593
 30
0.0
 11
6.937378555230492
 21
6.255762349058442
 31
0.0
  0
ARC
  5
5048
  8
WHITE
  6
CONTINUOUS
 10
6.933306231104755
 20
6.246602372190836
 30
0.0
 40
0.0100220000000009
 50
8.29092374989283
 51
66.00537374989283
  0
LINE
  5
5049
  8
WHITE
  6
CONTINUOUS
 10
6.943180527199456
 20
6.248042121000207
 30
0.0
 11
6.97692824389561
 21
6.009688010236827
 31
0.0
  0
LINE
  5
504A
  8
WHITE
  6
CONTINUOUS
 10
6.97692824389561
 20
6.009688010236827
 30
0.0
 11
7.037657660142724
 21
6.147921124946318
 31
0.0
  0
LINE
  5
504B
  8
WHITE
  6
CONTINUOUS
 10
7.037657660142724
 20
6.147921124946318
 30
0.0
 11
7.10531302332139
 21
5.83601561372029
 31
0.0
  0
ARC
  5
504C
  8
WHITE
  6
CONTINUOUS
 10
7.115079808462216
 20
5.838149438458363
 30
0.0
 40
0.0100019999999987
 50
192.3151237498871
 51
333.455223749887
  0
LINE
  5
504D
  8
WHITE
  6
CONTINUOUS
 10
7.124044437663468
 20
5.833668654678247
 30
0.0
 11
7.164640126600741
 21
5.91502975496401
 31
0.0
  0
ARC
  5
504E
  8
WHITE
  6
CONTINUOUS
 10
7.173595313156742
 20
5.910552263060337
 30
0.0
 40
0.0100179999999991
 50
33.50802374991489
 51
153.4481587499148
  0
LINE
  5
504F
  8
WHITE
  6
CONTINUOUS
 10
7.18192515531214
 20
5.916067580790649
 30
0.0
 11
7.271993197494741
 21
5.780576642431692
 31
0.0
  0
LINE
  5
5050
  8
WHITE
  6
CONTINUOUS
 10
7.271993197494741
 20
5.780576642431692
 30
0.0
 11
7.379059756210214
 21
5.651529129844944
 31
0.0
  0
ARC
  5
5051
  8
WHITE
  6
CONTINUOUS
 10
6.942055783805817
 20
5.288643855331401
 30
0.0
 40
0.5680249999999986
 50
10.67372374989437
 51
39.70652374989448
  0
ARC
  5
5052
  8
WHITE
  6
CONTINUOUS
 10
9.694945981274852
 20
5.807395271632942
 30
0.0
 40
2.233290000000001
 50
190.6709237498943
 51
201.9441237498943
  0
ARC
  5
5053
  8
WHITE
  6
CONTINUOUS
 10
7.696530572974407
 20
5.002192578858415
 30
0.0
 40
0.0787950000000018
 50
201.9068237498917
 51
344.3962237498915
  0
ARC
  5
5054
  8
WHITE
  6
CONTINUOUS
 10
86.93597001229945
 20
-17.19535467012785
 30
0.0
 40
82.21115
 50
164.0932237498944
 51
164.3507237498946
  0
ARC
  5
5055
  8
WHITE
  6
CONTINUOUS
 10
26.11520768000937
 20
0.1376521797837071
 30
0.0
 40
18.96872999999999
 50
163.2841237498944
 51
164.0933237498944
  0
ARC
  5
5056
  8
WHITE
  6
CONTINUOUS
 10
7.325534242045027
 20
4.897028624306776
 30
0.0
 40
0.9341519999999974
 50
4.463223749894494
 51
48.21432374989451
  0
ARC
  5
5057
  8
WHITE
  6
CONTINUOUS
 10
8.303785829145308
 20
4.973362810617829
 30
0.0
 40
0.0470950000000035
 50
184.4327237498935
 51
351.3579237498935
  0
ARC
  5
5058
  8
WHITE
  6
CONTINUOUS
 10
-1.558892828740117
 20
6.47524911248204
 30
0.0
 40
10.02341
 50
351.3416237498945
 51
357.9041237498945
  0
ARC
  5
5059
  8
WHITE
  6
CONTINUOUS
 10
7.623936541895343
 20
6.139209832797727
 30
0.0
 40
0.8344519999999989
 50
357.9023237498946
 51
33.42512374989458
  0
ARC
  5
505A
  8
WHITE
  6
CONTINUOUS
 10
11.02318797283833
 20
8.382922659304725
 30
0.0
 40
3.238570999999999
 50
202.3237237498944
 51
213.4278237498943
  0
ARC
  5
505B
  8
WHITE
  6
CONTINUOUS
 10
10.27609176764034
 20
8.076117572354129
 30
0.0
 40
2.430905999999998
 50
185.6134237498945
 51
202.3228237498946
  0
ARC
  5
505C
  8
WHITE
  6
CONTINUOUS
 10
6.122070977056598
 20
7.667886965468838
 30
0.0
 40
1.743091999999998
 50
5.611623749894387
 51
24.7059237498944
  0
ARC
  5
505D
  8
WHITE
  6
CONTINUOUS
 10
-2.513306795919302
 20
3.694891868829835
 30
0.0
 40
11.24858
 50
24.70632374989453
 51
29.94232374989455
  0
ARC
  5
505E
  8
WHITE
  6
CONTINUOUS
 10
0.515013813741863
 20
5.439203157141174
 30
0.0
 40
7.753836999999997
 50
29.94252374989454
 51
38.52612374989445
  0
ARC
  5
505F
  8
WHITE
  6
CONTINUOUS
 10
7.556588447188585
 20
11.04554702343591
 30
0.0
 40
1.246925000000002
 50
194.9527237498943
 51
218.5253237498943
  0
ARC
  5
5060
  8
WHITE
  6
CONTINUOUS
 10
8.293779299277293
 20
11.24240486858491
 30
0.0
 40
2.009971
 50
181.7469237498944
 51
194.9523237498944
  0
LINE
  5
5061
  8
WHITE
  6
CONTINUOUS
 10
6.284734164973319
 20
11.18113266910198
 30
0.0
 11
6.368156916640213
 21
11.03265548363457
 31
0.0
  0
LINE
  5
5062
  8
WHITE
  6
CONTINUOUS
 10
6.368156916640213
 20
11.03265548363457
 30
0.0
 11
6.295361489779413
 21
11.27428624373798
 31
0.0
  0
LINE
  5
5063
  8
WHITE
  6
CONTINUOUS
 10
6.295361489779413
 20
11.27428624373798
 30
0.0
 11
6.314840584077967
 21
11.45957089443876
 31
0.0
  0
ARC
  5
5064
  8
WHITE
  6
CONTINUOUS
 10
6.324762799345333
 20
11.45850522836174
 30
0.0
 40
0.0099719999999993
 50
47.82572374989062
 51
173.8693237498906
  0
LINE
  5
5065
  8
WHITE
  6
CONTINUOUS
 10
6.331457930927865
 20
11.46589303677106
 30
0.0
 11
6.398190251515697
 21
11.40529830524295
 31
0.0
  0
ARC
  5
5066
  8
WHITE
  6
CONTINUOUS
 10
6.404885383098229
 20
11.41268611365227
 30
0.0
 40
0.0099760000000005
 50
227.8114237498433
 51
9.3121237498433
  0
LINE
  5
5067
  8
WHITE
  6
CONTINUOUS
 10
6.414873162932228
 20
11.41432987579677
 30
0.0
 11
6.324085483520054
 21
11.98504514426866
 31
0.0
  0
LINE
  5
5068
  8
WHITE
  6
CONTINUOUS
 10
6.324085483520054
 20
11.98504514426866
 30
0.0
 11
6.422932331254447
 21
11.87907996369989
 31
0.0
  0
ARC
  5
5069
  8
WHITE
  6
CONTINUOUS
 10
6.430239330846224
 20
11.88588380503885
 30
0.0
 40
0.0099819999999993
 50
222.9384237499029
 51
344.5095237499029
  0
LINE
  5
506A
  8
WHITE
  6
CONTINUOUS
 10
6.439877062782539
 20
11.88321228428772
 30
0.0
 11
6.524583020055655
 21
12.17649434443196
 31
0.0
  0
LINE
  5
506B
  8
WHITE
  6
CONTINUOUS
 10
6.524583020055655
 20
12.17649434443196
 30
0.0
 11
6.547190688854119
 21
12.63944495077296
 31
0.0
  0
ARC
  5
506C
  8
WHITE
  6
CONTINUOUS
 10
6.557197104965159
 20
12.63898534592876
 30
0.0
 40
0.010016999999999
 50
38.46982374987607
 51
177.3469237498759
  0
LINE
  5
506D
  8
WHITE
  6
CONTINUOUS
 10
6.565014529376629
 20
12.6451876338591
 30
0.0
 11
6.615892957462105
 21
12.5806733497388
 31
0.0
  0
ARC
  5
506E
  8
WHITE
  6
CONTINUOUS
 10
6.623713673750029
 20
12.5868850803144
 30
0.0
 40
0.0099799999999971
 50
218.4541237498853
 51
352.2473237498852
  0
LINE
  5
506F
  8
WHITE
  6
CONTINUOUS
 10
6.633733002366153
 20
12.58552080245346
 30
0.0
 11
6.65677480369968
 21
12.75845425407954
 31
0.0
  0
ARC
  5
5070
  8
WHITE
  6
CONTINUOUS
 10
6.6666959810027
 20
12.75708183252558
 30
0.0
 40
0.0100120000000012
 50
53.11422374986583
 51
172.1649237498659
  0
LINE
  5
5071
  8
WHITE
  6
CONTINUOUS
 10
6.672687677015777
 20
12.76506434960273
 30
0.0
 11
6.751307309074566
 21
12.70533467644992
 31
0.0
  0
LINE
  5
5072
  8
WHITE
  6
CONTINUOUS
 10
6.751307309074566
 20
12.70533467644992
 30
0.0
 11
6.689450917456657
 21
12.86980380095666
 31
0.0
  0
ARC
  5
5073
  8
WHITE
  6
CONTINUOUS
 10
6.743079310163136
 20
12.88994243287937
 30
0.0
 40
0.0572840000000003
 50
91.37630374988879
 51
200.5756237498888
  0
ARC
  5
5074
  8
WHITE
  6
CONTINUOUS
 10
6.759557075301249
 20
12.16549048322636
 30
0.0
 40
0.7819329999999993
 50
66.59899374989431
 51
91.30811374989433
  0
ARC
  5
5075
  8
WHITE
  6
CONTINUOUS
 10
2.820641101046256
 20
3.066094822782757
 30
0.0
 40
10.69725999999999
 50
63.97710374989443
 51
66.59375374989446
  0
ARC
  5
5076
  8
WHITE
  6
CONTINUOUS
 10
-0.8256462180447883
 20
-4.402471530598651
 30
0.0
 40
19.00835
 50
63.58393374989444
 51
63.97727374989442
  0
ARC
  5
5077
  8
WHITE
  6
CONTINUOUS
 10
7.677554148372419
 20
12.71515288355293
 30
0.0
 40
0.1048770000000001
 50
243.6047237498934
 51
309.5113237498934
  0
ARC
  5
5078
  8
WHITE
  6
CONTINUOUS
 10
8.591969810911525
 20
11.60530039042461
 30
0.0
 40
1.333162
 50
125.0822637498942
 51
129.4832837498942
  0
ARC
  5
5079
  8
WHITE
  6
CONTINUOUS
 10
8.178148225389702
 20
13.21861415093624
 30
0.0
 40
0.6301159999999993
 50
235.9933237498948
 51
258.6341237498946
  0
ARC
  5
507A
  8
WHITE
  6
CONTINUOUS
 10
8.105280738656813
 20
12.85588430742012
 30
0.0
 40
0.2602350000000002
 50
258.6242237498936
 51
302.7797237498936
  0
ARC
  5
507B
  8
WHITE
  6
CONTINUOUS
 10
9.61291979077274
 20
10.51460589647985
 30
0.0
 40
2.524459000000001
 50
113.1387437498945
 51
122.7789337498945
  0
ARC
  5
507C
  8
WHITE
  6
CONTINUOUS
 10
8.945473030941475
 20
12.07646190872643
 30
0.0
 40
0.8259930000000004
 50
100.2136937498945
 51
113.1384037498946
  0
ARC
  5
507D
  8
WHITE
  6
CONTINUOUS
 10
8.77605432227362
 20
13.01694047315696
 30
0.0
 40
0.1295460000000006
 50
280.1992237498935
 51
12.35882374989352
  0
ARC
  5
507E
  8
WHITE
  6
CONTINUOUS
 10
8.362156246072782
 20
12.92599152309573
 30
0.0
 40
0.5533090000000009
 50
12.38492374989425
 51
47.45082374989435
  0
ARC
  5
507F
  8
WHITE
  6
CONTINUOUS
 10
10.25938428553394
 20
14.99233619366315
 30
0.0
 40
2.251878000000001
 50
216.5231237498944
 51
227.4413237498945
  0
ARC
  5
5080
  8
WHITE
  6
CONTINUOUS
 10
54.86019739099045
 20
48.01995984776573
 30
0.0
 40
57.7501
 50
215.7854237498945
 51
216.5206237498944
  0
ARC
  5
5081
  8
WHITE
  6
CONTINUOUS
 10
8.453689935554355
 20
14.5684955015962
 30
0.0
 40
0.5437480000000026
 50
173.2671237498942
 51
215.7829237498944
  0
ARC
  5
5082
  8
WHITE
  6
CONTINUOUS
 10
7.526012049311316
 20
14.67796704847333
 30
0.0
 40
0.3903449999999975
 50
353.273223749895
 51
40.99052374989485
  0
ARC
  5
5083
  8
WHITE
  6
CONTINUOUS
 10
-146.2776542903267
 20
-118.9681669575139
 30
0.0
 40
204.1472
 50
40.98872374989444
 51
41.26552374989455
  0
ARC
  5
5084
  8
WHITE
  6
CONTINUOUS
 10
4.607481664224917
 20
13.42669071155674
 30
0.0
 40
3.411627999999999
 50
41.26562374989433
 51
45.35412374989433
  0
ARC
  5
5085
  8
WHITE
  6
CONTINUOUS
 10
7.238937995426444
 20
16.09088810521574
 30
0.0
 40
0.3329849999999992
 50
159.2315597498944
 51
225.3547237498945
  0
ARC
  5
5086
  8
WHITE
  6
CONTINUOUS
 10
8.764053311251711
 20
15.51271418930881
 30
0.0
 40
1.964008
 50
144.9643637498943
 51
159.2369767498943
  0
ARC
  5
5087
  8
WHITE
  6
CONTINUOUS
 10
4.400071556455171
 20
18.57244882504157
 30
0.0
 40
3.365768999999998
 50
324.9644237498943
 51
329.0185237498943
  0
ARC
  5
5088
  8
WHITE
  6
CONTINUOUS
 10
7.17814863279207
 20
16.90443249465648
 30
0.0
 40
0.1253769999999968
 50
329.0173237498952
 51
32.54322374989531
  0
ARC
  5
5089
  8
WHITE
  6
CONTINUOUS
 10
7.218201443514612
 20
16.92998159548652
 30
0.0
 40
0.0778680000000004
 50
32.551923749899
 51
106.654773749899
  0
ARC
  5
508A
  8
WHITE
  6
CONTINUOUS
 10
14.72846092752603
 20
-8.092428952070963
 30
0.0
 40
26.20305
 50
106.7065237498944
 51
107.3093137498944
  0
ARC
  5
508B
  8
WHITE
  6
CONTINUOUS
 10
7.526484153271053
 20
15.01730478748543
 30
0.0
 40
1.997134
 50
107.3099437498946
 51
138.2744737498946
  0
ARC
  5
508C
  8
WHITE
  6
CONTINUOUS
 10
6.028446451542916
 20
16.3532180491537
 30
0.0
 40
0.0100489999999978
 50
204.9989237498718
 51
318.2000237498719
  0
ARC
  5
508D
  8
WHITE
  6
CONTINUOUS
 10
3.815583198039036
 20
15.32888352064641
 30
0.0
 40
2.428457000000001
 50
24.83882374989441
 51
43.61102374989451
  0
ARC
  5
508E
  8
WHITE
  6
CONTINUOUS
 10
4.926081983452018
 20
16.38680478449184
 30
0.0
 40
0.8946360000000002
 50
43.61082374989457
 51
67.44223374989448
  0
ARC
  5
508F
  8
WHITE
  6
CONTINUOUS
 10
5.193895211093537
 20
17.03450945649073
 30
0.0
 40
0.1937161491355858
 50
67.1041064625642
 51
146.5271566212124
  0
ARC
  5
5090
  8
WHITE
  6
CONTINUOUS
 10
16.36247141457377
 20
5.315006245199925
 30
0.0
 40
4.801359449241286
 50
251.285951678817
 51
305.7788778833032
  0
ARC
  5
5091
  8
WHITE
  6
CONTINUOUS
 10
14.78645652246412
 20
0.570360280532114
 30
0.0
 40
0.2002759999999993
 50
79.78479374989469
 51
134.8088237498947
  0
ARC
  5
5092
  8
WHITE
  6
CONTINUOUS
 10
14.46035038078498
 20
0.8986518812396955
 30
0.0
 40
0.2624450000000007
 50
262.6501237498935
 51
314.8079237498937
  0
ARC
  5
5093
  8
WHITE
  6
CONTINUOUS
 10
14.41059754431744
 20
0.5130364408532415
 30
0.0
 40
0.1264730000000003
 50
82.64401374989197
 51
133.214693749892
  0
ARC
  5
5094
  8
WHITE
  6
CONTINUOUS
 10
14.20398528795603
 20
0.7330428017186677
 30
0.0
 40
0.1753989999999999
 50
270.1265237498924
 51
313.1926237498925
  0
ARC
  5
5095
  8
WHITE
  6
CONTINUOUS
 10
14.20492303442493
 20
0.3559189293006515
 30
0.0
 40
0.2017110000000006
 50
90.15561374989322
 51
137.6276937498932
  0
ARC
  5
5096
  8
WHITE
  6
CONTINUOUS
 10
13.94091853139052
 20
0.5968450832535659
 30
0.0
 40
0.155642
 50
260.4894237498958
 51
317.6029237498957
  0
ARC
  5
5097
  8
WHITE
  6
CONTINUOUS
 10
13.89643258538425
 20
0.3314144021541008
 30
0.0
 40
0.1135290000000006
 50
80.48020374989629
 51
121.4578637498963
  0
ARC
  5
5098
  8
WHITE
  6
CONTINUOUS
 10
12.42433393811252
 20
2.736484829205399
 30
0.0
 40
2.706347
 50
291.6089237498944
 51
301.4705237498944
  0
ARC
  5
5099
  8
WHITE
  6
CONTINUOUS
 10
13.76827826985833
 20
-0.6563248989208752
 30
0.0
 40
0.9429290000000004
 50
111.6103737498942
 51
128.7294437498942
  0
ARC
  5
509A
  8
WHITE
  6
CONTINUOUS
 10
13.11868393462904
 20
0.1537028086311736
 30
0.0
 40
0.095336000000001
 50
198.6828237498958
 51
308.7082237498957
  0
ARC
  5
509B
  8
WHITE
  6
CONTINUOUS
 10
12.21416058777913
 20
1.565513666298884
 30
0.0
 40
1.656293999999998
 50
281.5084237498946
 51
299.4453237498946
  0
ARC
  5
509C
  8
WHITE
  6
CONTINUOUS
 10
12.45971026811752
 20
0.2948768385014624
 30
0.0
 40
0.3623936588018406
 50
198.87090844703
 51
283.5473864146364
  0
ARC
  5
509D
  8
WHITE
  6
CONTINUOUS
 10
13.65433856187085
 20
1.635440263278063
 30
0.0
 40
0.0865049999999993
 50
251.6972237498962
 51
323.2483237498962
  0
ARC
  5
509E
  8
WHITE
  6
CONTINUOUS
 10
13.63878736992637
 20
1.588219660855966
 30
0.0
 40
0.0368430000000003
 50
193.6130237498926
 51
251.6079237498927
  0
ARC
  5
509F
  8
WHITE
  6
CONTINUOUS
 10
16.55501303447936
 20
2.296716617122126
 30
0.0
 40
3.037970999999997
 50
191.4317237498945
 51
193.6548237498946
  0
ARC
  5
50A0
  8
WHITE
  6
CONTINUOUS
 10
13.62700460100543
 20
1.704669806916652
 30
0.0
 40
0.0506789999999994
 50
63.81186374988985
 51
191.4696237498899
  0
ARC
  5
50A1
  8
WHITE
  6
CONTINUOUS
 10
13.56072603505087
 20
1.570355839247583
 30
0.0
 40
0.2004920000000025
 50
34.80372374989432
 51
63.75537374989421
  0
ARC
  5
50A2
  8
WHITE
  6
CONTINUOUS
 10
13.65434866289139
 20
1.635438859930671
 30
0.0
 40
0.0865060000000001
 50
323.2467237498971
 51
34.80122374989703
  0
LINE
  5
50A3
  8
WHITE
  6
CONTINUOUS
 10
13.72365264177288
 20
1.583678985199411
 30
0.0
 11
13.72222529829757
 21
1.593558487798408
 31
0.0
  0
LINE
  5
50A4
  8
WHITE
  6
CONTINUOUS
 10
13.52486583671096
 20
1.955906417802488
 30
0.0
 11
13.53707754154155
 21
1.933369361958157
 31
0.0
  0
ARC
  5
50A5
  8
WHITE
  6
CONTINUOUS
 10
13.58151329160278
 20
1.938773885757312
 30
0.0
 40
0.044758000000001
 50
186.9369237498946
 51
219.5189237498946
  0
ARC
  5
50A6
  8
WHITE
  6
CONTINUOUS
 10
13.51732571598705
 20
1.885794829776904
 30
0.0
 40
0.0384810000000005
 50
313.8866237498968
 51
39.55662374989682
  0
ARC
  5
50A7
  8
WHITE
  6
CONTINUOUS
 10
13.2758753528356
 20
2.137131684913666
 30
0.0
 40
0.387006000000001
 50
305.3494237498953
 51
313.8539237498952
  0
ARC
  5
50A8
  8
WHITE
  6
CONTINUOUS
 10
13.47033678704434
 20
1.862950780709008
 30
0.0
 40
0.0509000000000005
 50
221.9654237498957
 51
305.3760237498958
  0
ARC
  5
50A9
  8
WHITE
  6
CONTINUOUS
 10
13.76563955329825
 20
2.128798931396176
 30
0.0
 40
0.4483659999999992
 50
211.0866237498944
 51
221.9917237498944
  0
ARC
  5
50AA
  8
WHITE
  6
CONTINUOUS
 10
13.41925594448073
 20
1.91995830431766
 30
0.0
 40
0.0437859999999999
 50
129.7484137499004
 51
211.0935237499003
  0
ARC
  5
50AB
  8
WHITE
  6
CONTINUOUS
 10
13.57451701036725
 20
1.732458912209888
 30
0.0
 40
0.2871739999999993
 50
113.255363749893
 51
129.645983749893
  0
ARC
  5
50AC
  8
WHITE
  6
CONTINUOUS
 10
13.47712380514205
 20
1.959153481348546
 30
0.0
 40
0.0404840000000002
 50
28.48882374989423
 51
113.2915237498942
  0
LINE
  5
50AD
  8
WHITE
  6
CONTINUOUS
 10
13.51266258696269
 20
1.978437348976799
 30
0.0
 11
13.52487495016856
 21
1.955902181661521
 31
0.0
  0
LINE
  5
50AE
  8
WHITE
  6
CONTINUOUS
 10
13.52487495016856
 20
1.955902181661521
 30
0.0
 11
13.51533796744984
 21
1.958771564978974
 31
0.0
  0
LINE
  5
50AF
  8
WHITE
  6
CONTINUOUS
 10
13.2859124578567
 20
2.068956836444476
 30
0.0
 11
13.26189863393508
 21
2.0704289389074
 31
0.0
  0
ARC
  5
50B0
  8
WHITE
  6
CONTINUOUS
 10
13.26385348825539
 20
2.102859984736766
 30
0.0
 40
0.0324880000000019
 50
191.2630237498927
 51
266.5441237498926
  0
ARC
  5
50B1
  8
WHITE
  6
CONTINUOUS
 10
12.86818178353366
 20
2.024762416224043
 30
0.0
 40
0.3708650000000001
 50
11.15722374989455
 51
18.29222374989454
  0
ARC
  5
50B2
  8
WHITE
  6
CONTINUOUS
 10
13.29808010205319
 20
2.166832547479995
 30
0.0
 40
0.0818820000000008
 50
130.1814537498987
 51
198.2639237498987
  0
ARC
  5
50B3
  8
WHITE
  6
CONTINUOUS
 10
13.27703977008966
 20
2.191749524320381
 30
0.0
 40
0.0493079999999977
 50
48.90502374990424
 51
130.1843937499041
  0
ARC
  5
50B4
  8
WHITE
  6
CONTINUOUS
 10
13.19747523728248
 20
2.100555439927943
 30
0.0
 40
0.1703109999999999
 50
21.26952374989465
 51
48.89832374989476
  0
ARC
  5
50B5
  8
WHITE
  6
CONTINUOUS
 10
13.27806023110475
 20
2.131855372190843
 30
0.0
 40
0.0838239999999984
 50
328.6450237498927
 51
21.31252374989284
  0
ARC
  5
50B6
  8
WHITE
  6
CONTINUOUS
 10
13.31254916712326
 20
2.110823838050141
 30
0.0
 40
0.0434489999999993
 50
266.4158237498937
 51
328.6633237498937
  0
LINE
  5
50B7
  8
WHITE
  6
CONTINUOUS
 10
13.30984053579927
 20
2.067481796792828
 30
0.0
 11
13.28592222968961
 21
2.068954488832556
 31
0.0
  0
LINE
  5
50B8
  8
WHITE
  6
CONTINUOUS
 10
13.28592222968961
 20
2.068954488832556
 30
0.0
 11
13.29332895833295
 21
2.075558354882364
 31
0.0
  0
LINE
  5
50B9
  8
WHITE
  6
CONTINUOUS
 10
13.12079356070063
 20
0.1829324751164041
 30
0.0
 11
13.28997986811659
 21
0.4199602907920124
 31
0.0
  0
ARC
  5
50BA
  8
WHITE
  6
CONTINUOUS
 10
16.85123264030328
 20
-2.121463585980339
 30
0.0
 40
4.375080999999998
 50
137.7950337498944
 51
144.4871137498944
  0
ARC
  5
50BB
  8
WHITE
  6
CONTINUOUS
 10
12.75524733013864
 20
1.593184863359708
 30
0.0
 40
1.154428999999999
 50
317.7953237498945
 51
336.9466237498946
  0
ARC
  5
50BC
  8
WHITE
  6
CONTINUOUS
 10
16.32768627764169
 20
0.0730104595496677
 30
0.0
 40
2.727977999999998
 50
146.9401537498944
 51
156.9498217498944
  0
ARC
  5
50BD
  8
WHITE
  6
CONTINUOUS
 10
13.9070060539378
 20
1.648578513298475
 30
0.0
 40
0.1602250000000018
 50
326.9516237498946
 51
47.87822374989459
  0
ARC
  5
50BE
  8
WHITE
  6
CONTINUOUS
 10
12.40560825619662
 20
-0.0132295421104267
 30
0.0
 40
2.399866999999998
 50
47.90132374989456
 51
50.65022374989456
  0
ARC
  5
50BF
  8
WHITE
  6
CONTINUOUS
 10
13.62714614189534
 20
1.907392032797725
 30
0.0
 40
0.3070299999999981
 50
347.8125237498944
 51
72.22110374989428
  0
ARC
  5
50C0
  8
WHITE
  6
CONTINUOUS
 10
13.42232031127894
 20
2.223929533219549
 30
0.0
 40
0.2995389999999982
 50
355.3592237498945
 51
84.14577374989456
  0
ARC
  5
50C1
  8
WHITE
  6
CONTINUOUS
 10
13.25783183023389
 20
2.523513567047285
 30
0.0
 40
0.1950470000000007
 50
359.5173237498942
 51
106.7344737498943
  0
ARC
  5
50C2
  8
WHITE
  6
CONTINUOUS
 10
13.16072407353231
 20
2.846322129028502
 30
0.0
 40
0.1420850000000007
 50
267.1479237498951
 51
286.753623749895
  0
LINE
  5
50C3
  8
WHITE
  6
CONTINUOUS
 10
13.09551973645242
 20
2.273578450650495
 30
0.0
 11
13.08167241828669
 21
2.261592790234111
 31
0.0
  0
ARC
  5
50C4
  8
WHITE
  6
CONTINUOUS
 10
13.06877611908953
 20
2.276515835600824
 30
0.0
 40
0.0197299999999973
 50
199.3086237498845
 51
310.8463237498846
  0
ARC
  5
50C5
  8
WHITE
  6
CONTINUOUS
 10
12.91549655533935
 20
2.222423724701386
 30
0.0
 40
0.1427140000000022
 50
19.45672374989406
 51
53.15462374989395
  0
ARC
  5
50C6
  8
WHITE
  6
CONTINUOUS
 10
13.02304812480458
 20
2.36610205685542
 30
0.0
 40
0.0368019999999986
 50
144.9742037498908
 51
233.2879237498909
  0
ARC
  5
50C7
  8
WHITE
  6
CONTINUOUS
 10
13.9341166196202
 20
1.728653041860184
 30
0.0
 40
1.148673999999996
 50
141.1031737498944
 51
145.0190337498944
  0
ARC
  5
50C8
  8
WHITE
  6
CONTINUOUS
 10
13.07155870877519
 20
2.424569693431828
 30
0.0
 40
0.0404079999999989
 50
21.05042374989473
 51
141.1020237498946
  0
ARC
  5
50C9
  8
WHITE
  6
CONTINUOUS
 10
12.75778986735459
 20
2.302782661291397
 30
0.0
 40
0.3769780000000004
 50
6.38242374989451
 51
21.19602374989452
  0
ARC
  5
50CA
  8
WHITE
  6
CONTINUOUS
 10
13.06465150708788
 20
2.337165970966186
 30
0.0
 40
0.0682199999999985
 50
310.7884237498893
 51
6.332323749889262
  0
LINE
  5
50CB
  8
WHITE
  6
CONTINUOUS
 10
13.10925980764578
 20
2.285469121136275
 30
0.0
 11
13.09552006564007
 21
2.273579394915023
 31
0.0
  0
LINE
  5
50CC
  8
WHITE
  6
CONTINUOUS
 10
13.09552006564007
 20
2.273579394915023
 30
0.0
 11
13.0961804957394
 21
2.283493560189209
 31
0.0
  0
LINE
  5
50CD
  8
WHITE
  6
CONTINUOUS
 10
12.89005665031827
 20
2.254283973170562
 30
0.0
 11
12.89704150235256
 21
2.32918213049809
 31
0.0
  0
ARC
  5
50CE
  8
WHITE
  6
CONTINUOUS
 10
12.77617058810573
 20
2.340439793227711
 30
0.0
 40
0.1213870000000019
 50
354.6801237498954
 51
43.17692374989534
  0
ARC
  5
50CF
  8
WHITE
  6
CONTINUOUS
 10
12.82505483630274
 20
2.386309259141445
 30
0.0
 40
0.0544319999999984
 50
43.17452374989856
 51
119.3259437498985
  0
ARC
  5
50D0
  8
WHITE
  6
CONTINUOUS
 10
12.82493829489576
 20
2.387706498956383
 30
0.0
 40
0.0531390000000009
 50
119.9503237498963
 51
185.8574237498964
  0
ARC
  5
50D1
  8
WHITE
  6
CONTINUOUS
 10
16.50160749114014
 20
2.803725439274786
 30
0.0
 40
3.753241000000001
 50
186.4472237498943
 51
188.0743237498943
  0
ARC
  5
50D2
  8
WHITE
  6
CONTINUOUS
 10
12.83096914301114
 20
2.282978133137908
 30
0.0
 40
0.0458680000000031
 50
188.0450237498936
 51
269.0322237498938
  0
ARC
  5
50D3
  8
WHITE
  6
CONTINUOUS
 10
12.82163182179736
 20
1.69839695471908
 30
0.0
 40
0.5388339999999999
 50
83.85221374989479
 51
89.08960374989478
  0
ARC
  5
50D4
  8
WHITE
  6
CONTINUOUS
 10
11.76836695299889
 20
1.592740948378077
 30
0.0
 40
0.9987010000000035
 50
344.6177237498945
 51
16.94892374989435
  0
ARC
  5
50D5
  8
WHITE
  6
CONTINUOUS
 10
10.7833840539378
 20
1.863849513298474
 30
0.0
 40
2.020285999999998
 50
331.7796237498944
 51
344.6142237498943
  0
ARC
  5
50D6
  8
WHITE
  6
CONTINUOUS
 10
15.26647633735052
 20
-0.5419060002952154
 30
0.0
 40
3.067476999999999
 50
151.7814407498944
 51
157.6658517498944
  0
ARC
  5
50D7
  8
WHITE
  6
CONTINUOUS
 10
12.76754991073464
 20
0.4847498550048286
 30
0.0
 40
0.365859000000002
 50
157.6703567498948
 51
218.7657237498948
  0
ARC
  5
50D8
  8
WHITE
  6
CONTINUOUS
 10
12.63835902636943
 20
0.380978131722749
 30
0.0
 40
0.2001970000000004
 50
218.7609237498931
 51
299.3804237498931
  0
ARC
  5
50D9
  8
WHITE
  6
CONTINUOUS
 10
13.124055581928
 20
-0.4818852745093896
 30
0.0
 40
0.7900499999999995
 50
107.6901137498951
 51
119.373033749895
  0
ARC
  5
50DA
  8
WHITE
  6
CONTINUOUS
 10
12.78597991204095
 20
0.578109362720161
 30
0.0
 40
0.3225399999999996
 50
287.6873237498943
 51
328.0168237498943
  0
ARC
  5
50DB
  8
WHITE
  6
CONTINUOUS
 10
18.41539854543325
 20
-2.937331458806579
 30
0.0
 40
6.314282
 50
145.0734537498944
 51
148.0161337498944
  0
ARC
  5
50DC
  8
WHITE
  6
CONTINUOUS
 10
13.88730710741446
 20
0.2246762978950176
 30
0.0
 40
0.7914629999999983
 50
130.2790137498944
 51
145.0762237498944
  0
ARC
  5
50DD
  8
WHITE
  6
CONTINUOUS
 10
12.97231100835338
 20
1.304612462815411
 30
0.0
 40
0.6240099999999987
 50
310.266323749894
 51
338.9551237498939
  0
ARC
  5
50DE
  8
WHITE
  6
CONTINUOUS
 10
13.33674600288323
 20
1.164367336757449
 30
0.0
 40
0.2335300000000025
 50
338.9609237498942
 51
55.59252374989437
  0
ARC
  5
50DF
  8
WHITE
  6
CONTINUOUS
 10
13.56620848153339
 20
1.499323038784935
 30
0.0
 40
0.1724330000000006
 50
195.7674237498939
 51
235.5789237498939
  0
ARC
  5
50E0
  8
WHITE
  6
CONTINUOUS
 10
12.95440876347652
 20
1.326470954011494
 30
0.0
 40
0.463283999999997
 50
15.77962374989486
 51
48.91212374989487
  0
ARC
  5
50E1
  8
WHITE
  6
CONTINUOUS
 10
14.24988781869491
 20
2.812355748895156
 30
0.0
 40
1.508042999999999
 50
223.2327237498945
 51
228.9173237498944
  0
ARC
  5
50E2
  8
WHITE
  6
CONTINUOUS
 10
10.39361953762265
 20
-0.8134101611878499
 30
0.0
 40
3.785054000000001
 50
43.23652374989438
 51
45.65312374989451
  0
ARC
  5
50E3
  8
WHITE
  6
CONTINUOUS
 10
12.78974898859557
 20
1.637957783620967
 30
0.0
 40
0.357159999999999
 50
45.65572374989468
 51
90.05965374989467
  0
ARC
  5
50E4
  8
WHITE
  6
CONTINUOUS
 10
12.90294873076457
 20
2.394670573306641
 30
0.0
 40
0.5452280000000019
 50
176.9106237498946
 51
221.1014237498947
  0
ARC
  5
50E5
  8
WHITE
  6
CONTINUOUS
 10
11.82085063045161
 20
2.453035918333173
 30
0.0
 40
0.5384250000000019
 50
356.9147237498942
 51
37.43502374989439
  0
ARC
  5
50E6
  8
WHITE
  6
CONTINUOUS
 10
12.11986528626872
 20
2.681929479253025
 30
0.0
 40
0.1618010000000003
 50
37.43792374989484
 51
115.4933337498949
  0
ARC
  5
50E7
  8
WHITE
  6
CONTINUOUS
 10
12.13860191601427
 20
2.642779573687644
 30
0.0
 40
0.2051080000000002
 50
115.5088437498955
 51
181.2834237498956
  0
ARC
  5
50E8
  8
WHITE
  6
CONTINUOUS
 10
11.98214278252673
 20
2.388824691526802
 30
0.0
 40
0.254053
 50
101.0288737498957
 51
188.5628237498958
  0
ARC
  5
50E9
  8
WHITE
  6
CONTINUOUS
 10
11.91925209807986
 20
2.123245336512515
 30
0.0
 40
0.2955279999999998
 50
129.5856737498948
 51
179.6363237498947
  0
ARC
  5
50EA
  8
WHITE
  6
CONTINUOUS
 10
11.70772847102856
 20
1.977449289240779
 30
0.0
 40
0.1698980000000004
 50
119.638603749896
 51
224.325123749896
  0
ARC
  5
50EB
  8
WHITE
  6
CONTINUOUS
 10
13.08234311802815
 20
3.321302423082111
 30
0.0
 40
2.092203
 50
224.3493237498946
 51
232.3518237498944
  0
ARC
  5
50EC
  8
WHITE
  6
CONTINUOUS
 10
11.45463566934125
 20
1.21133136677514
 30
0.0
 40
0.572630999999997
 50
28.42412374989427
 51
52.35352374989427
  0
ARC
  5
50ED
  8
WHITE
  6
CONTINUOUS
 10
-3.762492145436262
 20
-7.023922976754593
 30
0.0
 40
17.87528
 50
26.85692374989454
 51
28.42162374989443
  0
ARC
  5
50EE
  8
WHITE
  6
CONTINUOUS
 10
10.76172779844726
 20
1.919655879307456
 30
0.0
 40
1.881514999999998
 50
324.8906237498943
 51
343.1295237498944
  0
ARC
  5
50EF
  8
WHITE
  6
CONTINUOUS
 10
11.25682126977668
 20
1.769587069346915
 30
0.0
 40
1.364142999999999
 50
343.1266237498945
 51
9.59802374989455
  0
ARC
  5
50F0
  8
WHITE
  6
CONTINUOUS
 10
13.27455565252265
 20
2.110805829940192
 30
0.0
 40
0.6822650000000016
 50
138.7570137498944
 51
189.5995237498944
  0
ARC
  5
50F1
  8
WHITE
  6
CONTINUOUS
 10
12.02976431372825
 20
3.056733485185806
 30
0.0
 40
0.0653199999999989
 50
213.0352237498932
 51
260.6404237498931
  0
ARC
  5
50F2
  8
WHITE
  6
CONTINUOUS
 10
12.13324115122996
 20
3.124352994180223
 30
0.0
 40
0.1890109999999983
 50
175.8633237498949
 51
213.1169237498949
  0
ARC
  5
50F3
  8
WHITE
  6
CONTINUOUS
 10
12.02643665254985
 20
3.132094173850932
 30
0.0
 40
0.0818990000000003
 50
75.99893374989343
 51
175.8774237498934
  0
ARC
  5
50F4
  8
WHITE
  6
CONTINUOUS
 10
12.02899220726479
 20
3.142432106385968
 30
0.0
 40
0.0712629999999991
 50
356.7567237498943
 51
75.98377374989428
  0
LINE
  5
50F5
  8
WHITE
  6
CONTINUOUS
 10
12.10015121578293
 20
3.13840075044639
 30
0.0
 11
12.09612301472159
 21
3.066940937927672
 31
0.0
  0
ARC
  5
50F6
  8
WHITE
  6
CONTINUOUS
 10
12.03133779523593
 20
3.058057297840588
 30
0.0
 40
0.0653909999999991
 50
306.3929237498955
 51
7.80772374989546
  0
ARC
  5
50F7
  8
WHITE
  6
CONTINUOUS
 10
12.02976398454061
 20
3.056732540921281
 30
0.0
 40
0.0653420000000006
 50
260.6398237498916
 51
308.1941237498916
  0
LINE
  5
50F8
  8
WHITE
  6
CONTINUOUS
 10
12.0191359910721
 20
2.992284079497958
 30
0.0
 11
12.02726178429568
 21
2.998095045724654
 31
0.0
  0
ARC
  5
50F9
  8
WHITE
  6
CONTINUOUS
 10
11.80579331827308
 20
2.949475918278743
 30
0.0
 40
0.1214969999999996
 50
172.1162237498938
 51
199.6032237498937
  0
ARC
  5
50FA
  8
WHITE
  6
CONTINUOUS
 10
11.78305275074009
 20
2.952565003786976
 30
0.0
 40
0.0985329999999994
 50
122.4209337498941
 51
172.0830237498941
  0
ARC
  5
50FB
  8
WHITE
  6
CONTINUOUS
 10
11.75709331593262
 20
2.993415341955439
 30
0.0
 40
0.0501489999999998
 50
39.77692374989395
 51
122.410483749894
  0
ARC
  5
50FC
  8
WHITE
  6
CONTINUOUS
 10
11.70864107736956
 20
2.953250620442304
 30
0.0
 40
0.1129919999999971
 50
342.7465237498939
 51
39.70962374989387
  0
LINE
  5
50FD
  8
WHITE
  6
CONTINUOUS
 10
11.81661011582377
 20
2.919717566312489
 30
0.0
 11
11.79753275498557
 21
2.858554653861813
 31
0.0
  0
ARC
  5
50FE
  8
WHITE
  6
CONTINUOUS
 10
11.76696774483453
 20
2.885738375157228
 30
0.0
 40
0.0409119999999995
 50
281.070823749893
 51
318.356123749893
  0
ARC
  5
50FF
  8
WHITE
  6
CONTINUOUS
 10
11.76351499213347
 20
2.903994492016667
 30
0.0
 40
0.0594339999999989
 50
227.1460237498984
 51
280.9560237498983
  0
ARC
  5
5100
  8
WHITE
  6
CONTINUOUS
 10
11.80579364746073
 20
2.949476862543271
 30
0.0
 40
0.1215130000000023
 50
199.6030237498927
 51
227.1143237498927
  0
LINE
  5
5101
  8
WHITE
  6
CONTINUOUS
 10
11.69134544558292
 20
2.908711732702475
 30
0.0
 11
11.70030652191983
 21
2.904433402317389
 31
0.0
  0
ARC
  5
5102
  8
WHITE
  6
CONTINUOUS
 10
11.54402357022573
 20
2.688287843874065
 30
0.0
 40
0.0930590000000024
 50
335.8129237498941
 51
9.433023749894229
  0
LINE
  5
5103
  8
WHITE
  6
CONTINUOUS
 10
11.62895963684703
 20
2.65013973735617
 30
0.0
 11
11.60683037338263
 21
2.601031337519457
 31
0.0
  0
ARC
  5
5104
  8
WHITE
  6
CONTINUOUS
 10
11.58257745494474
 20
2.611903037995713
 30
0.0
 40
0.0265749999999992
 50
238.9994237499032
 51
335.8548237499031
  0
ARC
  5
5105
  8
WHITE
  6
CONTINUOUS
 10
11.66707593354046
 20
2.751668052201726
 30
0.0
 40
0.1899089999999974
 50
221.5513237498969
 51
238.8647237498969
  0
ARC
  5
5106
  8
WHITE
  6
CONTINUOUS
 10
11.62498541303427
 20
2.714289415462035
 30
0.0
 40
0.1335859999999987
 50
182.4529237498937
 51
221.5307237498938
  0
ARC
  5
5107
  8
WHITE
  6
CONTINUOUS
 10
11.55521596244236
 20
2.711340285403523
 30
0.0
 40
0.0638279999999993
 50
102.5452837499007
 51
182.4863237499008
  0
ARC
  5
5108
  8
WHITE
  6
CONTINUOUS
 10
11.55766623148577
 20
2.700871186941146
 30
0.0
 40
0.0744879999999989
 50
43.1692237498966
 51
102.6335237498966
  0
ARC
  5
5109
  8
WHITE
  6
CONTINUOUS
 10
11.54403301287099
 20
2.688284551997617
 30
0.0
 40
0.0930169999999987
 50
9.433123749895366
 51
43.07912374989527
  0
LINE
  5
510A
  8
WHITE
  6
CONTINUOUS
 10
11.63583033593535
 20
2.703537116346507
 30
0.0
 11
11.62765056426573
 21
2.709327527422845
 31
0.0
  0
LINE
  5
510B
  8
WHITE
  6
CONTINUOUS
 10
11.39226933237024
 20
2.376289064040073
 30
0.0
 11
11.37735866844317
 21
2.391388017720846
 31
0.0
  0
ARC
  5
510C
  8
WHITE
  6
CONTINUOUS
 10
11.42018885861871
 20
2.433774265945093
 30
0.0
 40
0.0602559999999993
 50
187.2684237498938
 51
224.7046237498939
  0
ARC
  5
510D
  8
WHITE
  6
CONTINUOUS
 10
11.44125739262332
 20
2.436460482409924
 30
0.0
 40
0.0814209999999994
 50
141.4073237498925
 51
187.2684237498925
  0
ARC
  5
510E
  8
WHITE
  6
CONTINUOUS
 10
11.43995174526995
 20
2.436542877729009
 30
0.0
 40
0.0804319999999997
 50
85.85449374989381
 51
140.8746237498938
  0
ARC
  5
510F
  8
WHITE
  6
CONTINUOUS
 10
11.44064202215116
 20
2.437550825558645
 30
0.0
 40
0.0793419999999999
 50
35.42042374989444
 51
86.29874374989433
  0
ARC
  5
5110
  8
WHITE
  6
CONTINUOUS
 10
11.42548267448482
 20
2.426844365904268
 30
0.0
 40
0.0975559999999982
 50
341.0676237498952
 51
35.38282374989503
  0
ARC
  5
5111
  8
WHITE
  6
CONTINUOUS
 10
11.44437430556387
 20
2.420400311964961
 30
0.0
 40
0.0778749999999995
 50
288.7959237499002
 51
341.0425237499003
  0
ARC
  5
5112
  8
WHITE
  6
CONTINUOUS
 10
11.4500985481547
 20
2.403677932267042
 30
0.0
 40
0.0602429999999978
 50
224.6412237499007
 51
288.7643237499008
  0
LINE
  5
5113
  8
WHITE
  6
CONTINUOUS
 10
11.40718195362483
 20
2.361286858325009
 30
0.0
 11
11.3922683448073
 21
2.376286231246494
 31
0.0
  0
LINE
  5
5114
  8
WHITE
  6
CONTINUOUS
 10
11.3922683448073
 20
2.376286231246494
 30
0.0
 11
11.40226763739133
 21
2.376322615570892
 31
0.0
  0
LINE
  5
5115
  8
WHITE
  6
CONTINUOUS
 10
11.37549547856699
 20
2.073030552514696
 30
0.0
 11
11.36307559656945
 21
2.096762749466661
 31
0.0
  0
ARC
  5
5116
  8
WHITE
  6
CONTINUOUS
 10
11.43993673577206
 20
2.136913852882092
 30
0.0
 40
0.0867150000000029
 50
184.2021237498958
 51
207.5820237498958
  0
ARC
  5
5117
  8
WHITE
  6
CONTINUOUS
 10
11.12422147394052
 20
2.113709087689548
 30
0.0
 40
0.229409
 50
4.204123749894191
 51
14.44802374989419
  0
ARC
  5
5118
  8
WHITE
  6
CONTINUOUS
 10
11.38632287462088
 20
2.181187485457954
 30
0.0
 40
0.0412560000000007
 50
105.086633749896
 51
194.3789237498961
  0
ARC
  5
5119
  8
WHITE
  6
CONTINUOUS
 10
11.39348844375954
 20
2.154382690683153
 30
0.0
 40
0.0690260000000017
 50
42.96522374988979
 51
105.0382137498898
  0
ARC
  5
511A
  8
WHITE
  6
CONTINUOUS
 10
11.37097311590541
 20
2.133572598044701
 30
0.0
 40
0.0997570000000011
 50
354.9729237498938
 51
42.89582374989386
  0
ARC
  5
511B
  8
WHITE
  6
CONTINUOUS
 10
11.25893058260835
 20
2.143148323259018
 30
0.0
 40
0.2122610000000023
 50
333.9858237498945
 51
355.0484237498945
  0
ARC
  5
511C
  8
WHITE
  6
CONTINUOUS
 10
11.41860534429022
 20
2.065214696942508
 30
0.0
 40
0.0346139999999996
 50
207.5622237498951
 51
333.993423749895
  0
LINE
  5
511D
  8
WHITE
  6
CONTINUOUS
 10
11.38792218750699
 20
2.049196427191522
 30
0.0
 11
11.37549514937935
 21
2.07302960825017
 31
0.0
  0
LINE
  5
511E
  8
WHITE
  6
CONTINUOUS
 10
6.435633598692188
 20
0.6858085745040796
 30
0.0
 11
6.38506579333092
 21
0.5659092240890562
 31
0.0
  0
ARC
  5
511F
  8
WHITE
  6
CONTINUOUS
 10
6.896445971151028
 20
0.3505553368390917
 30
0.0
 40
0.5548759999999989
 50
157.1629717498943
 51
170.2304237498943
  0
ARC
  5
5120
  8
WHITE
  6
CONTINUOUS
 10
6.186026083656142
 20
0.3765760638223519
 30
0.0
 40
0.1772090000000031
 50
22.61192374989416
 51
93.66012374989407
  0
ARC
  5
5121
  8
WHITE
  6
CONTINUOUS
 10
6.114006511904865
 20
0.7150288431664844
 30
0.0
 40
0.172615
 50
290.5906237498954
 51
14.35042374989535
  0
ARC
  5
5122
  8
WHITE
  6
CONTINUOUS
 10
5.948463685942148
 20
0.6725721523241948
 30
0.0
 40
0.3435130000000035
 50
14.36772374989472
 51
76.22940374989474
  0
LINE
  5
5123
  8
WHITE
  6
CONTINUOUS
 10
6.233368253638449
 20
1.034084130280373
 30
0.0
 11
6.331599195045431
 21
1.032522690465436
 31
0.0
  0
ARC
  5
5124
  8
WHITE
  6
CONTINUOUS
 10
6.327558042562114
 20
0.7857457586107568
 30
0.0
 40
0.2468099999999988
 50
41.21152374989512
 51
89.06238374989512
  0
ARC
  5
5125
  8
WHITE
  6
CONTINUOUS
 10
6.268056604924329
 20
0.7336323300626599
 30
0.0
 40
0.3258090000000015
 50
9.323423749894255
 51
41.21202374989434
  0
ARC
  5
5126
  8
WHITE
  6
CONTINUOUS
 10
6.242411401223148
 20
0.7294831582025427
 30
0.0
 40
0.3517939999999986
 50
330.4986237498941
 51
9.313723749894155
  0
ARC
  5
5127
  8
WHITE
  6
CONTINUOUS
 10
5.524031013578568
 20
0.5184754936767568
 30
0.0
 40
0.378562000000001
 50
340.6602237498943
 51
57.86702374989431
  0
ARC
  5
5128
  8
WHITE
  6
CONTINUOUS
 10
5.285017807210348
 20
0.4146086185645004
 30
0.0
 40
0.4084160000000012
 50
354.9502237498944
 51
71.96848374989432
  0
ARC
  5
5129
  8
WHITE
  6
CONTINUOUS
 10
5.374376439187497
 20
0.8069629136794774
 30
0.0
 40
0.1812820000000005
 50
192.5856237498943
 51
227.1439237498944
  0
ARC
  5
512A
  8
WHITE
  6
CONTINUOUS
 10
5.138294583207088
 20
0.4736158892952087
 30
0.0
 40
0.2299309999999995
 50
329.4752237498943
 51
67.6833537498942
  0
VIEWPORT
  5
512B
 67
     1
  8
0
 10
7.8
 20
4.5
 30
0.0
 40
15.64
 41
9.0
 68
     1
 69
     1
1001
ACAD
1000
MVIEW
1002
{
1070
    16
1010
0.0
1020
0.0
1030
0.0
1020
0.0
1030
0.0
1010
0.0
1020
0.0
1030
1.0
1020
0.0
1030
1.0
1040
0.0
1040
12.0
1040
6.0
1040
4.5
1040
50.0
1040
0.0
1040
0.0
1070
    16
1070
   100
1070
     0
1070
     3
1070
     0
1070
     0
1070
     0
1070
     0
1040
0.0
1040
0.0
1040
0.0
1040
0.5
1040
0.5
1040
0.5
1040
0.5
1070
     0
1002
{
1002
}
1002
}
  0
ENDSEC
  0
EOF
