  0
SECTION
  2
HEADER
  9
$ACADVER
  1
AC1009
  9
$EXTMIN
 10
0.16902360
 20
2.31782639
 30
0.0
  9
$EXTMAX
 10
9.83097640
 20
7.68217361
 30
0.0
  0
ENDSEC
  0
SECTION
  2
TABLES
  0
TABLE
  2
LAYER
 70
1
 0
LAYER
 2
Default_Layer
 70
0
 62
1
 6
CONTINUOUS
 0
ENDTAB
 0
ENDSEC
  0
SECTION
  2
ENTITIES
  0
POLYLINE
  8
Default_Layer
 66
   1
 39
0.000000
 70
    0
  0
VERTEX
  8
0
 10
5.43952590
 20
6.38621520
  0
VERTEX
  8
0
 10
5.16746825
 20
6.30337759
  0
VERTEX
  8
0
 10
5.03456984
 20
6.24531282
  0
VERTEX
  8
0
 10
4.90917611
 20
6.17068022
  0
SEQEND
  0
POLYLINE
  8
Default_Layer
 66
   1
 39
0.000000
 70
    0
  0
VERTEX
  8
0
 10
6.92203619
 20
3.00349915
  0
VERTEX
  8
0
 10
7.04016965
 20
2.96773114
  0
VERTEX
  8
0
 10
7.15871102
 20
2.95025390
  0
VERTEX
  8
0
 10
7.39608369
 20
2.95807079
  0
VERTEX
  8
0
 10
7.63228652
 20
3.00274794
  0
VERTEX
  8
0
 10
7.86545183
 20
3.06008351
  0
SEQEND
  0
POLYLINE
  8
Default_Layer
 66
   1
 39
0.000000
 70
    0
  0
VERTEX
  8
0
 10
8.99148064
 20
5.92222343
  0
VERTEX
  8
0
 10
8.91895582
 20
6.08977324
  0
VERTEX
  8
0
 10
8.87062367
 20
6.26873507
  0
VERTEX
  8
0
 10
8.82275636
 20
6.63621520
  0
SEQEND
  0
POLYLINE
  8
Default_Layer
 66
   1
 39
0.000000
 70
    0
  0
VERTEX
  8
0
 10
7.69055471
 20
6.88107117
  0
VERTEX
  8
0
 10
7.82868697
 20
6.96208351
  0
VERTEX
  8
0
 10
7.94317484
 20
7.07265175
  0
VERTEX
  8
0
 10
8.01802960
 20
7.20908607
  0
VERTEX
  8
0
 10
8.03559809
 20
7.28584995
  0
VERTEX
  8
0
 10
8.03726253
 20
7.36769668
  0
SEQEND
  0
POLYLINE
  8
Default_Layer
 66
   1
 39
0.000000
 70
    0
  0
VERTEX
  8
0
 10
3.83150121
 20
2.78333454
  0
VERTEX
  8
0
 10
3.83693006
 20
2.99306121
  0
VERTEX
  8
0
 10
3.86077258
 20
3.20021942
  0
VERTEX
  8
0
 10
3.90804526
 20
3.40238170
  0
VERTEX
  8
0
 10
3.98376459
 20
3.59712055
  0
SEQEND
  0
POLYLINE
  8
Default_Layer
 66
   1
 39
0.000000
 70
    0
  0
VERTEX
  8
0
 10
5.52800327
 20
6.26018639
  0
VERTEX
  8
0
 10
5.34406844
 20
6.19408127
  0
VERTEX
  8
0
 10
5.18549269
 20
6.08688221
  0
VERTEX
  8
0
 10
5.05876895
 20
5.94339286
  0
VERTEX
  8
0
 10
4.97039010
 20
5.76841685
  0
SEQEND
  0
POLYLINE
  8
Default_Layer
 66
   1
 39
0.000000
 70
    0
  0
VERTEX
  8
0
 10
5.86339422
 20
3.65010409
  0
VERTEX
  8
0
 10
5.99616654
 20
3.84948576
  0
VERTEX
  8
0
 10
6.05973241
 20
3.95236093
  0
VERTEX
  8
0
 10
6.10773578
 20
4.06522754
  0
SEQEND
  0
POLYLINE
  8
Default_Layer
 66
   1
 39
0.000000
 70
    0
  0
VERTEX
  8
0
 10
1.45650121
 20
4.53693536
  0
VERTEX
  8
0
 10
1.43745237
 20
4.39927092
  0
VERTEX
  8
0
 10
1.39164793
 20
4.26851634
  0
VERTEX
  8
0
 10
1.28520492
 20
4.00915759
  0
SEQEND
  0
POLYLINE
  8
Default_Layer
 66
   1
 39
0.000000
 70
    0
  0
VERTEX
  8
0
 10
0.87059586
 20
3.02150326
  0
VERTEX
  8
0
 10
0.81938651
 20
3.25328116
  0
VERTEX
  8
0
 10
0.76205677
 20
3.48343742
  0
SEQEND
  0
POLYLINE
  8
Default_Layer
 66
   1
 39
0.000000
 70
    0
  0
VERTEX
  8
0
 10
2.20495800
 20
3.06111232
  0
VERTEX
  8
0
 10
2.33676928
 20
3.27836352
  0
VERTEX
  8
0
 10
2.51308557
 20
3.55545388
  0
VERTEX
  8
0
 10
2.60221029
 20
3.73224767
  0
VERTEX
  8
0
 10
2.66735377
 20
3.91919685
  0
VERTEX
  8
0
 10
2.71021795
 20
4.11209181
  0
VERTEX
  8
0
 10
2.73250476
 20
4.30672294
  0
VERTEX
  8
0
 10
2.73591613
 20
4.49888062
  0
VERTEX
  8
0
 10
2.72215398
 20
4.68435524
  0
VERTEX
  8
0
 10
2.69292024
 20
4.85893719
  0
VERTEX
  8
0
 10
2.64991685
 20
5.01841685
  0
VERTEX
  8
0
 10
2.57837938
 20
5.22039084
  0
VERTEX
  8
0
 10
2.52820325
 20
5.32025649
  0
VERTEX
  8
0
 10
2.46833249
 20
5.39033043
  0
VERTEX
  8
0
 10
2.36376299
 20
5.44253734
  0
VERTEX
  8
0
 10
2.25468226
 20
5.45458106
  0
VERTEX
  8
0
 10
2.14460681
 20
5.43213143
  0
VERTEX
  8
0
 10
2.03705312
 20
5.38085827
  0
VERTEX
  8
0
 10
1.93553770
 20
5.30643143
  0
VERTEX
  8
0
 10
1.84357704
 20
5.21452074
  0
VERTEX
  8
0
 10
1.76468764
 20
5.11079603
  0
VERTEX
  8
0
 10
1.70238599
 20
5.00092713
  0
SEQEND
  0
POLYLINE
  8
Default_Layer
 66
   1
 39
0.000000
 70
    0
  0
VERTEX
  8
0
 10
6.97707734
 20
2.79259380
  0
VERTEX
  8
0
 10
6.92971553
 20
2.89402520
  0
VERTEX
  8
0
 10
6.91780029
 20
2.94822555
  0
VERTEX
  8
0
 10
6.92203619
 20
3.00349915
  0
SEQEND
  0
POLYLINE
  8
Default_Layer
 66
   1
 39
0.000000
 70
    0
  0
VERTEX
  8
0
 10
5.42049298
 20
3.74321108
  0
VERTEX
  8
0
 10
5.30471117
 20
3.71551617
  0
VERTEX
  8
0
 10
5.18541068
 20
3.70565964
  0
SEQEND
  0
POLYLINE
  8
Default_Layer
 66
   1
 39
0.000000
 70
    0
  0
VERTEX
  8
0
 10
6.59899092
 20
3.40833454
  0
VERTEX
  8
0
 10
6.52279093
 20
3.67673837
  0
VERTEX
  8
0
 10
6.49610122
 20
3.81377612
  0
VERTEX
  8
0
 10
6.49919669
 20
3.95565964
  0
SEQEND
  0
POLYLINE
  8
Default_Layer
 66
   1
 39
0.000000
 70
    0
  0
VERTEX
  8
0
 10
7.81915553
 20
2.84146211
  0
VERTEX
  8
0
 10
7.85173455
 20
2.94819689
  0
VERTEX
  8
0
 10
7.86545183
 20
3.06008351
  0
SEQEND
  0
POLYLINE
  8
Default_Layer
 66
   1
 39
0.000000
 70
    0
  0
VERTEX
  8
0
 10
7.34744771
 20
7.25658557
  0
VERTEX
  8
0
 10
7.51349690
 20
7.39642768
  0
VERTEX
  8
0
 10
7.58928383
 20
7.43550953
  0
VERTEX
  8
0
 10
7.62788634
 20
7.43724108
  0
VERTEX
  8
0
 10
7.66792097
 20
7.42325224
  0
VERTEX
  8
0
 10
7.70277888
 20
7.38853431
  0
VERTEX
  8
0
 10
7.72246083
 20
7.33627155
  0
VERTEX
  8
0
 10
7.71982226
 20
7.20681337
  0
VERTEX
  8
0
 10
7.69926445
 20
7.14346888
  0
VERTEX
  8
0
 10
7.66705609
 20
7.09028141
  0
VERTEX
  8
0
 10
7.62407854
 20
7.05417643
  0
VERTEX
  8
0
 10
7.57121315
 20
7.04207940
  0
SEQEND
  0
POLYLINE
  8
Default_Layer
 66
   1
 39
0.000000
 70
    0
  0
VERTEX
  8
0
 10
7.66226253
 20
6.03436335
  0
VERTEX
  8
0
 10
7.78998635
 20
6.06073771
  0
VERTEX
  8
0
 10
7.92652776
 20
6.04561386
  0
VERTEX
  8
0
 10
8.05079253
 20
5.99027112
  0
VERTEX
  8
0
 10
8.10172921
 20
5.94791747
  0
VERTEX
  8
0
 10
8.14168640
 20
5.89598886
  0
SEQEND
  0
POLYLINE
  8
Default_Layer
 66
   1
 39
0.000000
 70
    0
  0
VERTEX
  8
0
 10
7.37985512
 20
5.37232631
  0
VERTEX
  8
0
 10
7.44060852
 20
5.37945347
  0
VERTEX
  8
0
 10
7.49435981
 20
5.36945701
  0
VERTEX
  8
0
 10
7.58443123
 20
5.31132923
  0
VERTEX
  8
0
 10
7.65721973
 20
5.22441501
  0
VERTEX
  8
0
 10
7.71987570
 20
5.13518639
  0
SEQEND
  0
POLYLINE
  8
Default_Layer
 66
   1
 39
0.000000
 70
    0
  0
VERTEX
  8
0
 10
8.88859998
 20
4.60843742
  0
VERTEX
  8
0
 10
8.88953729
 20
4.70865415
  0
VERTEX
  8
0
 10
8.87560315
 20
4.80617237
  0
VERTEX
  8
0
 10
8.84437627
 20
4.89883031
  0
VERTEX
  8
0
 10
8.79343537
 20
4.98446623
  0
SEQEND
  0
POLYLINE
  8
Default_Layer
 66
   1
 39
0.000000
 70
    0
  0
VERTEX
  8
0
 10
8.30372343
 20
4.43971314
  0
VERTEX
  8
0
 10
8.37430044
 20
4.45873674
  0
VERTEX
  8
0
 10
8.43080091
 20
4.43033279
  0
VERTEX
  8
0
 10
8.51874401
 20
4.31985717
  0
SEQEND
  0
POLYLINE
  8
Default_Layer
 66
   1
 39
0.000000
 70
    0
  0
VERTEX
  8
0
 10
8.26308557
 20
3.73909586
  0
VERTEX
  8
0
 10
8.20367766
 20
3.64244136
  0
VERTEX
  8
0
 10
8.13290458
 20
3.55971957
  0
VERTEX
  8
0
 10
8.05268350
 20
3.49102705
  0
VERTEX
  8
0
 10
7.96493155
 20
3.43646035
  0
VERTEX
  8
0
 10
7.77450371
 20
3.37009069
  0
VERTEX
  8
0
 10
7.57695826
 20
3.36138307
  0
VERTEX
  8
0
 10
7.48030932
 20
3.37889393
  0
VERTEX
  8
0
 10
7.38763243
 20
3.41110997
  0
VERTEX
  8
0
 10
7.30084475
 20
3.45812777
  0
VERTEX
  8
0
 10
7.22186344
 20
3.52004388
  0
VERTEX
  8
0
 10
7.15260564
 20
3.59695485
  0
VERTEX
  8
0
 10
7.09498850
 20
3.68895726
  0
VERTEX
  8
0
 10
7.05092918
 20
3.79614766
  0
VERTEX
  8
0
 10
7.02234483
 20
3.91862261
  0
VERTEX
  8
0
 10
7.00401814
 20
4.07580760
  0
VERTEX
  8
0
 10
6.99995841
 20
4.24384497
  0
VERTEX
  8
0
 10
7.01583674
 20
4.41915284
  0
VERTEX
  8
0
 10
7.05732426
 20
4.59814936
  0
SEQEND
  0
POLYLINE
  8
Default_Layer
 66
   1
 39
0.000000
 70
    0
  0
VERTEX
  8
0
 10
8.30423784
 20
4.29619462
  0
VERTEX
  8
0
 10
8.31254128
 20
4.36723538
  0
VERTEX
  8
0
 10
8.30372343
 20
4.43971314
  0
SEQEND
  0
POLYLINE
  8
Default_Layer
 66
   1
 39
0.000000
 70
    0
  0
VERTEX
  8
0
 10
8.30372343
 20
4.43971314
  0
VERTEX
  8
0
 10
8.22910666
 20
4.48363568
  0
VERTEX
  8
0
 10
8.17845267
 20
4.53739164
  0
VERTEX
  8
0
 10
8.14953941
 20
4.59863558
  0
VERTEX
  8
0
 10
8.14014481
 20
4.66502201
  0
VERTEX
  8
0
 10
8.14804682
 20
4.73420549
  0
VERTEX
  8
0
 10
8.17102338
 20
4.80384054
  0
VERTEX
  8
0
 10
8.25331191
 20
4.93508351
  0
SEQEND
  0
POLYLINE
  8
Default_Layer
 66
   1
 39
0.000000
 70
    0
  0
VERTEX
  8
0
 10
7.38191273
 20
3.16039215
  0
VERTEX
  8
0
 10
7.31891557
 20
3.14781567
  0
VERTEX
  8
0
 10
7.25800097
 20
3.14996490
  0
VERTEX
  8
0
 10
7.14585030
 20
3.19131380
  0
VERTEX
  8
0
 10
7.05232241
 20
3.27018542
  0
VERTEX
  8
0
 10
6.98427899
 20
3.37232631
  0
SEQEND
  0
POLYLINE
  8
Default_Layer
 66
   1
 39
0.000000
 70
    1
  0
VERTEX
  8
0
 10
5.93541068
 20
6.28230573
  0
VERTEX
  8
0
 10
5.52800327
 20
6.26018639
  0
VERTEX
  8
0
 10
5.49550811
 20
6.33200440
  0
VERTEX
  8
0
 10
5.43952590
 20
6.38621520
  0
VERTEX
  8
0
 10
5.44751371
 20
6.47747841
  0
VERTEX
  8
0
 10
5.42784846
 20
6.55645509
  0
VERTEX
  8
0
 10
5.38537091
 20
6.62227679
  0
VERTEX
  8
0
 10
5.32492182
 20
6.67407501
  0
VERTEX
  8
0
 10
5.25134197
 20
6.71098130
  0
VERTEX
  8
0
 10
5.16947212
 20
6.73212716
  0
VERTEX
  8
0
 10
5.08415304
 20
6.73664414
  0
VERTEX
  8
0
 10
5.00022549
 20
6.72366376
  0
VERTEX
  8
0
 10
4.82946392
 20
6.92812093
  0
VERTEX
  8
0
 10
4.64991685
 20
7.09249092
  0
VERTEX
  8
0
 10
4.49542466
 20
7.19285631
  0
VERTEX
  8
0
 10
4.32915624
 20
7.27124512
  0
VERTEX
  8
0
 10
4.15361624
 20
7.32842294
  0
VERTEX
  8
0
 10
3.97130931
 20
7.36515539
  0
VERTEX
  8
0
 10
3.78474011
 20
7.38220808
  0
VERTEX
  8
0
 10
3.59641328
 20
7.38034660
  0
VERTEX
  8
0
 10
3.40883347
 20
7.36033657
  0
VERTEX
  8
0
 10
3.22450533
 20
7.32294359
  0
VERTEX
  8
0
 10
3.04325646
 20
7.26790923
  0
VERTEX
  8
0
 10
2.86952854
 20
7.19650160
  0
VERTEX
  8
0
 10
2.70400232
 20
7.10969839
  0
VERTEX
  8
0
 10
2.54735852
 20
7.00847727
  0
VERTEX
  8
0
 10
2.40027789
 20
6.89381594
  0
VERTEX
  8
0
 10
2.26344116
 20
6.76669207
  0
VERTEX
  8
0
 10
2.13752906
 20
6.62808335
  0
VERTEX
  8
0
 10
2.02322233
 20
6.47896746
  0
VERTEX
  8
0
 10
1.92120172
 20
6.32032208
  0
VERTEX
  8
0
 10
1.83214794
 20
6.15312489
  0
VERTEX
  8
0
 10
1.75674174
 20
5.97835358
  0
VERTEX
  8
0
 10
1.69566386
 20
5.79698583
  0
VERTEX
  8
0
 10
1.64959502
 20
5.60999933
  0
VERTEX
  8
0
 10
1.61921598
 20
5.41837174
  0
VERTEX
  8
0
 10
1.60520745
 20
5.22308077
  0
VERTEX
  8
0
 10
1.60825018
 20
5.02510409
  0
VERTEX
  8
0
 10
1.62611984
 20
4.90748866
  0
VERTEX
  8
0
 10
1.62738937
 20
4.85288122
  0
VERTEX
  8
0
 10
1.60927899
 20
4.80802590
  0
VERTEX
  8
0
 10
1.57260251
 20
4.73689549
  0
VERTEX
  8
0
 10
1.54924000
 20
4.65731551
  0
VERTEX
  8
0
 10
1.51770255
 20
4.58531809
  0
VERTEX
  8
0
 10
1.45650121
 20
4.53693536
  0
VERTEX
  8
0
 10
1.42046645
 20
4.55611276
  0
VERTEX
  8
0
 10
1.39609392
 20
4.59338124
  0
VERTEX
  8
0
 10
1.35310615
 20
4.66862261
  0
VERTEX
  8
0
 10
1.29554200
 20
4.70825890
  0
VERTEX
  8
0
 10
1.23727227
 20
4.72637417
  0
VERTEX
  8
0
 10
1.11988899
 20
4.71431915
  0
VERTEX
  8
0
 10
1.00350215
 20
4.66501257
  0
VERTEX
  8
0
 10
0.89065759
 20
4.61100944
  0
VERTEX
  8
0
 10
0.78453022
 20
4.55814672
  0
VERTEX
  8
0
 10
0.68354254
 20
4.48988604
  0
VERTEX
  8
0
 10
0.50093982
 20
4.31455350
  0
VERTEX
  8
0
 10
0.35075653
 20
4.09977724
  0
VERTEX
  8
0
 10
0.24089976
 20
3.86032268
  0
VERTEX
  8
0
 10
0.17927660
 20
3.61095525
  0
VERTEX
  8
0
 10
0.16902360
 20
3.48716840
  0
VERTEX
  8
0
 10
0.17379416
 20
3.36644038
  0
VERTEX
  8
0
 10
0.19457668
 20
3.25061685
  0
VERTEX
  8
0
 10
0.23235954
 20
3.14154349
  0
VERTEX
  8
0
 10
0.28813112
 20
3.04106599
  0
VERTEX
  8
0
 10
0.36287981
 20
2.95103001
  0
VERTEX
  8
0
 10
0.48180345
 20
2.86662329
  0
VERTEX
  8
0
 10
0.53879795
 20
2.85313302
  0
VERTEX
  8
0
 10
0.59653085
 20
2.85707451
  0
VERTEX
  8
0
 10
0.72136173
 20
2.91212180
  0
VERTEX
  8
0
 10
0.87059586
 20
3.02150326
  0
VERTEX
  8
0
 10
0.98040475
 20
2.87206669
  0
VERTEX
  8
0
 10
1.10207667
 20
2.75478073
  0
VERTEX
  8
0
 10
1.23352207
 20
2.67117036
  0
VERTEX
  8
0
 10
1.37265141
 20
2.62276056
  0
VERTEX
  8
0
 10
1.51737514
 20
2.61107631
  0
VERTEX
  8
0
 10
1.66560373
 20
2.63764260
  0
VERTEX
  8
0
 10
1.81524761
 20
2.70398441
  0
VERTEX
  8
0
 10
1.96421726
 20
2.81162672
  0
VERTEX
  8
0
 10
2.08101178
 20
2.94054710
  0
VERTEX
  8
0
 10
2.14076441
 20
3.00720447
  0
VERTEX
  8
0
 10
2.20495800
 20
3.06111232
  0
VERTEX
  8
0
 10
2.37478595
 20
2.92265112
  0
VERTEX
  8
0
 10
2.56381943
 20
2.80768096
  0
VERTEX
  8
0
 10
2.76723996
 20
2.71927618
  0
VERTEX
  8
0
 10
2.98022905
 20
2.66051110
  0
VERTEX
  8
0
 10
3.19796820
 20
2.63446007
  0
VERTEX
  8
0
 10
3.41563894
 20
2.64419741
  0
VERTEX
  8
0
 10
3.62842277
 20
2.69279746
  0
VERTEX
  8
0
 10
3.83150121
 20
2.78333454
  0
VERTEX
  8
0
 10
3.89673945
 20
2.70099284
  0
VERTEX
  8
0
 10
3.97372441
 20
2.62824303
  0
VERTEX
  8
0
 10
4.15117734
 20
2.50966256
  0
VERTEX
  8
0
 10
4.34034571
 20
2.42388000
  0
VERTEX
  8
0
 10
4.51771520
 20
2.36718228
  0
VERTEX
  8
0
 10
4.77184003
 20
2.32582868
  0
VERTEX
  8
0
 10
5.06115579
 20
2.31923317
  0
VERTEX
  8
0
 10
5.34881299
 20
2.34368526
  0
VERTEX
  8
0
 10
5.59796212
 20
2.39547446
  0
VERTEX
  8
0
 10
5.72147375
 20
2.44475791
  0
VERTEX
  8
0
 10
5.85722138
 20
2.48035100
  0
VERTEX
  8
0
 10
6.01360116
 20
2.47188784
  0
VERTEX
  8
0
 10
6.16171331
 20
2.44131867
  0
VERTEX
  8
0
 10
6.43563346
 20
2.37092038
  0
VERTEX
  8
0
 10
6.56269081
 20
2.35962033
  0
VERTEX
  8
0
 10
6.68397925
 20
2.38327238
  0
VERTEX
  8
0
 10
6.80012347
 20
2.45614107
  0
VERTEX
  8
0
 10
6.91174813
 20
2.59249092
  0
VERTEX
  8
0
 10
6.95112431
 20
2.70707469
  0
VERTEX
  8
0
 10
6.97707734
 20
2.79259380
  0
VERTEX
  8
0
 10
7.18876692
 20
2.79099623
  0
VERTEX
  8
0
 10
7.39841273
 20
2.81122473
  0
VERTEX
  8
0
 10
7.60791040
 20
2.83435485
  0
VERTEX
  8
0
 10
7.81915553
 20
2.84146211
  0
VERTEX
  8
0
 10
7.82215280
 20
2.76408468
  0
VERTEX
  8
0
 10
7.83927981
 20
2.69594237
  0
VERTEX
  8
0
 10
7.91061950
 20
2.58579923
  0
VERTEX
  8
0
 10
8.02256750
 20
2.50790497
  0
VERTEX
  8
0
 10
8.16451673
 20
2.45913187
  0
VERTEX
  8
0
 10
8.32586012
 20
2.43635221
  0
VERTEX
  8
0
 10
8.49599057
 20
2.43643827
  0
VERTEX
  8
0
 10
8.66430101
 20
2.45626233
  0
VERTEX
  8
0
 10
8.82018434
 20
2.49269668
  0
VERTEX
  8
0
 10
8.97545335
 20
2.55087453
  0
VERTEX
  8
0
 10
9.13435230
 20
2.63206161
  0
VERTEX
  8
0
 10
9.29060428
 20
2.73180998
  0
VERTEX
  8
0
 10
9.43793239
 20
2.84567171
  0
VERTEX
  8
0
 10
9.57005975
 20
2.96919886
  0
VERTEX
  8
0
 10
9.68070945
 20
3.09794348
  0
VERTEX
  8
0
 10
9.76360459
 20
3.22745763
  0
VERTEX
  8
0
 10
9.81246829
 20
3.35329339
  0
VERTEX
  8
0
 10
9.83010243
 20
3.47296140
  0
VERTEX
  8
0
 10
9.82692623
 20
3.59327829
  0
VERTEX
  8
0
 10
9.80516727
 20
3.71181537
  0
VERTEX
  8
0
 10
9.76705310
 20
3.82614395
  0
VERTEX
  8
0
 10
9.71481131
 20
3.93383535
  0
VERTEX
  8
0
 10
9.65066946
 20
4.03246087
  0
VERTEX
  8
0
 10
9.57685512
 20
4.11959184
  0
VERTEX
  8
0
 10
9.49559586
 20
4.19279956
  0
VERTEX
  8
0
 10
9.39588029
 20
4.24758216
  0
VERTEX
  8
0
 10
9.26955742
 20
4.29682990
  0
VERTEX
  8
0
 10
9.13819821
 20
4.35193284
  0
VERTEX
  8
0
 10
9.02337364
 20
4.42428104
  0
VERTEX
  8
0
 10
9.03750213
 20
4.51780816
  0
VERTEX
  8
0
 10
9.06298269
 20
4.60637981
  0
VERTEX
  8
0
 10
9.07984095
 20
4.76628973
  0
VERTEX
  8
0
 10
9.06970318
 20
4.91190462
  0
VERTEX
  8
0
 10
9.05813418
 20
5.05804929
  0
VERTEX
  8
0
 10
9.07069874
 20
5.21954853
  0
VERTEX
  8
0
 10
9.08253747
 20
5.40596091
  0
VERTEX
  8
0
 10
9.05893469
 20
5.58165695
  0
VERTEX
  8
0
 10
8.99148064
 20
5.92222343
  0
VERTEX
  8
0
 10
9.07406963
 20
5.92767173
  0
VERTEX
  8
0
 10
9.15557032
 20
5.95564362
  0
VERTEX
  8
0
 10
9.23228833
 20
6.00204466
  0
VERTEX
  8
0
 10
9.30052927
 20
6.06278044
  0
VERTEX
  8
0
 10
9.35659875
 20
6.13375651
  0
VERTEX
  8
0
 10
9.39680238
 20
6.21087846
  0
VERTEX
  8
0
 10
9.41744578
 20
6.29005186
  0
VERTEX
  8
0
 10
9.41483455
 20
6.36718228
  0
VERTEX
  8
0
 10
9.38495970
 20
6.44610542
  0
VERTEX
  8
0
 10
9.33301821
 20
6.51458478
  0
VERTEX
  8
0
 10
9.26373841
 20
6.57137168
  0
VERTEX
  8
0
 10
9.18184863
 20
6.61521743
  0
VERTEX
  8
0
 10
9.09207721
 20
6.64487334
  0
VERTEX
  8
0
 10
8.99915246
 20
6.65909073
  0
VERTEX
  8
0
 10
8.90780274
 20
6.65662091
  0
VERTEX
  8
0
 10
8.82275636
 20
6.63621520
  0
VERTEX
  8
0
 10
8.69543416
 20
6.88410244
  0
VERTEX
  8
0
 10
8.53100117
 20
7.10913505
  0
VERTEX
  8
0
 10
8.43333768
 20
7.20685197
  0
VERTEX
  8
0
 10
8.32455997
 20
7.29138057
  0
VERTEX
  8
0
 10
8.20405585
 20
7.36022928
  0
VERTEX
  8
0
 10
8.07121315
 20
7.41090656
  0
VERTEX
  8
0
 10
8.03057529
 20
7.42788187
  0
VERTEX
  8
0
 10
7.96936129
 20
7.52716170
  0
VERTEX
  8
0
 10
7.90410611
 20
7.60811237
  0
VERTEX
  8
0
 10
7.83184193
 20
7.64961651
  0
VERTEX
  8
0
 10
7.69518434
 20
7.67582425
  0
VERTEX
  8
0
 10
7.56307142
 20
7.67850901
  0
VERTEX
  8
0
 10
7.45539917
 20
7.64521854
  0
VERTEX
  8
0
 10
7.36679635
 20
7.58411394
  0
VERTEX
  8
0
 10
7.29189172
 20
7.50335632
  0
VERTEX
  8
0
 10
7.16169211
 20
7.31552642
  0
VERTEX
  8
0
 10
7.09565465
 20
7.22477634
  0
VERTEX
  8
0
 10
7.02183043
 20
7.14701767
  0
VERTEX
  8
0
 10
6.95784555
 20
7.10939363
  0
VERTEX
  8
0
 10
6.88589946
 20
7.08715964
  0
VERTEX
  8
0
 10
6.81260301
 20
7.06669109
  0
VERTEX
  8
0
 10
6.74456706
 20
7.03436335
  0
VERTEX
  8
0
 10
6.63101966
 20
6.92356341
  0
VERTEX
  8
0
 10
6.55068688
 20
6.79777466
  0
VERTEX
  8
0
 10
6.48228904
 20
6.68945721
  0
VERTEX
  8
0
 10
6.44591583
 20
6.65199401
  0
VERTEX
  8
0
 10
6.40454648
 20
6.63107117
  0
VERTEX
  8
0
 10
6.22316990
 20
6.71595128
  0
VERTEX
  8
0
 10
6.13573034
 20
6.75445206
  0
VERTEX
  8
0
 10
6.06709792
 20
6.76533043
  0
VERTEX
  8
0
 10
6.01134067
 20
6.74396733
  0
VERTEX
  8
0
 10
5.97607724
 20
6.70506452
  0
VERTEX
  8
0
 10
5.95667450
 20
6.65181826
  0
VERTEX
  8
0
 10
5.94849928
 20
6.58742487
  0
VERTEX
  8
0
 10
5.94729883
 20
6.43798183
  0
VERTEX
  8
0
 10
5.93541068
 20
6.28230573
  0
SEQEND
  0
POLYLINE
  8
Default_Layer
 66
   1
 39
0.000000
 70
    0
  0
VERTEX
  8
0
 10
6.40454648
 20
6.63107117
  0
VERTEX
  8
0
 10
6.36099035
 20
6.51846052
  0
VERTEX
  8
0
 10
6.29034895
 20
6.39341685
  0
VERTEX
  8
0
 10
6.26412605
 20
6.33264926
  0
VERTEX
  8
0
 10
6.25790527
 20
6.26145262
  0
VERTEX
  8
0
 10
6.28798266
 20
6.09691134
  0
VERTEX
  8
0
 10
6.34560636
 20
5.91807137
  0
VERTEX
  8
0
 10
6.39580162
 20
5.74321108
  0
VERTEX
  8
0
 10
6.43398705
 20
5.49892231
  0
VERTEX
  8
0
 10
6.45187158
 20
5.30339627
  0
VERTEX
  8
0
 10
6.50396328
 20
4.77793972
  0
VERTEX
  8
0
 10
6.50987982
 20
4.52311847
  0
VERTEX
  8
0
 10
6.48067817
 20
4.29773783
  0
VERTEX
  8
0
 10
6.45769318
 20
4.12676315
  0
VERTEX
  8
0
 10
6.44298686
 20
4.04383928
  0
VERTEX
  8
0
 10
6.41071932
 20
3.96954853
  0
VERTEX
  8
0
 10
6.38926854
 20
3.91423263
  0
VERTEX
  8
0
 10
6.38135803
 20
3.85501929
  0
VERTEX
  8
0
 10
6.36999545
 20
3.79751501
  0
VERTEX
  8
0
 10
6.33818846
 20
3.74732631
  0
VERTEX
  8
0
 10
6.31298269
 20
3.74732631
  0
VERTEX
  8
0
 10
6.27759625
 20
3.79369707
  0
VERTEX
  8
0
 10
6.25919657
 20
3.84479932
  0
VERTEX
  8
0
 10
6.25431379
 20
3.95599168
  0
VERTEX
  8
0
 10
6.26024694
 20
4.07049025
  0
VERTEX
  8
0
 10
6.23890862
 20
4.17788187
  0
VERTEX
  8
0
 10
6.21814569
 20
4.24453782
  0
VERTEX
  8
0
 10
6.21164828
 20
4.31586794
  0
VERTEX
  8
0
 10
6.21421726
 20
4.46286129
  0
VERTEX
  8
0
 10
6.20927277
 20
4.68756746
  0
VERTEX
  8
0
 10
6.19131416
 20
4.91053043
  0
VERTEX
  8
0
 10
6.15252830
 20
5.13008064
  0
VERTEX
  8
0
 10
6.08510204
 20
5.34454853
  0
VERTEX
  8
0
 10
6.06864113
 20
5.36872549
  0
VERTEX
  8
0
 10
6.02336875
 20
5.82878311
  0
VERTEX
  8
0
 10
5.98635087
 20
6.05863273
  0
VERTEX
  8
0
 10
5.93541068
 20
6.28230573
  0
SEQEND
  0
POLYLINE
  8
Default_Layer
 66
   1
 39
0.000000
 70
    1
  0
VERTEX
  8
0
 10
8.26308557
 20
3.73909586
  0
VERTEX
  8
0
 10
8.13583115
 20
3.82152942
  0
VERTEX
  8
0
 10
8.06456804
 20
3.87109171
  0
VERTEX
  8
0
 10
8.01102796
 20
3.93662672
  0
VERTEX
  8
0
 10
7.98516249
 20
4.01930804
  0
VERTEX
  8
0
 10
7.98605011
 20
4.10377274
  0
VERTEX
  8
0
 10
8.00924523
 20
4.18373838
  0
VERTEX
  8
0
 10
8.05030227
 20
4.25292250
  0
VERTEX
  8
0
 10
8.10477563
 20
4.30504264
  0
VERTEX
  8
0
 10
8.16821974
 20
4.33381634
  0
VERTEX
  8
0
 10
8.23618901
 20
4.33296116
  0
VERTEX
  8
0
 10
8.30423784
 20
4.29619462
  0
VERTEX
  8
0
 10
8.36298391
 20
4.24116252
  0
VERTEX
  8
0
 10
8.40110893
 20
4.17213012
  0
VERTEX
  8
0
 10
8.41979625
 20
4.09401110
  0
VERTEX
  8
0
 10
8.42022926
 20
4.01171916
  0
VERTEX
  8
0
 10
8.40359133
 20
3.93016798
  0
VERTEX
  8
0
 10
8.37106582
 20
3.85427124
  0
VERTEX
  8
0
 10
8.32383611
 20
3.78894264
  0
VERTEX
  8
0
 10
8.26308557
 20
3.73909586
  0
SEQEND
  0
POLYLINE
  8
Default_Layer
 66
   1
 39
0.000000
 70
    0
  0
VERTEX
  8
0
 10
9.02337364
 20
4.42428104
  0
VERTEX
  8
0
 10
8.94655193
 20
4.35272268
  0
VERTEX
  8
0
 10
8.81085068
 20
4.25333710
  0
VERTEX
  8
0
 10
8.67904465
 20
4.15531856
  0
VERTEX
  8
0
 10
8.61390862
 20
4.08786129
  0
VERTEX
  8
0
 10
8.62310051
 20
4.03228443
  0
VERTEX
  8
0
 10
8.66146421
 20
3.96498908
  0
VERTEX
  8
0
 10
8.74971109
 20
3.83734689
  0
VERTEX
  8
0
 10
8.83376253
 20
3.87453361
  0
VERTEX
  8
0
 10
8.91185022
 20
3.87357723
  0
VERTEX
  8
0
 10
8.98165642
 20
3.83753037
  0
VERTEX
  8
0
 10
9.04086335
 20
3.76944565
  0
VERTEX
  8
0
 10
9.04806173
 20
3.76268140
  0
VERTEX
  8
0
 10
8.97232407
 20
3.85631687
  0
VERTEX
  8
0
 10
8.91723473
 20
3.90114074
  0
VERTEX
  8
0
 10
8.85806799
 20
3.92349204
  0
VERTEX
  8
0
 10
8.80037604
 20
3.90751326
  0
VERTEX
  8
0
 10
8.74971109
 20
3.83734689
  0
VERTEX
  8
0
 10
8.70937082
 20
3.72462174
  0
VERTEX
  8
0
 10
8.68901150
 20
3.62695594
  0
VERTEX
  8
0
 10
8.71832967
 20
3.54874719
  0
VERTEX
  8
0
 10
8.73195330
 20
3.50615499
  0
VERTEX
  8
0
 10
8.72604854
 20
3.47006294
  0
VERTEX
  8
0
 10
8.65730819
 20
3.44631285
  0
VERTEX
  8
0
 10
8.52604177
 20
3.43425065
  0
VERTEX
  8
0
 10
8.37325095
 20
3.41784666
  0
VERTEX
  8
0
 10
8.23993743
 20
3.38107117
  0
VERTEX
  8
0
 10
8.12018361
 20
3.31332296
  0
VERTEX
  8
0
 10
8.01451562
 20
3.23359958
  0
VERTEX
  8
0
 10
7.92793712
 20
3.14736508
  0
VERTEX
  8
0
 10
7.86545183
 20
3.06008351
  0
SEQEND
  0
POLYLINE
  8
Default_Layer
 66
   1
 39
0.000000
 70
    0
  0
VERTEX
  8
0
 10
5.00022549
 20
6.72366376
  0
VERTEX
  8
0
 10
4.97985786
 20
6.68364900
  0
VERTEX
  8
0
 10
4.94703482
 20
6.65549869
  0
VERTEX
  8
0
 10
4.86853825
 20
6.61872549
  0
VERTEX
  8
0
 10
4.71104172
 20
6.53942923
  0
VERTEX
  8
0
 10
4.55577200
 20
6.43898667
  0
VERTEX
  8
0
 10
4.40540376
 20
6.32080802
  0
VERTEX
  8
0
 10
4.26261169
 20
6.18830353
  0
VERTEX
  8
0
 10
4.01045478
 20
5.89395792
  0
VERTEX
  8
0
 10
3.90643931
 20
5.73893726
  0
VERTEX
  8
0
 10
3.82069874
 20
5.58323166
  0
VERTEX
  8
0
 10
3.74195795
 20
5.38416511
  0
VERTEX
  8
0
 10
3.69010779
 20
5.16895730
  0
VERTEX
  8
0
 10
3.66353034
 20
4.94246276
  0
VERTEX
  8
0
 10
3.66060767
 20
4.70953603
  0
VERTEX
  8
0
 10
3.67972185
 20
4.47503164
  0
VERTEX
  8
0
 10
3.71925494
 20
4.24380414
  0
VERTEX
  8
0
 10
3.77758902
 20
4.02070805
  0
VERTEX
  8
0
 10
3.85310615
 20
3.81059791
  0
VERTEX
  8
0
 10
3.89502100
 20
3.73092601
  0
VERTEX
  8
0
 10
3.95650121
 20
3.65730573
  0
VERTEX
  8
0
 10
3.97707734
 20
3.66193536
  0
VERTEX
  8
0
 10
4.02792185
 20
3.68865875
  0
VERTEX
  8
0
 10
4.05863971
 20
3.73542204
  0
VERTEX
  8
0
 10
4.08355883
 20
3.84917816
  0
VERTEX
  8
0
 10
4.03259435
 20
3.91445462
  0
VERTEX
  8
0
 10
3.99269028
 20
4.02249471
  0
VERTEX
  8
0
 10
3.97725855
 20
4.14727159
  0
VERTEX
  8
0
 10
3.99971109
 20
4.26275841
  0
VERTEX
  8
0
 10
4.05820046
 20
4.32381306
  0
VERTEX
  8
0
 10
4.09493730
 20
4.35714270
  0
VERTEX
  8
0
 10
4.12471109
 20
4.40010409
  0
VERTEX
  8
0
 10
4.14736863
 20
4.47557521
  0
VERTEX
  8
0
 10
4.15659595
 20
4.55755126
  0
VERTEX
  8
0
 10
4.18026664
 20
4.71697652
  0
VERTEX
  8
0
 10
4.25871916
 20
4.91902562
  0
VERTEX
  8
0
 10
4.36618835
 20
5.13775244
  0
VERTEX
  8
0
 10
4.49952384
 20
5.33243389
  0
VERTEX
  8
0
 10
4.57490697
 20
5.40803164
  0
VERTEX
  8
0
 10
4.65557529
 20
5.46234689
  0
VERTEX
  8
0
 10
4.95428464
 20
5.59366456
  0
VERTEX
  8
0
 10
5.09925194
 20
5.63498571
  0
VERTEX
  8
0
 10
5.24497576
 20
5.65570713
  0
VERTEX
  8
0
 10
5.39421716
 20
5.65254787
  0
VERTEX
  8
0
 10
5.54973721
 20
5.62222699
  0
VERTEX
  8
0
 10
5.71429700
 20
5.56146352
  0
VERTEX
  8
0
 10
5.89065759
 20
5.46697652
  0
VERTEX
  8
0
 10
6.03263290
 20
5.38621520
  0
SEQEND
  0
POLYLINE
  8
Default_Layer
 66
   1
 39
0.000000
 70
    0
  0
VERTEX
  8
0
 10
6.92203619
 20
3.00349915
  0
VERTEX
  8
0
 10
6.77495108
 20
3.21843967
  0
VERTEX
  8
0
 10
6.69368387
 20
3.31877572
  0
VERTEX
  8
0
 10
6.59899092
 20
3.40833454
  0
VERTEX
  8
0
 10
6.53231513
 20
3.41820464
  0
VERTEX
  8
0
 10
6.46831369
 20
3.44201373
  0
VERTEX
  8
0
 10
6.34796212
 20
3.50709997
  0
VERTEX
  8
0
 10
6.27183043
 20
3.54876664
  0
VERTEX
  8
0
 10
6.06317733
 20
3.59679742
  0
VERTEX
  8
0
 10
5.86339422
 20
3.65010409
  0
VERTEX
  8
0
 10
5.42049298
 20
3.74321108
  0
VERTEX
  8
0
 10
5.35887279
 20
3.93813372
  0
VERTEX
  8
0
 10
5.25810890
 20
4.16953304
  0
VERTEX
  8
0
 10
5.13321297
 20
4.38260162
  0
VERTEX
  8
0
 10
5.06640664
 20
4.46513458
  0
VERTEX
  8
0
 10
4.99919669
 20
4.52253207
  0
VERTEX
  8
0
 10
4.93339966
 20
4.55387822
  0
VERTEX
  8
0
 10
4.86720852
 20
4.56589021
  0
VERTEX
  8
0
 10
4.80095255
 20
4.56061304
  0
VERTEX
  8
0
 10
4.73496107
 20
4.54009173
  0
VERTEX
  8
0
 10
4.60508875
 20
4.46149675
  0
VERTEX
  8
0
 10
4.48022598
 20
4.34646538
  0
VERTEX
  8
0
 10
4.25606678
 20
4.07253389
  0
VERTEX
  8
0
 10
4.08355883
 20
3.84917816
  0
SEQEND
  0
ENDSEC
  0
EOF
