  0
SECTION
  2
HEADER
  9
$ACADVER
  1
AC1009
  9
$DWGCODEPAGE
  3
ansi_1252
  9
$INSBASE
 10
0.0
 20
0.0
 30
0.0
  9
$EXTMIN
 10
327.8440221723103
 20
-36.13238692903104
 30
0.0
  9
$EXTMAX
 10
370.8160567196447
 20
-21.24694699579126
 30
0.0
  9
$LIMMIN
 10
0.0
 20
0.0
  9
$LIMMAX
 10
12.0
 20
9.0
  9
$ORTHOMODE
 70
     0
  9
$REGENMODE
 70
     1
  9
$FILLMODE
 70
     1
  9
$QTEXTMODE
 70
     0
  9
$MIRRTEXT
 70
     1
  9
$DRAGMODE
 70
     2
  9
$LTSCALE
 40
1.0
  9
$OSMODE
 70
    37
  9
$ATTMODE
 70
     1
  9
$TEXTSIZE
 40
0.2
  9
$TRACEWID
 40
0.05
  9
$TEXTSTYLE
  7
STANDARD
  9
$CLAYER
  8
0
  9
$CELTYPE
  6
BYBLOCK
  9
$CECOLOR
 62
   256
  9
$DIMSCALE
 40
1.0
  9
$DIMASZ
 40
2.5
  9
$DIMEXO
 40
0.625
  9
$DIMDLI
 40
0.38
  9
$DIMRND
 40
0.0
  9
$DIMDLE
 40
0.0
  9
$DIMEXE
 40
1.25
  9
$DIMTP
 40
0.0
  9
$DIMTM
 40
0.0
  9
$DIMTXT
 40
2.5
  9
$DIMCEN
 40
0.09
  9
$DIMTSZ
 40
0.0
  9
$DIMTOL
 70
     0
  9
$DIMLIM
 70
     0
  9
$DIMTIH
 70
     1
  9
$DIMTOH
 70
     1
  9
$DIMSE1
 70
     0
  9
$DIMSE2
 70
     0
  9
$DIMTAD
 70
     0
  9
$DIMZIN
 70
     0
  9
$DIMBLK
  1

  9
$DIMASO
 70
     1
  9
$DIMSHO
 70
     1
  9
$DIMPOST
  1

  9
$DIMAPOST
  1

  9
$DIMALT
 70
     0
  9
$DIMALTD
 70
     2
  9
$DIMALTF
 40
25.4
  9
$DIMLFAC
 40
1.0
  9
$DIMTOFL
 70
     0
  9
$DIMTVP
 40
0.0
  9
$DIMTIX
 70
     0
  9
$DIMSOXD
 70
     0
  9
$DIMSAH
 70
     0
  9
$DIMBLK1
  1

  9
$DIMBLK2
  1

  9
$DIMSTYLE
  2
STANDARD
  9
$DIMCLRD
 70
     0
  9
$DIMCLRE
 70
     0
  9
$DIMCLRT
 70
     0
  9
$DIMTFAC
 40
1.0
  9
$DIMGAP
 40
0.09
  9
$LUNITS
 70
     2
  9
$LUPREC
 70
     4
  9
$SKETCHINC
 40
0.1
  9
$FILLETRAD
 40
0.5
  9
$AUNITS
 70
     0
  9
$AUPREC
 70
     0
  9
$MENU
  1
.
  9
$ELEVATION
 40
0.0
  9
$PELEVATION
 40
0.0
  9
$THICKNESS
 40
0.0
  9
$LIMCHECK
 70
     0
  9
$CHAMFERA
 40
0.5
  9
$CHAMFERB
 40
0.5
  9
$SKPOLY
 70
     0
  9
$TDCREATE
 40
2453353.508792488
  9
$TDUPDATE
 40
2440851.872422222
  9
$TDINDWG
 40
2440852.080755556
  9
$TDUSRTIMER
 40
2440852.080755556
  9
$USRTIMER
 70
     1
  9
$ANGBASE
 50
0.0
  9
$ANGDIR
 70
     0
  9
$PDMODE
 70
     0
  9
$PDSIZE
 40
0.0
  9
$PLINEWID
 40
0.0
  9
$COORDS
 70
     1
  9
$SPLFRAME
 70
     0
  9
$SPLINETYPE
 70
     6
  9
$SPLINESEGS
 70
     8
  9
$ATTDIA
 70
     0
  9
$ATTREQ
 70
     1
  9
$HANDLING
 70
     1
  9
$HANDSEED
  5
103F0
  9
$SURFTAB1
 70
     6
  9
$SURFTAB2
 70
     6
  9
$SURFTYPE
 70
     6
  9
$SURFU
 70
     6
  9
$SURFV
 70
     6
  9
$UCSNAME
  2

  9
$UCSORG
 10
0.0
 20
0.0
 30
0.0
  9
$UCSXDIR
 10
1.0
 20
0.0
 30
0.0
  9
$UCSYDIR
 10
0.0
 20
1.0
 30
0.0
  9
$PUCSNAME
  2

  9
$PUCSORG
 10
0.0
 20
0.0
 30
0.0
  9
$PUCSXDIR
 10
1.0
 20
0.0
 30
0.0
  9
$PUCSYDIR
 10
0.0
 20
1.0
 30
0.0
  9
$USERI1
 70
     0
  9
$USERI2
 70
     0
  9
$USERI3
 70
     0
  9
$USERI4
 70
     0
  9
$USERI5
 70
     0
  9
$USERR1
 40
0.0
  9
$USERR2
 40
0.0
  9
$USERR3
 40
0.0
  9
$USERR4
 40
0.0
  9
$USERR5
 40
0.0
  9
$WORLDVIEW
 70
     1
  9
$SHADEDGE
 70
     3
  9
$SHADEDIF
 70
    70
  9
$TILEMODE
 70
     1
  9
$MAXACTVP
 70
    64
  9
$PLIMCHECK
 70
     0
  9
$PEXTMIN
 10
0.0
 20
0.0
 30
0.0
  9
$PEXTMAX
 10
0.0
 20
0.0
 30
0.0
  9
$PLIMMIN
 10
0.0
 20
0.0
  9
$PLIMMAX
 10
0.0
 20
0.0
  9
$UNITMODE
 70
     0
  9
$VISRETAIN
 70
     1
  9
$PLINEGEN
 70
     0
  9
$PSLTSCALE
 70
     1
  0
ENDSEC
  0
SECTION
  2
TABLES
  0
TABLE
  2
VPORT
 70
     1
  0
VPORT
  2
*ACTIVE
 70
     0
 10
0.0
 20
0.0
 11
1.0
 21
1.0
 12
349.6888340700794
 22
-28.67239626424883
 13
0.0
 23
0.0
 14
10.0
 24
10.0
 15
10.0
 25
10.0
 16
0.0
 26
0.0
 36
1.0
 17
0.0
 27
0.0
 37
0.0
 40
23.09099216007423
 41
1.92798353909465
 42
50.0
 43
0.0
 44
0.0
 50
0.0
 51
0.0
 71
    16
 72
   100
 73
     1
 74
     1
 75
     0
 76
     1
 77
     0
 78
     0
  0
ENDTAB
  0
TABLE
  2
LTYPE
 70
    19
  0
LTYPE
  2
CONTINUOUS
 70
     0
  3
Solid line
 72
    65
 73
     0
 40
0.0
  0
LTYPE
  2
DOT
 70
     0
  3
Dot . . . . . . . . . . . . . . . . . . . . . .
 72
    65
 73
     2
 40
6.35
 49
0.0
 49
-6.35
  0
LTYPE
  2
DOT2
 70
     0
  3
Dot (.5x) .....................................
 72
    65
 73
     2
 40
3.175
 49
0.0
 49
-3.175
  0
LTYPE
  2
DOTX2
 70
     0
  3
Dot (2x) .  .  .  .  .  .  .  .  .  .  .  .  .
 72
    65
 73
     2
 40
12.7
 49
0.0
 49
-12.7
  0
LTYPE
  2
DASHED
 70
     0
  3
Dashed __ __ __ __ __ __ __ __ __ __ __ __ __ _
 72
    65
 73
     2
 40
19.05
 49
12.7
 49
-6.35
  0
LTYPE
  2
DASHED2
 70
     0
  3
Dashed (.5x) _ _ _ _ _ _ _ _ _ _ _ _ _ _ _ _ _
 72
    65
 73
     2
 40
9.524999999999999
 49
6.35
 49
-3.175
  0
LTYPE
  2
DASHEDX2
 70
     0
  3
Dashed (2x) ____  ____  ____  ____  ____  ___
 72
    65
 73
     2
 40
38.09999999999999
 49
25.4
 49
-12.7
  0
LTYPE
  2
DASHDOT
 70
     0
  3
Dash dot __ . __ . __ . __ . __ . __ . __ . __
 72
    65
 73
     4
 40
25.4
 49
12.7
 49
-6.35
 49
0.0
 49
-6.35
  0
LTYPE
  2
DASHDOT2
 70
     0
  3
Dash dot (.5x) _._._._._._._._._._._._._._._.
 72
    65
 73
     4
 40
12.7
 49
6.35
 49
-3.175
 49
0.0
 49
-3.175
  0
LTYPE
  2
DASHDOTX2
 70
     0
  3
Dash dot (2x) ____  .  ____  .  ____  .  ___
 72
    65
 73
     4
 40
50.8
 49
25.4
 49
-12.7
 49
0.0
 49
-12.7
  0
LTYPE
  2
DIVIDE
 70
     0
  3
Divide ____ . . ____ . . ____ . . ____ . . ____
 72
    65
 73
     6
 40
31.75
 49
12.7
 49
-6.35
 49
0.0
 49
-6.35
 49
0.0
 49
-6.35
  0
LTYPE
  2
DIVIDE2
 70
     0
  3
Divide (.5x) __..__..__..__..__..__..__..__.._
 72
    65
 73
     6
 40
15.875
 49
6.35
 49
-3.175
 49
0.0
 49
-3.175
 49
0.0
 49
-3.175
  0
LTYPE
  2
DIVIDEX2
 70
     0
  3
Divide (2x) ________  .  .  ________  .  .  _
 72
    65
 73
     6
 40
63.5
 49
25.4
 49
-12.7
 49
0.0
 49
-12.7
 49
0.0
 49
-12.7
  0
LTYPE
  2
CENTER
 70
     0
  3
Center ____ _ ____ _ ____ _ ____ _ ____ _ ____
 72
    65
 73
     4
 40
50.8
 49
31.75
 49
-6.35
 49
6.35
 49
-6.35
  0
LTYPE
  2
CENTER2
 70
     0
  3
Center (.5x) ___ _ ___ _ ___ _ ___ _ ___ _ ___
 72
    65
 73
     4
 40
28.575
 49
19.05
 49
-3.175
 49
3.175
 49
-3.175
  0
LTYPE
  2
CENTERX2
 70
     0
  3
Center (2x) ________  __  ________  __  _____
 72
    65
 73
     4
 40
101.6
 49
63.5
 49
-12.7
 49
12.7
 49
-12.7
  0
LTYPE
  2
BORDER
 70
     0
  3
Border __ __ . __ __ . __ __ . __ __ . __ __ .
 72
    65
 73
     6
 40
44.45
 49
12.7
 49
-6.35
 49
12.7
 49
-6.35
 49
0.0
 49
-6.35
  0
LTYPE
  2
BORDER2
 70
     0
  3
Border (.5x) __.__.__.__.__.__.__.__.__.__.__.
 72
    65
 73
     6
 40
22.225
 49
6.35
 49
-3.175
 49
6.35
 49
-3.175
 49
0.0
 49
-3.175
  0
LTYPE
  2
BORDERX2
 70
     0
  3
Border (2x) ____  ____  .  ____  ____  .  ___
 72
    65
 73
     6
 40
88.89999999999999
 49
25.4
 49
-12.7
 49
25.4
 49
-12.7
 49
0.0
 49
-12.7
  0
ENDTAB
  0
TABLE
  2
LAYER
 70
     1
  0
LAYER
  2
0
 70
     0
 62
     7
  6
CONTINUOUS
  0
ENDTAB
  0
TABLE
  2
STYLE
 70
     1
  0
STYLE
  2
STANDARD
 70
     0
 40
0.0
 41
0.75
 50
0.0
 71
     0
 42
2.5
  3
txt
  4

  0
ENDTAB
  0
TABLE
  2
VIEW
 70
     0
  0
ENDTAB
  0
TABLE
  2
UCS
 70
     0
  0
ENDTAB
  0
TABLE
  2
APPID
 70
     1
  0
APPID
  2
ACAD
 70
     0
  0
ENDTAB
  0
TABLE
  2
DIMSTYLE
 70
     1
  0
DIMSTYLE
  2
STANDARD
 70
     0
  3

  4

  5

  6

  7

 40
1.0
 41
0.18
 42
0.0625
 43
0.38
 44
0.18
 45
0.0
 46
0.0
 47
0.0
 48
0.0
140
0.18
141
0.09
142
0.0
143
25.4
144
1.0
145
0.0
146
1.0
147
0.09
 71
     0
 72
     0
 73
     1
 74
     1
 75
     0
 76
     0
 77
     0
 78
     0
170
     0
171
     2
172
     0
173
     0
174
     0
175
     0
176
     0
177
     0
178
     0
  0
ENDTAB
  0
ENDSEC
  0
SECTION
  2
BLOCKS
  0
BLOCK
  8
0
  2
$MODEL_SPACE
 70
     0
 10
0.0
 20
0.0
 30
0.0
  3
$MODEL_SPACE
  1

  0
ENDBLK
  5
21
  8
0
  0
BLOCK
 67
     1
  8
0
  2
$PAPER_SPACE
 70
     0
 10
0.0
 20
0.0
 30
0.0
  3
$PAPER_SPACE
  1

  0
ENDBLK
  5
76
 67
     1
  8
0
  0
BLOCK
  8
0
  2
_0041__A
 70
     0
 10
0.0
 20
0.0
 30
0.0
  3
_0041__A
  1

  0
ARC
  5
82
  8
0
 10
3.758992619736141
 20
2.856698301568221
 30
0.0
 40
3.7125
 50
79.558352468666
 51
173.9771523635588
  0
ARC
  5
83
  8
0
 10
2.528323454096781
 20
2.986543034786478
 30
0.0
 40
2.475
 50
173.9771523635588
 51
218.7836543922072
  0
ARC
  5
84
  8
0
 10
3.40527973448579
 20
3.69122216906411
 30
0.0
 40
3.6
 50
218.7836543922071
 51
255.2486820492908
  0
ARC
  5
85
  8
0
 10
3.204763182743185
 20
2.929678104365779
 30
0.0
 40
2.8125
 50
255.2486820492908
 51
271.7004116933418
  0
ARC
  5
86
  8
0
 10
3.121306671201072
 20
5.740939611355341
 30
0.0
 40
5.625
 50
271.7004116933418
 51
329.1331304831157
  0
LINE
  5
87
  8
0
 10
7.949591291657251
 20
2.855061473965211
 30
0.0
 11
9.875496270917257
 21
5.978277911713666
 31
0.0
  0
ARC
  5
88
  8
0
 10
17.53612011017459
 20
1.254419066087329
 30
0.0
 40
9.0
 50
129.7623532199621
 51
148.3402921261138
  0
ARC
  5
89
  8
0
 10
-5.765746333761062
 20
7.343132616313838
 30
0.0
 40
16.12912985530224
 50
334.2562760744328
 51
343.8823976546092
  0
ARC
  5
8A
  8
0
 10
5.838600186766939
 20
3.989847675727445
 30
0.0
 40
4.05
 50
343.8823976546092
 51
30.73910139413524
  0
ARC
  5
8B
  8
0
 10
7.965871726365986
 20
5.254893444390344
 30
0.0
 40
1.575
 50
30.73910139413526
 51
61.58215395527227
  0
ARC
  5
8C
  8
0
 10
8.287102992536861
 20
5.848556205252314
 30
0.0
 40
0.9
 50
61.58215395527223
 51
169.5312254629532
  0
ARC
  5
8D
  8
0
 10
12.93345100899817
 20
4.990025419592289
 30
0.0
 40
5.625
 50
169.5312254629532
 51
184.1085289516978
  0
ARC
  5
8E
  8
0
 10
10.1281787714874
 20
4.788521267150518
 30
0.0
 40
2.8125
 50
184.1085289516977
 51
243.3426515225517
  0
ARC
  5
8F
  8
0
 10
4.064825066232041
 20
4.51625329151894
 30
0.0
 40
2.025
 50
343.7732968618134
 51
79.558352468666
  0
ARC
  5
90
  8
0
 10
3.740769866270739
 20
4.610563828459622
 30
0.0
 40
2.3625
 50
256.6176300837212
 51
343.7732968618134
  0
ARC
  5
91
  8
0
 10
3.506428192726304
 20
3.625556097504989
 30
0.0
 40
1.35
 50
215.9608780617829
 51
256.6176300837211
  0
ARC
  5
1009B
  8
0
 10
3.051130483677504
 20
3.295237696360102
 30
0.0
 40
0.7875
 50
131.5710397733696
 51
215.9608780617829
  0
LINE
  5
1009C
  8
0
 10
12.35895382446748
 20
6.91097916485696
 30
0.0
 11
8.577848442534512
 21
0.0
 31
0.0
  0
ARC
  5
94
  8
0
 10
13.21878802898109
 20
6.443170717563564
 30
0.0
 40
2.25
 50
79.85989902621915
 51
129.762353219962
  0
ARC
  5
95
  8
0
 10
28.55589568400943
 20
-3.408091064153207
 30
0.0
 40
19.20479460948818
 50
141.076168036491
 51
147.49879159256
  0
ENDBLK
  5
10369
  8
0
  0
BLOCK
  8
0
  2
_0042__B
 70
     0
 10
0.0
 20
0.0
 30
0.0
  3
_0042__B
  1

  0
ARC
  5
1009D
  8
0
 10
0.7554005701245838
 20
1.150094028538686
 30
0.0
 40
0.7155718925750717
 50
146.1784063804888
 51
228.4331126861327
  0
ARC
  5
99
  8
0
 10
1.027053634292331
 20
1.456420631819944
 30
0.0
 40
1.125
 50
228.4331126861327
 51
254.4502347008584
  0
ARC
  5
9A
  8
0
 10
1.931807616732128
 20
4.70788879731985
 30
0.0
 40
4.5
 50
254.4502347008584
 51
267.175631457884
  0
ARC
  5
9B
  8
0
 10
1.865286948723663
 20
3.359528681947215
 30
0.0
 40
3.15
 50
267.175631457884
 51
311.8449746676428
  0
ARC
  5
9C
  8
0
 10
-2.037350021028281
 20
7.717501224578179
 30
0.0
 40
9.0
 50
311.8449746676428
 51
328.604985554518
  0
ARC
  5
9D
  8
0
 10
-71.17863649869479
 20
49.91326527991023
 30
0.0
 40
90.0
 50
328.604985554518
 51
330.2798403179916
  0
ARC
  5
9E
  8
0
 10
14.79861958317205
 20
0.8326027269954313
 30
0.0
 40
9.0
 50
128.5138894892328
 51
150.2798403179916
  0
ARC
  5
9F
  8
0
 10
11.9964500706536
 20
4.35366024187816
 30
0.0
 40
4.5
 50
118.0431699709748
 51
128.5138894892328
  0
ARC
  5
A0
  8
0
 10
11.46754629045802
 20
5.346578058867477
 30
0.0
 40
3.375
 50
100.4993485337696
 51
118.0431699709747
  0
ARC
  5
A1
  8
0
 10
11.77504987373438
 20
3.68733190585937
 30
0.0
 40
5.0625
 50
83.12707460641255
 51
100.4993485337696
  0
ARC
  5
A2
  8
0
 10
11.84236295884685
 20
4.245789781238203
 30
0.0
 40
4.5
 50
57.99994847256081
 51
83.12707460641255
  0
ARC
  5
A3
  8
0
 10
5.002575375024836
 20
5.93049589064438
 30
0.0
 40
0.5059771751048382
 50
10.79025711488529
 51
97.44546839270639
  0
ARC
  5
A4
  8
0
 10
4.39449743087981
 20
5.814605979152727
 30
0.0
 40
1.125
 50
346.0642156278694
 51
10.79025711488526
  0
ARC
  5
A5
  8
0
 10
3.302610392191145
 20
6.085544523372091
 30
0.0
 40
2.25
 50
295.1417358318891
 51
346.0642156278694
  0
ARC
  5
A6
  8
0
 10
3.39820365628475
 20
5.881861122330349
 30
0.0
 40
2.025
 50
256.7688726634571
 51
295.1417358318891
  0
ARC
  5
A7
  8
0
 10
3.192211874995968
 20
5.005751890532466
 30
0.0
 40
1.125
 50
204.1855176837308
 51
256.7688726634571
  0
ARC
  5
A8
  8
0
 10
3.910588039424212
 20
5.328384710284839
 30
0.0
 40
1.9125
 50
154.3154081674803
 51
204.1855176837307
  0
ARC
  5
A9
  8
0
 10
6.242426504652652
 20
4.206918873943373
 30
0.0
 40
4.5
 50
113.8605857091426
 51
154.3154081674803
  0
ARC
  5
AA
  8
0
 10
6.925041461988116
 20
2.66364538229586
 30
0.0
 40
6.1875
 50
75.64053361223382
 51
113.8605857091426
  0
ARC
  5
AB
  8
0
 10
7.901559596869436
 20
6.478133366579977
 30
0.0
 40
2.25
 50
350.7068606518067
 51
75.6405336122338
  0
ARC
  5
AC
  8
0
 10
8.678723706563666
 20
6.350963414927978
 30
0.0
 40
1.4625
 50
302.9803427094646
 51
350.7068606518067
  0
ARC
  5
AD
  8
0
 10
7.637651906240055
 20
7.955278146073631
 30
0.0
 40
3.375
 50
270.6728688499656
 51
302.9803427094645
  0
ARC
  5
AE
  8
0
 10
7.866173366230196
 20
3.010385163875847
 30
0.0
 40
1.581446521742807
 50
57.85492725072895
 51
96.85975354040524
  0
ARC
  5
AF
  8
0
 10
8.109032502033923
 20
3.396860088505861
 30
0.0
 40
1.125
 50
13.08881471812452
 51
57.85492725072901
  0
ARC
  5
B0
  8
0
 10
6.903682509995399
 20
3.116614398632275
 30
0.0
 40
2.3625
 50
335.4316233892965
 51
13.08881471812452
  0
ARC
  5
B1
  8
0
 10
5.573588880827554
 20
3.724691028381442
 30
0.0
 40
3.825
 50
298.8737345009279
 51
335.4316233892964
  0
ARC
  5
B2
  8
0
 10
6.714395249308627
 20
1.655882898169019
 30
0.0
 40
1.4625
 50
234.489026411688
 51
298.8737345009279
  0
ARC
  5
B3
  8
0
 10
6.32231551291256
 20
1.10643000636883
 30
0.0
 40
0.7875
 50
170.31699892115
 51
234.489026411688
  0
ENDBLK
  5
1036B
  8
0
  0
BLOCK
  8
0
  2
_0043__C
 70
     0
 10
0.0
 20
0.0
 30
0.0
  3
_0043__C
  1

  0
ARC
  5
B6
  8
0
 10
2.158109038421912
 20
5.272490262396254
 30
0.0
 40
2.325347771544384
 50
109.1341789949209
 51
142.7706770052778
  0
ARC
  5
B7
  8
0
 10
1.381517255091509
 20
5.86258218533733
 30
0.0
 40
1.35
 50
142.7706770052778
 51
172.2098288578196
  0
ARC
  5
B8
  8
0
 10
1.71590250382134
 20
5.816835541396048
 30
0.0
 40
1.6875
 50
172.2098288578196
 51
223.864698674576
  0
ARC
  5
B9
  8
0
 10
1.472572362453203
 20
5.582962301580625
 30
0.0
 40
1.35
 50
223.864698674576
 51
256.9355281894191
  0
ARC
  5
BA
  8
0
 10
1.930318179584763
 20
7.555547855339588
 30
0.0
 40
3.375
 50
256.9355281894191
 51
283.9060325051424
  0
ARC
  5
BB
  8
0
 10
0.9840178397146033
 20
11.37764438954194
 30
0.0
 40
7.3125
 50
283.9060325051424
 51
314.9278850113199
  0
ARC
  5
BC
  8
0
 10
7.30483354521855
 20
5.911076671323613
 30
0.0
 40
1.192252664391256
 50
165.9547587071313
 51
216.9108714995121
  0
ARC
  5
BD
  8
0
 10
6.981205166625188
 20
5.667993574624453
 30
0.0
 40
0.7875
 50
216.910871499512
 51
259.9637640878756
  0
ARC
  5
BE
  8
0
 10
7.255681945553977
 20
7.218892506801814
 30
0.0
 40
2.3625
 50
259.9637640878756
 51
338.8645715347671
  0
ARC
  5
BF
  8
0
 10
7.780342995153976
 20
7.016069842800417
 30
0.0
 40
1.8
 50
338.8645715347671
 51
29.11478196027787
  0
ARC
  5
C0
  8
0
 10
8.075198763966395
 20
7.180284110140499
 30
0.0
 40
1.4625
 50
29.11478196027789
 51
74.07741442285442
  0
ARC
  5
C1
  8
0
 10
7.704842047104755
 20
5.882079233291139
 30
0.0
 40
2.8125
 50
74.0774144228544
 51
89.21041674788613
  0
ARC
  5
C2
  8
0
 10
7.681587636814346
 20
4.194739468335057
 30
0.0
 40
4.5
 50
89.21041674788611
 51
137.7790749636916
  0
ARC
  5
C3
  8
0
 10
12.68036242100965
 20
-0.3412004184902987
 30
0.0
 40
11.25
 50
137.7790749636916
 51
158.48351302049
  0
ARC
  5
C4
  8
0
 10
5.668135208650327
 20
2.423320475308003
 30
0.0
 40
3.7125
 50
158.4835130204899
 51
195.2785902907244
  0
ARC
  5
C5
  8
0
 10
3.823230699424364
 20
1.919352617366941
 30
0.0
 40
1.8
 50
195.2785902907244
 51
253.6786195499126
  0
ARC
  5
C6
  8
0
 10
4.107768359638147
 20
2.891049365287847
 30
0.0
 40
2.8125
 50
253.6786195499126
 51
278.5816465794871
  0
ARC
  5
C7
  8
0
 10
3.77202648758378
 20
5.115858884179168
 30
0.0
 40
5.0625
 50
278.5816465794871
 51
303.6096089101922
  0
ENDBLK
  5
1036D
  8
0
  0
BLOCK
  8
0
  2
_0044__D
 70
     0
 10
0.0
 20
0.0
 30
0.0
  3
_0044__D
  1

  0
ARC
  5
CA
  8
0
 10
11.62957278004159
 20
6.021049100361011
 30
0.0
 40
2.617542095644067
 50
49.78915440665962
 51
86.41445998206255
  0
ARC
  5
CB
  8
0
 10
11.45556164339959
 20
3.244037736711706
 30
0.0
 40
5.4
 50
86.4144599820626
 51
144.3485330315519
  0
ARC
  5
CC
  8
0
 10
17.1232899193997
 20
-0.8213627588642183
 30
0.0
 40
12.375
 50
144.3485330315519
 51
157.9484681298437
  0
ARC
  5
CD
  8
0
 10
-1.645352882759919
 20
6.781304362938646
 30
0.0
 40
7.875
 50
323.1451589259834
 51
337.9484681298437
  0
ARC
  5
CE
  8
0
 10
-1.195264207769785
 20
6.443922628629236
 30
0.0
 40
7.3125
 50
306.9108126486059
 51
323.1451589259834
  0
ARC
  5
CF
  8
0
 10
1.845127128633813
 20
2.396092744416964
 30
0.0
 40
2.25
 50
275.7274112204671
 51
306.910812648606
  0
ARC
  5
D0
  8
0
 10
1.283775815994318
 20
7.99301240649877
 30
0.0
 40
7.875
 50
265.6112356685305
 51
275.7274112204671
  0
ARC
  5
D1
  8
0
 10
0.7672421559146549
 20
1.262804907616978
 30
0.0
 40
1.125
 50
239.2492715459876
 51
265.6112356685305
  0
ARC
  5
D2
  8
0
 10
0.3070685446998276
 20
0.4893449878140812
 30
0.0
 40
0.225
 50
112.1770512034976
 51
239.2492715459874
  0
ARC
  5
D3
  8
0
 10
0.6467914688024372
 20
-0.3440746752843925
 30
0.0
 40
1.125
 50
82.80559630050372
 51
112.1770512034976
  0
ARC
  5
D4
  8
0
 10
0.2241188574671718
 20
-3.692503092262577
 30
0.0
 40
4.5
 50
68.93764230285163
 51
82.80559630050369
  0
ARC
  5
D5
  8
0
 10
3.943741153089299
 20
5.96601180278784
 30
0.0
 40
5.850000000000001
 50
248.9376423028516
 51
285.2392388384686
  0
ARC
  5
D6
  8
0
 10
4.535153665877289
 20
3.795129208146251
 30
0.0
 40
3.6
 50
285.2392388384686
 51
316.096729504278
  0
ARC
  5
D7
  8
0
 10
3.481405552530944
 20
4.809289532561979
 30
0.0
 40
5.0625
 50
316.096729504278
 51
10.94077500810295
  0
ARC
  5
D8
  8
0
 10
4.917322995656967
 20
5.086863570480542
 30
0.0
 40
3.6
 50
10.94077500810285
 51
72.54823576526981
  0
ARC
  5
D9
  8
0
 10
4.478715173236211
 20
3.691682783588993
 30
0.0
 40
5.0625
 50
72.54823576526981
 51
125.9452922557507
  0
ARC
  5
DA
  8
0
 10
3.488131561669903
 20
5.057845423429597
 30
0.0
 40
3.375
 50
125.9452922557507
 51
170.8339224025761
  0
ARC
  5
DB
  8
0
 10
2.266433507393259
 20
5.254975112154218
 30
0.0
 40
2.1375
 50
170.8339224025761
 51
229.7125836427292
  0
ARC
  5
DC
  8
0
 10
1.757218475973772
 20
4.654261951172662
 30
0.0
 40
1.35
 50
229.7125836427292
 51
268.7182247438515
  0
ARC
  5
DD
  8
0
 10
1.797483274502902
 20
6.453811546487948
 30
0.0
 40
3.15
 50
268.7182247438515
 51
289.3553339504198
  0
ARC
  5
DE
  8
0
 10
2.207622607072651
 20
5.286253420363497
 30
0.0
 40
1.9125
 50
289.3553339504198
 51
325.5603687520565
  0
ARC
  5
DF
  8
0
 10
1.001465927946384
 20
6.11335215413056
 30
0.0
 40
3.375
 50
325.5603687520565
 51
343.80204912698
  0
ARC
  5
E0
  8
0
 10
3.162149169480905
 20
5.485699439843531
 30
0.0
 40
1.125
 50
343.80204912698
 51
43.51489161052141
  0
ARC
  5
E1
  8
0
 10
3.488487116537968
 20
5.795543827093941
 30
0.0
 40
0.675
 50
43.51489161052135
 51
92.7998454605784
  0
ARC
  5
E2
  8
0
 10
3.510468300645186
 20
5.346081006000534
 30
0.0
 40
1.125
 50
92.79984546057835
 51
131.7267516682765
  0
ENDBLK
  5
1036F
  8
0
  0
BLOCK
  8
0
  2
_0045__E
 70
     0
 10
0.0
 20
0.0
 30
0.0
  3
_0045__E
  1

  0
ARC
  5
E5
  8
0
 10
1.461623115127743
 20
7.565005979851949
 30
0.0
 40
1.005622586271516
 50
89.83129345604338
 51
149.9959985270261
  0
ARC
  5
E6
  8
0
 10
1.565002819210235
 20
7.505310052919556
 30
0.0
 40
1.125
 50
149.9959985270261
 51
231.3450122029198
  0
ARC
  5
E7
  8
0
 10
2.267710836416839
 20
8.383846587477772
 30
0.0
 40
2.25
 50
231.3450122029198
 51
274.4715023302796
  0
ARC
  5
E8
  8
0
 10
1.987043168353836
 20
11.9728890308189
 30
0.0
 40
5.850000000000001
 50
274.4715023302796
 51
309.8051800534065
  0
ARC
  5
E9
  8
0
 10
6.3307525280565
 20
6.975646678196464
 30
0.0
 40
0.7820021742012089
 50
139.9558936687288
 51
210.0901888810165
  0
ARC
  5
EA
  8
0
 10
6.140831062855412
 20
6.865596500845721
 30
0.0
 40
0.5625
 50
210.0901888810166
 51
264.2119720510301
  0
ARC
  5
EB
  8
0
 10
6.220249188056926
 20
7.649081670705034
 30
0.0
 40
1.35
 50
264.21197205103
 51
315.2991301592932
  0
ARC
  5
EC
  8
0
 10
5.580539272426336
 20
8.282146615117455
 30
0.0
 40
2.25
 50
315.2991301592932
 51
328.7206277447654
  0
ARC
  5
ED
  8
0
 10
6.542015812158986
 20
7.698033729158136
 30
0.0
 40
1.125
 50
328.7206277447654
 51
34.71321296957271
  0
ARC
  5
EE
  8
0
 10
6.91192154413325
 20
7.954294825410739
 30
0.0
 40
0.675
 50
34.71321296957281
 51
57.06004829608216
  0
ARC
  5
EF
  8
0
 10
6.361364771579943
 20
7.104563403021475
 30
0.0
 40
1.6875
 50
57.06004829608224
 51
116.2023471990712
  0
ARC
  5
F0
  8
0
 10
6.858100207631331
 20
6.095168085729566
 30
0.0
 40
2.8125
 50
116.2023471990711
 51
187.2235606149662
  0
ARC
  5
F1
  8
0
 10
4.641044203815376
 20
-0.3407531490007703
 30
0.0
 40
6.109216546234106
 50
95.38298081209969
 51
123.3214678429667
  0
ARC
  5
F2
  8
0
 10
2.83003930926688
 20
2.413988446527768
 30
0.0
 40
2.8125
 50
123.3214678429666
 51
199.7885207893557
  0
ARC
  5
F3
  8
0
 10
1.771472116019652
 20
2.033120362566036
 30
0.0
 40
1.6875
 50
199.7885207893557
 51
233.5142149616815
  0
ARC
  5
F4
  8
0
 10
2.574213615921309
 20
3.118526316269829
 30
0.0
 40
3.0375
 50
233.5142149616814
 51
281.7258679452658
  0
ARC
  5
F5
  8
0
 10
2.322717264374731
 20
4.330201122131022
 30
0.0
 40
4.275
 50
281.7258679452658
 51
320.8963010330725
  0
ARC
  5
F6
  8
0
 10
4.068730065871563
 20
2.911067831347804
 30
0.0
 40
2.025
 50
320.8963010330725
 51
25.8789186421708
  0
ARC
  5
F7
  8
0
 10
4.878476656939462
 20
3.303891530039613
 30
0.0
 40
1.125
 50
25.8789186421708
 51
71.68186640726133
  0
ARC
  5
F8
  8
0
 10
4.560255070620862
 20
2.342698900021637
 30
0.0
 40
2.1375
 50
71.6818664072614
 51
165.536118921196
  0
ARC
  5
F9
  8
0
 10
3.470911623786599
 20
2.623689744782143
 30
0.0
 40
1.0125
 50
165.5361189211961
 51
226.6465416276012
  0
ARC
  5
FA
  8
0
 10
3.316449779839651
 20
2.46008491977839
 30
0.0
 40
0.7875
 50
226.6465416276011
 51
332.6899616543573
  0
ENDBLK
  5
10371
  8
0
  0
BLOCK
  8
0
  2
_0046__F
 70
     0
 10
0.0
 20
0.0
 30
0.0
  3
_0046__F
  1

  0
ARC
  5
FD
  8
0
 10
0.8128454779578291
 20
1.121625656624069
 30
0.0
 40
0.7880043681742101
 50
133.7572079920693
 51
238.6200239344138
  0
ARC
  5
FE
  8
0
 10
1.86702322627513
 20
2.850004040611318
 30
0.0
 40
2.8125
 50
238.6200239344138
 51
262.1607370848117
  0
ARC
  5
FF
  8
0
 10
2.112533267700954
 20
4.633182332190455
 30
0.0
 40
4.6125
 50
262.1607370848117
 51
319.1867216722908
  0
ARC
  5
100
  8
0
 10
-2.059567103474265
 20
8.23613039493568
 30
0.0
 40
10.125
 50
319.1867216722908
 51
337.8161993976395
  0
ARC
  5
101
  8
0
 10
15.64975020862084
 20
1.014932063666223
 30
0.0
 40
9.0
 50
136.5527787039432
 51
157.8161993976395
  0
ARC
  5
102
  8
0
 10
11.1177745123777
 20
19.29150902825417
 30
0.0
 40
10.88371141577211
 50
261.4508872424464
 51
284.1540157972872
  0
ARC
  5
103
  8
0
 10
7.158483660471575
 20
-7.04626991623244
 30
0.0
 40
15.75
 50
81.45088724244634
 51
100.4300754039348
  0
ARC
  5
104
  8
0
 10
4.958903409517298
 20
4.902970508146504
 30
0.0
 40
3.6
 50
100.4300754039348
 51
150.7325951191073
  0
ARC
  5
105
  8
0
 10
2.799843255110588
 20
6.112963999721265
 30
0.0
 40
1.125
 50
150.7325951191072
 51
207.0790080108967
  0
ARC
  5
106
  8
0
 10
3.300681806601702
 20
6.369024530339084
 30
0.0
 40
1.6875
 50
207.0790080108966
 51
253.4885639291794
  0
ARC
  5
107
  8
0
 10
3.620414362859343
 20
7.447632935863978
 30
0.0
 40
2.8125
 50
253.4885639291794
 51
285.3710619936043
  0
ARC
  5
108
  8
0
 10
3.91861716138741
 20
6.362874856405693
 30
0.0
 40
1.6875
 50
285.3710619936043
 51
319.7350973422617
  0
ARC
  5
109
  8
0
 10
0.9140511382336172
 20
8.907769601284114
 30
0.0
 40
5.625
 50
319.7350973422617
 51
329.9100588716764
  0
ARC
  5
10A
  8
0
 10
5.099646990559549
 20
6.482446197902211
 30
0.0
 40
0.7875
 50
329.9100588716764
 51
15.44792498919094
  0
ARC
  5
10B
  8
0
 10
5.533389814858452
 20
6.602309296348785
 30
0.0
 40
0.3375
 50
15.44792498919099
 51
58.00296140821063
  0
ARC
  5
10C
  8
0
 10
5.17572389890853
 20
6.029858344242228
 30
0.0
 40
1.0125
 50
58.00296140821046
 51
118.4491139940158
  0
ARC
  5
10D
  8
0
 10
7.147291639286671
 20
3.728088226046126
 30
0.0
 40
0.6113653792251002
 50
349.908942761111
 51
88.27877501134756
  0
ARC
  5
10E
  8
0
 10
7.071039877214794
 20
1.190599032654782
 30
0.0
 40
3.15
 50
88.27877501134761
 51
121.2071995784506
  0
ARC
  5
10F
  8
0
 10
7.304200396469597
 20
0.8057144106434203
 30
0.0
 40
3.6
 50
121.2071995784506
 51
192.0801788087395
  0
ARC
  5
110
  8
0
 10
11.97433395251075
 20
4.496342926279504
 30
0.0
 40
3.9375
 50
94.56097196741254
 51
136.5527787039432
  0
ENDBLK
  5
10373
  8
0
  0
BLOCK
  8
0
  2
_0047__G
 70
     0
 10
0.0
 20
0.0
 30
0.0
  3
_0047__G
  1

  0
ARC
  5
113
  8
0
 10
0.4924663010743515
 20
1.220414257878829
 30
0.0
 40
0.4275250881984455
 50
112.2982256884958
 51
224.3230359606252
  0
ARC
  5
114
  8
0
 10
2.118221840104944
 20
2.808199240827982
 30
0.0
 40
2.7
 50
224.3230359606252
 51
269.9138843829899
  0
ARC
  5
115
  8
0
 10
2.124308992082682
 20
6.858194666329202
 30
0.0
 40
6.75
 50
269.9138843829899
 51
288.6250772868463
  0
ARC
  5
116
  8
0
 10
3.202196576784402
 20
3.6599477473522
 30
0.0
 40
3.375
 50
288.6250772868464
 51
315.0438178478725
  0
ARC
  5
117
  8
0
 10
-0.778319740958068
 20
7.634380391665836
 30
0.0
 40
9.0
 50
315.0438178478725
 51
336.9802408807642
  0
ARC
  5
118
  8
0
 10
0.7886683871847424
 20
12.34144661554086
 30
0.0
 40
10.62000984128288
 50
293.918255789525
 51
309.2291409415322
  0
ARC
  5
119
  8
0
 10
4.410201480650628
 20
4.176017654515797
 30
0.0
 40
1.6875
 50
235.4254406813858
 51
293.9182557895248
  0
ARC
  5
11A
  8
0
 10
6.644646881612651
 20
7.418109571800018
 30
0.0
 40
5.625
 50
225.0177064698949
 51
235.4254406813858
  0
ARC
  5
11B
  8
0
 10
3.781749566989646
 20
4.553442232312879
 30
0.0
 40
1.575
 50
180.9867137675535
 51
225.0177064698948
  0
ARC
  5
11C
  8
0
 10
5.356516018566175
 20
4.580564602951615
 30
0.0
 40
3.15
 50
142.3327806256975
 51
180.9867137675535
  0
ARC
  5
11D
  8
0
 10
8.02807582616348
 20
2.518188983809784
 30
0.0
 40
6.525
 50
107.9310112853588
 51
142.3327806256975
  0
ARC
  5
11E
  8
0
 10
7.750991366087057
 20
3.374474101036612
 30
0.0
 40
5.625
 50
97.15151876868652
 51
107.9310112853587
  0
ARC
  5
11F
  8
0
 10
7.358836198846035
 20
6.499968353919851
 30
0.0
 40
2.475
 50
48.87952504491857
 51
97.15151876868661
  0
ARC
  5
120
  8
0
 10
8.098686254311076
 20
7.347462834980573
 30
0.0
 40
1.35
 50
359.1332648237361
 51
48.87952504491873
  0
ARC
  5
121
  8
0
 10
7.19878922931386
 20
7.361076960040983
 30
0.0
 40
2.25
 50
337.7979533965159
 51
359.1332648237361
  0
ARC
  5
122
  8
0
 10
8.136219530668868
 20
6.978479678161645
 30
0.0
 40
1.2375
 50
308.5371008959621
 51
337.7979533965159
  0
ARC
  5
123
  8
0
 10
7.505410494251493
 20
7.770462133506572
 30
0.0
 40
2.25
 50
243.5716016297263
 51
308.5371008959619
  0
ARC
  5
124
  8
0
 10
6.804410943781356
 20
6.360063384839847
 30
0.0
 40
0.675
 50
180.3131442574447
 51
243.5716016297266
  0
ARC
  5
125
  8
0
 10
6.691912623997233
 20
6.359448530589177
 30
0.0
 40
0.5625
 50
96.22548654060545
 51
180.3131442574447
  0
ARC
  5
126
  8
0
 10
6.813909387168366
 20
5.241082852568
 30
0.0
 40
1.6875
 50
83.27248080598557
 51
96.22548654060545
  0
ENDBLK
  5
10375
  8
0
  0
BLOCK
  8
0
  2
_0048__H
 70
     0
 10
0.0
 20
0.0
 30
0.0
  3
_0048__H
  1

  0
ARC
  5
129
  8
0
 10
2.997299013751253
 20
2.933080366042501
 30
0.0
 40
0.6495999691707756
 50
122.1096899231029
 51
197.1838517807604
  0
ARC
  5
12A
  8
0
 10
3.129043417003281
 20
2.973821386089485
 30
0.0
 40
0.7875
 50
197.1838517807602
 51
246.5519443949743
  0
ARC
  5
12B
  8
0
 10
3.487169165063143
 20
3.799500469375815
 30
0.0
 40
1.6875
 50
246.5519443949744
 51
290.1623927297421
  0
ARC
  5
12C
  8
0
 10
3.215731991350047
 20
4.538742047431757
 30
0.0
 40
2.475
 50
290.1623927297421
 51
328.6542151389435
  0
ARC
  5
12D
  8
0
 10
3.984371061632963
 20
4.070560480478718
 30
0.0
 40
1.575
 50
328.6542151389435
 51
63.65478175636908
  0
ARC
  5
12E
  8
0
 10
3.68482052935132
 20
3.465668359014246
 30
0.0
 40
2.25
 50
63.65478175636902
 51
85.7727346979388
  0
ARC
  5
12F
  8
0
 10
3.477503335173942
 20
0.6608197301220534
 30
0.0
 40
5.0625
 50
85.77273469793884
 51
107.5704137107053
  0
ARC
  5
130
  8
0
 10
2.628472462507695
 20
3.34210726174927
 30
0.0
 40
2.25
 50
107.5704137107054
 51
138.4436687069555
  0
ARC
  5
131
  8
0
 10
3.722866906108457
 20
2.371949000528051
 30
0.0
 40
3.7125
 50
138.4436687069555
 51
165.3310234697423
  0
ARC
  5
132
  8
0
 10
2.308037077253097
 20
2.742303972657654
 30
0.0
 40
2.25
 50
165.3310234697422
 51
207.0973494597135
  0
ARC
  5
133
  8
0
 10
3.30955018940049
 20
3.254745663191184
 30
0.0
 40
3.375
 50
207.0973494597135
 51
236.4220869492623
  0
ARC
  5
134
  8
0
 10
2.562905115197033
 20
2.13001408047124
 30
0.0
 40
2.025
 50
236.4220869492623
 51
260.7229994624616
  0
ARC
  5
135
  8
0
 10
3.161388582937072
 20
5.793956463866735
 30
0.0
 40
5.7375
 50
260.7229994624616
 51
325.1516090991744
  0
ARC
  5
136
  8
0
 10
-3.209038249613684
 20
10.22950245293251
 30
0.0
 40
13.5
 50
325.1516090991744
 51
334.4656056225532
  0
ARC
  5
137
  8
0
 10
18.61598851699284
 20
-0.196588036167852
 30
0.0
 40
10.6875
 50
123.2856403026135
 51
154.4656056225532
  0
ARC
  5
138
  8
0
 10
11.37512712059384
 20
10.86530928499127
 30
0.0
 40
2.533581880113642
 50
258.9025955997832
 51
302.8795866156771
  0
ARC
  5
139
  8
0
 10
6.556725562825399
 20
-13.70017927470257
 30
0.0
 40
22.5
 50
78.90259559978317
 51
85.06780094590671
  0
ARC
  5
13A
  8
0
 10
8.317101264793713
 20
6.699004591028912
 30
0.0
 40
2.025
 50
85.06780094590685
 51
134.3022348081153
  0
ARC
  5
13B
  8
0
 10
7.295628084321514
 20
7.745665372550808
 30
0.0
 40
0.5625
 50
134.3022348081154
 51
184.5448044327304
  0
ARC
  5
13C
  8
0
 10
7.744213138119171
 20
7.781322763220101
 30
0.0
 40
1.0125
 50
184.5448044327304
 51
266.6059846935709
  0
ARC
  5
13D
  8
0
 10
7.804155268925079
 20
8.792046855618441
 30
0.0
 40
2.025
 50
266.6059846935708
 51
317.9716090763112
  0
ARC
  5
13E
  8
0
 10
9.505178768120992
 20
3.863408960745012
 30
0.0
 40
3.829283190970151
 50
291.9305714478224
 51
316.6117099561577
  0
ARC
  5
13F
  8
0
 10
10.76728290713462
 20
0.7286604816707969
 30
0.0
 40
0.45
 50
216.3957594343845
 51
291.9305714478218
  0
ARC
  5
140
  8
0
 10
10.85783840009129
 20
0.7954134044186033
 30
0.0
 40
0.5625
 50
164.078903268697
 51
216.3957594343843
  0
ARC
  5
141
  8
0
 10
15.72614277594401
 20
-0.593297780116667
 30
0.0
 40
5.625
 50
151.5589507167676
 51
164.078903268697
  0
ARC
  5
142
  8
0
 10
40.45666870194149
 20
-13.98795016170412
 30
0.0
 40
33.75
 50
140.6535684138482
 51
151.5589507167677
  0
ARC
  5
143
  8
0
 10
17.22786873396314
 20
5.056058300215055
 30
0.0
 40
3.7125
 50
69.2734647073098
 51
140.6535684138482
  0
ARC
  5
144
  8
0
 10
10.45299387741303
 20
5.068139333323352
 30
0.0
 40
0.5071098295836169
 50
310.1152115344225
 51
46.24818253667447
  0
ARC
  5
145
  8
0
 10
9.8701050063681
 20
4.459284339587956
 30
0.0
 40
1.35
 50
46.24818253667461
 51
100.4888622999262
  0
ARC
  5
146
  8
0
 10
11.05794463535137
 20
-1.956684957082415
 30
0.0
 40
7.875
 50
100.4888622999262
 51
109.6356562966207
  0
ARC
  5
147
  8
0
 10
8.903102462560263
 20
4.082918627620884
 30
0.0
 40
1.4625
 50
109.6356562966208
 51
246.6900546379397
  0
ARC
  5
148
  8
0
 10
8.903102462560263
 20
4.082918627620884
 30
0.0
 40
1.4625
 50
246.6900546379396
 51
292.0367057746253
  0
ARC
  5
149
  8
0
 10
6.497129227868008
 20
10.02694496033043
 30
0.0
 40
7.875
 50
292.0367057746253
 51
320.069922511763
  0
ENDBLK
  5
10377
  8
0
  0
BLOCK
  8
0
  2
_0049__I
 70
     0
 10
0.0
 20
0.0
 30
0.0
  3
_0049__I
  1

  0
ARC
  5
14C
  8
0
 10
2.626933214958342
 20
2.741055164731941
 30
0.0
 40
0.7979697963077738
 50
132.6782222410476
 51
195.657004518109
  0
ARC
  5
14D
  8
0
 10
2.616851905286211
 20
2.738229597528543
 30
0.0
 40
0.7875
 50
195.657004518109
 51
251.3540106229746
  0
ARC
  5
14E
  8
0
 10
2.904599858480793
 20
3.590990475754274
 30
0.0
 40
1.6875
 50
251.3540106229748
 51
331.8878240095993
  0
ARC
  5
14F
  8
0
 10
2.408459811135472
 20
3.85604010020257
 30
0.0
 40
2.25
 50
331.8878240095993
 51
18.77839437637803
  0
ARC
  5
150
  8
0
 10
3.473576866346676
 20
4.21818738888251
 30
0.0
 40
1.125
 50
18.77839437637802
 51
59.10907678175531
  0
ARC
  5
151
  8
0
 10
2.895995891239465
 20
3.252772857608918
 30
0.0
 40
2.25
 50
59.10907678175512
 51
120.8114694656581
  0
ARC
  5
152
  8
0
 10
3.760358368180192
 20
1.80345103052671
 30
0.0
 40
3.9375
 50
120.8114694656581
 51
148.2772593527446
  0
ARC
  5
153
  8
0
 10
2.324966677857162
 20
2.690754217352737
 30
0.0
 40
2.25
 50
148.2772593527446
 51
187.4346599536989
  0
ARC
  5
154
  8
0
 10
2.771183558718704
 20
2.748982176566516
 30
0.0
 40
2.7
 50
187.4346599536989
 51
275.2795049151467
  0
ARC
  5
155
  8
0
 10
2.512393047081858
 20
5.549550640483572
 30
0.0
 40
5.5125
 50
275.2795049151467
 51
330.4610522350604
  0
ARC
  5
156
  8
0
 10
-22.05481821204441
 20
19.47106410703813
 30
0.0
 40
33.75
 50
330.4610522350604
 51
335.6094203873442
  0
ARC
  5
157
  8
0
 10
18.41670467072812
 20
1.120389955955288
 30
0.0
 40
10.6875
 50
139.8505444333987
 51
155.6094203873442
  0
ARC
  5
158
  8
0
 10
12.31133817335318
 20
6.270599289830155
 30
0.0
 40
2.7
 50
107.1795696550877
 51
139.8505444333986
  0
ARC
  5
159
  8
0
 10
12.38902423288397
 20
5.102022987969864
 30
0.0
 40
3.848932741636738
 50
103.1429882549899
 51
125.5009928305351
  0
ARC
  5
15A
  8
0
 10
9.500576620848889
 20
9.151328769317429
 30
0.0
 40
1.125
 50
256.7050433877616
 51
305.5009928305353
  0
ARC
  5
15B
  8
0
 10
11.31154369942931
 20
16.81527183019007
 30
0.0
 40
9.0
 50
248.8390375655068
 51
256.7050433877616
  0
ARC
  5
15C
  8
0
 10
6.032075739113353
 20
3.176435990720582
 30
0.0
 40
5.625
 50
68.83903756550666
 51
81.03039586472681
  0
ARC
  5
15D
  8
0
 10
6.733672838659402
 20
7.621406351691348
 30
0.0
 40
1.125
 50
81.0303958647269
 51
163.2840092951938
  0
ARC
  5
15E
  8
0
 10
6.949164846701962
 20
7.556690090444329
 30
0.0
 40
1.35
 50
163.2840092951939
 51
196.3754731582699
  0
ARC
  5
15F
  8
0
 10
6.193609981299275
 20
7.334669606330069
 30
0.0
 40
0.5625
 50
196.3754731582701
 51
230.3124136317283
  0
ARC
  5
160
  8
0
 10
6.768350976143154
 20
8.027253744789697
 30
0.0
 40
1.4625
 50
230.3124136317285
 51
270.7013278485754
  0
ARC
  5
161
  8
0
 10
6.76697395651955
 20
8.139745316993823
 30
0.0
 40
1.575
 50
270.7013278485755
 51
328.0581643640153
  0
ENDBLK
  5
10379
  8
0
  0
BLOCK
  8
0
  2
_004A__J
 70
     0
 10
0.0
 20
0.0
 30
0.0
  3
_004A__J
  1

  0
ARC
  5
164
  8
0
 10
3.106496063648152
 20
-0.6431402770692106
 30
0.0
 40
0.8109229422441879
 50
111.3329252829348
 51
195.5369723629091
  0
ARC
  5
165
  8
0
 10
3.842652069698872
 20
-0.4384744886622954
 30
0.0
 40
1.575
 50
195.5369723629091
 51
307.1838342398074
  0
ARC
  5
166
  8
0
 10
2.754778233801844
 20
0.9955863598272987
 30
0.0
 40
3.375
 50
307.1838342398074
 51
333.0498485321755
  0
ARC
  5
167
  8
0
 10
3.958169810865996
 20
0.3837459294444608
 30
0.0
 40
2.025
 50
333.0498485321755
 51
49.77437451237628
  0
ARC
  5
168
  8
0
 10
3.667560157245873
 20
0.0401676571064299
 30
0.0
 40
2.475
 50
49.77437451237618
 51
78.11383613950244
  0
ARC
  5
169
  8
0
 10
3.482189062564146
 20
-0.8405352197234915
 30
0.0
 40
3.375
 50
78.11383613950248
 51
271.322186528784
  0
ARC
  5
16A
  8
0
 10
3.430271527181247
 20
1.408865715974671
 30
0.0
 40
5.625
 50
271.322186528784
 51
317.8717779075614
  0
ARC
  5
16B
  8
0
 10
-9.084996622618576
 20
12.72848090990269
 30
0.0
 40
22.5
 50
317.8717779075614
 51
330.6750933273066
  0
ARC
  5
16C
  8
0
 10
69.38208421985965
 20
-31.35005382141512
 30
0.0
 40
67.5
 50
146.1484281696286
 51
150.6750933273066
  0
ARC
  5
16D
  8
0
 10
18.93021693997008
 20
2.490330159450229
 30
0.0
 40
6.75
 50
116.6999891032715
 51
146.1484281696286
  0
ARC
  5
16E
  8
0
 10
13.23329958740717
 20
14.09546826577514
 30
0.0
 40
6.178694979786809
 50
273.7809338128055
 51
295.541293049516
  0
ARC
  5
16F
  8
0
 10
13.52945734066842
 20
9.614048520689275
 30
0.0
 40
1.6875
 50
242.3602453287414
 51
273.7809338128054
  0
ARC
  5
170
  8
0
 10
10.13710949998938
 20
3.136037068257268
 30
0.0
 40
5.625
 50
62.36024532874145
 51
84.75534922572071
  0
ARC
  5
171
  8
0
 10
10.54844841743916
 20
7.617197665132952
 30
0.0
 40
1.125
 50
84.75534922572044
 51
186.094296997327
  0
ARC
  5
172
  8
0
 10
10.1009915850922
 20
7.569423370935988
 30
0.0
 40
0.675
 50
186.094296997327
 51
250.3047421173823
  0
ARC
  5
173
  8
0
 10
10.63179388918195
 20
9.052283416244718
 30
0.0
 40
2.25
 50
250.3047421173824
 51
304.3757958999225
  0
ARC
  5
174
  8
0
 10
9.759055141271702
 20
2.146668104146847
 30
0.0
 40
0.3810740527894534
 50
343.5357788464572
 51
96.93693777208935
  0
ARC
  5
175
  8
0
 10
9.808141978938693
 20
1.743217322844041
 30
0.0
 40
0.7875
 50
96.93693777208922
 51
178.3994873417524
  0
ARC
  5
176
  8
0
 10
10.48287863792804
 20
1.724364179448449
 30
0.0
 40
1.4625
 50
178.3994873417524
 51
246.1197744970149
  0
ARC
  5
177
  8
0
 10
10.57396449380403
 20
1.930102768097588
 30
0.0
 40
1.6875
 50
246.119774497015
 51
330.7770801459466
  0
ENDBLK
  5
1037B
  8
0
  0
BLOCK
  8
0
  2
_004B__K
 70
     0
 10
0.0
 20
0.0
 30
0.0
  3
_004B__K
  1

  0
ARC
  5
17A
  8
0
 10
1.155391098475192
 20
1.402751430488027
 30
0.0
 40
1.088024424093907
 50
133.7811247648693
 51
201.161259816828
  0
ARC
  5
17B
  8
0
 10
1.189873340980526
 20
1.416099395328802
 30
0.0
 40
1.125
 50
201.1612598168281
 51
243.2748747091915
  0
ARC
  5
17C
  8
0
 10
2.100537540423233
 20
3.224777287009179
 30
0.0
 40
3.15
 50
243.2748747091915
 51
313.2528719604514
  0
ARC
  5
17D
  8
0
 10
-3.449740402944883
 20
9.124303941865604
 30
0.0
 40
11.25
 50
313.2528719604514
 51
331.8304314712764
  0
ARC
  5
17E
  8
0
 10
46.1376897222097
 20
-17.43034298824649
 30
0.0
 40
45.0
 50
146.7207873067337
 51
151.8304314712763
  0
ARC
  5
17F
  8
0
 10
11.71512226393996
 20
5.163184283538008
 30
0.0
 40
3.825
 50
112.3408054191993
 51
146.7207873067337
  0
ARC
  5
180
  8
0
 10
10.55165189886209
 20
6.910154637314568
 30
0.0
 40
1.81432493379972
 50
99.2125739228821
 51
134.2041545832612
  0
ARC
  5
181
  8
0
 10
8.502304336534877
 20
9.017239266663909
 30
0.0
 40
1.125
 50
265.9259557619203
 51
314.2041545832611
  0
ARC
  5
182
  8
0
 10
8.742083178708526
 20
12.38371087754166
 30
0.0
 40
4.5
 50
249.8912413008755
 51
265.9259557619203
  0
ARC
  5
183
  8
0
 10
11.06275510378357
 20
18.72224239644795
 30
0.0
 40
11.25
 50
244.7041159611027
 51
249.8912413008755
  0
ARC
  5
184
  8
0
 10
5.534653007687041
 20
7.025277257355969
 30
0.0
 40
1.6875
 50
64.70411596110269
 51
133.7706770003639
  0
ARC
  5
185
  8
0
 10
5.223354843268751
 20
7.350228719623503
 30
0.0
 40
1.2375
 50
133.7706770003637
 51
187.9460652262993
  0
ARC
  5
186
  8
0
 10
4.889095302574177
 20
7.303572429001077
 30
0.0
 40
0.9
 50
187.9460652262993
 51
247.596470351918
  0
ARC
  5
187
  8
0
 10
5.232109900782831
 20
8.135642729766438
 30
0.0
 40
1.8
 50
247.5964703519179
 51
320.2517944407633
  0
ARC
  5
188
  8
0
 10
7.247562826980399
 20
2.382896160171891
 30
0.0
 40
2.16224965149876
 50
283.5182229115239
 51
316.6189427322007
  0
ARC
  5
189
  8
0
 10
7.647809083522162
 20
0.7180833168823119
 30
0.0
 40
0.45
 50
195.7857413668633
 51
283.518222911524
  0
ARC
  5
18A
  8
0
 10
8.513866234601082
 20
0.9629200197376316
 30
0.0
 40
1.35
 50
154.0043210416596
 51
195.7857413668632
  0
ARC
  5
18B
  8
0
 10
17.41225456537592
 20
-3.376283261364791
 30
0.0
 40
11.25
 50
147.2693790336896
 51
154.0043210416596
  0
ARC
  5
18C
  8
0
 10
12.90922830211227
 20
8.28375544030372
 30
0.0
 40
0.4059664518517139
 50
332.8575193073375
 51
61.62539949054273
  0
ARC
  5
18D
  8
0
 10
12.67444665916031
 20
7.849075412204011
 30
0.0
 40
0.9
 50
61.6253994905429
 51
101.0709130008832
  0
ARC
  5
18E
  8
0
 10
13.02008945393314
 20
6.082572919021046
 30
0.0
 40
2.7
 50
101.0709130008833
 51
136.4472705702621
  0
ARC
  5
18F
  8
0
 10
19.21662132501901
 20
0.1914361212020284
 30
0.0
 40
11.25
 50
136.4472705702621
 51
146.0129112662498
  0
ARC
  5
190
  8
0
 10
2.42605918783633
 20
11.51130904970293
 30
0.0
 40
9.0
 50
315.903218304957
 51
326.0129112662497
  0
ARC
  5
191
  8
0
 10
7.596849967500674
 20
6.501027349744522
 30
0.0
 40
1.8
 50
251.02131234793
 51
315.9032183049569
  0
ARC
  5
192
  8
0
 10
6.812858152405681
 20
3.436410455566418
 30
0.0
 40
1.35
 50
327.2693790336896
 51
82.15158561812245
  0
ENDBLK
  5
1037D
  8
0
  0
BLOCK
  8
0
  2
_004C__L
 70
     0
 10
0.0
 20
0.0
 30
0.0
  3
_004C__L
  1

  0
ARC
  5
195
  8
0
 10
1.981951713237862
 20
-5.855523830553999
 30
0.0
 40
7.006762647780089
 50
59.27318402332434
 51
86.36775014260586
  0
ARC
  5
196
  8
0
 10
1.926946910365018
 20
-6.722017091607286
 30
0.0
 40
7.875
 50
86.36775014260589
 51
100.4475747241752
  0
ARC
  5
197
  8
0
 10
0.5805287638239918
 20
0.5798856175956404
 30
0.0
 40
0.45
 50
100.4475747241748
 51
273.042889039437
  0
ARC
  5
198
  8
0
 10
0.4551190645481284
 20
2.939054678372663
 30
0.0
 40
2.8125
 50
273.0428890394369
 51
306.5762026137365
  0
ARC
  5
199
  8
0
 10
-1.153787659116759
 20
5.107330296126539
 30
0.0
 40
5.5125
 50
306.5762026137365
 51
355.2817655911877
  0
ARC
  5
19A
  8
0
 10
15.55190857620909
 20
3.728519379785821
 30
0.0
 40
11.25
 50
166.0791261563207
 51
175.2817655911877
  0
ARC
  5
19B
  8
0
 10
7.58061875197393
 20
5.704296388469978
 30
0.0
 40
3.0375
 50
88.60809111021428
 51
166.0791261563207
  0
ARC
  5
19C
  8
0
 10
7.618877082566272
 20
7.278831653283151
 30
0.0
 40
1.4625
 50
20.3653185819332
 51
88.60809111021406
  0
ARC
  5
19D
  8
0
 10
6.616931641716292
 20
6.906901692053938
 30
0.0
 40
2.53125
 50
284.1992688038612
 51
20.36531858193307
  0
ARC
  5
19E
  8
0
 10
6.906686377016129
 20
5.761740674610838
 30
0.0
 40
1.35
 50
233.5756668691813
 51
284.1992688038617
  0
ARC
  5
19F
  8
0
 10
6.439099852509287
 20
5.128085332883466
 30
0.0
 40
0.5625
 50
124.9788539436045
 51
233.5756668691813
  0
ARC
  5
1A0
  8
0
 10
7.406499852781124
 20
3.745409127304581
 30
0.0
 40
2.25
 50
115.0095100898867
 51
124.9788539436043
  0
ENDBLK
  5
1037F
  8
0
  0
BLOCK
  8
0
  2
_004D__M
 70
     0
 10
0.0
 20
0.0
 30
0.0
  3
_004D__M
  1

  0
ARC
  5
1A3
  8
0
 10
2.552221481268887
 20
2.953012319578351
 30
0.0
 40
0.5503951885030163
 50
84.94592501686323
 51
182.1164735543654
  0
ARC
  5
1A4
  8
0
 10
3.126434306991627
 20
2.974233068174322
 30
0.0
 40
1.125
 50
182.1164735543652
 51
267.6264379281889
  0
ARC
  5
1A5
  8
0
 10
3.159048324293153
 20
3.761057429690573
 30
0.0
 40
1.9125
 50
267.6264379281888
 51
350.4910235745536
  0
ARC
  5
1A6
  8
0
 10
3.380956763931351
 20
3.723886951924723
 30
0.0
 40
1.6875
 50
350.4910235745536
 51
66.76709166809648
  0
ARC
  5
1A7
  8
0
 10
2.892800438404208
 20
2.586737158868488
 30
0.0
 40
2.925
 50
66.76709166809673
 51
116.240413078073
  0
ARC
  5
1A8
  8
0
 10
2.793319249742524
 20
2.78855017406438
 30
0.0
 40
2.7
 50
116.2404130780729
 51
262.417780482813
  0
ARC
  5
1A9
  8
0
 10
3.149580961114296
 20
5.464942819587538
 30
0.0
 40
5.4
 50
262.4177804828131
 51
320.6844254799889
  0
ARC
  5
1AA
  8
0
 10
-2.246753417955262
 20
9.884241436933053
 30
0.0
 40
12.375
 50
320.6844254799889
 51
339.7501868100948
  0
ARC
  5
1AB
  8
0
 10
6.196978761782276
 20
6.769215453596025
 30
0.0
 40
3.375
 50
339.7501868100948
 51
13.33274552669247
  0
ARC
  5
1AC
  8
0
 10
7.948463787399504
 20
7.184306052186959
 30
0.0
 40
1.575
 50
13.33274552669247
 51
80.12420504005142
  0
ARC
  5
1AD
  8
0
 10
7.842340169396792
 20
6.574724769500217
 30
0.0
 40
2.19375
 50
80.12420504005134
 51
202.1618924094119
  0
ARC
  5
1AE
  8
0
 10
6.644170241990523
 20
6.086690049875373
 30
0.0
 40
0.9
 50
202.161892409412
 51
278.4621062876555
  0
ARC
  5
1AF
  8
0
 10
6.627615273734904
 20
6.197965307799385
 30
0.0
 40
1.0125
 50
278.4621062876555
 51
333.9609565730978
  0
ARC
  5
1B0
  8
0
 10
352.8219646459138
 20
-194.2006135174239
 30
0.0
 40
395.2569192566913
 50
149.233374930348
 51
150.5522009140558
  0
ARC
  5
1B1
  8
0
 10
12.71095520840927
 20
8.277814765951771
 30
0.0
 40
0.5625
 50
329.2333749303478
 51
25.77468557596735
  0
ARC
  5
1B2
  8
0
 10
12.91357017831248
 20
8.375652253506988
 30
0.0
 40
0.3375
 50
25.77468557596738
 51
69.09925024619516
  0
ARC
  5
1B3
  8
0
 10
12.63262937692596
 20
7.639969906215501
 30
0.0
 40
1.125
 50
69.09925024619483
 51
114.2982089529878
  0
ARC
  5
1B4
  8
0
 10
15.72154269023892
 20
6.438149313992691
 30
0.0
 40
2.25
 50
79.39939127453495
 51
125.304220883851
  0
ARC
  5
1B5
  8
0
 10
15.10067163695166
 20
3.120749106723454
 30
0.0
 40
5.625
 50
69.84938039953867
 51
79.39939127453492
  0
ARC
  5
1B6
  8
0
 10
17.58099409383024
 20
9.880039047974965
 30
0.0
 40
1.575
 50
249.8493803995387
 51
309.4878629806304
  0
ARC
  5
1B7
  8
0
 10
12.13941876746861
 20
2.446398494771186
 30
0.0
 40
2.452625021754268
 50
290.5355897475821
 51
323.9340782155681
  0
ARC
  5
1B8
  8
0
 10
12.76299031181213
 20
0.781733589436815
 30
0.0
 40
0.675
 50
191.3202582382028
 51
290.5355897475819
  0
ARC
  5
1B9
  8
0
 10
14.08672648840562
 20
1.046728938033139
 30
0.0
 40
2.025
 50
164.3838825799102
 51
191.3202582382029
  0
ARC
  5
1BA
  8
0
 10
22.64616114324488
 20
-1.345703848804695
 30
0.0
 40
10.9125
 50
117.8224730226286
 51
164.3838825799102
  0
ARC
  5
1BB
  8
0
 10
14.48431578400928
 20
3.538597276250889
 30
0.0
 40
5.625
 50
114.2982089529877
 51
151.9254207261096
  0
ARC
  5
1BC
  8
0
 10
22.6447258213091
 20
-2.198577216205281
 30
0.0
 40
13.31572000722656
 50
128.1394948646143
 51
148.475685237025
  0
ENDBLK
  5
10381
  8
0
  0
BLOCK
  8
0
  2
_004E__N
 70
     0
 10
0.0
 20
0.0
 30
0.0
  3
_004E__N
  1

  0
ARC
  5
1BF
  8
0
 10
2.541826280136633
 20
2.953012319578351
 30
0.0
 40
0.5503951885030163
 50
84.94592501686323
 51
182.1164735543654
  0
ARC
  5
1C0
  8
0
 10
3.116039105859386
 20
2.974233068174322
 30
0.0
 40
1.125
 50
182.1164735543652
 51
267.6264379281889
  0
ARC
  5
1C1
  8
0
 10
3.148653123160898
 20
3.761057429690573
 30
0.0
 40
1.9125
 50
267.6264379281888
 51
350.4910235745536
  0
ARC
  5
1C2
  8
0
 10
3.370561562799082
 20
3.723886951924723
 30
0.0
 40
1.6875
 50
350.4910235745536
 51
66.76709166809648
  0
ARC
  5
1C3
  8
0
 10
2.882405237271968
 20
2.586737158868488
 30
0.0
 40
2.925
 50
66.76709166809673
 51
116.240413078073
  0
ARC
  5
1C4
  8
0
 10
2.782924048610255
 20
2.78855017406438
 30
0.0
 40
2.7
 50
116.2404130780729
 51
262.417780482813
  0
ARC
  5
1C5
  8
0
 10
9.324913576604445
 20
2.446398494771186
 30
0.0
 40
2.452625021754268
 50
290.5355897475821
 51
323.9340782155681
  0
ARC
  5
1C6
  8
0
 10
9.948485120947993
 20
0.781733589436815
 30
0.0
 40
0.675
 50
191.3202582382028
 51
290.5355897475819
  0
ARC
  5
1C7
  8
0
 10
11.27222129754145
 20
1.046728938033139
 30
0.0
 40
2.025
 50
164.3838825799102
 51
191.3202582382029
  0
ARC
  5
1C8
  8
0
 10
22.3236432569542
 20
-2.042234913327102
 30
0.0
 40
13.5
 50
137.2936115941191
 51
164.3838825799102
  0
ARC
  5
1C9
  8
0
 10
16.37144754609668
 20
3.451522108934552
 30
0.0
 40
5.4
 50
115.1619068469546
 51
137.2936115941191
  0
ARC
  5
1CA
  8
0
 10
13.97586223155975
 20
9.96074276826746
 30
0.0
 40
1.568596967507637
 50
254.2655703298312
 51
305.1609317200495
  0
ARC
  5
1CB
  8
0
 10
3.020431856191465
 20
4.572811937746486
 30
0.0
 40
4.5
 50
262.4177804828129
 51
315.3473930552257
  0
ARC
  5
1CC
  8
0
 10
-5.782908687303632
 20
13.27004254727133
 30
0.0
 40
16.875
 50
315.3473930552257
 51
325.1973748103407
  0
ARC
  5
1CD
  8
0
 10
2.530962287113226
 20
7.491186741772395
 30
0.0
 40
6.75
 50
325.1973748103407
 51
348.109157848984
  0
ARC
  5
1CE
  8
0
 10
6.714229042863423
 20
6.610332468787744
 30
0.0
 40
2.475
 50
348.109157848984
 51
33.29924886861566
  0
ARC
  5
1CF
  8
0
 10
7.842578697283301
 20
7.351498480805652
 30
0.0
 40
1.125
 50
33.29924886861566
 51
75.33235984092718
  0
ARC
  5
1D0
  8
0
 10
7.571958794354629
 20
6.31757806286292
 30
0.0
 40
2.19375
 50
75.33235984092697
 51
199.0967057171106
  0
ARC
  5
1D1
  8
0
 10
6.24309793199717
 20
5.857504295957378
 30
0.0
 40
0.7875
 50
199.0967057171108
 51
246.2005311924271
  0
ARC
  5
1D2
  8
0
 10
6.470087389698932
 20
6.372171213577182
 30
0.0
 40
1.35
 50
246.2005311924268
 51
274.9395365423022
  0
ARC
  5
1D3
  8
0
 10
6.537894623349018
 20
5.587595895927739
 30
0.0
 40
0.5625
 50
274.9395365423025
 51
339.2563773375408
  0
ARC
  5
1D4
  8
0
 10
4.959787420968468
 20
6.18528637418107
 30
0.0
 40
2.25
 50
339.2563773375408
 51
351.8739675732263
  0
ARC
  5
1D5
  8
0
 10
12.4217097217506
 20
4.444395931163291
 30
0.0
 40
4.162500000000001
 50
74.26557032983118
 51
98.23329200600962
  0
ARC
  5
1D6
  8
0
 10
12.14783202557962
 20
6.337184154272277
 30
0.0
 40
2.25
 50
98.23329200600946
 51
132.9158398060956
  0
ARC
  5
1D7
  8
0
 10
15.9780259221275
 20
2.217689074186909
 30
0.0
 40
7.875
 50
132.9158398060956
 51
150.2433378661751
  0
ENDBLK
  5
10383
  8
0
  0
BLOCK
  8
0
  2
_004F__O
 70
     0
 10
0.0
 20
0.0
 30
0.0
  3
_004F__O
  1

  0
ARC
  5
1DA
  8
0
 10
3.541911660289372
 20
3.473819213428998
 30
0.0
 40
0.6259054506140294
 50
192.3760628311801
 51
302.2812499248563
  0
ARC
  5
1DB
  8
0
 10
5.23815106184307
 20
3.846018785666511
 30
0.0
 40
2.3625
 50
159.2394762079698
 51
192.3760628311801
  0
ARC
  5
1DC
  8
0
 10
6.710886500164918
 20
3.287739886986855
 30
0.0
 40
3.9375
 50
114.637795125622
 51
159.2394762079699
  0
ARC
  5
1DD
  8
0
 10
5.538410153860923
 20
5.844193576643212
 30
0.0
 40
1.125
 50
9.547643127651048
 51
114.6377951256225
  0
ARC
  5
1DE
  8
0
 10
3.319577111943517
 20
5.470991309641129
 30
0.0
 40
3.375
 50
337.2211605764267
 51
9.547643127651048
  0
ARC
  5
1DF
  8
0
 10
-1.659256403921916
 20
7.561736827702825
 30
0.0
 40
8.775
 50
311.5739108110824
 51
337.2211605764267
  0
ARC
  5
1E0
  8
0
 10
1.550839128484796
 20
3.942801497688966
 30
0.0
 40
3.9375
 50
285.2328655017429
 51
311.5739108110824
  0
ARC
  5
1E1
  8
0
 10
1.994217400581618
 20
2.314590222137651
 30
0.0
 40
2.25
 50
234.6969237267341
 51
285.2328655017426
  0
ARC
  5
1E2
  8
0
 10
1.474106101995687
 20
1.580094315353093
 30
0.0
 40
1.35
 50
193.1181917471552
 51
234.6969237267337
  0
ARC
  5
1E3
  8
0
 10
3.44626161099859
 20
2.039689407047446
 30
0.0
 40
3.375
 50
158.133127182026
 51
193.1181917471552
  0
ARC
  5
1E4
  8
0
 10
12.32075649219806
 20
-1.521875818182079
 30
0.0
 40
12.9375
 50
137.7194311518777
 51
158.133127182026
  0
ARC
  5
1E5
  8
0
 10
5.245851971580152
 20
4.911407346279161
 30
0.0
 40
3.375
 50
122.954333510426
 51
137.7194311518776
  0
ARC
  5
1E6
  8
0
 10
7.081752125532887
 20
2.079430011497623
 30
0.0
 40
6.75
 50
106.6349598746626
 51
122.954333510426
  0
ARC
  5
1E7
  8
0
 10
6.437637765274786
 20
4.235263189391797
 30
0.0
 40
4.5
 50
84.3336045233351
 51
106.6349598746627
  0
ARC
  5
1E8
  8
0
 10
6.548715903733296
 20
5.354766046537145
 30
0.0
 40
3.375
 50
56.72790290053074
 51
84.33360452333488
  0
ARC
  5
1E9
  8
0
 10
7.721381998449431
 20
7.141875578799554
 30
0.0
 40
1.2375
 50
329.9533563463762
 51
56.72790290053025
  0
ENDBLK
  5
10385
  8
0
  0
BLOCK
  8
0
  2
_0050__P
 70
     0
 10
0.0
 20
0.0
 30
0.0
  3
_0050__P
  1

  0
ARC
  5
1EC
  8
0
 10
0.6882886080923072
 20
1.431520587098735
 30
0.0
 40
0.5770972710153517
 50
100.4672644176448
 51
187.857429673799
  0
ARC
  5
1ED
  8
0
 10
1.453934793013673
 20
1.537183011769372
 30
0.0
 40
1.35
 50
187.857429673799
 51
215.1667120283074
  0
ARC
  5
1EE
  8
0
 10
1.453934793013701
 20
1.537183011769372
 30
0.0
 40
1.35
 50
215.1667120283071
 51
253.0027962462257
  0
ARC
  5
1EF
  8
0
 10
2.539191478623792
 20
5.087517387055542
 30
0.0
 40
5.0625
 50
253.0027962462256
 51
305.472327774209
  0
ARC
  5
1F0
  8
0
 10
4.171312491437618
 20
2.797028956713316
 30
0.0
 40
2.25
 50
305.4723277742091
 51
320.2068419958852
  0
ARC
  5
1F1
  8
0
 10
-11.3879766386803
 20
15.75739244565124
 30
0.0
 40
22.5
 50
320.2068419958852
 51
332.6503834144781
  0
ARC
  5
1F2
  8
0
 10
14.59245021471102
 20
2.319389598665996
 30
0.0
 40
6.75
 50
130.4038672415858
 51
152.6503834144781
  0
ARC
  5
1F3
  8
0
 10
7.571445164745398
 20
5.989347822060882
 30
0.0
 40
0.4534054909943429
 50
83.61208166828298
 51
175.9990605162495
  0
ARC
  5
1F4
  8
0
 10
8.353628761980929
 20
5.934639328492454
 30
0.0
 40
1.2375
 50
175.9990605162496
 51
256.3199690515453
  0
ARC
  5
1F5
  8
0
 10
8.646296920273898
 20
7.13703343988912
 30
0.0
 40
2.475
 50
256.3199690515455
 51
337.7464138173446
  0
ARC
  5
1F6
  8
0
 10
9.375141402104475
 20
6.838802034257331
 30
0.0
 40
1.6875
 50
337.7464138173446
 51
41.87226654733837
  0
ARC
  5
1F7
  8
0
 10
8.956284373940576
 20
6.463348921395435
 30
0.0
 40
2.25
 50
41.87226654733853
 51
81.09905605742605
  0
ARC
  5
1F8
  8
0
 10
8.242607641663682
 20
1.90639579767268
 30
0.0
 40
6.8625
 50
81.099056057426
 51
127.8951771932664
  0
ARC
  5
1F9
  8
0
 10
6.100519654531979
 20
4.658506861090377
 30
0.0
 40
3.375
 50
127.8951771932665
 51
168.7324750711132
  0
ARC
  5
1FA
  8
0
 10
4.997203396499714
 20
4.878320952453146
 30
0.0
 40
2.25
 50
168.7324750711132
 51
187.6143203333353
  0
ARC
  5
1FB
  8
0
 10
3.882123136277329
 20
4.729253808982935
 30
0.0
 40
1.125
 50
187.6143203333353
 51
253.5004452823757
  0
ARC
  5
1FC
  8
0
 10
4.265533791949025
 20
6.023663430825037
 30
0.0
 40
2.475
 50
253.5004452823757
 51
314.2849397764983
  0
ENDBLK
  5
10387
  8
0
  0
BLOCK
  8
0
  2
_0051__Q
 70
     0
 10
0.0
 20
0.0
 30
0.0
  3
_0051__Q
  1

  0
ARC
  5
1FF
  8
0
 10
3.886379297840819
 20
1.966276113423197
 30
0.0
 40
1.949595754300742
 50
300.5483692509106
 51
335.9926065954557
  0
ARC
  5
200
  8
0
 10
4.191133176671031
 20
1.449904017049444
 30
0.0
 40
1.35
 50
271.399640499049
 51
300.5483692509102
  0
ARC
  5
201
  8
0
 10
4.202124834168473
 20
1.000038277672173
 30
0.0
 40
0.9
 50
238.7879284997823
 51
271.3996404990496
  0
ARC
  5
202
  8
0
 10
5.48468768477764
 20
3.116794648688281
 30
0.0
 40
3.375
 50
221.4954473727135
 51
238.7879284997824
  0
ARC
  5
203
  8
0
 10
-0.4137532219707794
 20
-2.100869567184275
 30
0.0
 40
4.5
 50
41.49544737271355
 51
49.36424800794135
  0
ARC
  5
204
  8
0
 10
1.784208333291218
 20
0.4603000877957395
 30
0.0
 40
1.125
 50
49.36424800794175
 51
86.88863504313667
  0
ARC
  5
205
  8
0
 10
1.808632928200467
 20
0.9096367535192466
 30
0.0
 40
0.675
 50
86.88863504313606
 51
169.7306605149767
  0
ARC
  5
206
  8
0
 10
3.263359522083761
 20
3.666302768583794
 30
0.0
 40
0.5181349626709065
 50
245.1796184247699
 51
325.86860356874
  0
ARC
  5
207
  8
0
 10
3.234758169792201
 20
3.604461554290583
 30
0.0
 40
0.45
 50
195.4750237995391
 51
245.1796184247698
  0
ARC
  5
208
  8
0
 10
5.294767073170959
 20
4.174785644611353
 30
0.0
 40
2.5875
 50
161.7571822770036
 51
195.4750237995391
  0
ARC
  5
209
  8
0
 10
6.04268604363736
 20
3.928262899988216
 30
0.0
 40
3.375
 50
129.380933168306
 51
161.7571822770036
  0
ARC
  5
20A
  8
0
 10
6.04268604363736
 20
3.928262899988216
 30
0.0
 40
3.375
 50
106.7232326933346
 51
129.3809331683062
  0
ARC
  5
20B
  8
0
 10
5.362879312798697
 20
6.190843077287233
 30
0.0
 40
1.0125
 50
21.33620127922963
 51
106.7232326933352
  0
ARC
  5
20C
  8
0
 10
4.210195671831286
 20
5.740591287900306
 30
0.0
 40
2.25
 50
352.3582747875607
 51
21.3362012792296
  0
ARC
  5
20D
  8
0
 10
0.8651691726576871
 20
6.189392713729717
 30
0.0
 40
5.625
 50
323.9158455348223
 51
352.3582747875608
  0
ARC
  5
20E
  8
0
 10
-3.680690323006786
 20
9.502365162404356
 30
0.0
 40
11.25
 50
308.6822219322594
 51
323.9158455348223
  0
ARC
  5
20F
  8
0
 10
1.592751140550405
 20
2.915847009355979
 30
0.0
 40
2.8125
 50
270.9993326530797
 51
308.6822219322593
  0
ARC
  5
210
  8
0
 10
1.61825825323362
 20
1.453569457998999
 30
0.0
 40
1.35
 50
201.4956185961619
 51
270.9993326530802
  0
ARC
  5
211
  8
0
 10
4.025786221452421
 20
2.401707281442533
 30
0.0
 40
3.9375
 50
169.5989010171768
 51
201.4956185961619
  0
ARC
  5
212
  8
0
 10
7.013374046112148
 20
1.853323073113327
 30
0.0
 40
6.975000000000001
 50
95.97180488076425
 51
169.5989010171768
  0
ARC
  5
213
  8
0
 10
6.580311505773835
 20
5.993234072900123
 30
0.0
 40
2.8125
 50
50.20421876537295
 51
95.97180488076425
  0
ARC
  5
214
  8
0
 10
7.732407136173379
 20
7.37622924946953
 30
0.0
 40
1.0125
 50
325.9880628581943
 51
50.20421876537264
  0
ENDBLK
  5
10389
  8
0
  0
BLOCK
  8
0
  2
_0052__R
 70
     0
 10
0.0
 20
0.0
 30
0.0
  3
_0052__R
  1

  0
ARC
  5
217
  8
0
 10
0.7234221467485611
 20
1.046426277291291
 30
0.0
 40
0.6128397971698537
 50
132.774805494967
 51
201.0865587124657
  0
ARC
  5
218
  8
0
 10
0.8863867465277338
 20
1.10926516391008
 30
0.0
 40
0.7875
 50
201.0865587124656
 51
246.4376090901739
  0
ARC
  5
219
  8
0
 10
1.875761669460644
 20
3.37791283639505
 30
0.0
 40
3.2625
 50
246.437609090174
 51
322.0892050768989
  0
ARC
  5
21A
  8
0
 10
-13.30201667950507
 20
15.19808418200876
 30
0.0
 40
22.5
 50
322.0892050768989
 51
332.0444457540137
  0
ARC
  5
21B
  8
0
 10
21.47837394306842
 20
-3.260384149388667
 30
0.0
 40
16.875
 50
143.2109898175932
 51
152.0444457540137
  0
ARC
  5
21C
  8
0
 10
11.47780634578155
 20
4.218004980771388
 30
0.0
 40
4.3875
 50
90.91923133997695
 51
143.2109898175932
  0
ARC
  5
21D
  8
0
 10
11.50668361116775
 20
2.418236633582279
 30
0.0
 40
6.1875
 50
70.76967477050197
 51
90.91923133997689
  0
ARC
  5
21E
  8
0
 10
13.1741011911451
 20
7.19826015486148
 30
0.0
 40
1.125
 50
35.3441885889394
 51
70.76967477050204
  0
ARC
  5
21F
  8
0
 10
5.992264014729955
 20
3.119708259739928
 30
0.0
 40
3.276775697311258
 50
303.7451516598662
 51
321.4429073068443
  0
ARC
  5
220
  8
0
 10
7.500043818486176
 20
0.8627429023630322
 30
0.0
 40
0.5625
 50
251.2031532303526
 51
303.7451516598656
  0
ARC
  5
221
  8
0
 10
7.500043818486176
 20
0.8627429023630322
 30
0.0
 40
0.5625
 50
163.7477778317657
 51
251.2031532303515
  0
ARC
  5
222
  8
0
 10
28.56089939706192
 20
-5.276822924987927
 30
0.0
 40
22.5
 50
160.3873451321358
 51
163.7477778317657
  0
ARC
  5
223
  8
0
 10
4.187080502513226
 20
3.408370077803769
 30
0.0
 40
3.375
 50
340.3873451321358
 51
354.8397924693639
  0
ARC
  5
224
  8
0
 10
7.128269398111598
 20
6.519262311494602
 30
0.0
 40
2.25
 50
282.3373316018533
 51
333.0796316899956
  0
ARC
  5
225
  8
0
 10
7.529505884041726
 20
6.315524042241011
 30
0.0
 40
1.8
 50
333.0796316899954
 51
41.99192424549733
  0
ARC
  5
226
  8
0
 10
6.108061045900371
 20
5.036012095395137
 30
0.0
 40
3.7125
 50
41.99192424549732
 51
87.35895844477756
  0
ARC
  5
227
  8
0
 10
6.045855004335209
 20
3.687446039025336
 30
0.0
 40
5.0625
 50
87.35895844477751
 51
138.0311548073883
  0
ARC
  5
228
  8
0
 10
3.954737184907515
 20
5.56823909390191
 30
0.0
 40
2.25
 50
138.0311548073881
 51
203.988483243627
  0
ARC
  5
229
  8
0
 10
2.926906590065386
 20
5.11086696061603
 30
0.0
 40
1.125
 50
203.9884832436268
 51
270.0689800396286
  0
ARC
  5
22A
  8
0
 10
2.925552170481694
 20
6.235866145303554
 30
0.0
 40
2.25
 50
270.0689800396287
 51
345.9303201420277
  0
ARC
  5
22B
  8
0
 10
-0.348200520091325
 20
7.056334499943645
 30
0.0
 40
5.625
 50
345.9303201420277
 51
352.6152710622041
  0
ARC
  5
22C
  8
0
 10
7.055246609707524
 20
6.853129778262168
 30
0.0
 40
2.591759876217351
 50
255.5094283936487
 51
282.3373316018531
  0
ARC
  5
22D
  8
0
 10
6.427961485679418
 20
3.206003036801397
 30
0.0
 40
1.125
 50
354.8397924693639
 51
91.45104772997883
  0
ENDBLK
  5
1038B
  8
0
  0
BLOCK
  8
0
  2
_0053__S
 70
     0
 10
0.0
 20
0.0
 30
0.0
  3
_0053__S
  1

  0
ARC
  5
230
  8
0
 10
2.991906098987471
 20
2.994362539134361
 30
0.0
 40
0.792467974187546
 50
131.1542729198056
 51
215.9882315825342
  0
ARC
  5
231
  8
0
 10
3.260970299860048
 20
3.189764698794224
 30
0.0
 40
1.125
 50
215.988231582534
 51
272.1267746128889
  0
ARC
  5
232
  8
0
 10
3.219220766866414
 20
4.313989754774926
 30
0.0
 40
2.25
 50
272.1267746128889
 51
328.6550101558937
  0
ARC
  5
233
  8
0
 10
3.891785637587816
 20
3.904340215935333
 30
0.0
 40
1.4625
 50
328.6550101558936
 51
44.29923830313253
  0
ARC
  5
234
  8
0
 10
2.92558791267237
 20
2.961492425266957
 30
0.0
 40
2.8125
 50
44.29923830313251
 51
263.8454833650725
  0
ARC
  5
235
  8
0
 10
3.588950594836746
 20
9.113330053318567
 30
0.0
 40
9.0
 50
263.8454833650725
 51
272.0723709732278
  0
ARC
  5
236
  8
0
 10
3.788292577085372
 20
3.604435515926043
 30
0.0
 40
3.4875
 50
272.0723709732279
 51
20.70226798920151
  0
ARC
  5
237
  8
0
 10
17.57419276493366
 20
8.814316729608816
 30
0.0
 40
11.25
 50
193.5065576860521
 51
200.7022679892015
  0
ARC
  5
238
  8
0
 10
9.916990100709739
 20
6.975058085751853
 30
0.0
 40
3.375
 50
180.743707860019
 51
193.5065576860521
  0
ARC
  5
239
  8
0
 10
8.342122780245376
 20
6.95461492226416
 30
0.0
 40
1.8
 50
73.55024680978606
 51
180.743707860019
  0
ARC
  5
23A
  8
0
 10
8.469551250020288
 20
7.386195720134994
 30
0.0
 40
1.35
 50
354.070546982428
 51
73.55024680978633
  0
ARC
  5
23B
  8
0
 10
8.133856927342265
 20
7.421060770281658
 30
0.0
 40
1.6875
 50
309.0682683837748
 51
354.0705469824279
  0
ARC
  5
23C
  8
0
 10
8.771980921136219
 20
6.634960256006001
 30
0.0
 40
0.675
 50
139.8444913375437
 51
309.0682683837746
  0
ENDBLK
  5
1038D
  8
0
  0
BLOCK
  8
0
  2
_0054__T
 70
     0
 10
0.0
 20
0.0
 30
0.0
  3
_0054__T
  1

  0
ARC
  5
23F
  8
0
 10
0.717638601299825
 20
1.128848416934905
 30
0.0
 40
0.6264905803152647
 50
136.9993803889041
 51
220.9545592337597
  0
ARC
  5
240
  8
0
 10
1.094127699497335
 20
1.455601535440025
 30
0.0
 40
1.125
 50
220.95455923376
 51
249.9648371544293
  0
ARC
  5
241
  8
0
 10
2.09622326702663
 20
4.203587975278875
 30
0.0
 40
4.05
 50
249.9648371544291
 51
331.4389730029735
  0
ARC
  5
242
  8
0
 10
-23.98953567682949
 20
18.40299572078119
 30
0.0
 40
33.75
 50
331.4389730029735
 51
336.4853773417626
  0
ARC
  5
243
  8
0
 10
17.27358684947134
 20
0.4487561273179009
 30
0.0
 40
11.25
 50
143.0320446192419
 51
156.4853773417626
  0
ARC
  5
244
  8
0
 10
10.53226084664561
 20
5.522800862401116
 30
0.0
 40
2.8125
 50
95.39973966923638
 51
143.0320446192418
  0
ARC
  5
245
  8
0
 10
10.76048263885807
 20
13.56422460653818
 30
0.0
 40
5.216715518224864
 50
268.5513152115062
 51
290.5151503685538
  0
LINE
  5
246
  8
0
 10
10.6285955911091
 20
8.349176514264801
 30
0.0
 11
5.327039551624978
 21
8.349176514264801
 31
0.0
  0
ARC
  5
247
  8
0
 10
5.327039551624978
 20
2.724176514264801
 30
0.0
 40
5.625
 50
90.0
 51
116.9905215080213
  0
ARC
  5
248
  8
0
 10
3.897433807027994
 20
5.531083604821114
 30
0.0
 40
2.475
 50
116.9905215080212
 51
162.5605803646144
  0
ARC
  5
249
  8
0
 10
2.824145149892757
 20
5.86824300104913
 30
0.0
 40
1.35
 50
162.5605803646143
 51
246.6733828546898
  0
ARC
  5
24A
  8
0
 10
3.225066931921532
 20
6.797983811541411
 30
0.0
 40
2.3625
 50
246.67338285469
 51
333.9002353198955
  0
ARC
  5
24B
  8
0
 10
4.538434904018317
 20
6.154578169764464
 30
0.0
 40
0.9
 50
333.9002353198957
 51
54.92819652749866
  0
ARC
  5
24C
  8
0
 10
4.797006052759059
 20
6.522872835811739
 30
0.0
 40
0.45
 50
54.9281965274974
 51
95.36141795999566
  0
ARC
  5
24D
  8
0
 10
4.86007663316849
 20
5.850825886643142
 30
0.0
 40
1.125
 50
95.36141795999552
 51
132.7668502051841
  0
ENDBLK
  5
1038F
  8
0
  0
BLOCK
  8
0
  2
_0055__U
 70
     0
 10
0.0
 20
0.0
 30
0.0
  3
_0055__U
  1

  0
ARC
  5
250
  8
0
 10
1.803443284577639
 20
9.02191503511863
 30
0.0
 40
10.19084700439633
 50
300.0798505496976
 51
308.5622550572315
  0
ARC
  5
251
  8
0
 10
6.460075772592319
 20
0.982287436114657
 30
0.0
 40
0.9
 50
255.675167277904
 51
300.0798505496974
  0
ARC
  5
252
  8
0
 10
6.348737234609132
 20
0.5462785715720135
 30
0.0
 40
0.45
 50
160.4934207861085
 51
255.6751672779051
  0
LINE
  5
253
  8
0
 10
5.924565815224412
 20
0.6965403663741733
 30
0.0
 11
10.50220524385054
 21
8.379101878115215
 31
0.0
  0
ARC
  5
254
  8
0
 10
0.15683092921293
 20
8.09498695308689
 30
0.0
 40
8.732837987656843
 50
312.2222586349581
 51
325.7813945252614
  0
ARC
  5
255
  8
0
 10
-5.31476977696002
 20
14.12461280776907
 30
0.0
 40
16.875
 50
307.3831807549414
 51
312.2222586349581
  0
ARC
  5
256
  8
0
 10
2.881655487589256
 20
3.397608897885453
 30
0.0
 40
3.375
 50
283.0663136201594
 51
307.3831807549413
  0
ARC
  5
257
  8
0
 10
3.517501636093101
 20
0.6579271781536107
 30
0.0
 40
0.5625
 50
179.8820919362962
 51
283.0663136201596
  0
ARC
  5
258
  8
0
 10
4.080000445031743
 20
0.6567696192620979
 30
0.0
 40
1.125
 50
156.3885374031999
 51
179.8820919362992
  0
ARC
  5
259
  8
0
 10
8.203272223219443
 20
-1.145625965286669
 30
0.0
 40
5.625
 50
146.4936202587703
 51
156.3885374031999
  0
ARC
  5
25A
  8
0
 10
-24.62856195571959
 20
20.59054870843758
 30
0.0
 40
33.75
 50
326.4936202587703
 51
333.8822172334524
  0
ARC
  5
25B
  8
0
 10
3.756016951310926
 20
6.674161371180905
 30
0.0
 40
2.1375
 50
333.8822172334524
 51
56.33930828767343
  0
ARC
  5
25C
  8
0
 10
4.005440038581327
 20
7.048711933236977
 30
0.0
 40
1.6875
 50
56.33930828767355
 51
85.98501496070666
  0
ARC
  5
25D
  8
0
 10
3.832147041555913
 20
4.579786147154706
 30
0.0
 40
4.162500000000001
 50
85.98501496070659
 51
143.0690935613648
  0
ARC
  5
25E
  8
0
 10
2.123513622227335
 20
5.864106235120934
 30
0.0
 40
2.025
 50
143.0690935613646
 51
202.7567266956702
  0
ARC
  5
25F
  8
0
 10
1.293573614363709
 20
5.515968929812609
 30
0.0
 40
1.125
 50
202.75672669567
 51
260.9468092727395
  0
ARC
  5
260
  8
0
 10
1.470593850770086
 20
6.626954454426963
 30
0.0
 40
2.25
 50
260.9468092727396
 51
333.8603541243671
  0
ARC
  5
261
  8
0
 10
2.581525994492097
 20
6.081760890593709
 30
0.0
 40
1.0125
 50
333.8603541243671
 51
39.81271890238763
  0
ARC
  5
262
  8
0
 10
2.927189628456489
 20
6.36988699519814
 30
0.0
 40
0.5625
 50
39.81271890238745
 51
93.20314043647521
  0
ARC
  5
263
  8
0
 10
2.964906083978207
 20
5.695941545637955
 30
0.0
 40
1.2375
 50
93.20314043647524
 51
144.3059720347721
  0
ENDBLK
  5
10391
  8
0
  0
BLOCK
  8
0
  2
_0056__V
 70
     0
 10
0.0
 20
0.0
 30
0.0
  3
_0056__V
  1

  0
ARC
  5
266
  8
0
 10
1.750577609668937
 20
8.242486447640568
 30
0.0
 40
2.894018793348807
 50
280.9885022544542
 51
323.1966804030136
  0
ARC
  5
267
  8
0
 10
1.894779173657042
 20
7.499838082912468
 30
0.0
 40
2.1375
 50
236.6677360681136
 51
280.9885022544543
  0
ARC
  5
268
  8
0
 10
1.462053133797127
 20
6.841883354661999
 30
0.0
 40
1.35
 50
168.1426100596664
 51
236.6677360681139
  0
ARC
  5
269
  8
0
 10
1.792351580946672
 20
6.772535061167495
 30
0.0
 40
1.6875
 50
101.4233454092749
 51
168.1426100596664
  0
ARC
  5
26A
  8
0
 10
2.349386161138682
 20
4.015749119809277
 30
0.0
 40
4.5
 50
72.25299593453715
 51
101.4233454092749
  0
ARC
  5
26B
  8
0
 10
0.2918882938220122
 20
-2.41303012091655
 30
0.0
 40
11.25
 50
67.95785670771491
 51
72.25299593453715
  0
ARC
  5
26C
  8
0
 10
5.527162479589777
 20
10.51733739898922
 30
0.0
 40
2.7
 50
247.9578567077147
 51
315.6211282472942
  0
ARC
  5
26D
  8
0
 10
22.59680451469924
 20
-4.915200267073743
 30
0.0
 40
20.31403117290702
 50
138.1841196306589
 51
149.3804333414272
  0
LINE
  5
26E
  8
0
 10
5.115196536192002
 20
5.431453538849714
 30
0.0
 11
2.676279382383456
 21
1.137163826315643
 31
0.0
  0
ARC
  5
26F
  8
0
 10
4.632756243557935
 20
0.0259940410492964
 30
0.0
 40
2.25
 50
150.4058400602389
 51
162.8196389299577
  0
ARC
  5
270
  8
0
 10
2.848584720898231
 20
0.5776173071740947
 30
0.0
 40
0.3825
 50
162.8196389299575
 51
315.7408652444987
  0
ARC
  5
271
  8
0
 10
-3.32318850278071
 20
6.591810646723432
 30
0.0
 40
9.0
 50
315.7408652444987
 51
327.072634993438
  0
ARC
  5
272
  8
0
 10
42.00227004746216
 20
-22.76126086564502
 30
0.0
 40
45.0
 50
139.5203631394718
 51
147.072634993438
  0
ARC
  5
273
  8
0
 10
12.65120007830168
 20
2.288885798904582
 30
0.0
 40
6.412500000000001
 50
96.46406504030976
 51
139.5203631394718
  0
ARC
  5
274
  8
0
 10
12.41056024321628
 20
4.41279698343422
 30
0.0
 40
4.275
 50
49.86288965190375
 51
96.46406504030971
  0
ENDBLK
  5
10393
  8
0
  0
BLOCK
  8
0
  2
_0057__W
 70
     0
 10
0.0
 20
0.0
 30
0.0
  3
_0057__W
  1

  0
ARC
  5
277
  8
0
 10
1.752452215181847
 20
8.242486447640568
 30
0.0
 40
2.894018793348807
 50
280.9885022544542
 51
323.1966804030136
  0
ARC
  5
278
  8
0
 10
1.896653779169952
 20
7.499838082912468
 30
0.0
 40
2.1375
 50
236.6677360681136
 51
280.9885022544543
  0
ARC
  5
279
  8
0
 10
1.463927739310037
 20
6.841883354661999
 30
0.0
 40
1.35
 50
168.1426100596664
 51
236.6677360681139
  0
ARC
  5
27A
  8
0
 10
1.794226186459582
 20
6.772535061167495
 30
0.0
 40
1.6875
 50
101.4233454092749
 51
168.1426100596664
  0
ARC
  5
27B
  8
0
 10
2.351260766651592
 20
4.015749119809277
 30
0.0
 40
4.5
 50
72.25299593453715
 51
101.4233454092749
  0
ARC
  5
27C
  8
0
 10
0.2937628993349222
 20
-2.41303012091655
 30
0.0
 40
11.25
 50
67.95785670771491
 51
72.25299593453715
  0
ARC
  5
27D
  8
0
 10
5.529037085102686
 20
10.51733739898922
 30
0.0
 40
2.7
 50
247.9578567077147
 51
315.6211282472942
  0
ARC
  5
27E
  8
0
 10
22.59867912021213
 20
-4.915200267073743
 30
0.0
 40
20.31403117290702
 50
138.1841196306589
 51
149.3804333414272
  0
LINE
  5
27F
  8
0
 10
5.117071141704912
 20
5.431453538849714
 30
0.0
 11
2.678153987896366
 21
1.137163826315643
 31
0.0
  0
ARC
  5
280
  8
0
 10
4.634630849070845
 20
0.0259940410492964
 30
0.0
 40
2.25
 50
150.4058400602389
 51
162.8196389299577
  0
ARC
  5
281
  8
0
 10
2.850459326411141
 20
0.5776173071740947
 30
0.0
 40
0.3825
 50
162.8196389299575
 51
315.7408652444987
  0
ARC
  5
282
  8
0
 10
-3.3213138972678
 20
6.591810646723432
 30
0.0
 40
9.0
 50
315.7408652444987
 51
327.072634993438
  0
ARC
  5
283
  8
0
 10
42.00414465297504
 20
-22.76126086564502
 30
0.0
 40
45.0
 50
139.5203631394718
 51
147.072634993438
  0
LINE
  5
284
  8
0
 10
7.796051741800198
 20
5.431453538849714
 30
0.0
 11
5.357134587991652
 21
1.137163826315643
 31
0.0
  0
ARC
  5
285
  8
0
 10
7.313611449166132
 20
0.0259940410492964
 30
0.0
 40
2.25
 50
150.4058400602389
 51
162.8196389299577
  0
ARC
  5
286
  8
0
 10
5.529439926506427
 20
0.5776173071740947
 30
0.0
 40
0.3825
 50
162.8196389299575
 51
315.7408652444987
  0
ARC
  5
287
  8
0
 10
-0.6423332971725131
 20
6.591810646723432
 30
0.0
 40
9.0
 50
315.7408652444987
 51
327.072634993438
  0
ARC
  5
288
  8
0
 10
44.68312525307036
 20
-22.76126086564502
 30
0.0
 40
45.0
 50
139.5203631394718
 51
147.072634993438
  0
ARC
  5
289
  8
0
 10
15.33205528390988
 20
2.288885798904582
 30
0.0
 40
6.412500000000001
 50
96.46406504030976
 51
139.5203631394718
  0
ARC
  5
28A
  8
0
 10
15.09141544882448
 20
4.41279698343422
 30
0.0
 40
4.275
 50
49.86288965190375
 51
96.46406504030971
  0
ARC
  5
28B
  8
0
 10
18.89980386092452
 20
-3.042486523288187
 30
0.0
 40
14.625
 50
126.2987806147885
 51
139.5203631394719
  0
ARC
  5
28C
  8
0
 10
25.27765972030744
 20
-4.915200267073743
 30
0.0
 40
20.31403117290702
 50
137.7457366295784
 51
149.3804333414272
  0
ENDBLK
  5
10395
  8
0
  0
BLOCK
  8
0
  2
_0058__X
 70
     0
 10
0.0
 20
0.0
 30
0.0
  3
_0058__X
  1

  0
ARC
  5
28F
  8
0
 10
0.7158949375464658
 20
0.9226072425805962
 30
0.0
 40
0.6301843093570537
 50
92.0752070456146
 51
228.7402291722812
  0
ARC
  5
290
  8
0
 10
1.190594684063058
 20
1.463712388696265
 30
0.0
 40
1.35
 50
228.7402291722809
 51
264.7840583212124
  0
ARC
  5
291
  8
0
 10
1.476960133115142
 20
4.600668688932084
 30
0.0
 40
4.5
 50
264.7840583212126
 51
288.4550812990467
  0
ARC
  5
292
  8
0
 10
1.833091362653875
 20
3.533525049421814
 30
0.0
 40
3.375
 50
288.4550812990466
 51
312.1207467449858
  0
ARC
  5
293
  8
0
 10
-3.448633681625182
 20
9.374672672674905
 30
0.0
 40
11.25
 50
312.1207467449858
 51
323.8492706266769
  0
ARC
  5
294
  8
0
 10
1.093373233355919
 20
6.056420394100572
 30
0.0
 40
5.625
 50
323.8492706266769
 51
4.234542383673466
  0
ARC
  5
295
  8
0
 10
4.234774181482237
 20
6.289014639754255
 30
0.0
 40
2.475
 50
4.234542383673466
 51
90.9906516393624
  0
ARC
  5
296
  8
0
 10
4.246444439665737
 20
5.614115532424921
 30
0.0
 40
3.15
 50
90.99065163936255
 51
157.4919310901359
  0
ARC
  5
297
  8
0
 10
3.103210222035955
 20
6.087847285256043
 30
0.0
 40
1.9125
 50
157.4919310901358
 51
211.3100107451559
  0
ARC
  5
298
  8
0
 10
2.718744601123973
 20
5.853996507329691
 30
0.0
 40
1.4625
 50
211.3100107451557
 51
279.1686951027412
  0
ARC
  5
299
  8
0
 10
2.629114828088603
 20
6.409309710653389
 30
0.0
 40
2.025
 50
279.1686951027414
 51
349.9013444120866
  0
ARC
  5
29A
  8
0
 10
3.958199675773585
 20
6.172595816565685
 30
0.0
 40
0.675
 50
349.9013444120866
 51
127.8214969553025
  0
ARC
  5
29B
  8
0
 10
4.923995142376612
 20
4.92846394385723
 30
0.0
 40
2.25
 50
127.8214969553024
 51
143.8172975015917
  0
ARC
  5
29C
  8
0
 10
8.95934032846111
 20
2.959898007435181
 30
0.0
 40
1.09919094947796
 50
107.1881119143647
 51
161.6057056968753
  0
ARC
  5
29D
  8
0
 10
8.900477443534982
 20
3.150193028736585
 30
0.0
 40
0.9
 50
26.24183223566251
 51
107.188111914365
  0
ARC
  5
29E
  8
0
 10
8.698666892447818
 20
3.050706841404376
 30
0.0
 40
1.125
 50
351.3921490258801
 51
26.24183223566234
  0
ARC
  5
29F
  8
0
 10
6.362778372091754
 20
3.404304169545815
 30
0.0
 40
3.4875
 50
294.3230148611834
 51
351.3921490258801
  0
ARC
  5
2A0
  8
0
 10
7.243172775221012
 20
1.456533149908574
 30
0.0
 40
1.35
 50
191.868657801761
 51
294.323014861183
  0
ARC
  5
2A1
  8
0
 10
9.885451196325818
 20
2.011839142460225
 30
0.0
 40
4.05
 50
156.7686117929756
 51
191.868657801761
  0
ARC
  5
2A2
  8
0
 10
47.51520018030649
 20
-14.14069909159475
 30
0.0
 40
45.0
 50
154.8183648505884
 51
156.7686117929756
  0
ARC
  5
2A3
  8
0
 10
14.93651490788952
 20
1.176913839955737
 30
0.0
 40
9.0
 50
136.5294374114617
 51
154.8183648505884
  0
ARC
  5
2A4
  8
0
 10
11.67073918732876
 20
4.272831949821683
 30
0.0
 40
4.5
 50
99.28679437990449
 51
136.5294374114617
  0
ENDBLK
  5
10397
  8
0
  0
BLOCK
  8
0
  2
_0059__Y
 70
     0
 10
0.0
 20
0.0
 30
0.0
  3
_0059__Y
  1

  0
ARC
  5
2A7
  8
0
 10
0.6192488387332276
 20
-2.961131502269078
 30
0.0
 40
0.5628844988352511
 50
103.0265637328015
 51
228.9009493313451
  0
ARC
  5
2A8
  8
0
 10
1.87620236191043
 20
-1.520210432131326
 30
0.0
 40
2.475
 50
228.900949331345
 51
271.0503929430722
  0
ARC
  5
2A9
  8
0
 10
1.828768859439776
 20
1.066854760870846
 30
0.0
 40
5.0625
 50
271.050392943072
 51
321.0505512539303
  0
ARC
  5
2AA
  8
0
 10
-11.73239057327822
 20
12.0286685291486
 30
0.0
 40
22.5
 50
321.0505512539303
 51
335.2112354740723
  0
ARC
  5
2AB
  8
0
 10
34.22800744598732
 20
-9.197080901924386
 30
0.0
 40
28.125
 50
146.0817396628314
 51
155.2112354740723
  0
ARC
  5
2AC
  8
0
 10
15.55673146817748
 20
3.358135279426791
 30
0.0
 40
5.625
 50
119.1990411244549
 51
146.0817396628316
  0
ARC
  5
2AD
  8
0
 10
14.23954983249678
 20
5.7150469321252
 30
0.0
 40
2.925
 50
90.67036715027933
 51
119.1990411244547
  0
ARC
  5
2AE
  8
0
 10
14.24481476365943
 20
5.265077732623887
 30
0.0
 40
3.375
 50
71.61083386690896
 51
90.67036715027967
  0
ARC
  5
2AF
  8
0
 10
15.09658271476525
 20
7.827204067812883
 30
0.0
 40
0.675
 50
351.6506221101598
 51
71.61083386691095
  0
ARC
  5
2B0
  8
0
 10
5.590473186606005
 20
-0.0632715079991464
 30
0.0
 40
1.249339352288408
 50
28.99879351738506
 51
87.68069760204563
  0
ARC
  5
2B1
  8
0
 10
5.54087264991756
 20
-1.287928117056974
 30
0.0
 40
2.475
 50
87.68069760204546
 51
113.6017479710174
  0
ARC
  5
2B2
  8
0
 10
-4.990539041305937
 20
11.94872071445109
 30
0.0
 40
14.52110740044251
 50
306.4170964093054
 51
322.6358874732248
  0
ARC
  5
2B3
  8
0
 10
1.185897467012637
 20
7.232605545382196
 30
0.0
 40
6.75
 50
322.6358874732248
 51
344.0693067298049
  0
ARC
  5
2B4
  8
0
 10
4.972175464196084
 20
6.151862662895939
 30
0.0
 40
2.8125
 50
344.069306729805
 51
43.96008388316448
  0
ARC
  5
2B5
  8
0
 10
5.377076223310525
 20
6.542326009791061
 30
0.0
 40
2.25
 50
43.96008388316454
 51
91.93137022826718
  0
ARC
  5
2B6
  8
0
 10
5.418782926168348
 20
5.305529017177993
 30
0.0
 40
3.4875
 50
91.9313702282676
 51
142.7164045792065
  0
ARC
  5
2B7
  8
0
 10
4.344659542099777
 20
6.123305854583621
 30
0.0
 40
2.1375
 50
142.7164045792062
 51
204.3748127394916
  0
ARC
  5
2B8
  8
0
 10
3.422408553655799
 20
5.70544300110881
 30
0.0
 40
1.125
 50
204.3748127394912
 51
240.9628632244479
  0
ARC
  5
2B9
  8
0
 10
3.913852169804216
 20
6.59067710695142
 30
0.0
 40
2.1375
 50
240.9628632244474
 51
341.9703483030102
  0
ARC
  5
2BA
  8
0
 10
4.983610694670887
 20
6.242479320520971
 30
0.0
 40
1.0125
 50
341.9703483030105
 51
157.0647337063408
  0
ARC
  5
2BB
  8
0
 10
0.0816617623117111
 20
8.653517968229719
 30
0.0
 40
10.45802845970622
 50
309.141632321771
 51
327.5059388021175
  0
ENDBLK
  5
10399
  8
0
  0
BLOCK
  8
0
  2
_005A__Z
 70
     0
 10
0.0
 20
0.0
 30
0.0
  3
_005A__Z
  1

  0
ARC
  5
2BE
  8
0
 10
7.891696299703028
 20
2.331150218514001
 30
0.0
 40
0.8594861865707913
 50
78.0752595738678
 51
167.7352262721067
  0
ARC
  5
2BF
  8
0
 10
7.929816069451533
 20
2.511655166340238
 30
0.0
 40
0.675
 50
357.6215864417084
 51
78.07525957386604
  0
ARC
  5
2C0
  8
0
 10
6.918188301722154
 20
2.553673133436964
 30
0.0
 40
1.6875
 50
331.0555338334165
 51
357.6215864417084
  0
ARC
  5
2C1
  8
0
 10
5.44147528160002
 20
3.370358449946227
 30
0.0
 40
3.375
 50
310.8636094384186
 51
331.0555338334165
  0
ARC
  5
2C2
  8
0
 10
6.545540065376855
 20
2.094154233049973
 30
0.0
 40
1.6875
 50
285.8719968197258
 51
310.8636094384187
  0
ARC
  5
2C3
  8
0
 10
5.776351867169836
 20
4.799427928212642
 30
0.0
 40
4.5
 50
269.0334706994955
 51
285.8719968197261
  0
ARC
  5
2C4
  8
0
 10
5.814305583920827
 20
7.049107797746259
 30
0.0
 40
6.75
 50
248.946060295473
 51
269.0334706994954
  0
ARC
  5
2C5
  8
0
 10
1.166551571204849
 20
-5.024718807240348
 30
0.0
 40
6.1875
 50
68.94606029547312
 51
92.74745478728097
  0
ARC
  5
2C6
  8
0
 10
0.9778124018782819
 20
-1.091744897339352
 30
0.0
 40
2.25
 50
92.74745478728075
 51
107.9342666157222
  0
ARC
  5
2C7
  8
0
 10
0.3889045420148705
 20
0.7278275201783107
 30
0.0
 40
0.3375
 50
107.9342666157258
 51
253.1857128493791
  0
ARC
  5
2C8
  8
0
 10
1.462821284618229
 20
4.281608475717939
 30
0.0
 40
4.05
 50
253.1857128493794
 51
328.6843226031593
  0
ARC
  5
2C9
  8
0
 10
-14.29932083757973
 20
13.87104932071154
 30
0.0
 40
22.5
 50
328.6843226031592
 51
330.063208112746
  0
LINE
  5
2CA
  8
0
 10
5.198649771731567
 20
2.642552443638824
 30
0.0
 11
7.066789394993123
 21
6.009013061162929
 31
0.0
  0
ARC
  5
2CB
  8
0
 10
26.74057624754641
 20
-4.908500890296048
 30
0.0
 40
22.5
 50
146.605859591474
 51
150.9729265409249
  0
ARC
  5
2CC
  8
0
 10
10.11554723915359
 20
6.051246676144413
 30
0.0
 40
2.5875
 50
97.04511219239535
 51
146.605859591474
  0
ARC
  5
2CD
  8
0
 10
9.839582954892649
 20
8.284258927300309
 30
0.0
 40
0.3375
 50
326.4731833921469
 51
97.04511219239645
  0
ARC
  5
2CE
  8
0
 10
8.714185960569154
 20
9.029900667794751
 30
0.0
 40
1.6875
 50
246.8841998341767
 51
326.4731833921464
  0
ARC
  5
2CF
  8
0
 10
-14.03154097563157
 20
-44.2559868859825
 30
0.0
 40
56.25
 50
66.8841998341767
 51
69.00141214451978
  0
ARC
  5
2D0
  8
0
 10
2.093981318960914
 20
-2.244470242012095
 30
0.0
 40
11.25
 50
69.00141214451988
 51
76.68233324419042
  0
ARC
  5
2D1
  8
0
 10
4.03755774967695
 20
5.96612759906898
 30
0.0
 40
2.8125
 50
76.6823332441903
 51
153.3945351215597
  0
ARC
  5
2D2
  8
0
 10
2.931094736925445
 20
6.520335007367363
 30
0.0
 40
1.575
 50
153.3945351215599
 51
245.5601399836228
  0
ARC
  5
2D3
  8
0
 10
3.070731272093411
 20
6.827593673715911
 30
0.0
 40
1.9125
 50
245.5601399836225
 51
332.6550161942317
  0
ARC
  5
2D4
  8
0
 10
3.870162451433572
 20
6.414181301502844
 30
0.0
 40
1.0125
 50
332.6550161942314
 51
33.39566621003694
  0
ARC
  5
2D5
  8
0
 10
4.245862725819308
 20
6.661869217692694
 30
0.0
 40
0.5625
 50
33.39566621003588
 51
76.30946965555224
  0
ARC
  5
2D6
  8
0
 10
4.139357820025879
 20
6.224654504946273
 30
0.0
 40
1.0125
 50
76.30946965555208
 51
130.2218787914677
  0
LINE
  5
2D7
  8
0
 10
7.030878958372654
 20
4.620476178503766
 30
0.0
 11
5.797953967735595
 21
4.656386615124262
 31
0.0
  0
ENDBLK
  5
1039B
  8
0
  0
BLOCK
  8
0
  2
_0061__A
 70
     0
 10
0.0
 20
0.0
 30
0.0
  3
_0061__A
  1

  0
ARC
  5
2DA
  8
0
 10
1.578685522360161
 20
2.491754124356548
 30
0.0
 40
2.460515134516057
 50
282.5229027540523
 51
318.2353492686857
  0
ARC
  5
2DB
  8
0
 10
2.039018575400462
 20
0.4192467681180078
 30
0.0
 40
0.3375
 50
154.1378693518882
 51
282.5229027540487
  0
ARC
  5
2DC
  8
0
 10
2.135273518681657
 20
1.064127698666987
 30
0.0
 40
1.6875
 50
80.25489551238879
 51
130.8299330241711
  0
ARC
  5
2DD
  8
0
 10
3.238588004503271
 20
-0.2127252276233661
 30
0.0
 40
3.375
 50
130.8299330241714
 51
159.7058330026866
  0
ARC
  5
2DE
  8
0
 10
0.7061925306615251
 20
0.7237432256978605
 30
0.0
 40
0.675
 50
159.7058330026867
 51
284.9978447180575
  0
ARC
  5
2DF
  8
0
 10
2.115701611216593
 20
0.9501675677983753
 30
0.0
 40
1.803128590709268
 50
65.7865010014735
 51
80.25489551238867
  0
LINE
  5
2E0
  8
0
 10
1.735320454431303
 20
0.566466676146172
 30
0.0
 11
2.855233020467665
 21
2.594663238015944
 31
0.0
  0
ARC
  5
2E1
  8
0
 10
0.4441750368741566
 20
1.701752981758298
 30
0.0
 40
1.6875
 50
284.9978447180574
 51
325.3596294486575
  0
ENDBLK
  5
1039D
  8
0
  0
BLOCK
  8
0
  2
_0062__B
 70
     0
 10
0.0
 20
0.0
 30
0.0
  3
_0062__B
  1

  0
ARC
  5
2E4
  8
0
 10
1.416307664566375
 20
2.321926218370147
 30
0.0
 40
2.232399252914519
 50
278.648981082593
 51
319.7998572978102
  0
ARC
  5
2E5
  8
0
 10
0.7369483438352518
 20
6.788153644666645
 30
0.0
 40
6.75
 50
267.7833109548276
 51
278.6489810825931
  0
ARC
  5
2E6
  8
0
 10
0.4932714530992826
 20
0.4928679821314436
 30
0.0
 40
0.45
 50
168.3835527920793
 51
267.7833109548294
  0
ARC
  5
2E7
  8
0
 10
2.2564029319106
 20
0.1304215882681124
 30
0.0
 40
2.25
 50
154.793363037652
 51
168.3835527920793
  0
ARC
  5
2E8
  8
0
 10
20.57815187258967
 20
-8.493731457377795
 30
0.0
 40
22.5
 50
140.4902561025243
 51
154.793363037652
  0
ARC
  5
2E9
  8
0
 10
5.822900745530035
 20
3.673774005016918
 30
0.0
 40
3.375
 50
121.3323486164928
 51
140.4902561025242
  0
ARC
  5
2EA
  8
0
 10
4.243396347688389
 20
6.268301342933939
 30
0.0
 40
0.3375
 50
343.5734103400786
 51
121.3323486164948
  0
ARC
  5
2EB
  8
0
 10
1.329878461972186
 20
7.12726570751013
 30
0.0
 40
3.375
 50
321.9908222494409
 51
343.5734103400786
  0
ARC
  5
2EC
  8
0
 10
1.692019022140727
 20
1.545331730112497
 30
0.0
 40
1.125
 50
69.99239798828056
 51
102.6535745130741
  0
ARC
  5
2ED
  8
0
 10
1.884475482748314
 20
2.073883298807924
 30
0.0
 40
0.5625
 50
28.49330649866546
 51
69.99239798828177
  0
ARC
  5
2EE
  8
0
 10
1.390109504574582
 20
1.805539247962083
 30
0.0
 40
1.125
 50
339.0697464052283
 51
28.49330649866511
  0
ARC
  5
2EF
  8
0
 10
-2.21572610337472
 20
9.898310323930298
 30
0.0
 40
7.875
 50
294.8136747219969
 51
321.990822249441
  0
ARC
  5
2F0
  8
0
 10
0.4444183272827615
 20
2.167235871104303
 30
0.0
 40
2.1375
 50
275.2871688861302
 51
339.0697464052285
  0
ARC
  5
2F1
  8
0
 10
1.396293856197133
 20
2.862543416299505
 30
0.0
 40
0.225
 50
197.7352984450861
 51
282.6535745130715
  0
ENDBLK
  5
1039F
  8
0
  0
BLOCK
  8
0
  2
_0063__C
 70
     0
 10
0.0
 20
0.0
 30
0.0
  3
_0063__C
  1

  0
ARC
  5
2F4
  8
0
 10
0.2422997217150851
 20
2.536173843758227
 30
0.0
 40
2.543966378801884
 50
294.1303525298723
 51
322.3035497597244
  0
ARC
  5
2F5
  8
0
 10
0.5924351494096527
 20
1.754547436648569
 30
0.0
 40
1.6875
 50
267.9679434538207
 51
294.130352529872
  0
ARC
  5
2F6
  8
0
 10
0.5485550791165963
 20
0.5178256452051275
 30
0.0
 40
0.45
 50
176.1442844177453
 51
267.967943453821
  0
ARC
  5
2F7
  8
0
 10
2.568971593780447
 20
0.3816562386793244
 30
0.0
 40
2.475
 50
115.1629704655534
 51
176.1442844177453
  0
ARC
  5
2F8
  8
0
 10
1.89929037526403
 20
1.807191950461506
 30
0.0
 40
0.9
 50
78.48755771418132
 51
115.1629704655542
  0
ARC
  5
2F9
  8
0
 10
2.022780951357873
 20
2.413493558669845
 30
0.0
 40
0.28125
 50
277.4186925055616
 51
78.4875577141836
  0
ENDBLK
  5
103A1
  8
0
  0
BLOCK
  8
0
  2
_0064__D
 70
     0
 10
0.0
 20
0.0
 30
0.0
  3
_0064__D
  1

  0
ARC
  5
2FC
  8
0
 10
1.744437957958382
 20
1.926279348125957
 30
0.0
 40
1.850960882477964
 50
291.7295177033287
 51
330.0992487367217
  0
ARC
  5
2FD
  8
0
 10
1.596703549144536
 20
2.296963528750367
 30
0.0
 40
2.25
 50
278.8001588038756
 51
291.7295177033288
  0
ARC
  5
2FE
  8
0
 10
1.90650541414152
 20
0.2958019149759021
 30
0.0
 40
0.225
 50
145.9633901152098
 51
278.8001588038717
  0
LINE
  5
2FF
  8
0
 10
1.720052391697493
 20
0.4217394805450824
 30
0.0
 11
4.659030558949837
 21
5.676721820969101
 31
0.0
  0
ARC
  5
300
  8
0
 10
0.5753813068304226
 20
1.754547436648569
 30
0.0
 40
1.6875
 50
267.9679434538207
 51
294.130352529872
  0
ARC
  5
301
  8
0
 10
0.5315012365373377
 20
0.5178256452051275
 30
0.0
 40
0.45
 50
176.1442844177453
 51
267.967943453821
  0
ARC
  5
302
  8
0
 10
2.551917751201188
 20
0.3816562386793244
 30
0.0
 40
2.475
 50
115.1629704655534
 51
176.1442844177453
  0
ARC
  5
303
  8
0
 10
0.2252458791357981
 20
2.536173843758227
 30
0.0
 40
2.543966378801884
 50
294.1303525298723
 51
307.4961920002119
  0
ARC
  5
304
  8
0
 10
1.882236532684772
 20
1.807191950461506
 30
0.0
 40
0.9
 50
24.33206705507201
 51
115.1629704655542
  0
ENDBLK
  5
103A3
  8
0
  0
BLOCK
  8
0
  2
_0065__E
 70
     0
 10
0.0
 20
0.0
 30
0.0
  3
_0065__E
  1

  0
ARC
  5
307
  8
0
 10
0.2279076031472869
 20
2.536173843758227
 30
0.0
 40
2.543966378801884
 50
294.1303525298723
 51
322.3035497597244
  0
ARC
  5
308
  8
0
 10
0.5780430308418545
 20
1.754547436648569
 30
0.0
 40
1.6875
 50
267.9679434538207
 51
294.130352529872
  0
ARC
  5
309
  8
0
 10
0.5341629605488265
 20
0.5178256452051275
 30
0.0
 40
0.45
 50
176.1442844177453
 51
267.967943453821
  0
ARC
  5
30A
  8
0
 10
2.554579475212677
 20
0.3816562386793244
 30
0.0
 40
2.475
 50
115.1629704655534
 51
176.1442844177453
  0
ARC
  5
30B
  8
0
 10
1.741395138442726
 20
2.112663888700545
 30
0.0
 40
0.5625
 50
71.72917547614387
 51
115.1629704655548
  0
ARC
  5
30C
  8
0
 10
1.847204412482597
 20
2.433148907893569
 30
0.0
 40
0.225
 50
345.9244603270278
 51
71.72917547613841
  0
ARC
  5
30D
  8
0
 10
0.8651037839911169
 20
2.679389858014948
 30
0.0
 40
1.2375
 50
246.4232161682178
 51
345.9244603270279
  0
ENDBLK
  5
103A5
  8
0
  0
BLOCK
  8
0
  2
_0066__F
 70
     0
 10
0.0
 20
0.0
 30
0.0
  3
_0066__F
  1

  0
ARC
  5
310
  8
0
 10
-10.90550417307483
 20
6.255286993010152
 30
0.0
 40
14.27446514693995
 50
320.3256086044427
 51
336.2606898237257
  0
ARC
  5
311
  8
0
 10
24.81696847776738
 20
-9.455022606566867
 30
0.0
 40
24.75
 50
141.9589766933298
 51
156.2606898237256
  0
ARC
  5
312
  8
0
 10
6.299234892905645
 20
5.033980089619105
 30
0.0
 40
1.2375
 50
70.20629931527849
 51
141.9589766933304
  0
LINE
  5
313
  8
0
 10
4.435477664231996
 20
2.917722975415903
 30
0.0
 11
3.381538303321918
 21
2.917722975415903
 31
0.0
  0
ARC
  5
314
  8
0
 10
1.470226169764601
 20
3.03407983132862
 30
0.0
 40
3.18267600910789
 50
277.1093522953219
 51
322.3340267254924
  0
ENDBLK
  5
103A7
  8
0
  0
BLOCK
  8
0
  2
_0067__G
 70
     0
 10
0.0
 20
0.0
 30
0.0
  3
_0067__G
  1

  0
ARC
  5
317
  8
0
 10
2.276539188078914
 20
3.439258291963091
 30
0.0
 40
3.709271334433772
 50
283.4962638174679
 51
322.3416822625929
  0
ARC
  5
318
  8
0
 10
5.242653796453624
 20
-8.919048306525481
 30
0.0
 40
9.0
 50
103.4962638174678
 51
120.149101051871
  0
ARC
  5
319
  8
0
 10
1.51343294838739
 20
-2.498492499872296
 30
0.0
 40
1.575
 50
120.1491010518717
 51
149.7834588944418
  0
ARC
  5
31A
  8
0
 10
0.6385017833528082
 20
-1.988932192890591
 30
0.0
 40
0.5625
 50
149.7834588944423
 51
283.203921411646
  0
ARC
  5
31B
  8
0
 10
0.2530472473446821
 20
-0.3460441715480657
 30
0.0
 40
2.25
 50
283.2039214116464
 51
325.1410239025453
  0
ARC
  5
31C
  8
0
 10
3.885232367205788
 20
1.494346815242188
 30
0.0
 40
1.35
 50
88.91907581333636
 51
128.5843529136714
  0
ARC
  5
31D
  8
0
 10
5.148156311925561
 20
-0.0885770963383384
 30
0.0
 40
3.375
 50
128.5843529136712
 51
157.0814650918258
  0
ARC
  5
31E
  8
0
 10
3.283010869689917
 20
0.7000023094968654
 30
0.0
 40
1.35
 50
157.0814650918259
 51
181.8027715504549
  0
ARC
  5
31F
  8
0
 10
2.439678492380779
 20
0.6734586872457413
 30
0.0
 40
0.50625
 50
181.802771550455
 51
270.4545880594224
  0
ARC
  5
320
  8
0
 10
3.886759241504763
 20
1.57527115308597
 30
0.0
 40
1.269061258963464
 50
53.21961425575817
 51
88.919075813337
  0
LINE
  5
321
  8
0
 10
2.099310224763769
 20
-1.63205078825405
 30
0.0
 11
4.646608967722841
 21
2.591708496245046
 31
0.0
  0
ARC
  5
322
  8
0
 10
2.43209162865611
 20
1.629678589778011
 30
0.0
 40
1.4625
 50
270.4545880594229
 51
312.0299343577452
  0
ENDBLK
  5
103A9
  8
0
  0
BLOCK
  8
0
  2
_0068__H
 70
     0
 10
0.0
 20
0.0
 30
0.0
  3
_0068__H
  1

  0
LINE
  5
325
  8
0
 10
0.1489618039852303
 20
0.1077313098615171
 30
0.0
 11
3.093617606866644
 21
5.266864037674148
 31
0.0
  0
ARC
  5
326
  8
0
 10
6.611006323259574
 20
3.259259341078708
 30
0.0
 40
4.05
 50
121.1538878681448
 51
150.2837594302469
  0
ARC
  5
327
  8
0
 10
4.6903873750407
 20
6.436345916188484
 30
0.0
 40
0.3375
 50
352.5148698079337
 51
121.1538878681413
  0
ARC
  5
328
  8
0
 10
3.351891125896827
 20
6.612208905551968
 30
0.0
 40
1.6875
 50
325.9632780402853
 51
352.5148698079338
  0
ARC
  5
329
  8
0
 10
-1.309428276607036
 20
9.760657162684565
 30
0.0
 40
7.3125
 50
296.1336164732812
 51
325.9632780402855
  0
ARC
  5
32A
  8
0
 10
1.220289829830506
 20
2.914730439030758
 30
0.0
 40
3.135047160032465
 50
300.1383341711585
 51
322.7581991192013
  0
ARC
  5
32B
  8
0
 10
2.398968517889841
 20
0.8845348280387493
 30
0.0
 40
0.7875
 50
270.0537538527319
 51
300.13833417116
  0
ARC
  5
32C
  8
0
 10
2.399496245027535
 20
0.3220350755907431
 30
0.0
 40
0.225
 50
170.6105563186061
 51
270.0537538527361
  0
ARC
  5
32D
  8
0
 10
4.064387519034142
 20
0.0467292533917307
 30
0.0
 40
1.9125
 50
140.1070918447441
 51
170.610556318606
  0
ARC
  5
32E
  8
0
 10
0.8707321128167678
 20
2.716368067227535
 30
0.0
 40
2.25
 50
320.1070918447441
 51
348.8304765170923
  0
ARC
  5
32F
  8
0
 10
2.747006174386002
 20
2.345892837445036
 30
0.0
 40
0.3375
 50
348.8304765170928
 51
93.31447872008226
  0
ARC
  5
330
  8
0
 10
2.857579862347166
 20
0.4365919943271512
 30
0.0
 40
2.25
 50
93.31447872008242
 51
136.9550334078857
  0
ENDBLK
  5
103AB
  8
0
  0
BLOCK
  8
0
  2
_0069__I
 70
     0
 10
0.0
 20
0.0
 30
0.0
  3
_0069__I
  1

  0
ARC
  5
333
  8
0
 10
-1.899158111473355
 20
4.057879338119315
 30
0.0
 40
4.693533600282011
 50
305.5546643848725
 51
319.2402112101261
  0
ARC
  5
334
  8
0
 10
0.4375364649820881
 20
0.7885566631667067
 30
0.0
 40
0.675
 50
262.167767915467
 51
305.5546643848716
  0
ARC
  5
335
  8
0
 10
0.383879009791201
 20
0.3984798245791784
 30
0.0
 40
0.28125
 50
168.0576887767102
 51
262.1677679154659
  0
ARC
  5
336
  8
0
 10
2.310018256296416
 20
-0.0089071727246743
 30
0.0
 40
2.25
 50
151.3206009116696
 51
168.05768877671
  0
LINE
  5
337
  8
0
 10
0.3360510166932045
 20
1.070886019036231
 30
0.0
 11
1.189139437891981
 21
2.633432018837074
 31
0.0
  0
POINT
  5
338
  8
0
 10
1.799616860440551
 20
3.686804826371904
 30
0.0
  0
ENDBLK
  5
103AD
  8
0
  0
BLOCK
  8
0
  2
_006A__J
 70
     0
 10
0.0
 20
0.0
 30
0.0
  3
_006A__J
  1

  0
ARC
  5
33B
  8
0
 10
1.034604335990423
 20
4.467670070388796
 30
0.0
 40
4.68112766066584
 50
290.2758795892696
 51
318.6747215247086
  0
ARC
  5
33C
  8
0
 10
4.801027127937175
 20
-5.727482041203003
 30
0.0
 40
6.1875
 50
110.2758795892697
 51
134.2301532152363
  0
ARC
  5
33D
  8
0
 10
1.897507317061468
 20
-2.744869267500668
 30
0.0
 40
2.025
 50
134.2301532152366
 51
153.353230615799
  0
ARC
  5
33E
  8
0
 10
0.4897905204177277
 20
-2.038499378245045
 30
0.0
 40
0.45
 50
153.3532306157991
 51
204.8895070190747
  0
ARC
  5
33F
  8
0
 10
0.2856882714903577
 20
-2.133195059154017
 30
0.0
 40
0.225
 50
204.8895070190762
 51
275.6539931543355
  0
ARC
  5
340
  8
0
 10
0.2302703681165781
 20
-1.573431621632727
 30
0.0
 40
0.7875
 50
275.6539931543341
 51
309.548615335052
  0
ARC
  5
341
  8
0
 10
-3.208086281455394
 20
2.590425190307877
 30
0.0
 40
6.1875
 50
309.5486153350519
 51
337.8673188437346
  0
ARC
  5
342
  8
0
 10
8.255048035287189
 20
-2.071889324642795
 30
0.0
 40
6.1875
 50
142.5570254188414
 51
157.8673188437347
  0
ARC
  5
343
  8
0
 10
-1.570192561766817
 20
5.451758208967555
 30
0.0
 40
6.1875
 50
322.5570254188415
 51
334.3570678672054
  0
LINE
  5
344
  8
0
 10
4.502123639833371
 20
3.998028610416311
 30
0.0
 11
4.609854949694864
 21
3.986058464876142
 31
0.0
  0
ENDBLK
  5
103AF
  8
0
  0
BLOCK
  8
0
  2
_006B__K
 70
     0
 10
0.0
 20
0.0
 30
0.0
  3
_006B__K
  1

  0
LINE
  5
347
  8
0
 10
0.0432098523561422
 20
0.1168959525407102
 30
0.0
 11
3.456571666544903
 21
6.148727103641354
 31
0.0
  0
ARC
  5
348
  8
0
 10
1.654924260991493
 20
1.824575056646383
 30
0.0
 40
1.848861891815391
 50
291.5823599397327
 51
320.9881743105445
  0
ARC
  5
349
  8
0
 10
2.210861017202035
 20
0.419175081149768
 30
0.0
 40
0.3375
 50
202.114126622623
 51
291.5823599397326
  0
ARC
  5
34A
  8
0
 10
5.024909888287368
 20
1.562650136034447
 30
0.0
 40
3.375
 50
189.3869622103781
 51
202.1141266226228
  0
ARC
  5
34B
  8
0
 10
0.9181486717436087
 20
0.8837403038093302
 30
0.0
 40
0.7875
 50
9.386962210377989
 51
89.66214231650737
  0
ARC
  5
34C
  8
0
 10
2.445695076072582
 20
2.472421825885036
 30
0.0
 40
0.4939586179652053
 50
329.4919405609576
 51
32.62988281957387
  0
ARC
  5
34D
  8
0
 10
2.289717468559218
 20
2.564329213855045
 30
0.0
 40
0.675
 50
295.8575949889296
 51
329.4919405609573
  0
ARC
  5
34E
  8
0
 10
-0.3598081223139502
 20
8.031105150667216
 30
0.0
 40
6.75
 50
290.3713952555774
 51
295.8575949889296
  0
ARC
  5
34F
  8
0
 10
1.441630433238913
 20
3.179770887748625
 30
0.0
 40
1.575
 50
260.3932539791015
 51
290.371395255577
  0
ENDBLK
  5
103B1
  8
0
  0
BLOCK
  8
0
  2
_006C__L
 70
     0
 10
0.0
 20
0.0
 30
0.0
  3
_006C__L
  1

  0
ARC
  5
352
  8
0
 10
-0.047303545113607
 20
2.055535588454032
 30
0.0
 40
2.002439378702398
 50
287.29584096658
 51
327.4028571227007
  0
ARC
  5
353
  8
0
 10
0.4476922031032018
 20
0.4658808007717435
 30
0.0
 40
0.3375
 50
151.8930177344151
 51
287.2958409665786
  0
ARC
  5
354
  8
0
 10
29.91983804538188
 20
-15.27539537689104
 30
0.0
 40
33.75
 50
146.7561719499263
 51
151.8930177344151
  0
ARC
  5
355
  8
0
 10
-26.53346387308773
 20
21.72831663288053
 30
0.0
 40
33.75
 50
326.7561719499263
 51
332.4754078852018
  0
ENDBLK
  5
103B3
  8
0
  0
BLOCK
  8
0
  2
_006D__M
 70
     0
 10
0.0
 20
0.0
 30
0.0
  3
_006D__M
  1

  0
LINE
  5
358
  8
0
 10
0.0697358116066766
 20
0.1636543335569942
 30
0.0
 11
1.425728861078881
 21
2.571710955895623
 31
0.0
  0
LINE
  5
359
  8
0
 10
1.776416718701057
 20
0.1636543335569942
 30
0.0
 11
2.898617863091886
 21
2.197643907765351
 31
0.0
  0
ARC
  5
35A
  8
0
 10
2.603110394732823
 20
2.360682510997927
 30
0.0
 40
0.3375
 50
331.1134182330899
 51
87.78259970867003
  0
ARC
  5
35B
  8
0
 10
2.542171635284092
 20
0.7868618517114728
 30
0.0
 40
1.9125
 50
87.78259970866978
 51
135.7598006496747
  0
ARC
  5
35C
  8
0
 10
4.602900906054686
 20
0.2820006557460258
 30
0.0
 40
2.483193734874902
 50
104.0518100520965
 51
137.9185744544552
  0
ARC
  5
35D
  8
0
 10
4.13655801857135
 20
2.145220646643883
 30
0.0
 40
0.5625
 50
54.27467702664698
 51
104.051810052097
  0
ARC
  5
35E
  8
0
 10
4.267935534390517
 20
2.327881393212983
 30
0.0
 40
0.3375
 50
344.5917326114498
 51
54.27467702664497
  0
ARC
  5
35F
  8
0
 10
1.339612165223855
 20
3.134930645484619
 30
0.0
 40
3.375
 50
330.636249053735
 51
344.5917326114497
  0
ARC
  5
360
  8
0
 10
33.69494862966855
 20
-15.06940475223244
 30
0.0
 40
33.75
 50
150.636249053735
 51
152.1540999629527
  0
ARC
  5
361
  8
0
 10
4.648746514562902
 20
0.2746704133951749
 30
0.0
 40
0.9
 50
152.1540999629532
 51
175.5123947605448
  0
ARC
  5
362
  8
0
 10
4.087970980142814
 20
0.3186823435483548
 30
0.0
 40
0.3375
 50
175.5123947605449
 51
222.541311519809
  0
ARC
  5
363
  8
0
 10
4.005082101792823
 20
0.242618660716919
 30
0.0
 40
0.225
 50
222.5413115198074
 51
235.9603264047448
  0
ARC
  5
364
  8
0
 10
3.942108334105626
 20
0.1493955166845478
 30
0.0
 40
0.1125
 50
235.9603264047453
 51
283.0932558458123
  0
ARC
  5
365
  8
0
 10
3.508856969177998
 20
2.012175564030003
 30
0.0
 40
2.025
 50
283.0932558458129
 51
332.142935420514
  0
ENDBLK
  5
103B5
  8
0
  0
BLOCK
  8
0
  2
_006E__N
 70
     0
 10
0.0
 20
0.0
 30
0.0
  3
_006E__N
  1

  0
LINE
  5
368
  8
0
 10
0.0365369139061045
 20
0.2104127145732785
 30
0.0
 11
1.299013201345758
 21
2.571710955895624
 31
0.0
  0
ARC
  5
369
  8
0
 10
2.82023381602653
 20
0.282000655746026
 30
0.0
 40
2.483193734874902
 50
104.0518100520965
 51
137.9185744544552
  0
ARC
  5
36A
  8
0
 10
2.353890928543194
 20
2.145220646643883
 30
0.0
 40
0.5625
 50
54.27467702664698
 51
104.051810052097
  0
ARC
  5
36B
  8
0
 10
2.485268444362362
 20
2.327881393212983
 30
0.0
 40
0.3375
 50
344.5917326114498
 51
54.27467702664497
  0
ARC
  5
36C
  8
0
 10
-0.4430549248043008
 20
3.134930645484619
 30
0.0
 40
3.375
 50
330.636249053735
 51
344.5917326114497
  0
ARC
  5
36D
  8
0
 10
31.91228153964039
 20
-15.06940475223244
 30
0.0
 40
33.75
 50
150.636249053735
 51
152.1540999629527
  0
ARC
  5
36E
  8
0
 10
2.866079424534746
 20
0.2746704133951751
 30
0.0
 40
0.9
 50
152.1540999629532
 51
175.5123947605448
  0
ARC
  5
36F
  8
0
 10
2.305303890114658
 20
0.318682343548355
 30
0.0
 40
0.3375
 50
175.5123947605449
 51
222.541311519809
  0
ARC
  5
370
  8
0
 10
2.15944124407747
 20
0.149395516684548
 30
0.0
 40
0.1125
 50
235.9603264047453
 51
283.0932558458123
  0
ARC
  5
371
  8
0
 10
1.726189879149843
 20
2.012175564030003
 30
0.0
 40
2.025
 50
283.0932558458129
 51
332.142935420514
  0
ARC
  5
372
  8
0
 10
2.177228489980109
 20
0.1901756048849899
 30
0.0
 40
0.1564583253294596
 50
219.5781502962715
 51
238.9234876282729
  0
ENDBLK
  5
103B7
  8
0
  0
BLOCK
  8
0
  2
_006F__O
 70
     0
 10
0.0
 20
0.0
 30
0.0
  3
_006F__O
  1

  0
ARC
  5
375
  8
0
 10
0.8826369310229438
 20
2.554595174577585
 30
0.0
 40
2.587066821792959
 50
287.8403747940407
 51
322.0964697412354
  0
ARC
  5
376
  8
0
 10
1.054835189921334
 20
2.019556043492018
 30
0.0
 40
2.025
 50
248.9596790098423
 51
287.8403747940401
  0
ARC
  5
377
  8
0
 10
0.4893710463312573
 20
0.5495644440895382
 30
0.0
 40
0.45
 50
181.3968550172471
 51
248.95967900984
  0
ARC
  5
378
  8
0
 10
2.17636957088439
 20
0.5907011449223703
 30
0.0
 40
2.1375
 50
110.3287803046066
 51
181.3968550172471
  0
ARC
  5
379
  8
0
 10
1.668287243200666
 20
1.962108669437052
 30
0.0
 40
0.675
 50
58.40548315662313
 51
110.3287803046068
  0
ARC
  5
37A
  8
0
 10
1.786165731859398
 20
2.15375851136639
 30
0.0
 40
0.45
 50
10.72425627842463
 51
58.40548315662152
  0
ARC
  5
37B
  8
0
 10
0.9018850363045203
 20
1.986284180589856
 30
0.0
 40
1.35
 50
328.014732601985
 51
10.72425627842456
  0
ARC
  5
37C
  8
0
 10
-0.7202674901124055
 20
2.999337698938736
 30
0.0
 40
3.2625
 50
298.6562702051418
 51
328.0147326019849
  0
ARC
  5
37D
  8
0
 10
0.5745280245939739
 20
0.6300541415956872
 30
0.0
 40
0.5625
 50
262.0665852574475
 51
298.6562702051427
  0
ENDBLK
  5
103B9
  8
0
  0
BLOCK
  8
0
  2
_0070__P
 70
     0
 10
0.0
 20
0.0
 30
0.0
  3
_0070__P
  1

  0
LINE
  5
380
  8
0
 10
0.083888302303194
 20
-2.782123670468901
 30
0.0
 11
3.006287115820953
 21
2.711986098944476
 31
0.0
  0
ARC
  5
381
  8
0
 10
2.742589220333855
 20
0.7143150001983716
 30
0.0
 40
0.6855655898635206
 50
174.1260931821181
 51
234.9293477784009
  0
ARC
  5
382
  8
0
 10
2.542595567802721
 20
0.4294427590194689
 30
0.0
 40
0.3375
 50
234.9293477784013
 51
282.8540658006878
  0
ARC
  5
383
  8
0
 10
2.067068987971425
 20
2.513376712357239
 30
0.0
 40
2.475
 50
282.8540658006882
 51
348.2605789317099
  0
ARC
  5
384
  8
0
 10
3.939565331876736
 20
2.124257589129604
 30
0.0
 40
0.5625
 50
348.2605789317094
 51
57.7732479791886
  0
ARC
  5
385
  8
0
 10
3.939565331876736
 20
2.124257589129603
 30
0.0
 40
0.5625
 50
57.77324797918798
 51
89.61444467330607
  0
ARC
  5
386
  8
0
 10
3.931995027873654
 20
0.9992830603080389
 30
0.0
 40
1.6875
 50
89.6144446733061
 51
135.9244903918916
  0
ARC
  5
387
  8
0
 10
3.73926300081547
 20
0.6117775069773774
 30
0.0
 40
1.6875
 50
166.5368269812861
 51
174.126093182118
  0
ARC
  5
388
  8
0
 10
3.069155351041275
 20
2.875224129651633
 30
0.0
 40
2.841538926414891
 50
259.9695636462037
 51
322.8277099289377
  0
ENDBLK
  5
103BB
  8
0
  0
BLOCK
  8
0
  2
_0071__Q
 70
     0
 10
0.0
 20
0.0
 30
0.0
  3
_0071__Q
  1

  0
LINE
  5
38B
  8
0
 10
0.1182732147653951
 20
-2.758744479960759
 30
0.0
 11
3.134188790315704
 21
2.618469336911907
 31
0.0
  0
ARC
  5
38C
  8
0
 10
7.745865022051873
 20
-7.359317080516174
 30
0.0
 40
8.907604898712398
 50
128.9398347173584
 51
148.9037724993486
  0
ARC
  5
38D
  8
0
 10
-8.458604695019687
 20
12.69455727212748
 30
0.0
 40
16.875
 50
308.9398347173583
 51
316.8577246513512
  0
ARC
  5
38E
  8
0
 10
0.8649486393101142
 20
0.7638730891140824
 30
0.0
 40
0.5625
 50
183.5385444979729
 51
287.5086224203652
  0
ARC
  5
38F
  8
0
 10
1.875518311582709
 20
0.8263645883993843
 30
0.0
 40
1.575
 50
134.7857269166662
 51
183.5385444979729
  0
ARC
  5
390
  8
0
 10
5.521085487533583
 20
-2.846572242752172
 30
0.0
 40
6.75
 50
122.9076047425222
 51
134.7857269166663
  0
ARC
  5
391
  8
0
 10
2.465102378447227
 20
1.875883922950058
 30
0.0
 40
1.125
 50
94.85139431018021
 51
122.9076047425231
  0
ARC
  5
392
  8
0
 10
2.4080165055355
 20
2.548465667508968
 30
0.0
 40
0.45
 50
22.83655600556811
 51
94.85139431017875
  0
ARC
  5
393
  8
0
 10
2.304334737007594
 20
2.504804003833256
 30
0.0
 40
0.5625
 50
355.0236577758976
 51
22.8365560055689
  0
ARC
  5
394
  8
0
 10
1.071499369129242
 20
2.612150199425879
 30
0.0
 40
1.8
 50
334.557297114283
 51
355.0236577758976
  0
ARC
  5
395
  8
0
 10
0.2664449537509199
 20
2.661088672793086
 30
0.0
 40
2.551880213177562
 50
287.5086224203672
 51
321.9432641907017
  0
ENDBLK
  5
103BD
  8
0
  0
BLOCK
  8
0
  2
_0072__R
 70
     0
 10
0.0
 20
0.0
 30
0.0
  3
_0072__R
  1

  0
ARC
  5
398
  8
0
 10
40.51680032436832
 20
-26.48359494448989
 30
0.0
 40
48.9160593206197
 50
143.3651564142174
 51
145.8590730945158
  0
ARC
  5
399
  8
0
 10
1.519703657349282
 20
2.658068248610726
 30
0.0
 40
0.2601420328338273
 50
169.5498305123637
 51
255.6886556300362
  0
ARC
  5
39A
  8
0
 10
1.608348272637102
 20
3.00554746568066
 30
0.0
 40
0.61875
 50
255.6886556300371
 51
323.4702857931557
  0
ARC
  5
39B
  8
0
 10
6.670601520083267
 20
-2.008836812189086
 30
0.0
 40
6.513509776519203
 50
134.4960339858308
 51
150.0857599221817
  0
ARC
  5
39C
  8
0
 10
2.975107085816262
 20
0.1173890696908386
 30
0.0
 40
2.25
 50
150.0857599221817
 51
167.0395304977756
  0
ARC
  5
39D
  8
0
 10
1.330596089256176
 20
0.4958594545201991
 30
0.0
 40
0.5625
 50
167.0395304977761
 51
209.0601946339073
  0
ARC
  5
39E
  8
0
 10
1.035584002661551
 20
0.3319261791820405
 30
0.0
 40
0.225
 50
209.0601946339065
 51
266.5373742401214
  0
ARC
  5
39F
  8
0
 10
1.062762850537865
 20
0.7811046628921571
 30
0.0
 40
0.675
 50
266.5373742401195
 51
309.6627750935352
  0
ARC
  5
3A0
  8
0
 10
-1.737637148350189
 20
4.158665335363932
 30
0.0
 40
5.0625
 50
309.6627750935352
 51
323.3172153745844
  0
ENDBLK
  5
103BF
  8
0
  0
BLOCK
  8
0
  2
_0073__S
 70
     0
 10
0.0
 20
0.0
 30
0.0
  3
_0073__S
  1

  0
LINE
  5
3A3
  8
0
 10
0.0565359296278984
 20
0.949215304325469
 30
0.0
 11
1.539194545475141
 21
2.702517953224165
 31
0.0
  0
ARC
  5
3A4
  8
0
 10
2.385871891115301
 20
2.013705774993362
 30
0.0
 40
1.091478238216121
 50
140.8700104556378
 51
192.3230205838152
  0
ARC
  5
3A5
  8
0
 10
-0.8786183649187933
 20
1.30055769448685
 30
0.0
 40
2.25
 50
345.9397105022313
 51
12.32302058381531
  0
ARC
  5
3A6
  8
0
 10
0.5400660517464644
 20
0.9452539147276922
 30
0.0
 40
0.7875
 50
261.2905892127486
 51
345.9397105022313
  0
ARC
  5
3A7
  8
0
 10
0.4719256218450028
 20
0.5004428516763694
 30
0.0
 40
0.3375
 50
131.2924720508615
 51
261.2905892127464
  0
ARC
  5
3A8
  8
0
 10
-1.283348152842848
 20
4.663314360797507
 30
0.0
 40
5.144930978269708
 50
300.6963187388824
 51
313.6624661246709
  0
ARC
  5
3A9
  8
0
 10
0.1378497505980931
 20
0.8808142159385044
 30
0.0
 40
0.16875
 50
311.2924720508626
 51
88.80678763907048
  0
ARC
  5
3AA
  8
0
 10
0.8262069138145307
 20
1.109898650399496
 30
0.0
 40
1.0125
 50
249.6651197377352
 51
300.6963187388821
  0
ENDBLK
  5
103C1
  8
0
  0
BLOCK
  8
0
  2
_0074__T
 70
     0
 10
0.0
 20
0.0
 30
0.0
  3
_0074__T
  1

  0
ARC
  5
3AD
  8
0
 10
-2.730036273145629
 20
5.979556420632528
 30
0.0
 40
6.792835310404454
 50
302.2219247788925
 51
313.1470246123135
  0
ARC
  5
3AE
  8
0
 10
0.4120237557904147
 20
0.9942814262001988
 30
0.0
 40
0.9
 50
268.2803757335648
 51
302.2219247788922
  0
ARC
  5
3AF
  8
0
 10
0.3951439184875767
 20
0.4320347533842268
 30
0.0
 40
0.3375
 50
152.7583017401271
 51
268.2803757335649
  0
LINE
  5
3B0
  8
0
 10
0.0950782457625792
 20
0.5865237240328575
 30
0.0
 11
2.154418983075459
 21
4.143011013197455
 31
0.0
  0
LINE
  5
3B1
  8
0
 10
2.276993273406731
 20
2.708891816321414
 30
0.0
 11
1.324009693187918
 21
2.708891816321414
 31
0.0
  0
ENDBLK
  5
103C3
  8
0
  0
BLOCK
  8
0
  2
_0075__U
 70
     0
 10
0.0
 20
0.0
 30
0.0
  3
_0075__U
  1

  0
ARC
  5
3B4
  8
0
 10
11.33667103942372
 20
-4.994081521021457
 30
0.0
 40
12.59404102061146
 50
142.5734953322646
 51
151.6160188217615
  0
ARC
  5
3B5
  8
0
 10
1.444371606108973
 20
0.3510911043325008
 30
0.0
 40
1.35
 50
151.6160188217615
 51
179.4217269512607
  0
ARC
  5
3B6
  8
0
 10
0.3194289041110778
 20
0.3624452763272385
 30
0.0
 40
0.225
 50
179.4217269512613
 51
262.9106737497157
  0
ARC
  5
3B7
  8
0
 10
0.4166194852892886
 20
1.143924796807619
 30
0.0
 40
1.0125
 50
262.9106737497157
 51
291.7545643529741
  0
ARC
  5
3B8
  8
0
 10
-44.23450755467758
 20
30.70210752944537
 30
0.0
 40
55.00824839968127
 50
327.10538875539
 51
329.335811619285
  0
ARC
  5
3B9
  8
0
 10
2.42663539101369
 20
0.5218852522246525
 30
0.0
 40
0.5625
 50
147.1053887553906
 51
218.8008490458458
  0
ARC
  5
3BA
  8
0
 10
2.163611961707318
 20
0.3104025682149675
 30
0.0
 40
0.225
 50
218.8008490458496
 51
277.0183067796324
  0
ARC
  5
3BB
  8
0
 10
2.053644139469384
 20
1.203659014075981
 30
0.0
 40
1.125
 50
277.0183067796331
 51
296.6050072472478
  0
ARC
  5
3BC
  8
0
 10
1.04601037443058
 20
3.215417994558915
 30
0.0
 40
3.375
 50
296.6050072472482
 51
315.73958633791
  0
ARC
  5
3BD
  8
0
 10
-1.292917976719821
 20
5.427922686161375
 30
0.0
 40
5.625
 50
291.7545643529742
 51
305.3716523865626
  0
ENDBLK
  5
103C5
  8
0
  0
BLOCK
  8
0
  2
_0076__V
 70
     0
 10
0.0
 20
0.0
 30
0.0
  3
_0076__V
  1

  0
ARC
  5
3C0
  8
0
 10
70.23840806309966
 20
-44.49901604572309
 30
0.0
 40
83.54070297103057
 50
145.6666824114941
 51
146.6059364508703
  0
ARC
  5
3C1
  8
0
 10
2.838036284093732
 20
-0.0666782838666703
 30
0.0
 40
2.8125
 50
146.6059364508705
 51
165.3513804264005
  0
ARC
  5
3C2
  8
0
 10
0.4434863492037948
 20
0.5592255500555047
 30
0.0
 40
0.3375
 50
165.3513804264009
 51
231.889377919809
  0
ARC
  5
3C3
  8
0
 10
0.7559346124875788
 20
0.9575534869001916
 30
0.0
 40
0.84375
 50
231.8893779198083
 51
298.5315369190573
  0
ARC
  5
3C4
  8
0
 10
-0.3456281936607866
 20
2.983719434351311
 30
0.0
 40
3.15
 50
298.5315369190573
 51
327.8979365920607
  0
ARC
  5
3C5
  8
0
 10
0.6073624377051488
 20
2.385861711704149
 30
0.0
 40
2.025
 50
327.8979365920604
 51
358.1308246511022
  0
ARC
  5
3C6
  8
0
 10
2.293964533319411
 20
2.330819718012749
 30
0.0
 40
0.3375
 50
358.1308246511022
 51
78.5705083198127
  0
ARC
  5
3C7
  8
0
 10
2.182498472367627
 20
1.779474483830121
 30
0.0
 40
0.9
 50
78.5705083198132
 51
95.48742741403569
  0
ARC
  5
3C8
  8
0
 10
0.7181142938692346
 20
2.909444188980541
 30
0.0
 40
2.848034658373072
 50
288.8717027809553
 51
313.7431550074419
  0
ARC
  5
3C9
  8
0
 10
1.020713097385453
 20
2.02419899067231
 30
0.0
 40
1.9125
 50
264.9190122210321
 51
288.8717027809555
  0
ENDBLK
  5
103C7
  8
0
  0
BLOCK
  8
0
  2
_0077__W
 70
     0
 10
0.0
 20
0.0
 30
0.0
  3
_0077__W
  1

  0
ARC
  5
3CC
  8
0
 10
71.95915179727842
 20
-44.49901604572309
 30
0.0
 40
83.54070297103057
 50
145.6666824114941
 51
146.6059364508703
  0
ARC
  5
3CD
  8
0
 10
4.558780018272501
 20
-0.0666782838666703
 30
0.0
 40
2.8125
 50
146.6059364508705
 51
165.3513804264005
  0
ARC
  5
3CE
  8
0
 10
2.164230083382563
 20
0.5592255500555047
 30
0.0
 40
0.3375
 50
165.3513804264009
 51
231.889377919809
  0
ARC
  5
3CF
  8
0
 10
2.476678346666404
 20
0.9575534869001916
 30
0.0
 40
0.84375
 50
231.8893779198083
 51
298.5315369190573
  0
ARC
  5
3D0
  8
0
 10
1.375115540517982
 20
2.983719434351311
 30
0.0
 40
3.15
 50
298.5315369190573
 51
327.8979365920607
  0
ARC
  5
3D1
  8
0
 10
2.328106171883917
 20
2.385861711704149
 30
0.0
 40
2.025
 50
327.8979365920604
 51
358.1308246511022
  0
ARC
  5
3D2
  8
0
 10
4.014708267498179
 20
2.330819718012749
 30
0.0
 40
0.3375
 50
358.1308246511022
 51
78.5705083198127
  0
ARC
  5
3D3
  8
0
 10
3.903242206546395
 20
1.779474483830121
 30
0.0
 40
0.9
 50
78.5705083198132
 51
95.48742741403569
  0
ARC
  5
3D4
  8
0
 10
70.26762659070624
 20
-44.49901604572309
 30
0.0
 40
83.54070297103057
 50
145.6666824114941
 51
146.6059364508703
  0
ARC
  5
3D5
  8
0
 10
2.867254811700377
 20
-0.0666782838666703
 30
0.0
 40
2.8125
 50
146.6059364508705
 51
165.3513804264005
  0
ARC
  5
3D6
  8
0
 10
1.016920771103628
 20
0.4169746787095557
 30
0.0
 40
0.9
 50
165.3513804264006
 51
181.5166031330786
  0
ARC
  5
3D7
  8
0
 10
0.3421572253145655
 20
0.399109705320545
 30
0.0
 40
0.225
 50
181.5166031330786
 51
276.4255642180881
  0
ARC
  5
3D8
  8
0
 10
0.1533051849026492
 20
2.076008973861221
 30
0.0
 40
1.9125
 50
276.4255642180875
 51
314.497263779441
  0
ARC
  5
3D9
  8
0
 10
-6.391117008832055
 20
8.736297586237793
 30
0.0
 40
11.25
 50
314.497263779441
 51
319.974531200164
  0
ARC
  5
3DA
  8
0
 10
2.438858028048003
 20
2.909444188980541
 30
0.0
 40
2.848034658373072
 50
288.8717027809553
 51
313.7431550074419
  0
ARC
  5
3DB
  8
0
 10
2.741456831564221
 20
2.02419899067231
 30
0.0
 40
1.9125
 50
264.9190122210321
 51
288.8717027809555
  0
ENDBLK
  5
103C9
  8
0
  0
BLOCK
  8
0
  2
_0078__X
 70
     0
 10
0.0
 20
0.0
 30
0.0
  3
_0078__X
  1

  0
ARC
  5
3DE
  8
0
 10
0.6255904868461357
 20
0.4862381347579824
 30
0.0
 40
0.5903709306479964
 50
113.0132607081893
 51
186.7592729898406
  0
ARC
  5
3DF
  8
0
 10
1.868724403619865
 20
2.206489451053966
 30
0.0
 40
2.161372514904943
 50
291.5439606691448
 51
324.0532858540448
  0
ARC
  5
3E0
  8
0
 10
0.374477155527245
 20
0.4564757020499842
 30
0.0
 40
0.3375
 50
186.7592729898405
 51
262.0857278101381
  0
ARC
  5
3E1
  8
0
 10
0.4829090341278857
 20
1.236474918525954
 30
0.0
 40
1.125
 50
262.0857278101385
 51
302.1417648078728
  0
ARC
  5
3E2
  8
0
 10
-0.1156088913471081
 20
2.189051053480579
 30
0.0
 40
2.25
 50
302.1417648078729
 51
357.1841939882505
  0
ARC
  5
3E3
  8
0
 10
1.569853660469846
 20
2.106152100394125
 30
0.0
 40
0.5625
 50
357.1841939882505
 51
117.7839028063517
  0
ARC
  5
3E4
  8
0
 10
1.517413124245707
 20
2.205682197151459
 30
0.0
 40
0.45
 50
117.7839028063537
 51
174.8053291224314
  0
ARC
  5
3E5
  8
0
 10
1.629451066958211
 20
2.195496452566274
 30
0.0
 40
0.5625
 50
174.8053291224315
 51
230.3722301506934
  0
ARC
  5
3E6
  8
0
 10
1.485946660147135
 20
2.022200505626389
 30
0.0
 40
0.3375
 50
230.3722301506936
 51
285.0103901246967
  0
ARC
  5
3E7
  8
0
 10
2.455854357374165
 20
0.7193204168406719
 30
0.0
 40
0.5625
 50
181.3712020585575
 51
291.5439606691454
  0
ARC
  5
3E8
  8
0
 10
3.974169453561103
 20
0.7556636581753874
 30
0.0
 40
2.08125
 50
110.0219204805784
 51
181.3712020585575
  0
ARC
  5
3E9
  8
0
 10
3.377144973445979
 20
2.394024373232727
 30
0.0
 40
0.3375
 50
344.3610053279289
 51
110.0219204805784
  0
ENDBLK
  5
103CB
  8
0
  0
BLOCK
  8
0
  2
_0079__Y
 70
     0
 10
0.0
 20
0.0
 30
0.0
  3
_0079__Y
  1

  0
LINE
  5
3EC
  8
0
 10
3.158740164938649
 20
2.665990814706018
 30
0.0
 11
2.073957695506579
 21
0.8641487468357439
 31
0.0
  0
ARC
  5
3ED
  8
0
 10
3.037768376031806
 20
0.2838953779480977
 30
0.0
 40
1.125
 50
148.9503428133776
 51
168.6795128434813
  0
ARC
  5
3EE
  8
0
 10
2.265589557299848
 20
0.4384790831103725
 30
0.0
 40
0.3375
 50
168.679512843482
 51
276.6570377084854
  0
ARC
  5
3EF
  8
0
 10
2.043881097974179
 20
2.338084728780925
 30
0.0
 40
2.25
 50
276.6570377084859
 51
307.6769080278191
  0
LINE
  5
3F0
  8
0
 10
4.860990621916017
 20
2.620025455831787
 30
0.0
 11
2.202660700355693
 21
-1.830953461823967
 31
0.0
  0
ARC
  5
3F1
  8
0
 10
0.2709586731236868
 20
-0.677251906833406
 30
0.0
 40
2.25
 50
283.9851022788998
 51
329.1524030239601
  0
ARC
  5
3F2
  8
0
 10
0.6515882878882167
 20
-2.205566696516545
 30
0.0
 40
0.675
 50
233.2146712115194
 51
283.9851022789006
  0
ARC
  5
3F3
  8
0
 10
0.4494870296773001
 20
-2.475865293311959
 30
0.0
 40
0.3375
 50
182.7292062584987
 51
233.2146712115176
  0
ARC
  5
3F4
  8
0
 10
0.7866042145283245
 20
-2.45979502019191
 30
0.0
 40
0.675
 50
144.9475361534608
 51
182.7292062584987
  0
ARC
  5
3F5
  8
0
 10
4.378327965818016
 20
-4.979651513014674
 30
0.0
 40
5.0625
 50
101.0113082490145
 51
144.9475361534607
  0
ARC
  5
3F6
  8
0
 10
2.702278995463701
 20
3.633796394122985
 30
0.0
 40
3.7125
 50
281.0113082490146
 51
315.6567863980257
  0
ARC
  5
3F7
  8
0
 10
-0.0189462495145563
 20
5.009295752727284
 30
0.0
 40
5.625
 50
307.6769080278191
 51
313.436039423746
  0
ENDBLK
  5
103CD
  8
0
  0
BLOCK
  8
0
  2
_007A__Z
 70
     0
 10
0.0
 20
0.0
 30
0.0
  3
_007A__Z
  1

  0
LINE
  5
3FA
  8
0
 10
0.050062615923764
 20
0.0536262520199491
 30
0.0
 11
2.739036110066934
 21
2.704295280434564
 31
0.0
  0
LINE
  5
3FB
  8
0
 10
1.827389825727835
 20
1.463230590830033
 30
0.0
 11
1.13024854946849
 21
1.463230590830033
 31
0.0
  0
LINE
  5
3FC
  8
0
 10
0.1266715473808517
 20
1.195099330730289
 30
0.0
 11
1.114926763177039
 21
2.489790272354768
 31
0.0
  0
ARC
  5
3FD
  8
0
 10
1.093619904117247
 20
1.560069068250057
 30
0.0
 40
1.507741613976963
 50
300.4636998601629
 51
343.5778584302371
  0
ARC
  5
3FE
  8
0
 10
1.51581354857251
 20
0.8422869827738732
 30
0.0
 40
0.675
 50
236.9509002761382
 51
300.4636998601635
  0
ARC
  5
3FF
  8
0
 10
0.7182281532930119
 20
-0.3835856807752214
 30
0.0
 40
0.7875
 50
56.95090027613666
 51
126.9047763943256
  0
ARC
  5
400
  8
0
 10
1.823741178662374
 20
3.360447671666448
 30
0.0
 40
1.122703069638605
 50
230.8504807905588
 51
305.9068492967839
  0
ENDBLK
  5
103CF
  8
0
  0
BLOCK
  8
0
  2
_0031__1
 70
     0
 10
0.0
 20
0.0
 30
0.0
  3
_0031__1
  1

  0
LINE
  5
403
  8
0
 10
0.2004642278261599
 20
0.1675820375623065
 30
0.0
 11
2.223418824114049
 21
3.579073516509254
 31
0.0
  0
ARC
  5
404
  8
0
 10
-1.6353042050726
 20
7.067382946435578
 30
0.0
 40
5.201734912016216
 50
289.6824194061442
 51
317.8862239815817
  0
ENDBLK
  5
103D1
  8
0
  0
BLOCK
  8
0
  2
_0032__2
 70
     0
 10
0.0
 20
0.0
 30
0.0
  3
_0032__2
  1

  0
ARC
  5
407
  8
0
 10
2.079346222011509
 20
2.914203752626117
 30
0.0
 40
0.7191555054904485
 50
297.0563797865839
 51
338.7652958657588
  0
ARC
  5
408
  8
0
 10
2.201776190557496
 20
2.674504797814766
 30
0.0
 40
0.45
 50
164.21205413981
 51
297.0563797865835
  0
ARC
  5
409
  8
0
 10
2.851311988194311
 20
2.49085227921436
 30
0.0
 40
1.125
 50
76.30101102294076
 51
164.2120541398099
  0
ARC
  5
40A
  8
0
 10
2.957881439267396
 20
2.928051263771705
 30
0.0
 40
0.675
 50
354.1729648221051
 51
76.30101102293982
  0
ARC
  5
40B
  8
0
 10
2.174450519197762
 20
3.008002770816581
 30
0.0
 40
1.4625
 50
303.0211851401849
 51
354.172964822105
  0
ARC
  5
40C
  8
0
 10
-0.7069678290563957
 20
7.441408296182452
 30
0.0
 40
6.75
 50
291.5302291599878
 51
303.0211851401849
  0
ARC
  5
40D
  8
0
 10
4.247425014503676
 20
-5.116616689924283
 30
0.0
 40
6.75
 50
111.5302291599877
 51
125.521639602092
  0
ARC
  5
40E
  8
0
 10
0.7177868872799991
 20
-0.172197645097148
 30
0.0
 40
0.675
 50
125.5216396020929
 51
158.127766336228
  0
ARC
  5
40F
  8
0
 10
0.7592748378996248
 20
-0.3335192620727365
 30
0.0
 40
0.7851629577094729
 50
72.85503334873005
 51
148.2825052512748
  0
ARC
  5
410
  8
0
 10
-0.9991015994502845
 20
-6.033290594824079
 30
0.0
 40
6.75
 50
68.13186611922247
 51
72.85503334872982
  0
ARC
  5
411
  8
0
 10
2.017919101149403
 20
1.483862196768831
 30
0.0
 40
1.35
 50
248.1318661192217
 51
333.2212253163362
  0
ENDBLK
  5
103D3
  8
0
  0
BLOCK
  8
0
  2
_0033__3
 70
     0
 10
0.0
 20
0.0
 30
0.0
  3
_0033__3
  1

  0
ARC
  5
414
  8
0
 10
0.6958968579784255
 20
0.4325750989115325
 30
0.0
 40
0.92218276803982
 50
59.3276185512674
 51
106.3038466638792
  0
ARC
  5
415
  8
0
 10
2.219706146606143
 20
3.081260018700532
 30
0.0
 40
0.3822973554542441
 50
218.4140247329956
 51
283.0869235216454
  0
ARC
  5
416
  8
0
 10
0.5633404480603304
 20
0.8857697200439556
 30
0.0
 40
0.45
 50
106.3038466638798
 51
196.6230086246972
  0
ARC
  5
417
  8
0
 10
0.9945339452495432
 20
1.014502652822283
 30
0.0
 40
0.9
 50
196.6230086246973
 51
270.655470748311
  0
ARC
  5
418
  8
0
 10
0.9868120308599373
 20
1.689458482516464
 30
0.0
 40
1.575
 50
270.6554707483115
 51
354.8599076831709
  0
ARC
  5
419
  8
0
 10
1.883192787427959
 20
1.608826359547428
 30
0.0
 40
0.675
 50
354.8599076831709
 51
99.3125178312458
  0
ARC
  5
41A
  8
0
 10
2.047034953100763
 20
0.609670718644746
 30
0.0
 40
1.6875
 50
99.31251783124536
 51
113.8955817361371
  0
ARC
  5
41B
  8
0
 10
2.272753970866404
 20
3.123326352267189
 30
0.0
 40
0.45
 50
121.7906092776728
 51
218.4140247329966
  0
ARC
  5
41C
  8
0
 10
2.509821392192976
 20
2.740835780166954
 30
0.0
 40
0.9
 50
64.4628999803918
 51
121.7906092776716
  0
ARC
  5
41D
  8
0
 10
2.703814343017768
 20
3.146873629425208
 30
0.0
 40
0.45
 50
340.9465239188926
 51
64.46289998038952
  0
ARC
  5
41E
  8
0
 10
2.065794690456016
 20
3.367227714808157
 30
0.0
 40
1.125
 50
272.4405776341544
 51
340.9465239188922
  0
ENDBLK
  5
103D5
  8
0
  0
BLOCK
  8
0
  2
_0034__4
 70
     0
 10
0.0
 20
0.0
 30
0.0
  3
_0034__4
  1

  0
LINE
  5
421
  8
0
 10
1.05040128438992
 20
0.1675820375623065
 30
0.0
 11
2.163624819625227
 21
1.79552183102471
 31
0.0
  0
LINE
  5
422
  8
0
 10
2.345092226018721
 20
0.9989804662000014
 30
0.0
 11
0.0468242823071137
 21
0.9989804662000014
 31
0.0
  0
ARC
  5
423
  8
0
 10
-3.73933713056033
 20
6.557414689440855
 30
0.0
 40
6.725415173681202
 50
304.2609732008132
 51
334.2960207058565
  0
ENDBLK
  5
103D7
  8
0
  0
BLOCK
  8
0
  2
_0035__5
 70
     0
 10
0.0
 20
0.0
 30
0.0
  3
_0035__5
  1

  0
ARC
  5
426
  8
0
 10
0.7350650991731413
 20
0.4428386878661634
 30
0.0
 40
0.9523606242249656
 50
56.60933583357139
 51
102.4421945099805
  0
ARC
  5
427
  8
0
 10
0.6510678644645509
 20
0.8235429968546419
 30
0.0
 40
0.5625
 50
102.4421945099796
 51
145.2765144590788
  0
ARC
  5
428
  8
0
 10
0.7435328096964895
 20
0.759461143703779
 30
0.0
 40
0.675
 50
145.2765144590787
 51
225.0312978755222
  0
ARC
  5
429
  8
0
 10
0.8230388567146747
 20
0.8390540987158224
 30
0.0
 40
0.7875
 50
225.031297875521
 51
270.5568937745142
  0
ARC
  5
42A
  8
0
 10
0.8088241217304244
 20
2.301485017190034
 30
0.0
 40
2.25
 50
270.556893774514
 51
298.0635533179466
  0
ARC
  5
42B
  8
0
 10
1.073452613581821
 20
1.805120220593377
 30
0.0
 40
1.6875
 50
298.0635533179472
 51
0.8545688366640882
  0
ARC
  5
42C
  8
0
 10
2.085839996097093
 20
1.820221138574418
 30
0.0
 40
0.675
 50
0.8545688366640882
 51
70.50376749589843
  0
ARC
  5
42D
  8
0
 10
2.085839996097093
 20
1.820221138574418
 30
0.0
 40
0.675
 50
70.50376749590029
 51
107.6669882161336
  0
ARC
  5
42E
  8
0
 10
-4.414280101665611
 20
6.81228640739033
 30
0.0
 40
7.436990182470431
 50
319.1862296319619
 51
334.4411281559177
  0
ARC
  5
42F
  8
0
 10
2.945800781678315
 20
4.608777291345874
 30
0.0
 40
1.197424812587101
 50
237.0745939542159
 51
297.6938962949387
  0
ARC
  5
430
  8
0
 10
2.256549814123957
 20
1.284250609506612
 30
0.0
 40
1.2375
 50
107.6669882161332
 51
133.329651779304
  0
ENDBLK
  5
103D9
  8
0
  0
BLOCK
  8
0
  2
_0036__6
 70
     0
 10
0.0
 20
0.0
 30
0.0
  3
_0036__6
  1

  0
ARC
  5
433
  8
0
 10
1.45074276488225
 20
1.459758800302935
 30
0.0
 40
0.7039196886618687
 50
126.0881568065654
 51
176.5976082803163
  0
ARC
  5
434
  8
0
 10
1.698771418992806
 20
1.119478892966765
 30
0.0
 40
1.125
 50
105.3058109902222
 51
126.0881568065652
  0
ARC
  5
435
  8
0
 10
1.550287801860861
 20
1.662027384295791
 30
0.0
 40
0.5625
 50
58.33698766302618
 51
105.3058109902226
  0
ARC
  5
436
  8
0
 10
1.609341560045266
 20
1.757781776593433
 30
0.0
 40
0.45
 50
3.350872811993902
 51
58.33698766302431
  0
ARC
  5
437
  8
0
 10
0.4862649589276771
 20
1.692025042929339
 30
0.0
 40
1.575
 50
322.2850829792231
 51
3.350872811993902
  0
ARC
  5
438
  8
0
 10
-0.0477034397919738
 20
2.104944828322082
 30
0.0
 40
2.25
 50
302.8407264015639
 51
322.2850829792232
  0
ARC
  5
439
  8
0
 10
0.7454184363880358
 20
0.8761796190470294
 30
0.0
 40
0.7875
 50
253.8114455305296
 51
302.8407264015624
  0
ARC
  5
43A
  8
0
 10
0.6826886006151085
 20
0.6601010044089776
 30
0.0
 40
0.5625
 50
193.4450399707865
 51
253.8114455305283
  0
ARC
  5
43B
  8
0
 10
1.229772389024163
 20
0.7908893007504712
 30
0.0
 40
1.125
 50
169.5967656565244
 51
193.4450399707867
  0
ARC
  5
43C
  8
0
 10
3.664086554427513
 20
0.3439669986479583
 30
0.0
 40
3.6
 50
125.4166668431705
 51
169.5967656565244
  0
ARC
  5
43D
  8
0
 10
2.555757879488567
 20
1.902576570769222
 30
0.0
 40
1.6875
 50
99.74680902552632
 51
125.4166668431709
  0
ARC
  5
43E
  8
0
 10
2.365301437611208
 20
3.011337746021779
 30
0.0
 40
0.5625
 50
355.9644806864542
 51
99.74680902552474
  0
ENDBLK
  5
103DB
  8
0
  0
BLOCK
  8
0
  2
_0037__7
 70
     0
 10
0.0
 20
0.0
 30
0.0
  3
_0037__7
  1

  0
ARC
  5
441
  8
0
 10
12.66479460956117
 20
-6.315831688912345
 30
0.0
 40
14.17448462217256
 50
137.1959456052537
 51
152.7900945312011
  0
ARC
  5
442
  8
0
 10
2.149664238754042
 20
5.099563715032175
 30
0.0
 40
1.787668732155562
 50
239.0199618335218
 51
273.7066425943782
  0
ARC
  5
443
  8
0
 10
0.997847962925789
 20
3.181105839131883
 30
0.0
 40
0.45
 50
59.0199618335197
 51
136.9316426417621
  0
ARC
  5
444
  8
0
 10
3.134676046305572
 20
1.183709848828617
 30
0.0
 40
3.375
 50
136.9316426417621
 51
144.1039744184655
  0
ENDBLK
  5
103DD
  8
0
  0
BLOCK
  8
0
  2
_0038__8
 70
     0
 10
0.0
 20
0.0
 30
0.0
  3
_0038__8
  1

  0
ARC
  5
447
  8
0
 10
1.095800105342789
 20
0.8665664431517076
 30
0.0
 40
1.052015048401018
 50
100.8133364962133
 51
149.6993809297101
  0
ARC
  5
448
  8
0
 10
0.9256992631542858
 20
0.9659678152911837
 30
0.0
 40
0.855
 50
149.6993809297101
 51
283.4521904036465
  0
ARC
  5
449
  8
0
 10
0.7843741668936559
 20
1.556800674200471
 30
0.0
 40
1.4625
 50
283.4521904036464
 51
312.1084474868043
  0
ARC
  5
44A
  8
0
 10
1.236985970917829
 20
1.056033707580323
 30
0.0
 40
0.7875
 50
312.108447486805
 51
19.23397124195179
  0
ARC
  5
44B
  8
0
 10
2.092622202536745
 20
3.051932682489754
 30
0.0
 40
0.7849241802779947
 50
284.5375723584738
 51
338.4837778299329
  0
ARC
  5
44C
  8
0
 10
2.299546478694765
 20
2.970355357767631
 30
0.0
 40
0.5625
 50
338.4837778299337
 51
71.63272240894268
  0
ARC
  5
44D
  8
0
 10
1.94505102569002
 20
1.90266721331769
 30
0.0
 40
1.6875
 50
71.6327224089422
 51
94.00250578773672
  0
ARC
  5
44E
  8
0
 10
1.86652591162698
 20
3.02492333669657
 30
0.0
 40
0.5625
 50
94.00250578773576
 51
171.2753876045167
  0
ARC
  5
44F
  8
0
 10
2.422517122258398
 20
2.939600281778308
 30
0.0
 40
1.125
 50
171.2753876045164
 51
202.1755113144101
  0
LINE
  5
450
  8
0
 10
1.380731130712718
 20
2.514974625677313
 30
0.0
 11
1.980528678457745
 21
1.315457091384139
 31
0.0
  0
LINE
  5
451
  8
0
 10
0.8984316122351288
 20
1.89990150013497
 30
0.0
 11
2.289649807495266
 21
2.292139229195119
 31
0.0
  0
ENDBLK
  5
103DF
  8
0
  0
BLOCK
  8
0
  2
_0039__9
 70
     0
 10
0.0
 20
0.0
 30
0.0
  3
_0039__9
  1

  0
ARC
  5
454
  8
0
 10
1.531697101477903
 20
2.186826337052907
 30
0.0
 40
0.7039196886618687
 50
306.0881568065654
 51
356.5976082803164
  0
ARC
  5
455
  8
0
 10
1.28366844736729
 20
2.527106244389075
 30
0.0
 40
1.125
 50
285.3058109902222
 51
306.0881568065651
  0
ARC
  5
456
  8
0
 10
1.432152064499292
 20
1.984557753060052
 30
0.0
 40
0.5625
 50
238.3369876630262
 51
285.3058109902226
  0
ARC
  5
457
  8
0
 10
1.37309830631483
 20
1.888803360762416
 30
0.0
 40
0.45
 50
183.350872811994
 51
238.3369876630243
  0
ARC
  5
458
  8
0
 10
2.496174907432419
 20
1.954560094426512
 30
0.0
 40
1.575
 50
142.2850829792231
 51
183.350872811994
  0
ARC
  5
459
  8
0
 10
3.030143306152127
 20
1.541640309033759
 30
0.0
 40
2.25
 50
122.8407264015639
 51
142.2850829792232
  0
ARC
  5
45A
  8
0
 10
2.237021429972117
 20
2.770405518308805
 30
0.0
 40
0.7875
 50
73.8114455305296
 51
122.8407264015625
  0
ARC
  5
45B
  8
0
 10
2.299751265745044
 20
2.986484132946861
 30
0.0
 40
0.5625
 50
13.44503997078649
 51
73.81144553052826
  0
ARC
  5
45C
  8
0
 10
1.752667477335933
 20
2.855695836605372
 30
0.0
 40
1.125
 50
349.5967656565244
 51
13.44503997078669
  0
ARC
  5
45D
  8
0
 10
-0.6816466880673602
 20
3.302618138707884
 30
0.0
 40
3.6
 50
305.4166668431705
 51
349.5967656565244
  0
ARC
  5
45E
  8
0
 10
0.4266819868715857
 20
1.744008566586559
 30
0.0
 40
1.6875
 50
279.7468090255263
 51
305.416666843171
  0
ARC
  5
45F
  8
0
 10
0.6171384287489445
 20
0.6352473913340634
 30
0.0
 40
0.5625
 50
175.9644806864541
 51
279.7468090255248
  0
ENDBLK
  5
103E1
  8
0
  0
BLOCK
  8
0
  2
_0030__0
 70
     0
 10
0.0
 20
0.0
 30
0.0
  3
_0030__0
  1

  0
ARC
  5
462
  8
0
 10
3.632571595005061
 20
0.6571309958641358
 30
0.0
 40
3.560309135442545
 50
138.3883198018635
 51
174.589233137151
  0
ARC
  5
463
  8
0
 10
2.400566121003806
 20
1.751405851135407
 30
0.0
 40
1.9125
 50
103.8935879744833
 51
138.3883198018632
  0
ARC
  5
464
  8
0
 10
2.076404921334131
 20
3.061909386662377
 30
0.0
 40
0.5625
 50
41.86022594982918
 51
103.8935879744817
  0
ARC
  5
465
  8
0
 10
2.243979289198762
 20
3.212055419692723
 30
0.0
 40
0.3375
 50
4.431327899513764
 51
41.86022594982748
  0
ARC
  5
466
  8
0
 10
-0.7844405757949176
 20
2.977365472503962
 30
0.0
 40
3.375
 50
311.0669897731203
 51
4.43132789951368
  0
ARC
  5
467
  8
0
 10
0.5458649104332949
 20
1.450632911342334
 30
0.0
 40
1.35
 50
277.152090994298
 51
311.06698977312
  0
ARC
  5
468
  8
0
 10
0.6439115059890241
 20
0.6692603272955715
 30
0.0
 40
0.5625
 50
217.614351328523
 51
277.1520909943001
  0
ARC
  5
469
  8
0
 10
1.886579051588399
 20
0.9474891116402191
 30
0.0
 40
1.799024792252461
 50
178.5551264607907
 51
200.2117773001592
  0
ENDBLK
  5
103E3
  8
0
  0
ENDSEC
  0
SECTION
  2
ENTITIES
  0
ARC
  5
1019D
  8
0
 62
     2
 10
330.7209269768941
 20
-31.21494925595544
 30
0.0
 40
0.7155718925750717
 50
146.1784063804888
 51
228.4331126861327
  0
ARC
  5
1019E
  8
0
 62
     2
 10
330.9925800410618
 20
-30.90862265267418
 30
0.0
 40
1.125
 50
228.4331126861327
 51
254.4502347008584
  0
ARC
  5
1019F
  8
0
 62
     2
 10
331.8973340235016
 20
-27.65715448717427
 30
0.0
 40
4.5
 50
254.4502347008584
 51
267.175631457884
  0
ARC
  5
101A0
  8
0
 62
     2
 10
331.8308133554932
 20
-29.00551460254691
 30
0.0
 40
3.15
 50
267.175631457884
 51
311.8449746676428
  0
ARC
  5
101A1
  8
0
 62
     2
 10
327.9281763857412
 20
-24.64754205991594
 30
0.0
 40
9.0
 50
311.8449746676428
 51
328.604985554518
  0
ARC
  5
101A2
  8
0
 62
     2
 10
258.7868899080747
 20
17.54822199541611
 30
0.0
 40
90.0
 50
328.604985554518
 51
330.2798403179916
  0
ARC
  5
101A3
  8
0
 62
     2
 10
344.7641459899415
 20
-31.53244055749869
 30
0.0
 40
9.0
 50
128.5138894892328
 51
150.2798403179916
  0
ARC
  5
101A4
  8
0
 62
     2
 10
341.9619764774231
 20
-28.01138304261596
 30
0.0
 40
4.5
 50
118.0431699709748
 51
128.5138894892328
  0
ARC
  5
101A5
  8
0
 62
     2
 10
341.4330726972275
 20
-27.01846522562664
 30
0.0
 40
3.375
 50
100.4993485337696
 51
118.0431699709747
  0
ARC
  5
101A6
  8
0
 62
     2
 10
341.7405762805038
 20
-28.67771137863475
 30
0.0
 40
5.0625
 50
83.12707460641255
 51
100.4993485337696
  0
ARC
  5
101A7
  8
0
 62
     2
 10
341.8078893656164
 20
-28.11925350325592
 30
0.0
 40
4.5
 50
57.99994847256081
 51
83.12707460641255
  0
ARC
  5
101A8
  8
0
 62
     2
 10
334.9681017817943
 20
-26.43454739384974
 30
0.0
 40
0.5059771751048382
 50
10.79025711488529
 51
97.44546839270639
  0
ARC
  5
101A9
  8
0
 62
     2
 10
334.3600238376493
 20
-26.55043730534139
 30
0.0
 40
1.125
 50
346.0642156278694
 51
10.79025711488526
  0
ARC
  5
101AA
  8
0
 62
     2
 10
333.2681367989606
 20
-26.27949876112203
 30
0.0
 40
2.25
 50
295.1417358318891
 51
346.0642156278694
  0
ARC
  5
101AB
  8
0
 62
     2
 10
333.3637300630542
 20
-26.48318216216377
 30
0.0
 40
2.025
 50
256.7688726634571
 51
295.1417358318891
  0
ARC
  5
101AC
  8
0
 62
     2
 10
333.1577382817654
 20
-27.35929139396166
 30
0.0
 40
1.125
 50
204.1855176837308
 51
256.7688726634571
  0
ARC
  5
101AD
  8
0
 62
     2
 10
333.8761144461937
 20
-27.03665857420928
 30
0.0
 40
1.9125
 50
154.3154081674803
 51
204.1855176837307
  0
ARC
  5
101AE
  8
0
 62
     2
 10
336.2079529114221
 20
-28.15812441055075
 30
0.0
 40
4.5
 50
113.8605857091426
 51
154.3154081674803
  0
ARC
  5
101AF
  8
0
 62
     2
 10
336.8905678687576
 20
-29.70139790219826
 30
0.0
 40
6.1875
 50
75.64053361223382
 51
113.8605857091426
  0
ARC
  5
101B0
  8
0
 62
     2
 10
337.8670860036389
 20
-25.88690991791415
 30
0.0
 40
2.25
 50
350.7068606518067
 51
75.6405336122338
  0
ARC
  5
101B1
  8
0
 62
     2
 10
338.6442501133332
 20
-26.01407986956614
 30
0.0
 40
1.4625
 50
302.9803427094646
 51
350.7068606518067
  0
ARC
  5
101B2
  8
0
 62
     2
 10
337.6031783130096
 20
-24.40976513842049
 30
0.0
 40
3.375
 50
270.6728688499656
 51
302.9803427094645
  0
ARC
  5
101B3
  8
0
 62
     2
 10
337.8316997729997
 20
-29.35465812061828
 30
0.0
 40
1.581446521742807
 50
57.85492725072895
 51
96.85975354040524
  0
ARC
  5
101B4
  8
0
 62
     2
 10
338.0745589088034
 20
-28.96818319598826
 30
0.0
 40
1.125
 50
13.08881471812452
 51
57.85492725072901
  0
ARC
  5
101B5
  8
0
 62
     2
 10
336.8692089167649
 20
-29.24842888586185
 30
0.0
 40
2.3625
 50
335.4316233892965
 51
13.08881471812452
  0
ARC
  5
101B6
  8
0
 62
     2
 10
335.539115287597
 20
-28.64035225611268
 30
0.0
 40
3.825
 50
298.8737345009279
 51
335.4316233892964
  0
ARC
  5
101B7
  8
0
 62
     2
 10
336.6799216560781
 20
-30.7091603863251
 30
0.0
 40
1.4625
 50
234.489026411688
 51
298.8737345009279
  0
ARC
  5
101B8
  8
0
 62
     2
 10
336.287841919682
 20
-31.25861327812529
 30
0.0
 40
0.7875
 50
170.31699892115
 51
234.489026411688
  0
ARC
  5
101B9
  8
0
 62
     2
 10
379.0776290586127
 20
-53.86293032537026
 30
0.0
 40
40.86502750225184
 50
143.2437374284391
 51
146.1207732782617
  0
ARC
  5
101BA
  8
0
 62
     2
 10
346.5928697324987
 20
-29.45598493744556
 30
0.0
 40
0.2601420328338273
 50
169.5498305123637
 51
255.6886556300362
  0
ARC
  5
101BB
  8
0
 62
     2
 10
346.6815143477866
 20
-29.10850572037562
 30
0.0
 40
0.61875
 50
255.6886556300371
 51
323.4702857931557
  0
ARC
  5
101BC
  8
0
 62
     2
 10
351.4130694622667
 20
-33.82814175177185
 30
0.0
 40
6.071563843430477
 50
134.2194475644705
 51
150.9946704714022
  0
ARC
  5
101BD
  8
0
 62
     2
 10
347.680639692908
 20
-31.88053353407837
 30
0.0
 40
1.865939254119316
 50
147.7229102272603
 51
167.9828589706884
  0
ARC
  5
101BE
  8
0
 62
     2
 10
346.4037621644056
 20
-31.61819373153608
 30
0.0
 40
0.5625
 50
167.0395304977761
 51
209.0601946339073
  0
ARC
  5
101BF
  8
0
 62
     2
 10
346.108750077811
 20
-31.78212700687424
 30
0.0
 40
0.225
 50
209.0601946339065
 51
266.5373742401214
  0
ARC
  5
101C0
  8
0
 62
     2
 10
346.1359289256873
 20
-31.33294852316412
 30
0.0
 40
0.675
 50
266.5373742401195
 51
309.6627750935352
  0
ARC
  5
101C1
  8
0
 62
     2
 10
343.3355289267993
 20
-27.95538785069235
 30
0.0
 40
5.0625
 50
309.6627750935352
 51
323.3172153745844
  0
ARC
  5
101C2
  8
0
 62
     2
 10
361.0876184852612
 20
-25.52359165376094
 30
0.0
 40
7.193902767752143
 50
299.0772072678409
 51
320.1118500947949
  0
ARC
  5
101C3
  8
0
 62
     2
 10
363.8301218398538
 20
-29.99460787926937
 30
0.0
 40
1.966364865609185
 50
268.8987394395484
 51
292.536274088586
  0
ARC
  5
101C4
  8
0
 62
     2
 10
363.8082857989325
 20
-31.51089252160627
 30
0.0
 40
0.45
 50
176.1442844177453
 51
267.967943453821
  0
ARC
  5
101C5
  8
0
 62
     2
 10
365.8287023135963
 20
-31.64706192813207
 30
0.0
 40
2.475
 50
115.1629704655534
 51
176.1442844177453
  0
ARC
  5
101C6
  8
0
 62
     2
 10
365.0155179768264
 20
-29.91605427811085
 30
0.0
 40
0.5625
 50
71.72917547614387
 51
115.1629704655548
  0
ARC
  5
101C7
  8
0
 62
     2
 10
365.0822127266846
 20
-29.64209624311793
 30
0.0
 40
0.2823465023169517
 50
345.7206503331194
 51
67.1470777849427
  0
ARC
  5
101C8
  8
0
 62
     2
 10
359.8418737818028
 20
-25.20454949591955
 30
0.0
 40
7.121693512289399
 50
298.4047114076682
 51
320.7369707778967
  0
ARC
  5
101C9
  8
0
 62
     2
 10
343.313476363602
 20
-29.6724075371326
 30
0.0
 40
2.316410568925844
 50
281.9450991915094
 51
322.4871783077999
  0
ARC
  5
101CA
  8
0
 62
     2
 10
343.7197338254348
 20
-31.60918873816581
 30
0.0
 40
0.3375
 50
154.1378693518882
 51
282.5229027540487
  0
ARC
  5
101CB
  8
0
 62
     2
 10
343.815988768716
 20
-30.96430780761683
 30
0.0
 40
1.6875
 50
80.25489551238879
 51
130.8299330241711
  0
ARC
  5
101CC
  8
0
 62
     2
 10
344.9193032545377
 20
-32.24116073390719
 30
0.0
 40
3.375
 50
130.8299330241714
 51
159.7058330026866
  0
ARC
  5
101CD
  8
0
 62
     2
 10
342.3869077806959
 20
-31.30469228058596
 30
0.0
 40
0.675
 50
159.7058330026867
 51
284.9978447180575
  0
ARC
  5
101CE
  8
0
 62
     2
 10
343.796416861251
 20
-31.07826793848545
 30
0.0
 40
1.803128590709268
 50
65.7865010014735
 51
80.25489551238867
  0
LINE
  5
101CF
  8
0
 62
     2
 10
343.4160357044657
 20
-31.46196883013765
 30
0.0
 11
344.5359482705021
 21
-29.43377226826788
 31
0.0
  0
ARC
  5
101D0
  8
0
 62
     2
 10
342.1248902869086
 20
-30.32668252452552
 30
0.0
 40
1.6875
 50
284.9978447180574
 51
325.3596294486575
  0
ARC
  5
101D1
  8
0
 62
     2
 10
355.4580671487319
 20
-28.64101409717245
 30
0.0
 40
0.6259054506140294
 50
192.3760628311801
 51
302.2812499248563
  0
ARC
  5
101D2
  8
0
 62
     2
 10
357.1543065502856
 20
-28.26881452493493
 30
0.0
 40
2.3625
 50
159.2394762079698
 51
192.3760628311801
  0
ARC
  5
101D3
  8
0
 62
     2
 10
358.6270419886074
 20
-28.82709342361459
 30
0.0
 40
3.9375
 50
114.637795125622
 51
159.2394762079699
  0
ARC
  5
101D4
  8
0
 62
     2
 10
357.4545656423034
 20
-26.27063973395823
 30
0.0
 40
1.125
 50
9.547643127651048
 51
114.6377951256225
  0
ARC
  5
101D5
  8
0
 62
     2
 10
355.235732600386
 20
-26.64384200096031
 30
0.0
 40
3.375
 50
337.2211605764267
 51
9.547643127651048
  0
ARC
  5
101D6
  8
0
 62
     2
 10
350.2568990845206
 20
-24.55309648289862
 30
0.0
 40
8.775
 50
311.5739108110824
 51
337.2211605764267
  0
ARC
  5
101D7
  8
0
 62
     2
 10
353.4669946169273
 20
-28.17203181291248
 30
0.0
 40
3.9375
 50
285.2328655017429
 51
311.5739108110824
  0
ARC
  5
101D8
  8
0
 62
     2
 10
353.9103728890241
 20
-29.80024308846379
 30
0.0
 40
2.25
 50
234.6969237267341
 51
285.2328655017426
  0
ARC
  5
101D9
  8
0
 62
     2
 10
353.3902615904382
 20
-30.53473899524835
 30
0.0
 40
1.35
 50
193.1181917471552
 51
234.6969237267337
  0
ARC
  5
101DA
  8
0
 62
     2
 10
355.3624170994411
 20
-30.07514390355399
 30
0.0
 40
3.375
 50
158.133127182026
 51
193.1181917471552
  0
ARC
  5
101DB
  8
0
 62
     2
 10
364.2369119806406
 20
-33.63670912878352
 30
0.0
 40
12.9375
 50
137.7194311518777
 51
158.133127182026
  0
ARC
  5
101DC
  8
0
 62
     2
 10
357.1620074600227
 20
-27.20342596432228
 30
0.0
 40
3.375
 50
122.954333510426
 51
137.7194311518776
  0
ARC
  5
101DD
  8
0
 62
     2
 10
358.9979076139754
 20
-30.03540329910382
 30
0.0
 40
6.75
 50
106.6349598746626
 51
122.954333510426
  0
ARC
  5
101DE
  8
0
 62
     2
 10
358.3537932537173
 20
-27.87957012120964
 30
0.0
 40
4.5
 50
84.3336045233351
 51
106.6349598746627
  0
ARC
  5
101DF
  8
0
 62
     2
 10
358.4648713921758
 20
-26.7600672640643
 30
0.0
 40
3.375
 50
56.72790290053074
 51
84.33360452333488
  0
ARC
  5
101E0
  8
0
 62
     2
 10
359.6375374868919
 20
-24.97295773180189
 30
0.0
 40
1.2375
 50
329.9533563463762
 51
56.72790290053025
  0
LINE
  5
101E2
  8
0
 62
     2
 10
365.6960428873928
 20
-31.81830545223812
 30
0.0
 11
366.9585191748324
 21
-29.45700721091577
 31
0.0
  0
ARC
  5
101E3
  8
0
 62
     2
 10
368.4268359663133
 20
-31.61911294250505
 30
0.0
 40
2.346650665764061
 50
103.5552200475238
 51
140.8319858574675
  0
ARC
  5
101E4
  8
0
 62
     2
 10
368.0133969020299
 20
-29.88349752016751
 30
0.0
 40
0.5625
 50
54.27467702664698
 51
104.051810052097
  0
ARC
  5
101E5
  8
0
 62
     2
 10
368.144774417849
 20
-29.70083677359841
 30
0.0
 40
0.3375
 50
344.5917326114498
 51
54.27467702664497
  0
ARC
  5
101E6
  8
0
 62
     2
 10
365.2164510486824
 20
-28.89378752132678
 30
0.0
 40
3.375
 50
330.636249053735
 51
344.5917326114497
  0
ARC
  5
101E7
  8
0
 62
     2
 10
397.5717875131271
 20
-47.09812291904383
 30
0.0
 40
33.75
 50
150.636249053735
 51
152.1540999629527
  0
ARC
  5
101E8
  8
0
 62
     2
 10
368.5255853980214
 20
-31.75404775341622
 30
0.0
 40
0.9
 50
152.1540999629532
 51
175.5123947605448
  0
ARC
  5
101E9
  8
0
 62
     2
 10
367.9648098636013
 20
-31.71003582326304
 30
0.0
 40
0.3375
 50
175.5123947605449
 51
222.541311519809
  0
ARC
  5
101EA
  8
0
 62
     2
 10
367.8189472175641
 20
-31.87932265012685
 30
0.0
 40
0.1125
 50
235.9603264047453
 51
283.0932558458123
  0
ARC
  5
101EB
  8
0
 62
     2
 10
367.3856958526365
 20
-30.01654260278139
 30
0.0
 40
2.025
 50
283.0932558458129
 51
332.142935420514
  0
ARC
  5
101EC
  8
0
 62
     2
 10
367.8367344634668
 20
-31.83854256192641
 30
0.0
 40
0.1564583253294596
 50
219.5781502962715
 51
238.9234876282729
  0
LINE
  5
101ED
  8
0
 62
     2
 10
357.9666566547784
 20
-34.90676912133191
 30
0.0
 11
360.8890554682962
 21
-29.41265935191854
 31
0.0
  0
ARC
  5
101EE
  8
0
 62
     2
 10
360.6253575728091
 20
-31.41033045066464
 30
0.0
 40
0.6855655898635206
 50
174.1260931821181
 51
234.9293477784009
  0
ARC
  5
101EF
  8
0
 62
     2
 10
360.4547902381684
 20
-31.55878327972056
 30
0.0
 40
0.4692122746229885
 50
241.5749526686684
 51
275.4329483659259
  0
ARC
  5
101F0
  8
0
 62
     2
 10
359.9459863007035
 20
-29.60921324783942
 30
0.0
 40
2.479189004507478
 50
282.8940751599482
 51
348.2321768169684
  0
ARC
  5
101F1
  8
0
 62
     2
 10
361.822333684352
 20
-30.00038786173341
 30
0.0
 40
0.5625
 50
348.2605789317094
 51
57.7732479791886
  0
ARC
  5
101F2
  8
0
 62
     2
 10
361.822333684352
 20
-30.00038786173341
 30
0.0
 40
0.5625
 50
57.77324797918798
 51
89.61444467330607
  0
ARC
  5
101F3
  8
0
 62
     2
 10
361.8147633803489
 20
-31.12536239055498
 30
0.0
 40
1.6875
 50
89.6144446733061
 51
135.9244903918916
  0
ARC
  5
101F4
  8
0
 62
     2
 10
361.6220313532907
 20
-31.51286794388564
 30
0.0
 40
1.6875
 50
166.5368269812861
 51
174.126093182118
  0
ARC
  5
101F5
  8
0
 62
     2
 10
360.7979364204525
 20
-26.5196921841472
 30
0.0
 40
5.514292629953243
 50
266.8946474558966
 51
296.1665364443698
  0
POLYLINE
  5
10201
  8
0
  6
BYBLOCK
 62
     2
 66
     1
 10
0.0
 20
0.0
 30
0.0
 70
     1
  0
VERTEX
  5
103EC
  8
0
  6
BYBLOCK
 62
     2
 10
327.8440221723103
 20
-21.24694699579126
 30
0.0
  0
VERTEX
  5
103ED
  8
0
  6
BYBLOCK
 62
     2
 10
370.8160567196447
 20
-21.24694699579126
 30
0.0
  0
VERTEX
  5
103EE
  8
0
  6
BYBLOCK
 62
     2
 10
370.8160567196447
 20
-36.13238692903104
 30
0.0
  0
VERTEX
  5
103EF
  8
0
  6
BYBLOCK
 62
     2
 10
327.8440221723103
 20
-36.13238692903104
 30
0.0
  0
SEQEND
  5
103EB
  8
0
  6
BYBLOCK
 62
     2
  0
ENDSEC
  0
EOF
