  0
SECTION
  2
HEADER
  9
$ACADVER
  1
AC1009
  9
$EXTMAX
 10
1627.67053222656
 20
656.649536132813
 30
0.0
  9
$EXTMIN
 10
-1633.8876953125
 20
-722.526306152344
 30
0.0
  9
$INSUNITS
 70
     4
  9
$LUNITS
 70
     2
  9
$LUPREC
 70
     4
  9
$MEASUREMENT
 70
     1
  0
ENDSEC
  0
SECTION
  2
TABLES
  0
TABLE
  2
LAYER
 70
     1
  0
LAYER
  2
0
 70
     0
 62
     7
  6
Continuous
  0
LAYER
  2
Default
 70
     0
 62
    14
  6
Continuous
  0
ENDTAB
  0
TABLE
  2
APPID
 70
     1
  0
APPID
  2
ACAD
 70
     0
  0
ENDTAB
  0
ENDSEC
  0
SECTION
  2
ENTITIES
  0
POLYLINE
  8
Default
 66
     1
 10
0.0
 20
0.0
 30
0.0
 70
     1
  0
VERTEX
  8
Default
 10
-62.8859375
 20
19.98267578125
 42
0.0
  0
VERTEX
  8
Default
 10
-63.0365625
 20
18.66
 42
0.0
  0
VERTEX
  8
Default
 10
-64.3262890625
 20
18.66
 42
0.0
  0
VERTEX
  8
Default
 10
-63.1777734375
 20
25.59345703125
 42
0.0
  0
VERTEX
  8
Default
 10
-62.603515625
 20
22.61861328125
 42
0.0
  0
VERTEX
  8
Default
 10
-62.78708984375
 20
20.975859375
 42
0.0
  0
VERTEX
  8
Default
 10
-62.26931640625
 20
20.975859375
 42
0.0
  0
VERTEX
  8
Default
 10
-62.08103515625
 20
19.9873828125
 42
0.0
  0
SEQEND
  0
POLYLINE
  8
Default
 66
     1
 10
0.0
 20
0.0
 30
0.0
 70
     1
  0
VERTEX
  8
Default
 10
-61.5773828125
 20
25.75349609375
 42
0.0
  0
VERTEX
  8
Default
 10
-60.14173828125
 20
18.66
 42
0.0
  0
VERTEX
  8
Default
 10
-61.30908203125
 20
18.65529296875
 42
0.0
  0
VERTEX
  8
Default
 10
-62.6882421875
 20
25.7487890625
 42
0.0
  0
SEQEND
  0
POLYLINE
  8
Default
 66
     1
 10
0.0
 20
0.0
 30
0.0
 70
     1
  0
VERTEX
  8
Default
 10
-55.072265625
 20
20.50044921875
 42
-0.0869741561841
  0
VERTEX
  8
Default
 10
-55.2064597668651
 20
19.6367273687549
 42
-0.1569115146863
  0
VERTEX
  8
Default
 10
-55.73125
 20
18.93771484375
 42
-0.0882648342554
  0
VERTEX
  8
Default
 10
-56.2306348037247
 20
18.7080578639767
 42
-0.0652599110784
  0
VERTEX
  8
Default
 10
-56.7762109375
 20
18.641171875
 42
0.0
  0
VERTEX
  8
Default
 10
-56.95037109375
 20
18.641171875
 42
0.0
  0
VERTEX
  8
Default
 10
-57.00685546875
 20
18.641171875
 42
0.0
  0
VERTEX
  8
Default
 10
-57.00685546875
 20
19.846171875
 42
0.0101383477155
  0
VERTEX
  8
Default
 10
-56.8427516119506
 20
19.9627942583078
 42
0.055525981809
  0
VERTEX
  8
Default
 10
-56.691484375
 20
20.09564453125
 42
0.1163729206774
  0
VERTEX
  8
Default
 10
-56.5938169044452
 20
20.3578577185061
 42
0.0404887202
  0
VERTEX
  8
Default
 10
-56.57380859375
 20
20.636953125
 42
0.0197016934578
  0
VERTEX
  8
Default
 10
-56.5857040499118
 20
20.9815089299001
 42
0.0777807752724
  0
VERTEX
  8
Default
 10
-56.653828125
 20
21.31947265625
 42
0.0950127809216
  0
VERTEX
  8
Default
 10
-56.8078528303683
 20
21.5225982987035
 42
0.0378940843204
  0
VERTEX
  8
Default
 10
-57.00685546875
 20
21.6819140625
 42
0.0
  0
VERTEX
  8
Default
 10
-57.00685546875
 20
22.8304296875
 42
0.1544526592156
  0
VERTEX
  8
Default
 10
-56.8122558308494
 20
23.0575746132727
 42
0.0623864845497
  0
VERTEX
  8
Default
 10
-56.72443359375
 20
23.34349609375
 42
0.0115056074152
  0
VERTEX
  8
Default
 10
-56.6820703125
 20
23.72005859375
 42
0.139173277635
  0
VERTEX
  8
Default
 10
-56.84681640625
 20
24.31314453125
 42
0.0456009821778
  0
VERTEX
  8
Default
 10
-57.00685546875
 20
24.515546875
 42
0.0
  0
VERTEX
  8
Default
 10
-57.00685546875
 20
25.7487890625
 42
-0.0356734929862
  0
VERTEX
  8
Default
 10
-56.84681640625
 20
25.76291015625
 42
-0.0730311106163
  0
VERTEX
  8
Default
 10
-56.3454785011498
 20
25.6941193975846
 42
-0.0953688619473
  0
VERTEX
  8
Default
 10
-55.89599609375
 20
25.46166015625
 42
-0.157206432315
  0
VERTEX
  8
Default
 10
-55.3854422274372
 20
24.6768335335227
 42
-0.0729335891928
  0
VERTEX
  8
Default
 10
-55.26525390625
 20
23.74830078125
 42
-0.0435323781168
  0
VERTEX
  8
Default
 10
-55.303029904487
 20
23.2662461828254
 42
-0.0987435043621
  0
VERTEX
  8
Default
 10
-55.46765625
 20
22.8116015625
 42
-0.1107732663793
  0
VERTEX
  8
Default
 10
-55.8518199550028
 20
22.4675216762659
 42
-0.054090522099
  0
VERTEX
  8
Default
 10
-56.3243359375
 20
22.26087890625
 42
-0.0610107585688
  0
VERTEX
  8
Default
 10
-55.7809571618897
 20
22.0471312930759
 42
-0.1206872648152
  0
VERTEX
  8
Default
 10
-55.3452734375
 20
21.65837890625
 42
-0.0966891604766
  0
VERTEX
  8
Default
 10
-55.1262159439966
 20
21.0988777510066
 42
-0.0496009523945
  0
SEQEND
  0
POLYLINE
  8
Default
 66
     1
 10
0.0
 20
0.0
 30
0.0
 70
     1
  0
VERTEX
  8
Default
 10
-57.4916796875
 20
18.641171875
 42
0.0
  0
VERTEX
  8
Default
 10
-58.91791015625
 20
18.641171875
 42
0.0
  0
VERTEX
  8
Default
 10
-58.91791015625
 20
25.76291015625
 42
0.0
  0
VERTEX
  8
Default
 10
-57.4916796875
 20
25.76291015625
 42
0.0
  0
SEQEND
  0
POLYLINE
  8
Default
 66
     1
 10
0.0
 20
0.0
 30
0.0
 70
     1
  0
VERTEX
  8
Default
 10
-50.2805078125
 20
23.0187109375
 42
0.0
  0
VERTEX
  8
Default
 10
-51.5890625
 20
23.0187109375
 42
0.0106313938759
  0
VERTEX
  8
Default
 10
-51.599551144892
 20
23.5827583354694
 42
0.0418163461026
  0
VERTEX
  8
Default
 10
-51.65966796875
 20
24.14369140625
 42
-0.0086217385629
  0
VERTEX
  8
Default
 10
-51.83853515625
 20
24.58615234375
 42
0.0
  0
VERTEX
  8
Default
 10
-51.83853515625
 20
25.82880859375
 42
-0.0743238075462
  0
VERTEX
  8
Default
 10
-51.363125
 20
25.7111328125
 42
-0.1824507319172
  0
VERTEX
  8
Default
 10
-50.52998046875
 20
24.91564453125
 42
-0.077694602455
  0
VERTEX
  8
Default
 10
-50.3181640625
 20
24.25666015625
 42
-0.0462442933879
  0
VERTEX
  8
Default
 10
-50.24755859375
 20
23.54119140625
 42
-0.0285521218242
  0
VERTEX
  8
Default
 10
-50.2616796875
 20
23.235234375
 42
-0.0025402007102
  0
SEQEND
  0
POLYLINE
  8
Default
 66
     1
 10
0.0
 20
0.0
 30
0.0
 70
     1
  0
VERTEX
  8
Default
 10
-50.16283203125
 20
21.97845703125
 42
-0.0141780465435
  0
VERTEX
  8
Default
 10
-50.10634765625
 20
21.47009765625
 42
-0.0249268144909
  0
VERTEX
  8
Default
 10
-50.0828125
 20
20.98998046875
 42
-0.0565327606574
  0
VERTEX
  8
Default
 10
-50.1768995173947
 20
20.0817376724153
 42
-0.0984707018579
  0
VERTEX
  8
Default
 10
-50.53939453125
 20
19.243671875
 42
-0.1626598483
  0
VERTEX
  8
Default
 10
-51.38666015625
 20
18.60822265625
 42
-0.0811847283927
  0
VERTEX
  8
Default
 10
-51.84794921875
 20
18.51408203125
 42
0.0
  0
VERTEX
  8
Default
 10
-51.83853515625
 20
19.9120703125
 42
0.0440747549435
  0
VERTEX
  8
Default
 10
-51.60318359375
 20
20.29333984375
 42
0.0615269458705
  0
VERTEX
  8
Default
 10
-51.4855078125
 20
20.62283203125
 42
0.0410556937218
  0
VERTEX
  8
Default
 10
-51.4384375
 20
20.98998046875
 42
0.0082265292122
  0
VERTEX
  8
Default
 10
-51.42431640625
 20
21.21591796875
 42
0.0250609474173
  0
VERTEX
  8
Default
 10
-51.44314453125
 20
21.63955078125
 42
0.0075789344522
  0
VERTEX
  8
Default
 10
-51.48080078125
 20
21.9643359375
 42
0.0
  0
SEQEND
  0
POLYLINE
  8
Default
 66
     1
 10
0.0
 20
0.0
 30
0.0
 70
     1
  0
VERTEX
  8
Default
 10
-52.30923828125
 20
18.48583984375
 42
-0.0192275583783
  0
VERTEX
  8
Default
 10
-52.775234375
 20
18.61763671875
 42
-0.0358654573143
  0
VERTEX
  8
Default
 10
-53.1637801535667
 20
18.7829119616892
 42
-0.0864667543068
  0
VERTEX
  8
Default
 10
-53.50482421875
 20
19.03185546875
 42
-0.07066741261
  0
VERTEX
  8
Default
 10
-53.778810158448
 20
19.4572272044564
 42
-0.0389294336784
  0
VERTEX
  8
Default
 10
-53.95669921875
 20
19.9308984375
 42
-0.0724413862325
  0
VERTEX
  8
Default
 10
-54.130859375
 20
21.1453125
 42
0.0
  0
VERTEX
  8
Default
 10
-54.130859375
 20
23.536484375
 42
-0.0624332329097
  0
VERTEX
  8
Default
 10
-54.0694426154682
 20
23.9895947897533
 42
-0.0393174256218
  0
VERTEX
  8
Default
 10
-53.91904296875
 20
24.42140625
 42
-0.0849000154886
  0
VERTEX
  8
Default
 10
-53.415390625
 20
25.231015625
 42
-0.1243975018556
  0
VERTEX
  8
Default
 10
-52.699921875
 20
25.72525390625
 42
-0.0205580924612
  0
VERTEX
  8
Default
 10
-52.30923828125
 20
25.85234375
 42
0.0
  0
VERTEX
  8
Default
 10
-52.30923828125
 20
24.55791015625
 42
0.0523203574273
  0
VERTEX
  8
Default
 10
-52.48810546875
 20
24.37904296875
 42
0.0754146745635
  0
VERTEX
  8
Default
 10
-52.5963671875
 20
24.1672265625
 42
0.0696521088386
  0
VERTEX
  8
Default
 10
-52.6434375
 20
23.84244140625
 42
0.0059488142496
  0
VERTEX
  8
Default
 10
-52.64814453125
 20
23.48
 42
0.0
  0
VERTEX
  8
Default
 10
-52.64814453125
 20
21.1547265625
 42
0.0331003033532
  0
VERTEX
  8
Default
 10
-52.6171548492785
 20
20.6409670499852
 42
0.0680757585617
  0
VERTEX
  8
Default
 10
-52.48810546875
 20
20.14271484375
 42
0.0955368245675
  0
VERTEX
  8
Default
 10
-52.30923828125
 20
19.90265625
 42
0.0
  0
SEQEND
  0
POLYLINE
  8
Default
 66
     1
 10
0.0
 20
0.0
 30
0.0
 70
     1
  0
VERTEX
  8
Default
 10
-45.2157421875
 20
22.0208203125
 42
-0.0396242218558
  0
VERTEX
  8
Default
 10
-45.3112303590379
 20
20.6691692565727
 42
-0.0382600480108
  0
VERTEX
  8
Default
 10
-45.4677149265338
 20
20.0062361398486
 42
-0.0679997795879
  0
VERTEX
  8
Default
 10
-45.75705078125
 20
19.38958984375
 42
-0.1424455131863
  0
VERTEX
  8
Default
 10
-46.4238379204882
 20
18.8246422319481
 42
-0.1052994531388
  0
VERTEX
  8
Default
 10
-47.28212890625
 20
18.66
 42
0.0
  0
VERTEX
  8
Default
 10
-47.28212890625
 20
19.99208984375
 42
0.2507622727624
  0
VERTEX
  8
Default
 10
-46.9853253631388
 20
20.1460029388745
 42
0.097251918404
  0
VERTEX
  8
Default
 10
-46.8537890625
 20
20.45337890625
 42
0.0421823488623
  0
VERTEX
  8
Default
 10
-46.7590757086516
 20
21.239067946307
 42
0.0130037270338
  0
VERTEX
  8
Default
 10
-46.7408203125
 20
22.030234375
 42
0.0
  0
VERTEX
  8
Default
 10
-46.7408203125
 20
22.4538671875
 42
0.0121703712425
  0
VERTEX
  8
Default
 10
-46.7548640273823
 20
23.0956460929357
 42
0.0322278823742
  0
VERTEX
  8
Default
 10
-46.82083984375
 20
23.7341796875
 42
0.0644003507474
  0
VERTEX
  8
Default
 10
-46.9453511140463
 20
24.1416259986726
 42
0.0963825208231
  0
VERTEX
  8
Default
 10
-47.0750548479224
 20
24.3220282814729
 42
0.1892552902832
  0
VERTEX
  8
Default
 10
-47.28212890625
 20
24.402578125
 42
0.0
  0
VERTEX
  8
Default
 10
-47.28212890625
 20
25.75349609375
 42
-0.1307874909605
  0
VERTEX
  8
Default
 10
-46.4446745952951
 20
25.5466994689661
 42
-0.1225136498925
  0
VERTEX
  8
Default
 10
-45.82765625
 20
24.94388671875
 42
-0.0627855876294
  0
VERTEX
  8
Default
 10
-45.5070846019669
 20
24.2582631391962
 42
-0.0512785658135
  0
VERTEX
  8
Default
 10
-45.2749296142106
 20
23.15080293872
 42
-0.0283568963042
  0
SEQEND
  0
POLYLINE
  8
Default
 66
     1
 10
0.0
 20
0.0
 30
0.0
 70
     1
  0
VERTEX
  8
Default
 10
-47.77166015625
 20
18.66
 42
0.0
  0
VERTEX
  8
Default
 10
-49.1884765625
 20
18.66
 42
0.0
  0
VERTEX
  8
Default
 10
-49.197890625
 20
25.75349609375
 42
0.0
  0
VERTEX
  8
Default
 10
-47.77166015625
 20
25.75349609375
 42
0.0
  0
SEQEND
  0
POLYLINE
  8
Default
 66
     1
 10
0.0
 20
0.0
 30
0.0
 70
     1
  0
VERTEX
  8
Default
 10
-40.64521484375
 20
24.3366796875
 42
0.0
  0
VERTEX
  8
Default
 10
-41.95376953125
 20
24.3366796875
 42
0.0
  0
VERTEX
  8
Default
 10
-41.95376953125
 20
25.75349609375
 42
0.0
  0
VERTEX
  8
Default
 10
-40.64521484375
 20
25.75349609375
 42
0.0
  0
SEQEND
  0
POLYLINE
  8
Default
 66
     1
 10
0.0
 20
0.0
 30
0.0
 70
     1
  0
VERTEX
  8
Default
 10
-40.93234375
 20
21.6254296875
 42
0.0
  0
VERTEX
  8
Default
 10
-41.95376953125
 20
21.6254296875
 42
0.0
  0
VERTEX
  8
Default
 10
-41.95376953125
 20
22.94810546875
 42
0.0
  0
VERTEX
  8
Default
 10
-40.93234375
 20
22.94810546875
 42
0.0
  0
SEQEND
  0
POLYLINE
  8
Default
 66
     1
 10
0.0
 20
0.0
 30
0.0
 70
     1
  0
VERTEX
  8
Default
 10
-42.4480078125
 20
18.66
 42
0.0
  0
VERTEX
  8
Default
 10
-43.86482421875
 20
18.66
 42
0.0
  0
VERTEX
  8
Default
 10
-43.87423828125
 20
25.75349609375
 42
0.0
  0
VERTEX
  8
Default
 10
-42.4480078125
 20
25.75349609375
 42
0.0
  0
SEQEND
  0
POLYLINE
  8
Default
 66
     1
 10
0.0
 20
0.0
 30
0.0
 70
     1
  0
VERTEX
  8
Default
 10
-40.64521484375
 20
18.66
 42
0.0
  0
VERTEX
  8
Default
 10
-41.95376953125
 20
18.66
 42
0.0
  0
VERTEX
  8
Default
 10
-41.95376953125
 20
20.06740234375
 42
0.0
  0
VERTEX
  8
Default
 10
-40.64521484375
 20
20.06740234375
 42
0.0
  0
SEQEND
  0
POLYLINE
  8
Default
 66
     1
 10
0.0
 20
0.0
 30
0.0
 70
     1
  0
VERTEX
  8
Default
 10
-37.3644140625
 20
22.94810546875
 42
0.0
  0
VERTEX
  8
Default
 10
-36.34298828125
 20
22.94810546875
 42
0.0
  0
VERTEX
  8
Default
 10
-36.34298828125
 20
21.6254296875
 42
0.0
  0
VERTEX
  8
Default
 10
-37.3644140625
 20
21.6254296875
 42
0.0
  0
SEQEND
  0
POLYLINE
  8
Default
 66
     1
 10
0.0
 20
0.0
 30
0.0
 70
     1
  0
VERTEX
  8
Default
 10
-36.055859375
 20
24.3366796875
 42
0.0
  0
VERTEX
  8
Default
 10
-37.3644140625
 20
24.3366796875
 42
0.0
  0
VERTEX
  8
Default
 10
-37.3644140625
 20
25.75349609375
 42
0.0
  0
VERTEX
  8
Default
 10
-36.055859375
 20
25.75349609375
 42
0.0
  0
SEQEND
  0
POLYLINE
  8
Default
 66
     1
 10
0.0
 20
0.0
 30
0.0
 70
     1
  0
VERTEX
  8
Default
 10
-39.2848828125
 20
25.75349609375
 42
0.0
  0
VERTEX
  8
Default
 10
-37.85865234375
 20
25.75349609375
 42
0.0
  0
VERTEX
  8
Default
 10
-37.85865234375
 20
18.66
 42
0.0
  0
VERTEX
  8
Default
 10
-39.27546875
 20
18.66
 42
0.0
  0
SEQEND
  0
POLYLINE
  8
Default
 66
     1
 10
0.0
 20
0.0
 30
0.0
 70
     1
  0
VERTEX
  8
Default
 10
-31.160546875
 20
23.1128515625
 42
0.0
  0
VERTEX
  8
Default
 10
-32.42203125
 20
23.1128515625
 42
0.0
  0
VERTEX
  8
Default
 10
-32.4126171875
 20
23.76712890625
 42
0.0695464109065
  0
VERTEX
  8
Default
 10
-32.48322265625
 20
24.3555078125
 42
0.068651753866
  0
VERTEX
  8
Default
 10
-32.5442048432803
 20
24.5084740457115
 42
0.270918329077
  0
VERTEX
  8
Default
 10
-32.68091796875
 20
24.6002734375
 42
0.0
  0
VERTEX
  8
Default
 10
-32.68091796875
 20
25.8052734375
 42
-0.0342445850788
  0
VERTEX
  8
Default
 10
-32.13490234375
 20
25.66876953125
 42
-0.1000417091393
  0
VERTEX
  8
Default
 10
-31.5841796875
 20
25.34869140625
 42
-0.0739307941648
  0
VERTEX
  8
Default
 10
-31.4084520173401
 20
25.1080273552495
 42
-0.0371123811797
  0
VERTEX
  8
Default
 10
-31.28763671875
 20
24.835625
 42
-0.0278415129769
  0
VERTEX
  8
Default
 10
-31.2007740324379
 20
24.5584496280249
 42
-0.0590325096357
  0
VERTEX
  8
Default
 10
-31.160546875
 20
24.27078125
 42
0.0061024884549
  0
VERTEX
  8
Default
 10
-31.16525390625
 20
23.7530078125
 42
0.0040827866443
  0
SEQEND
  0
POLYLINE
  8
Default
 66
     1
 10
0.0
 20
0.0
 30
0.0
 70
     1
  0
VERTEX
  8
Default
 10
-31.02404296875
 20
20.50986328125
 42
-0.1263022655468
  0
VERTEX
  8
Default
 10
-31.27822265625
 20
19.52609375
 42
-0.0555895141404
  0
VERTEX
  8
Default
 10
-31.5276953125
 20
19.1589453125
 42
-0.1251986646193
  0
VERTEX
  8
Default
 10
-31.7902725037969
 20
18.8000042792185
 42
-0.0924263781144
  0
VERTEX
  8
Default
 10
-32.18197265625
 20
18.58939453125
 42
-0.0446528770077
  0
VERTEX
  8
Default
 10
-32.63384765625
 20
18.51408203125
 42
0.0
  0
VERTEX
  8
Default
 10
-32.6197265625
 20
19.89794921875
 42
0.0939863566904
  0
VERTEX
  8
Default
 10
-32.34671875
 20
20.29333984375
 42
0.0675911627674
  0
VERTEX
  8
Default
 10
-32.2750681664955
 20
20.5595440152963
 42
0.0352829814404
  0
VERTEX
  8
Default
 10
-32.25728515625
 20
20.8346484375
 42
0.0
  0
VERTEX
  8
Default
 10
-32.25728515625
 20
21.503046875
 42
0.0
  0
VERTEX
  8
Default
 10
-32.68091796875
 20
21.503046875
 42
0.0
  0
VERTEX
  8
Default
 10
-32.68091796875
 20
22.42091796875
 42
0.0
  0
VERTEX
  8
Default
 10
-31.02404296875
 20
22.42091796875
 42
0.0
  0
SEQEND
  0
POLYLINE
  8
Default
 66
     1
 10
0.0
 20
0.0
 30
0.0
 70
     1
  0
VERTEX
  8
Default
 10
-33.16103515625
 20
18.48583984375
 42
-0.1048277277619
  0
VERTEX
  8
Default
 10
-33.909453125
 20
18.62234375
 42
-0.1371647665924
  0
VERTEX
  8
Default
 10
-34.44134765625
 20
19.093046875
 42
-0.0763137710067
  0
VERTEX
  8
Default
 10
-34.6629372709987
 20
19.6053934380598
 42
-0.0329695893058
  0
VERTEX
  8
Default
 10
-34.775546875
 20
20.15212890625
 42
-0.0070432833412
  0
VERTEX
  8
Default
 10
-34.8414453125
 20
20.7969921875
 42
0.0
  0
VERTEX
  8
Default
 10
-34.8414453125
 20
23.611796875
 42
-0.0662627458299
  0
VERTEX
  8
Default
 10
-34.75671875
 20
24.3084375
 42
-0.0473575091221
  0
VERTEX
  8
Default
 10
-34.51666015625
 20
24.94388671875
 42
-0.055259539537
  0
VERTEX
  8
Default
 10
-34.15892578125
 20
25.38634765625
 42
-0.0813287971887
  0
VERTEX
  8
Default
 10
-33.7070252956534
 20
25.7091928524499
 42
-0.1130423602509
  0
VERTEX
  8
Default
 10
-33.1657421875
 20
25.833515625
 42
0.0
  0
VERTEX
  8
Default
 10
-33.16103515625
 20
24.52025390625
 42
0.129126684671
  0
VERTEX
  8
Default
 10
-33.32107421875
 20
24.38375
 42
0.0828841355282
  0
VERTEX
  8
Default
 10
-33.3832546363845
 20
24.208371448074
 42
0.0469002779925
  0
VERTEX
  8
Default
 10
-33.42462890625
 20
23.65416015625
 42
0.0
  0
VERTEX
  8
Default
 10
-33.42462890625
 20
20.8440625
 42
0.1088833111191
  0
VERTEX
  8
Default
 10
-33.29283203125
 20
20.14271484375
 42
0.0820752065782
  0
VERTEX
  8
Default
 10
-33.16103515625
 20
19.9497265625
 42
0.0
  0
SEQEND
  0
POLYLINE
  8
Default
 66
     1
 10
0.0
 20
0.0
 30
0.0
 70
     1
  0
VERTEX
  8
Default
 10
-26.1051953125
 20
18.66
 42
0.0
  0
VERTEX
  8
Default
 10
-27.53142578125
 20
18.66
 42
0.0
  0
VERTEX
  8
Default
 10
-27.53142578125
 20
21.97845703125
 42
0.0
  0
VERTEX
  8
Default
 10
-27.7432421875
 20
21.97845703125
 42
0.0
  0
VERTEX
  8
Default
 10
-27.7432421875
 20
23.0375390625
 42
0.0
  0
VERTEX
  8
Default
 10
-27.53142578125
 20
23.0375390625
 42
0.0
  0
VERTEX
  8
Default
 10
-27.53142578125
 20
25.75349609375
 42
0.0
  0
VERTEX
  8
Default
 10
-26.1051953125
 20
25.75349609375
 42
0.0
  0
SEQEND
  0
POLYLINE
  8
Default
 66
     1
 10
0.0
 20
0.0
 30
0.0
 70
     1
  0
VERTEX
  8
Default
 10
-28.22806640625
 20
21.97845703125
 42
0.0
  0
VERTEX
  8
Default
 10
-28.4398828125
 20
21.97845703125
 42
0.0
  0
VERTEX
  8
Default
 10
-28.4398828125
 20
18.66
 42
0.0
  0
VERTEX
  8
Default
 10
-29.86611328125
 20
18.66
 42
0.0
  0
VERTEX
  8
Default
 10
-29.86611328125
 20
25.75349609375
 42
0.0
  0
VERTEX
  8
Default
 10
-28.4398828125
 20
25.75349609375
 42
0.0
  0
VERTEX
  8
Default
 10
-28.4398828125
 20
23.0375390625
 42
0.0
  0
VERTEX
  8
Default
 10
-28.22806640625
 20
23.0375390625
 42
0.0
  0
SEQEND
  0
POLYLINE
  8
Default
 66
     1
 10
0.0
 20
0.0
 30
0.0
 70
     1
  0
VERTEX
  8
Default
 10
-23.33275390625
 20
25.75349609375
 42
0.0
  0
VERTEX
  8
Default
 10
-23.33275390625
 20
18.66
 42
0.0
  0
VERTEX
  8
Default
 10
-24.758984375
 20
18.66
 42
0.0
  0
VERTEX
  8
Default
 10
-24.758984375
 20
25.75349609375
 42
0.0
  0
SEQEND
  0
POLYLINE
  8
Default
 66
     1
 10
0.0
 20
0.0
 30
0.0
 70
     1
  0
VERTEX
  8
Default
 10
-20.353203125
 20
20.52869140625
 42
0.0
  0
VERTEX
  8
Default
 10
-20.353203125
 20
25.75349609375
 42
0.0
  0
VERTEX
  8
Default
 10
-18.92697265625
 20
25.75349609375
 42
0.0
  0
VERTEX
  8
Default
 10
-18.92697265625
 20
20.4580859375
 42
-0.1052978633141
  0
VERTEX
  8
Default
 10
-19.105620604737
 20
19.5226982115011
 42
-0.1469093843793
  0
VERTEX
  8
Default
 10
-19.72716796875
 20
18.8012109375
 42
-0.0567765111194
  0
VERTEX
  8
Default
 10
-20.1163320439669
 20
18.6271753016093
 42
-0.0245121085704
  0
VERTEX
  8
Default
 10
-20.52736328125
 20
18.51408203125
 42
0.0
  0
VERTEX
  8
Default
 10
-20.52736328125
 20
19.921484375
 42
0.079020787217
  0
VERTEX
  8
Default
 10
-20.41439453125
 20
20.14271484375
 42
0.0415450188576
  0
VERTEX
  8
Default
 10
-20.37673828125
 20
20.34041015625
 42
-0.0154405553022
  0
SEQEND
  0
POLYLINE
  8
Default
 66
     1
 10
0.0
 20
0.0
 30
0.0
 70
     1
  0
VERTEX
  8
Default
 10
-22.424296875
 20
21.83724609375
 42
0.0
  0
VERTEX
  8
Default
 10
-21.20046875
 20
21.83724609375
 42
0.0
  0
VERTEX
  8
Default
 10
-21.1910546875
 20
20.62283203125
 42
0.0748164719645
  0
VERTEX
  8
Default
 10
-21.143984375
 20
20.2698046875
 42
-0.011843424082
  0
VERTEX
  8
Default
 10
-21.01689453125
 20
19.9403125
 42
0.0
  0
VERTEX
  8
Default
 10
-21.01689453125
 20
18.51408203125
 42
-0.0310977784196
  0
VERTEX
  8
Default
 10
-21.3846713425668
 20
18.6387461283643
 42
-0.067405267462
  0
VERTEX
  8
Default
 10
-21.72294921875
 20
18.829453125
 42
-0.1440461297778
  0
VERTEX
  8
Default
 10
-22.277992078535
 20
19.6153774773559
 42
-0.085345032996
  0
VERTEX
  8
Default
 10
-22.424296875
 20
20.56634765625
 42
0.0
  0
SEQEND
  0
POLYLINE
  8
Default
 66
     1
 10
0.0
 20
0.0
 30
0.0
 70
     1
  0
VERTEX
  8
Default
 10
-13.69275390625
 20
18.66
 42
0.0
  0
VERTEX
  8
Default
 10
-15.307265625
 20
18.66
 42
0.0
  0
VERTEX
  8
Default
 10
-15.82033203125
 20
20.2509765625
 42
0.0
  0
VERTEX
  8
Default
 10
-15.82033203125
 20
24.39787109375
 42
0.0
  0
VERTEX
  8
Default
 10
-15.37787109375
 20
25.77232421875
 42
0.0
  0
VERTEX
  8
Default
 10
-14.01283203125
 20
25.77232421875
 42
0.0
  0
VERTEX
  8
Default
 10
-15.2037109375
 20
22.53388671875
 42
0.0
  0
SEQEND
  0
POLYLINE
  8
Default
 66
     1
 10
0.0
 20
0.0
 30
0.0
 70
     1
  0
VERTEX
  8
Default
 10
-16.3145703125
 20
18.66
 42
0.0
  0
VERTEX
  8
Default
 10
-17.74080078125
 20
18.66
 42
0.0
  0
VERTEX
  8
Default
 10
-17.74080078125
 20
25.7487890625
 42
0.0
  0
VERTEX
  8
Default
 10
-16.32869140625
 20
25.77232421875
 42
0.0
  0
SEQEND
  0
POLYLINE
  8
Default
 66
     1
 10
0.0
 20
0.0
 30
0.0
 70
     1
  0
VERTEX
  8
Default
 10
-11.01916015625
 20
18.66
 42
0.0
  0
VERTEX
  8
Default
 10
-12.445390625
 20
18.66
 42
0.0
  0
VERTEX
  8
Default
 10
-12.445390625
 20
25.75349609375
 42
0.0
  0
VERTEX
  8
Default
 10
-11.01916015625
 20
25.75349609375
 42
0.0
  0
SEQEND
  0
POLYLINE
  8
Default
 66
     1
 10
0.0
 20
0.0
 30
0.0
 70
     1
  0
VERTEX
  8
Default
 10
-9.36228515625
 20
18.66
 42
0.0
  0
VERTEX
  8
Default
 10
-10.52962890625
 20
18.66
 42
0.0
  0
VERTEX
  8
Default
 10
-10.53904296875
 20
20.07681640625
 42
0.0
  0
VERTEX
  8
Default
 10
-9.36228515625
 20
20.07681640625
 42
0.0
  0
SEQEND
  0
POLYLINE
  8
Default
 66
     1
 10
0.0
 20
0.0
 30
0.0
 70
     1
  0
VERTEX
  8
Default
 10
-2.9842578125
 20
18.66
 42
0.0
  0
VERTEX
  8
Default
 10
-4.25515625
 20
18.66
 42
0.0
  0
VERTEX
  8
Default
 10
-4.25044921875
 20
22.3785546875
 42
0.0
  0
VERTEX
  8
Default
 10
-3.26197265625
 20
25.7487890625
 42
0.0
  0
VERTEX
  8
Default
 10
-2.9842578125
 20
25.75349609375
 42
0.0
  0
SEQEND
  0
POLYLINE
  8
Default
 66
     1
 10
0.0
 20
0.0
 30
0.0
 70
     1
  0
VERTEX
  8
Default
 10
-3.7373828125
 20
25.75349609375
 42
0.0
  0
VERTEX
  8
Default
 10
-5.54017578125
 20
19.35193359375
 42
0.0
  0
VERTEX
  8
Default
 10
-6.06265625
 20
21.37595703125
 42
0.0
  0
VERTEX
  8
Default
 10
-4.95650390625
 20
25.75349609375
 42
0.0
  0
SEQEND
  0
POLYLINE
  8
Default
 66
     1
 10
0.0
 20
0.0
 30
0.0
 70
     1
  0
VERTEX
  8
Default
 10
-5.77552734375
 20
24.12486328125
 42
0.0
  0
VERTEX
  8
Default
 10
-6.31212890625
 20
22.124375
 42
0.0
  0
VERTEX
  8
Default
 10
-6.9569921875
 20
24.19076171875
 42
0.0
  0
VERTEX
  8
Default
 10
-6.9569921875
 20
18.66
 42
0.0
  0
VERTEX
  8
Default
 10
-8.227890625
 20
18.66
 42
0.0
  0
VERTEX
  8
Default
 10
-8.227890625
 20
25.75349609375
 42
0.0
  0
VERTEX
  8
Default
 10
-6.3544921875
 20
25.7487890625
 42
0.0
  0
SEQEND
  0
POLYLINE
  8
Default
 66
     1
 10
0.0
 20
0.0
 30
0.0
 70
     1
  0
VERTEX
  8
Default
 10
2.089921875
 20
25.77232421875
 42
0.0
  0
VERTEX
  8
Default
 10
2.07109375
 20
20.30275390625
 42
0.0
  0
VERTEX
  8
Default
 10
0.9131640625
 20
23.55060546875
 42
0.0
  0
VERTEX
  8
Default
 10
0.92728515625
 20
25.77232421875
 42
0.0
  0
SEQEND
  0
POLYLINE
  8
Default
 66
     1
 10
0.0
 20
0.0
 30
0.0
 70
     1
  0
VERTEX
  8
Default
 10
2.08521484375
 20
18.66
 42
0.0
  0
VERTEX
  8
Default
 10
0.94140625
 20
18.66
 42
0.0
  0
VERTEX
  8
Default
 10
-1.638046875
 20
25.75349609375
 42
0.0
  0
VERTEX
  8
Default
 10
-0.4048046875
 20
25.77232421875
 42
0.0
  0
SEQEND
  0
POLYLINE
  8
Default
 66
     1
 10
0.0
 20
0.0
 30
0.0
 70
     1
  0
VERTEX
  8
Default
 10
-0.4801171875
 20
18.66
 42
0.0
  0
VERTEX
  8
Default
 10
-1.638046875
 20
18.66
 42
0.0
  0
VERTEX
  8
Default
 10
-1.6474609375
 20
24.38375
 42
0.0
  0
VERTEX
  8
Default
 10
-0.47541015625
 20
21.10765625
 42
0.0
  0
SEQEND
  0
POLYLINE
  8
Default
 66
     1
 10
0.0
 20
0.0
 30
0.0
 70
     1
  0
VERTEX
  8
Default
 10
4.161015625
 20
25.494609375
 42
-0.0714430679686
  0
VERTEX
  8
Default
 10
4.4700805978121
 20
25.6608867173146
 42
-0.033241659878
  0
VERTEX
  8
Default
 10
4.80587890625
 20
25.76291015625
 42
0.034308233718
  0
VERTEX
  8
Default
 10
5.00828125
 20
25.8052734375
 42
0.0
  0
VERTEX
  8
Default
 10
5.02240234375
 20
24.57673828125
 42
0.091456911852
  0
VERTEX
  8
Default
 10
4.838828125
 20
24.17193359375
 42
0.0624692673023
  0
VERTEX
  8
Default
 10
4.7446875
 20
23.35291015625
 42
0.0
  0
VERTEX
  8
Default
 10
4.7446875
 20
21.164140625
 42
0.0193055691784
  0
VERTEX
  8
Default
 10
4.7627445670378
 20
20.6507538150597
 42
0.0405901966268
  0
VERTEX
  8
Default
 10
4.838828125
 20
20.14271484375
 42
0.1343199556248
  0
VERTEX
  8
Default
 10
5.0553515625
 20
19.75673828125
 42
0.0
  0
VERTEX
  8
Default
 10
5.0553515625
 20
18.46701171875
 42
-0.0537150955926
  0
VERTEX
  8
Default
 10
4.6510104516977
 20
18.5738729225736
 42
-0.0299988884555
  0
VERTEX
  8
Default
 10
4.26927734375
 20
18.7447265625
 42
-0.0629090198168
  0
VERTEX
  8
Default
 10
3.8316436700428
 20
19.0349016196373
 42
-0.1298807220644
  0
VERTEX
  8
Default
 10
3.5302734375
 20
19.46490234375
 42
-0.0481624419751
  0
VERTEX
  8
Default
 10
3.30904296875
 20
20.523984375
 42
-0.0309643185084
  0
VERTEX
  8
Default
 10
3.2290234375
 20
21.8984375
 42
-0.0187797701594
  0
VERTEX
  8
Default
 10
3.2694756597142
 20
23.0861160387693
 42
-0.0423569557111
  0
VERTEX
  8
Default
 10
3.445546875
 20
24.2613671875
 42
-0.0611554533861
  0
VERTEX
  8
Default
 10
3.7012233164847
 20
24.9371977110529
 42
-0.1048767845883
  0
SEQEND
  0
POLYLINE
  8
Default
 66
     1
 10
0.0
 20
0.0
 30
0.0
 70
     1
  0
VERTEX
  8
Default
 10
6.89109375
 20
19.33310546875
 42
-0.1818072612178
  0
VERTEX
  8
Default
 10
6.0720703125
 20
18.61763671875
 42
-0.0350065532203
  0
VERTEX
  8
Default
 10
5.5448828125
 20
18.48583984375
 42
0.0
  0
VERTEX
  8
Default
 10
5.5448828125
 20
19.77556640625
 42
0.0900838438682
  0
VERTEX
  8
Default
 10
5.704921875
 20
20.16154296875
 42
0.0515802233823
  0
VERTEX
  8
Default
 10
5.7896484375
 20
21.0982421875
 42
0.0
  0
VERTEX
  8
Default
 10
5.7896484375
 20
23.272890625
 42
0.0256973731354
  0
VERTEX
  8
Default
 10
5.7644163454201
 20
23.8201175286523
 42
0.0649790313414
  0
VERTEX
  8
Default
 10
5.6484375
 20
24.3555078125
 42
0.1155937219901
  0
VERTEX
  8
Default
 10
5.50251953125
 20
24.57673828125
 42
0.0
  0
VERTEX
  8
Default
 10
5.50251953125
 20
25.80056640625
 42
-0.0081295205194
  0
VERTEX
  8
Default
 10
5.72375
 20
25.78173828125
 42
-0.1780730970444
  0
VERTEX
  8
Default
 10
6.5804296875
 20
25.29220703125
 42
-0.0743545157822
  0
VERTEX
  8
Default
 10
6.9318721401608
 20
24.6889797447612
 42
-0.043558628142
  0
VERTEX
  8
Default
 10
7.135859375
 20
24.02130859375
 42
-0.0335297716171
  0
VERTEX
  8
Default
 10
7.2773418672613
 20
23.0304474767303
 42
-0.0200605508526
  0
VERTEX
  8
Default
 10
7.3147265625
 20
22.030234375
 42
-0.0079664870851
  0
VERTEX
  8
Default
 10
7.3044411800171
 20
21.3068452524571
 42
-0.023468576333
  0
VERTEX
  8
Default
 10
7.25353515625
 20
20.58517578125
 42
-0.0851025834123
  0
SEQEND
  0
POLYLINE
  8
Default
 66
     1
 10
0.0
 20
0.0
 30
0.0
 70
     1
  0
VERTEX
  8
Default
 10
12.38419921875
 20
23.235234375
 42
-0.0562467155942
  0
VERTEX
  8
Default
 10
12.2987631272949
 20
22.3940455691709
 42
-0.1134720201794
  0
VERTEX
  8
Default
 10
11.9464453125
 20
21.6254296875
 42
-0.1234737503014
  0
VERTEX
  8
Default
 10
11.4125169076504
 20
21.214834211327
 42
-0.1024759229517
  0
VERTEX
  8
Default
 10
10.750859375
 20
21.088828125
 42
0.0
  0
VERTEX
  8
Default
 10
10.637890625
 20
21.088828125
 42
-0.0314775159695
  0
VERTEX
  8
Default
 10
10.43548828125
 20
21.10765625
 42
0.0
  0
VERTEX
  8
Default
 10
10.43548828125
 20
22.406796875
 42
-0.0162565864348
  0
VERTEX
  8
Default
 10
10.73203125
 20
22.67509765625
 42
0.1062208991245
  0
VERTEX
  8
Default
 10
10.8297587407597
 20
22.9663389078635
 42
0.0367139359265
  0
VERTEX
  8
Default
 10
10.84970703125
 20
23.272890625
 42
0.0488908932912
  0
VERTEX
  8
Default
 10
10.7979296875
 20
23.9412890625
 42
0.0828392588684
  0
VERTEX
  8
Default
 10
10.6869257555234
 20
24.2570169748425
 42
0.1771426687871
  0
VERTEX
  8
Default
 10
10.43548828125
 20
24.477890625
 42
0.0
  0
VERTEX
  8
Default
 10
10.43548828125
 20
25.77232421875
 42
-0.0986337552845
  0
VERTEX
  8
Default
 10
11.2232864992102
 20
25.6282370691855
 42
-0.1232560419131
  0
VERTEX
  8
Default
 10
11.86642578125
 20
25.15099609375
 42
-0.1120295779041
  0
VERTEX
  8
Default
 10
12.2781573542241
 20
24.3206843548116
 42
-0.0632229176629
  0
VERTEX
  8
Default
 10
12.38419921875
 20
23.39998046875
 42
0.0
  0
VERTEX
  8
Default
 10
12.38419921875
 20
23.272890625
 42
0.0
  0
SEQEND
  0
POLYLINE
  8
Default
 66
     1
 10
0.0
 20
0.0
 30
0.0
 70
     1
  0
VERTEX
  8
Default
 10
9.94595703125
 20
18.66
 42
0.0
  0
VERTEX
  8
Default
 10
8.5197265625
 20
18.66
 42
0.0
  0
VERTEX
  8
Default
 10
8.5197265625
 20
25.77232421875
 42
0.0
  0
VERTEX
  8
Default
 10
9.94595703125
 20
25.77232421875
 42
0.0
  0
SEQEND
  0
POLYLINE
  8
Default
 66
     1
 10
0.0
 20
0.0
 30
0.0
 70
     1
  0
VERTEX
  8
Default
 10
17.62783203125
 20
19.18248046875
 42
0.0
  0
VERTEX
  8
Default
 10
16.6158203125
 20
17.99630859375
 42
0.0
  0
VERTEX
  8
Default
 10
16.06509765625
 20
18.5846875
 42
0.0
  0
VERTEX
  8
Default
 10
15.64146484375
 20
18.48583984375
 42
0.0
  0
VERTEX
  8
Default
 10
15.64146484375
 20
19.77556640625
 42
0.0942670607304
  0
VERTEX
  8
Default
 10
15.815625
 20
20.16154296875
 42
0.0600144889395
  0
VERTEX
  8
Default
 10
15.91447265625
 20
21.0982421875
 42
0.0
  0
VERTEX
  8
Default
 10
15.91447265625
 20
23.27759765625
 42
0.0241074409102
  0
VERTEX
  8
Default
 10
15.8909183998377
 20
23.8217300082291
 42
0.0609352365765
  0
VERTEX
  8
Default
 10
15.78267578125
 20
24.3555078125
 42
0.1200628139299
  0
VERTEX
  8
Default
 10
15.64146484375
 20
24.57673828125
 42
0.0
  0
VERTEX
  8
Default
 10
15.64146484375
 20
25.8146875
 42
-0.1241769539266
  0
VERTEX
  8
Default
 10
16.3233079313605
 20
25.6499030046839
 42
-0.1035899580421
  0
VERTEX
  8
Default
 10
16.85587890625
 20
25.193359375
 42
-0.0888760551787
  0
VERTEX
  8
Default
 10
17.2343696021422
 20
24.4715674865691
 42
-0.0538474911856
  0
VERTEX
  8
Default
 10
17.3971875
 20
23.67298828125
 42
0.0016862250429
  0
VERTEX
  8
Default
 10
17.39248046875
 20
22.23734375
 42
0.0026823819221
  0
VERTEX
  8
Default
 10
17.3971875
 20
21.07
 42
-0.0109835592133
  0
VERTEX
  8
Default
 10
17.3887224075495
 20
20.6359116372315
 42
-0.0345703545607
  0
VERTEX
  8
Default
 10
17.34541015625
 20
20.20390625
 42
-0.1058064429185
  0
VERTEX
  8
Default
 10
17.1806640625
 20
19.7802734375
 42
0.0
  0
SEQEND
  0
POLYLINE
  8
Default
 66
     1
 10
0.0
 20
0.0
 30
0.0
 70
     1
  0
VERTEX
  8
Default
 10
15.16134765625
 20
18.46701171875
 42
-0.1161746276706
  0
VERTEX
  8
Default
 10
14.4218599086067
 20
18.627299947743
 42
-0.1261659843461
  0
VERTEX
  8
Default
 10
13.85279296875
 20
19.12599609375
 42
-0.0971424580451
  0
VERTEX
  8
Default
 10
13.4829502613699
 20
19.9920201842021
 42
-0.0559872310177
  0
VERTEX
  8
Default
 10
13.386796875
 20
20.9287890625
 42
-0.0461335478762
  0
VERTEX
  8
Default
 10
13.386796875
 20
21.0229296875
 42
0.0
  0
VERTEX
  8
Default
 10
13.386796875
 20
21.03234375
 42
0.0
  0
VERTEX
  8
Default
 10
13.386796875
 20
21.95021484375
 42
-0.0084114168729
  0
VERTEX
  8
Default
 10
13.40091796875
 20
23.06578125
 42
-0.0311657727494
  0
VERTEX
  8
Default
 10
13.4809375
 20
23.81419921875
 42
-0.044021422578
  0
VERTEX
  8
Default
 10
13.6821925975637
 20
24.5914396887203
 42
-0.0894752344598
  0
VERTEX
  8
Default
 10
14.0740234375
 20
25.29220703125
 42
-0.1048270381036
  0
VERTEX
  8
Default
 10
14.5559770173404
 20
25.6551289031575
 42
-0.0808715445828
  0
VERTEX
  8
Default
 10
15.1378125
 20
25.8146875
 42
0.0
  0
VERTEX
  8
Default
 10
15.15193359375
 20
24.58615234375
 42
0.0898482829398
  0
VERTEX
  8
Default
 10
14.9589453125
 20
24.18134765625
 42
0.0654344642945
  0
VERTEX
  8
Default
 10
14.86009765625
 20
23.3576171875
 42
0.0
  0
VERTEX
  8
Default
 10
14.86009765625
 20
21.16884765625
 42
0.0191758568844
  0
VERTEX
  8
Default
 10
14.878086920935
 20
20.6531133040771
 42
0.0407193012565
  0
VERTEX
  8
Default
 10
14.95423828125
 20
20.14271484375
 42
0.1352480143718
  0
VERTEX
  8
Default
 10
15.16134765625
 20
19.75673828125
 42
0.0
  0
SEQEND
  0
POLYLINE
  8
Default
 66
     1
 10
0.0
 20
0.0
 30
0.0
 70
     1
  0
VERTEX
  8
Default
 10
22.6784765625
 20
18.66
 42
0.0
  0
VERTEX
  8
Default
 10
21.2663671875
 20
18.66
 42
-0.0270606842099
  0
VERTEX
  8
Default
 10
21.2391507766308
 20
18.9301819879355
 42
-0.0040872216244
  0
VERTEX
  8
Default
 10
21.22400390625
 20
19.20130859375
 42
0.0029782067075
  0
VERTEX
  8
Default
 10
21.17693359375
 20
20.06740234375
 42
0.0277727783893
  0
VERTEX
  8
Default
 10
21.12044921875
 20
20.62283203125
 42
0.0608079148185
  0
VERTEX
  8
Default
 10
21.0014975643544
 20
20.9984818965438
 42
0.1444281389218
  0
VERTEX
  8
Default
 10
20.74859375
 20
21.30064453125
 42
0.0
  0
VERTEX
  8
Default
 10
20.74859375
 20
22.482109375
 42
0.0369021627902
  0
VERTEX
  8
Default
 10
20.9187199458946
 20
22.5911175294593
 42
0.0867314433118
  0
VERTEX
  8
Default
 10
21.0592578125
 20
22.7362890625
 42
0.0975083977229
  0
VERTEX
  8
Default
 10
21.1719244060906
 20
23.0879585703448
 42
0.0362968378288
  0
VERTEX
  8
Default
 10
21.19576171875
 20
23.45646484375
 42
0.0352169260096
  0
VERTEX
  8
Default
 10
21.168998099628
 20
23.8855630034455
 42
0.1054319370984
  0
VERTEX
  8
Default
 10
21.03572265625
 20
24.29431640625
 42
-0.0039301466137
  0
VERTEX
  8
Default
 10
20.74859375
 20
24.55791015625
 42
0.0
  0
VERTEX
  8
Default
 10
20.74859375
 20
25.75349609375
 42
0.0
  0
VERTEX
  8
Default
 10
21.2475390625
 20
25.75349609375
 42
-0.1659435737787
  0
VERTEX
  8
Default
 10
22.0439427496065
 20
25.3957947669133
 42
-0.0741507515661
  0
VERTEX
  8
Default
 10
22.312069584881
 20
25.0469772255451
 42
-0.0513975373776
  0
VERTEX
  8
Default
 10
22.48548828125
 20
24.64263671875
 42
-0.043663792184
  0
VERTEX
  8
Default
 10
22.5814444355008
 20
24.1545960260283
 42
-0.0173636032496
  0
VERTEX
  8
Default
 10
22.6219921875
 20
23.6588671875
 42
-0.0728425377295
  0
VERTEX
  8
Default
 10
22.5162310113174
 20
22.8539948215733
 42
-0.1334047548767
  0
VERTEX
  8
Default
 10
22.09951171875
 20
22.15732421875
 42
-0.0546065012594
  0
VERTEX
  8
Default
 10
21.82650390625
 20
21.95021484375
 42
-0.0843186258595
  0
VERTEX
  8
Default
 10
21.4734765625
 20
21.83724609375
 42
-0.1053900470983
  0
VERTEX
  8
Default
 10
21.9261911521274
 20
21.6914917831056
 42
-0.1340174642095
  0
VERTEX
  8
Default
 10
22.25484375
 20
21.34771484375
 42
-0.0878034092714
  0
VERTEX
  8
Default
 10
22.4500654598646
 20
20.7360962690865
 42
-0.0388251289639
  0
VERTEX
  8
Default
 10
22.49490234375
 20
20.09564453125
 42
0.0413236436772
  0
VERTEX
  8
Default
 10
22.55609375
 20
19.33310546875
 42
0.0080283705989
  0
SEQEND
  0
POLYLINE
  8
Default
 66
     1
 10
0.0
 20
0.0
 30
0.0
 70
     1
  0
VERTEX
  8
Default
 10
20.2684765625
 20
18.66
 42
0.0
  0
VERTEX
  8
Default
 10
18.82341796875
 20
18.66
 42
0.0
  0
VERTEX
  8
Default
 10
18.82341796875
 20
25.75349609375
 42
0.0
  0
VERTEX
  8
Default
 10
20.2590625
 20
25.75349609375
 42
0.0
  0
SEQEND
  0
POLYLINE
  8
Default
 66
     1
 10
0.0
 20
0.0
 30
0.0
 70
     1
  0
VERTEX
  8
Default
 10
23.6198828125
 20
21.126484375
 42
0.0
  0
VERTEX
  8
Default
 10
24.8625390625
 20
21.1170703125
 42
0.0
  0
VERTEX
  8
Default
 10
24.8625390625
 20
20.35453125
 42
0.0503715017557
  0
VERTEX
  8
Default
 10
24.8805264705214
 20
20.1524771807819
 42
0.1374787672559
  0
VERTEX
  8
Default
 10
24.96609375
 20
19.9685546875
 42
0.0152503736553
  0
VERTEX
  8
Default
 10
25.19203125
 20
19.75673828125
 42
0.0
  0
VERTEX
  8
Default
 10
25.19203125
 20
18.528203125
 42
-0.0200173247289
  0
VERTEX
  8
Default
 10
24.7920697041675
 20
18.6520276532143
 42
-0.0468990141722
  0
VERTEX
  8
Default
 10
24.4106640625
 20
18.82474609375
 42
-0.1176563208641
  0
VERTEX
  8
Default
 10
23.8315242889531
 20
19.3624691758912
 42
-0.1451614367105
  0
VERTEX
  8
Default
 10
23.6198828125
 20
20.12388671875
 42
0.0
  0
SEQEND
  0
POLYLINE
  8
Default
 66
     1
 10
0.0
 20
0.0
 30
0.0
 70
     1
  0
VERTEX
  8
Default
 10
27.09837890625
 20
23.4705859375
 42
0.0
  0
VERTEX
  8
Default
 10
25.89337890625
 20
23.48
 42
0.0
  0
VERTEX
  8
Default
 10
25.89337890625
 20
24.09662109375
 42
0.0371998982457
  0
VERTEX
  8
Default
 10
25.8823105631847
 20
24.2674443077864
 42
0.1520928429126
  0
VERTEX
  8
Default
 10
25.81806640625
 20
24.42611328125
 42
0.0269822254131
  0
VERTEX
  8
Default
 10
25.6815625
 20
24.55791015625
 42
0.0
  0
VERTEX
  8
Default
 10
25.6815625
 20
25.85234375
 42
-0.0948125568718
  0
VERTEX
  8
Default
 10
26.3729867055532
 20
25.5924569612418
 42
-0.1204558705264
  0
VERTEX
  8
Default
 10
26.8865625
 20
25.0615625
 42
-0.0518722166423
  0
VERTEX
  8
Default
 10
27.0145530662708
 20
24.7584262911366
 42
-0.0235041985312
  0
VERTEX
  8
Default
 10
27.09837890625
 20
24.440234375
 42
0.0
  0
VERTEX
  8
Default
 10
27.09837890625
 20
24.0542578125
 42
0.0
  0
VERTEX
  8
Default
 10
27.09837890625
 20
23.5835546875
 42
0.0393233845304
  0
SEQEND
  0
POLYLINE
  8
Default
 66
     1
 10
0.0
 20
0.0
 30
0.0
 70
     1
  0
VERTEX
  8
Default
 10
25.6815625
 20
18.52349609375
 42
0.0
  0
VERTEX
  8
Default
 10
25.6815625
 20
19.75673828125
 42
0.0628289234572
  0
VERTEX
  8
Default
 10
25.9357421875
 20
20.034453125
 42
0.1017560869536
  0
VERTEX
  8
Default
 10
25.9983819410867
 20
20.2322075829655
 42
0.0345735166554
  0
VERTEX
  8
Default
 10
26.0110546875
 20
20.4392578125
 42
0.146365804106
  0
VERTEX
  8
Default
 10
25.8353338127362
 20
21.0339890333176
 42
0.0948068699998
  0
VERTEX
  8
Default
 10
25.399140625
 20
21.4748046875
 42
-0.0051786208637
  0
VERTEX
  8
Default
 10
24.27416015625
 20
22.25146484375
 42
-0.1108446973593
  0
VERTEX
  8
Default
 10
23.804315047651
 20
22.9333387269473
 42
-0.095751943264
  0
VERTEX
  8
Default
 10
23.6575390625
 20
23.74830078125
 42
-0.0982664154792
  0
VERTEX
  8
Default
 10
23.8295960517299
 20
24.7006827042385
 42
-0.1305899231246
  0
VERTEX
  8
Default
 10
24.41537109375
 20
25.47107421875
 42
-0.0525267898439
  0
VERTEX
  8
Default
 10
24.7902598968407
 20
25.6870780188477
 42
-0.0233132845797
  0
VERTEX
  8
Default
 10
25.19203125
 20
25.84763671875
 42
0.0
  0
VERTEX
  8
Default
 10
25.19203125
 20
24.52025390625
 42
0.0048604203948
  0
VERTEX
  8
Default
 10
25.0790625
 20
24.36962890625
 42
0.114932025779
  0
VERTEX
  8
Default
 10
25.0354365334983
 20
24.2364889988631
 42
0.0330770911991
  0
VERTEX
  8
Default
 10
25.02728515625
 20
24.09662109375
 42
0.1607637465925
  0
VERTEX
  8
Default
 10
25.2134976316268
 20
23.5400649471623
 42
0.0882325939796
  0
VERTEX
  8
Default
 10
25.64390625
 20
23.14109375
 42
-0.001546988079
  0
VERTEX
  8
Default
 10
26.2287421582364
 20
22.746107116584
 42
-0.0116407931334
  0
VERTEX
  8
Default
 10
26.80654296875
 20
22.3408984375
 42
-0.1134372890144
  0
VERTEX
  8
Default
 10
27.2937595323655
 20
21.5728025909798
 42
-0.0859550546626
  0
VERTEX
  8
Default
 10
27.43728515625
 20
20.674609375
 42
-0.0689873109567
  0
VERTEX
  8
Default
 10
27.3378420702855
 20
19.8958022204606
 42
-0.1030822726621
  0
VERTEX
  8
Default
 10
26.980703125
 20
19.1966015625
 42
-0.1399625267249
  0
VERTEX
  8
Default
 10
26.1428515625
 20
18.62705078125
 42
-0.0189746620455
  0
VERTEX
  8
Default
 10
25.9156993924644
 20
18.5597155913987
 42
-0.0565539021653
  0
SEQEND
  0
POLYLINE
  8
Default
 66
     1
 10
0.0
 20
0.0
 30
0.0
 70
     1
  0
VERTEX
  8
Default
 10
32.083125
 20
25.75349609375
 42
0.0
  0
VERTEX
  8
Default
 10
32.083125
 20
24.34609375
 42
0.0
  0
VERTEX
  8
Default
 10
30.8687109375
 20
24.34609375
 42
0.0
  0
VERTEX
  8
Default
 10
30.8687109375
 20
18.66
 42
0.0
  0
VERTEX
  8
Default
 10
29.45189453125
 20
18.66
 42
0.0
  0
VERTEX
  8
Default
 10
29.45189453125
 20
24.34609375
 42
0.0
  0
VERTEX
  8
Default
 10
28.23748046875
 20
24.34609375
 42
0.0
  0
VERTEX
  8
Default
 10
28.23748046875
 20
25.75349609375
 42
0.0
  0
SEQEND
  0
POLYLINE
  8
Default
 66
     1
 10
0.0
 20
0.0
 30
0.0
 70
     1
  0
VERTEX
  8
Default
 10
36.94548828125
 20
20.411015625
 42
-0.1095333382217
  0
VERTEX
  8
Default
 10
36.7625537678201
 20
19.4886427880163
 42
-0.1501446681074
  0
VERTEX
  8
Default
 10
36.131171875
 20
18.791796875
 42
-0.0593152338931
  0
VERTEX
  8
Default
 10
35.7326510393798
 20
18.6205257121205
 42
-0.0252948335824
  0
VERTEX
  8
Default
 10
35.3121484375
 20
18.51408203125
 42
0.0
  0
VERTEX
  8
Default
 10
35.3121484375
 20
20.0062109375
 42
0.0548954540665
  0
VERTEX
  8
Default
 10
35.396875
 20
20.0909375
 42
0.1119087863563
  0
VERTEX
  8
Default
 10
35.46748046875
 20
20.222734375
 42
0.0394375690277
  0
VERTEX
  8
Default
 10
35.49572265625
 20
20.38748046875
 42
-0.0382099242988
  0
VERTEX
  8
Default
 10
35.5192578125
 20
20.53810546875
 42
0.0
  0
VERTEX
  8
Default
 10
35.5192578125
 20
25.76291015625
 42
0.0
  0
VERTEX
  8
Default
 10
36.94548828125
 20
25.76291015625
 42
0.0
  0
SEQEND
  0
POLYLINE
  8
Default
 66
     1
 10
0.0
 20
0.0
 30
0.0
 70
     1
  0
VERTEX
  8
Default
 10
34.83203125
 20
20.0250390625
 42
0.0
  0
VERTEX
  8
Default
 10
34.83203125
 20
18.51408203125
 42
-0.0268046193965
  0
VERTEX
  8
Default
 10
34.4170658163708
 20
18.6283857685428
 42
-0.0634673208732
  0
VERTEX
  8
Default
 10
34.02712890625
 20
18.810625
 42
-0.1447780234335
  0
VERTEX
  8
Default
 10
33.3967658064206
 20
19.534689139682
 42
-0.107338641226
  0
VERTEX
  8
Default
 10
33.2128125
 20
20.4769140625
 42
0.0
  0
VERTEX
  8
Default
 10
33.2128125
 20
25.76291015625
 42
0.0
  0
VERTEX
  8
Default
 10
34.63904296875
 20
25.76291015625
 42
0.0
  0
VERTEX
  8
Default
 10
34.63904296875
 20
20.55693359375
 42
0.0138795564225
  0
VERTEX
  8
Default
 10
34.64375
 20
20.3921875
 42
0.0755532059506
  0
VERTEX
  8
Default
 10
34.67669921875
 20
20.23685546875
 42
0.0102317110512
  0
SEQEND
  0
POLYLINE
  8
Default
 66
     1
 10
0.0
 20
0.0
 30
0.0
 70
     1
  0
VERTEX
  8
Default
 10
42.20794921875
 20
25.75349609375
 42
0.0
  0
VERTEX
  8
Default
 10
41.15357421875
 20
19.9120703125
 42
0.0
  0
VERTEX
  8
Default
 10
40.48517578125
 20
22.9810546875
 42
0.0
  0
VERTEX
  8
Default
 10
40.91822265625
 20
25.75349609375
 42
0.0
  0
SEQEND
  0
POLYLINE
  8
Default
 66
     1
 10
0.0
 20
0.0
 30
0.0
 70
     1
  0
VERTEX
  8
Default
 10
40.90880859375
 20
18.66
 42
0.0
  0
VERTEX
  8
Default
 10
39.45904296875
 20
18.66
 42
0.0
  0
VERTEX
  8
Default
 10
38.0045703125
 20
25.75349609375
 42
0.0
  0
VERTEX
  8
Default
 10
39.46845703125
 20
25.75349609375
 42
0.0
  0
SEQEND
  0
POLYLINE
  8
Default
 66
     1
 10
0.0
 20
0.0
 30
0.0
 70
     1
  0
VERTEX
  8
Default
 10
47.71517578125
 20
23.2823046875
 42
0.0
  0
VERTEX
  8
Default
 10
48.08703125
 20
25.77232421875
 42
0.0
  0
VERTEX
  8
Default
 10
49.235546875
 20
25.77232421875
 42
0.0
  0
VERTEX
  8
Default
 10
48.20470703125
 20
20.06740234375
 42
0.0
  0
SEQEND
  0
POLYLINE
  8
Default
 66
     1
 10
0.0
 20
0.0
 30
0.0
 70
     1
  0
VERTEX
  8
Default
 10
46.8349609375
 20
25.77232421875
 42
0.0
  0
VERTEX
  8
Default
 10
47.94111328125
 20
18.66
 42
0.0
  0
VERTEX
  8
Default
 10
46.75494140625
 20
18.66
 42
0.0
  0
VERTEX
  8
Default
 10
45.7146875
 20
25.2404296875
 42
0.0
  0
VERTEX
  8
Default
 10
45.7146875
 20
25.77232421875
 42
0.0
  0
SEQEND
  0
POLYLINE
  8
Default
 66
     1
 10
0.0
 20
0.0
 30
0.0
 70
     1
  0
VERTEX
  8
Default
 10
45.89826171875
 20
20.749921875
 42
0.0
  0
VERTEX
  8
Default
 10
45.6111328125
 20
18.65529296875
 42
0.0
  0
VERTEX
  8
Default
 10
44.3873046875
 20
18.66
 42
0.0
  0
VERTEX
  8
Default
 10
43.09287109375
 20
25.77232421875
 42
0.0
  0
VERTEX
  8
Default
 10
44.5379296875
 20
25.77232421875
 42
0.0
  0
VERTEX
  8
Default
 10
45.1969140625
 20
20.7969921875
 42
0.0
  0
VERTEX
  8
Default
 10
45.50287109375
 20
23.38115234375
 42
0.0
  0
SEQEND
  0
POLYLINE
  8
Default
 66
     1
 10
0.0
 20
0.0
 30
0.0
 70
     1
  0
VERTEX
  8
Default
 10
54.13556640625
 20
25.75349609375
 42
0.0
  0
VERTEX
  8
Default
 10
53.21298828125
 20
23.07048828125
 42
0.0
  0
VERTEX
  8
Default
 10
52.61048828125
 20
24.70853515625
 42
0.0
  0
VERTEX
  8
Default
 10
52.93998046875
 20
25.7487890625
 42
0.0
  0
SEQEND
  0
POLYLINE
  8
Default
 66
     1
 10
0.0
 20
0.0
 30
0.0
 70
     1
  0
VERTEX
  8
Default
 10
54.319140625
 20
18.66
 42
0.0
  0
VERTEX
  8
Default
 10
52.78935546875
 20
18.66
 42
0.0
  0
VERTEX
  8
Default
 10
50.2616796875
 20
25.75349609375
 42
0.0
  0
VERTEX
  8
Default
 10
51.64083984375
 20
25.75349609375
 42
0.0
  0
SEQEND
  0
POLYLINE
  8
Default
 66
     1
 10
0.0
 20
0.0
 30
0.0
 70
     1
  0
VERTEX
  8
Default
 10
51.72556640625
 20
20.16154296875
 42
0.0
  0
VERTEX
  8
Default
 10
51.31134765625
 20
18.66
 42
0.0
  0
VERTEX
  8
Default
 10
50.01220703125
 20
18.66
 42
0.0
  0
VERTEX
  8
Default
 10
51.0901171875
 20
21.917265625
 42
0.0
  0
SEQEND
  0
POLYLINE
  8
Default
 66
     1
 10
0.0
 20
0.0
 30
0.0
 70
     1
  0
VERTEX
  8
Default
 10
57.9623828125
 20
18.66
 42
0.0
  0
VERTEX
  8
Default
 10
56.54556640625
 20
18.66
 42
0.0
  0
VERTEX
  8
Default
 10
56.54556640625
 20
21.45126953125
 42
0.0
  0
VERTEX
  8
Default
 10
55.0440234375
 20
25.75349609375
 42
0.0
  0
VERTEX
  8
Default
 10
56.59734375
 20
25.75349609375
 42
0.0
  0
VERTEX
  8
Default
 10
57.95296875
 20
21.43244140625
 42
0.0
  0
SEQEND
  0
POLYLINE
  8
Default
 66
     1
 10
0.0
 20
0.0
 30
0.0
 70
     1
  0
VERTEX
  8
Default
 10
59.515703125
 20
25.75349609375
 42
0.0
  0
VERTEX
  8
Default
 10
58.26833984375
 20
22.24205078125
 42
0.0
  0
VERTEX
  8
Default
 10
57.6140625
 20
24.0730859375
 42
0.0
  0
VERTEX
  8
Default
 10
58.21185546875
 20
25.75349609375
 42
0.0
  0
SEQEND
  0
POLYLINE
  8
Default
 66
     1
 10
0.0
 20
0.0
 30
0.0
 70
     1
  0
VERTEX
  8
Default
 10
63.34251953125
 20
25.75349609375
 42
0.0
  0
VERTEX
  8
Default
 10
62.35404296875
 20
24.3366796875
 42
0.0
  0
VERTEX
  8
Default
 10
60.60302734375
 20
24.3366796875
 42
0.0
  0
VERTEX
  8
Default
 10
60.60302734375
 20
25.75349609375
 42
0.0
  0
SEQEND
  0
POLYLINE
  8
Default
 66
     1
 10
0.0
 20
0.0
 30
0.0
 70
     1
  0
VERTEX
  8
Default
 10
60.33943359375
 20
18.65529296875
 42
0.0
  0
VERTEX
  8
Default
 10
60.33943359375
 20
20.42984375
 42
0.0
  0
VERTEX
  8
Default
 10
64.05328125
 20
25.75349609375
 42
0.0
  0
VERTEX
  8
Default
 10
64.05328125
 20
23.9412890625
 42
0.0
  0
SEQEND
  0
POLYLINE
  8
Default
 66
     1
 10
0.0
 20
0.0
 30
0.0
 70
     1
  0
VERTEX
  8
Default
 10
64.0815234375
 20
18.65529296875
 42
0.0
  0
VERTEX
  8
Default
 10
61.003125
 20
18.65529296875
 42
0.0
  0
VERTEX
  8
Default
 10
61.97748046875
 20
20.0626953125
 42
0.0
  0
VERTEX
  8
Default
 10
64.0815234375
 20
20.0626953125
 42
0.0
  0
SEQEND
  0
POLYLINE
  8
Default
 66
     1
 10
0.0
 20
0.0
 30
0.0
 70
     1
  0
VERTEX
  8
Default
 10
-55.832451171875
 20
-3.1160546875
 42
0.0
  0
VERTEX
  8
Default
 10
-55.832451171875
 20
0.4989453125
 42
-0.0254551950253
  0
VERTEX
  8
Default
 10
-55.5064137956406
 20
0.417975517856
 42
-0.0580512850004
  0
VERTEX
  8
Default
 10
-55.197001953125
 20
0.28712890625
 42
-0.143698904109
  0
VERTEX
  8
Default
 10
-54.7109307048975
 20
-0.2157712992071
 42
-0.1195912134136
  0
VERTEX
  8
Default
 10
-54.561552734375
 20
-0.89904296875
 42
0.0
  0
VERTEX
  8
Default
 10
-54.561552734375
 20
-3.60087890625
 42
0.1102440897316
  0
VERTEX
  8
Default
 10
-54.5168158486015
 20
-3.8457796578835
 42
0.3096922195917
  0
VERTEX
  8
Default
 10
-54.302666015625
 20
-3.972734375
 42
0.041691209046
  0
VERTEX
  8
Default
 10
-54.194404296875
 20
-3.95390625
 42
0.0
  0
VERTEX
  8
Default
 10
-54.194404296875
 20
-4.70703125
 42
-0.0171095132496
  0
VERTEX
  8
Default
 10
-54.566259765625
 20
-4.90943359375
 42
-0.1160599373467
  0
VERTEX
  8
Default
 10
-54.815732421875
 20
-4.97533203125
 42
-0.1113771384117
  0
VERTEX
  8
Default
 10
-55.221383779882
 20
-4.8917679536288
 42
-0.1310971840862
  0
VERTEX
  8
Default
 10
-55.535908203125
 20
-4.6223046875
 42
-0.0741597345948
  0
VERTEX
  8
Default
 10
-55.6987384202185
 20
-4.2687053865738
 42
-0.0491588722185
  0
VERTEX
  8
Default
 10
-55.806290296054
 20
-3.6971010538303
 42
-0.0245880365873
  0
SEQEND
  0
POLYLINE
  8
Default
 66
     1
 10
0.0
 20
0.0
 30
0.0
 70
     1
  0
VERTEX
  8
Default
 10
-56.326689453125
 20
-1.54390625
 42
0.0589680451815
  0
VERTEX
  8
Default
 10
-57.043954471719
 20
-1.7122217251988
 42
0.1239782314078
  0
VERTEX
  8
Default
 10
-57.658779296875
 20
-2.1181640625
 42
0.1153246572744
  0
VERTEX
  8
Default
 10
-57.9708121886404
 20
-2.7475101772882
 42
0.0621074837818
  0
VERTEX
  8
Default
 10
-58.049462890625
 20
-3.445546875
 42
0.0714239036515
  0
VERTEX
  8
Default
 10
-57.9733738402217
 20
-4.0127193225011
 42
0.094053551934
  0
VERTEX
  8
Default
 10
-57.715263671875
 20
-4.52345703125
 42
0.1054977334119
  0
VERTEX
  8
Default
 10
-57.3465675463665
 20
-4.8422894663533
 42
0.1243169627728
  0
VERTEX
  8
Default
 10
-56.872705078125
 20
-4.95650390625
 42
0.142413166135
  0
VERTEX
  8
Default
 10
-56.566748046875
 20
-4.87177734375
 42
0.0198042880985
  0
VERTEX
  8
Default
 10
-56.293740234375
 20
-4.6411328125
 42
0.0
  0
VERTEX
  8
Default
 10
-56.293740234375
 20
-3.709140625
 42
-0.1343413578703
  0
VERTEX
  8
Default
 10
-56.383173828125
 20
-3.74208984375
 42
-0.1907941627319
  0
VERTEX
  8
Default
 10
-56.5475520414659
 20
-3.6635113516527
 42
-0.0596432112809
  0
VERTEX
  8
Default
 10
-56.660888671875
 20
-3.520859375
 42
-0.1417954387773
  0
VERTEX
  8
Default
 10
-56.797392578125
 20
-3.031328125
 42
-0.1269950619127
  0
VERTEX
  8
Default
 10
-56.684423828125
 20
-2.61240234375
 42
-0.135088307089
  0
VERTEX
  8
Default
 10
-56.326689453125
 20
-2.259375
 42
0.0
  0
SEQEND
  0
POLYLINE
  8
Default
 66
     1
 10
0.0
 20
0.0
 30
0.0
 70
     1
  0
VERTEX
  8
Default
 10
-56.326689453125
 20
0.56013671875
 42
0.0
  0
VERTEX
  8
Default
 10
-56.326689453125
 20
-0.60720703125
 42
0.1268043107962
  0
VERTEX
  8
Default
 10
-56.4667551221629
 20
-0.8523533029663
 42
0.0501291833939
  0
VERTEX
  8
Default
 10
-56.519677734375
 20
-1.1296875
 42
-0.0178910328029
  0
VERTEX
  8
Default
 10
-56.529091796875
 20
-1.299140625
 42
0.0
  0
VERTEX
  8
Default
 10
-57.607001953125
 20
-1.299140625
 42
-0.0455107640382
  0
VERTEX
  8
Default
 10
-57.616416015625
 20
-1.223828125
 42
-0.0245146882244
  0
VERTEX
  8
Default
 10
-57.625830078125
 20
-1.01201171875
 42
-0.0474648855696
  0
VERTEX
  8
Default
 10
-57.5817477694322
 20
-0.5121927377028
 42
-0.075543685162
  0
VERTEX
  8
Default
 10
-57.418720703125
 20
-0.03765625
 42
-0.1509751855762
  0
VERTEX
  8
Default
 10
-56.9604922671777
 20
0.4216073297075
 42
-0.1204837331717
  0
SEQEND
  0
POLYLINE
  8
Default
 66
     1
 10
0.0
 20
0.0
 30
0.0
 70
     1
  0
VERTEX
  8
Default
 10
-49.699189453125
 20
-2.3346875
 42
-0.033394127361
  0
VERTEX
  8
Default
 10
-49.7595247342743
 20
-3.344178892725
 42
-0.0314937483455
  0
VERTEX
  8
Default
 10
-49.8573136225344
 20
-3.8421537213111
 42
-0.0562439353863
  0
VERTEX
  8
Default
 10
-50.038095703125
 20
-4.31634765625
 42
-0.1139145430992
  0
VERTEX
  8
Default
 10
-50.4170840111412
 20
-4.7741299513669
 42
-0.1614682758132
  0
VERTEX
  8
Default
 10
-50.984208984375
 20
-4.951796875
 42
-0.0630300785367
  0
VERTEX
  8
Default
 10
-51.233681640625
 20
-4.9235546875
 42
-0.2486511415516
  0
VERTEX
  8
Default
 10
-51.374892578125
 20
-4.801171875
 42
0.0
  0
VERTEX
  8
Default
 10
-51.374892578125
 20
-3.78916015625
 42
0.1969628689883
  0
VERTEX
  8
Default
 10
-51.2641708186722
 20
-3.7225404989313
 42
0.0872093582579
  0
VERTEX
  8
Default
 10
-51.1778754910523
 20
-3.5537205340706
 42
0.0321090988384
  0
VERTEX
  8
Default
 10
-51.130126953125
 20
-3.370234375
 42
0.0331717525828
  0
VERTEX
  8
Default
 10
-51.0650571891565
 20
-2.8142485481285
 42
0.0147446038287
  0
VERTEX
  8
Default
 10
-51.050107421875
 20
-2.25466796875
 42
0.0084176320678
  0
VERTEX
  8
Default
 10
-51.0595711956556
 20
-1.6086044971797
 42
0.0356772266146
  0
VERTEX
  8
Default
 10
-51.116005859375
 20
-0.96494140625
 42
0.0865843503051
  0
VERTEX
  8
Default
 10
-51.1905069889998
 20
-0.7638238938458
 42
0.2724719301253
  0
VERTEX
  8
Default
 10
-51.374892578125
 20
-0.65427734375
 42
0.0
  0
VERTEX
  8
Default
 10
-51.374892578125
 20
0.3859765625
 42
0.0527856974833
  0
VERTEX
  8
Default
 10
-51.276044921875
 20
0.45658203125
 42
-0.1320922562819
  0
VERTEX
  8
Default
 10
-51.119641714598
 20
0.5054274488717
 42
-0.0268192159743
  0
VERTEX
  8
Default
 10
-50.955966796875
 20
0.51306640625
 42
-0.1914817788619
  0
VERTEX
  8
Default
 10
-50.3773761392471
 20
0.2910768085641
 42
-0.1045271975409
  0
VERTEX
  8
Default
 10
-50.028681640625
 20
-0.22123046875
 42
-0.0450435584246
  0
VERTEX
  8
Default
 10
-49.8576391899531
 20
-0.732003604805
 42
-0.0376363456931
  0
VERTEX
  8
Default
 10
-49.7319759310802
 20
-1.5287546179555
 42
-0.0218642670419
  0
SEQEND
  0
POLYLINE
  8
Default
 66
     1
 10
0.0
 20
0.0
 30
0.0
 70
     1
  0
VERTEX
  8
Default
 10
-51.878544921875
 20
-4.82
 42
0.0
  0
VERTEX
  8
Default
 10
-53.177685546875
 20
-4.82
 42
0.0
  0
VERTEX
  8
Default
 10
-53.177685546875
 20
2.27349609375
 42
0.0
  0
VERTEX
  8
Default
 10
-51.878544921875
 20
2.27349609375
 42
0.0
  0
SEQEND
  0
POLYLINE
  8
Default
 66
     1
 10
0.0
 20
0.0
 30
0.0
 70
     1
  0
VERTEX
  8
Default
 10
-45.043935546875
 20
-1.5815625
 42
0.0
  0
VERTEX
  8
Default
 10
-46.093603515625
 20
-1.5815625
 42
0.0610504635958
  0
VERTEX
  8
Default
 10
-46.065361328125
 20
-1.36974609375
 42
0.1612121690137
  0
VERTEX
  8
Default
 10
-46.239521484375
 20
-0.87080078125
 42
0.0484686549263
  0
VERTEX
  8
Default
 10
-46.418388671875
 20
-0.6778125
 42
0.0
  0
VERTEX
  8
Default
 10
-46.418388671875
 20
0.52248046875
 42
-0.1590815730955
  0
VERTEX
  8
Default
 10
-45.6968001801252
 20
0.3104390754061
 42
-0.1404089457391
  0
VERTEX
  8
Default
 10
-45.246337890625
 20
-0.2918359375
 42
-0.0597696920955
  0
VERTEX
  8
Default
 10
-45.0879167841916
 20
-0.8607990643495
 42
-0.0397930351978
  0
VERTEX
  8
Default
 10
-45.043935546875
 20
-1.449765625
 42
0.0063195795711
  0
VERTEX
  8
Default
 10
-45.048642578125
 20
-1.562734375
 42
0.1175630189929
  0
SEQEND
  0
POLYLINE
  8
Default
 66
     1
 10
0.0
 20
0.0
 30
0.0
 70
     1
  0
VERTEX
  8
Default
 10
-44.959208984375
 20
-2.466484375
 42
-0.0261896329905
  0
VERTEX
  8
Default
 10
-44.926259765625
 20
-3.0407421875
 42
-0.0657085661691
  0
VERTEX
  8
Default
 10
-45.0188263839975
 20
-3.8218101105675
 42
-0.1265779674899
  0
VERTEX
  8
Default
 10
-45.392255859375
 20
-4.51404296875
 42
-0.1111187183872
  0
VERTEX
  8
Default
 10
-45.8738298190605
 20
-4.8051897118507
 42
-0.0440334057164
  0
VERTEX
  8
Default
 10
-46.418388671875
 20
-4.94708984375
 42
0.0
  0
VERTEX
  8
Default
 10
-46.418388671875
 20
-3.7750390625
 42
0.1800888652752
  0
VERTEX
  8
Default
 10
-46.150087890625
 20
-3.46908203125
 42
0.057770144815
  0
VERTEX
  8
Default
 10
-46.0402474925579
 20
-2.9734453184118
 42
0.0287571584248
  0
VERTEX
  8
Default
 10
-46.013583984375
 20
-2.466484375
 42
0.0
  0
SEQEND
  0
POLYLINE
  8
Default
 66
     1
 10
0.0
 20
0.0
 30
0.0
 70
     1
  0
VERTEX
  8
Default
 10
-46.865556640625
 20
-4.94708984375
 42
-0.0889763495007
  0
VERTEX
  8
Default
 10
-47.5396743813217
 20
-4.8389324310684
 42
-0.1458937553856
  0
VERTEX
  8
Default
 10
-48.089384765625
 20
-4.4340234375
 42
-0.076394272453
  0
VERTEX
  8
Default
 10
-48.3377714981114
 20
-3.9575363782734
 42
-0.0557775890306
  0
VERTEX
  8
Default
 10
-48.5086006409744
 20
-3.1735865306461
 42
-0.0286534511327
  0
VERTEX
  8
Default
 10
-48.550673828125
 20
-2.37234375
 42
-0.0060225915032
  0
VERTEX
  8
Default
 10
-48.522431640625
 20
-1.6286328125
 42
-0.0388876452569
  0
VERTEX
  8
Default
 10
-48.3902858838975
 20
-0.9115797408565
 42
-0.0634394043046
  0
VERTEX
  8
Default
 10
-48.117626953125
 20
-0.2353515625
 42
-0.1196364431743
  0
VERTEX
  8
Default
 10
-47.617478300021
 20
0.3195747487761
 42
-0.1477930413168
  0
VERTEX
  8
Default
 10
-46.898505859375
 20
0.52248046875
 42
0.0
  0
VERTEX
  8
Default
 10
-46.907919921875
 20
-0.658984375
 42
0.0671249888451
  0
VERTEX
  8
Default
 10
-47.053837890625
 20
-0.84255859375
 42
0.1274709629883
  0
VERTEX
  8
Default
 10
-47.199755859375
 20
-1.47330078125
 42
0.0
  0
VERTEX
  8
Default
 10
-47.199755859375
 20
-2.77244140625
 42
0.0116396734633
  0
VERTEX
  8
Default
 10
-47.1926535801556
 20
-3.1198141180373
 42
0.0554380165424
  0
VERTEX
  8
Default
 10
-47.147978515625
 20
-3.464375
 42
0.1249671892477
  0
VERTEX
  8
Default
 10
-47.0310026403946
 20
-3.6298207296163
 42
0.0540398886754
  0
VERTEX
  8
Default
 10
-46.865556640625
 20
-3.746796875
 42
0.0
  0
SEQEND
  0
POLYLINE
  8
Default
 66
     1
 10
0.0
 20
0.0
 30
0.0
 70
     1
  0
VERTEX
  8
Default
 10
-40.473408203125
 20
-4.82
 42
0.0
  0
VERTEX
  8
Default
 10
-41.786669921875
 20
-4.82
 42
0.0
  0
VERTEX
  8
Default
 10
-41.772548828125
 20
2.27349609375
 42
0.0
  0
VERTEX
  8
Default
 10
-40.473408203125
 20
2.27349609375
 42
0.0
  0
SEQEND
  0
POLYLINE
  8
Default
 66
     1
 10
0.0
 20
0.0
 30
0.0
 70
     1
  0
VERTEX
  8
Default
 10
-42.276201171875
 20
-4.838828125
 42
-0.0368983702969
  0
VERTEX
  8
Default
 10
-42.525673828125
 20
-4.9235546875
 42
-0.00229685887
  0
VERTEX
  8
Default
 10
-42.671591796875
 20
-4.951796875
 42
-0.157217478588
  0
VERTEX
  8
Default
 10
-43.2315224468264
 20
-4.7826054106429
 42
-0.1177840401719
  0
VERTEX
  8
Default
 10
-43.608291015625
 20
-4.33517578125
 42
-0.0524723533127
  0
VERTEX
  8
Default
 10
-43.7927411004939
 20
-3.856773660022
 42
-0.0428999007035
  0
VERTEX
  8
Default
 10
-43.9267613280791
 20
-3.1012385496886
 42
-0.0243353944413
  0
VERTEX
  8
Default
 10
-43.961318359375
 20
-2.3346875
 42
-0.0315542395153
  0
VERTEX
  8
Default
 10
-43.9001646957889
 20
-1.2647196958908
 42
-0.0698213068395
  0
VERTEX
  8
Default
 10
-43.636533203125
 20
-0.2259375
 42
-0.1033130790658
  0
VERTEX
  8
Default
 10
-43.285617575728
 20
0.2886977717151
 42
-0.1919776458359
  0
VERTEX
  8
Default
 10
-42.704541015625
 20
0.51306640625
 42
-0.0261531633309
  0
VERTEX
  8
Default
 10
-42.5559236312283
 20
0.5062678795944
 42
-0.1108954877749
  0
VERTEX
  8
Default
 10
-42.412705078125
 20
0.46599609375
 42
0.0203766736317
  0
VERTEX
  8
Default
 10
-42.276201171875
 20
0.3859765625
 42
0.0
  0
VERTEX
  8
Default
 10
-42.276201171875
 20
-0.65427734375
 42
0.2943740618807
  0
VERTEX
  8
Default
 10
-42.4729729894952
 20
-0.7920896739841
 42
0.0741253911942
  0
VERTEX
  8
Default
 10
-42.544501953125
 20
-1.02142578125
 42
0.0303477537728
  0
VERTEX
  8
Default
 10
-42.6008875160651
 20
-1.7735252234177
 42
0.007127704571
  0
VERTEX
  8
Default
 10
-42.610400390625
 20
-2.52767578125
 42
0.0153845284477
  0
VERTEX
  8
Default
 10
-42.5972469714537
 20
-3.0100310232844
 42
0.0477684070238
  0
VERTEX
  8
Default
 10
-42.530380859375
 20
-3.48791015625
 42
0.0790907294499
  0
VERTEX
  8
Default
 10
-42.4481315112123
 20
-3.6763693937686
 42
0.2269285800119
  0
VERTEX
  8
Default
 10
-42.276201171875
 20
-3.78916015625
 42
0.0
  0
SEQEND
  0
POLYLINE
  8
Default
 66
     1
 10
0.0
 20
0.0
 30
0.0
 70
     1
  0
VERTEX
  8
Default
 10
-35.879345703125
 20
-2.60298828125
 42
0.0
  0
VERTEX
  8
Default
 10
-37.573876953125
 20
-2.60298828125
 42
0.0
  0
VERTEX
  8
Default
 10
-37.573876953125
 20
-1.83103515625
 42
0.0
  0
VERTEX
  8
Default
 10
-37.159658203125
 20
-1.83103515625
 42
0.0
  0
VERTEX
  8
Default
 10
-37.159658203125
 20
-1.1202734375
 42
0.0907947842258
  0
VERTEX
  8
Default
 10
-37.239677734375
 20
-0.59779296875
 42
0.0985073806795
  0
VERTEX
  8
Default
 10
-37.324404296875
 20
-0.451875
 42
0.0
  0
VERTEX
  8
Default
 10
-37.324404296875
 20
0.51306640625
 42
-0.0359383665005
  0
VERTEX
  8
Default
 10
-36.971376953125
 20
0.4236328125
 42
-0.1391298856887
  0
VERTEX
  8
Default
 10
-36.311945690564
 20
-0.0797554609265
 42
-0.1141672932551
  0
VERTEX
  8
Default
 10
-35.997021484375
 20
-0.847265625
 42
-0.0330030532674
  0
VERTEX
  8
Default
 10
-35.888759765625
 20
-1.976953125
 42
0.005413088272
  0
SEQEND
  0
POLYLINE
  8
Default
 66
     1
 10
0.0
 20
0.0
 30
0.0
 70
     1
  0
VERTEX
  8
Default
 10
-35.879345703125
 20
-3.06427734375
 42
0.0312904922145
  0
VERTEX
  8
Default
 10
-35.879345703125
 20
-3.2101953125
 42
-0.0441856930108
  0
VERTEX
  8
Default
 10
-35.926416015625
 20
-3.8315234375
 42
-0.047063571758
  0
VERTEX
  8
Default
 10
-36.026020988661
 20
-4.1669058489508
 42
-0.0971893034078
  0
VERTEX
  8
Default
 10
-36.213544921875
 20
-4.462265625
 42
-0.0739576092368
  0
VERTEX
  8
Default
 10
-36.5295060870616
 20
-4.6809754158848
 42
-0.0308880347647
  0
VERTEX
  8
Default
 10
-36.881943359375
 20
-4.83412109375
 42
-0.0208210029032
  0
VERTEX
  8
Default
 10
-37.324404296875
 20
-4.96591796875
 42
0.0
  0
VERTEX
  8
Default
 10
-37.324404296875
 20
-3.859765625
 42
0.1815401225069
  0
VERTEX
  8
Default
 10
-36.961962890625
 20
-3.5867578125
 42
0.1295297863293
  0
VERTEX
  8
Default
 10
-36.872529296875
 20
-3.34669921875
 42
0.0148009225929
  0
VERTEX
  8
Default
 10
-36.844287109375
 20
-3.06427734375
 42
0.0
  0
SEQEND
  0
POLYLINE
  8
Default
 66
     1
 10
0.0
 20
0.0
 30
0.0
 70
     1
  0
VERTEX
  8
Default
 10
-37.813935546875
 20
-4.96591796875
 42
-0.0926605799566
  0
VERTEX
  8
Default
 10
-38.214033203125
 20
-4.88119140625
 42
-0.1615001368958
  0
VERTEX
  8
Default
 10
-38.962451171875
 20
-4.2175
 42
-0.0865851557506
  0
VERTEX
  8
Default
 10
-39.2841631831122
 20
-3.3525904851471
 42
-0.0492083473984
  0
VERTEX
  8
Default
 10
-39.367255859375
 20
-2.43353515625
 42
-0.0404689918164
  0
VERTEX
  8
Default
 10
-39.2892536163534
 20
-1.3774392194944
 42
-0.0792235056133
  0
VERTEX
  8
Default
 10
-38.971865234375
 20
-0.3671484375
 42
-0.0721902212475
  0
VERTEX
  8
Default
 10
-38.6599359532617
 20
0.0693400494812
 42
-0.0905989743986
  0
VERTEX
  8
Default
 10
-38.223447265625
 20
0.38126953125
 42
-0.1050847329521
  0
VERTEX
  8
Default
 10
-37.813935546875
 20
0.4989453125
 42
0.0
  0
VERTEX
  8
Default
 10
-37.813935546875
 20
-0.46599609375
 42
0.1036398987361
  0
VERTEX
  8
Default
 10
-37.912783203125
 20
-0.621328125
 42
0.0966505774905
  0
VERTEX
  8
Default
 10
-38.016337890625
 20
-1.23794921875
 42
0.0
  0
VERTEX
  8
Default
 10
-38.016337890625
 20
-2.7018359375
 42
0.0397036856226
  0
VERTEX
  8
Default
 10
-37.978681640625
 20
-3.257265625
 42
0.0646721001366
  0
VERTEX
  8
Default
 10
-37.813935546875
 20
-3.76091796875
 42
0.0
  0
SEQEND
  0
POLYLINE
  8
Default
 66
     1
 10
0.0
 20
0.0
 30
0.0
 70
     1
  0
VERTEX
  8
Default
 10
-32.160791015625
 20
1.24265625
 42
0.0
  0
VERTEX
  8
Default
 10
-32.160791015625
 20
0.960234375
 42
0.0
  0
VERTEX
  8
Default
 10
-32.824482421875
 20
0.960234375
 42
0.0
  0
VERTEX
  8
Default
 10
-32.833896484375
 20
2.29232421875
 42
-0.0353493352492
  0
VERTEX
  8
Default
 10
-32.5712094463776
 20
2.1652324109121
 42
-0.0883975982811
  0
VERTEX
  8
Default
 10
-32.344365234375
 20
1.98166015625
 42
-0.1171036639551
  0
VERTEX
  8
Default
 10
-32.1943548365111
 20
1.6266212991916
 42
-0.0489050532161
  0
SEQEND
  0
POLYLINE
  8
Default
 66
     1
 10
0.0
 20
0.0
 30
0.0
 70
     1
  0
VERTEX
  8
Default
 10
-32.226689453125
 20
-0.54130859375
 42
0.0
  0
VERTEX
  8
Default
 10
-32.824482421875
 20
-0.54130859375
 42
0.0
  0
VERTEX
  8
Default
 10
-32.833896484375
 20
0.3859765625
 42
0.0
  0
VERTEX
  8
Default
 10
-32.226689453125
 20
0.3859765625
 42
0.0
  0
SEQEND
  0
POLYLINE
  8
Default
 66
     1
 10
0.0
 20
0.0
 30
0.0
 70
     1
  0
VERTEX
  8
Default
 10
-33.328134765625
 20
-4.82
 42
0.0
  0
VERTEX
  8
Default
 10
-34.617861328125
 20
-4.82
 42
0.0
  0
VERTEX
  8
Default
 10
-34.617861328125
 20
-0.54130859375
 42
0.0
  0
VERTEX
  8
Default
 10
-35.215654296875
 20
-0.54130859375
 42
0.0
  0
VERTEX
  8
Default
 10
-35.215654296875
 20
0.3859765625
 42
0.0
  0
VERTEX
  8
Default
 10
-34.631982421875
 20
0.3859765625
 42
-0.0580327252115
  0
VERTEX
  8
Default
 10
-34.754365234375
 20
0.71546875
 42
-0.0580425178369
  0
VERTEX
  8
Default
 10
-34.792021484375
 20
1.04025390625
 42
-0.0982143881107
  0
VERTEX
  8
Default
 10
-34.682591645136
 20
1.666804108894
 42
-0.1682419813041
  0
VERTEX
  8
Default
 10
-34.264833984375
 20
2.14640625
 42
-0.0859412855397
  0
VERTEX
  8
Default
 10
-33.8100648783772
 20
2.3113814917687
 42
-0.0476616999632
  0
VERTEX
  8
Default
 10
-33.328134765625
 20
2.353515625
 42
0.0
  0
SEQEND
  0
POLYLINE
  8
Default
 66
     1
 10
0.0
 20
0.0
 30
0.0
 70
     1
  0
VERTEX
  8
Default
 10
-27.467880859375
 20
-0.3483203125
 42
0.0854481834656
  0
VERTEX
  8
Default
 10
-27.755009765625
 20
-0.18828125
 42
0.0905844374113
  0
VERTEX
  8
Default
 10
-28.075087890625
 20
-0.131796875
 42
-0.1319432299429
  0
VERTEX
  8
Default
 10
-27.797373046875
 20
-1.1767578125
 42
-0.153942486016
  0
VERTEX
  8
Default
 10
-28.089208984375
 20
-2.1558203125
 42
-0.1321710563878
  0
VERTEX
  8
Default
 10
-28.5809746005851
 20
-2.5994631432072
 42
-0.116824002877
  0
VERTEX
  8
Default
 10
-29.228310546875
 20
-2.7394921875
 42
0.0
  0
VERTEX
  8
Default
 10
-29.242431640625
 20
-2.052265625
 42
0.0219332912073
  0
VERTEX
  8
Default
 10
-29.1301630286111
 20
-1.9239671280364
 42
0.0696961847932
  0
VERTEX
  8
Default
 10
-29.040029296875
 20
-1.7792578125
 42
0.0725417617505
  0
VERTEX
  8
Default
 10
-28.9589872498076
 20
-1.4497343644688
 42
0.0292120184008
  0
VERTEX
  8
Default
 10
-28.941181640625
 20
-1.110859375
 42
0.0247876814066
  0
VERTEX
  8
Default
 10
-28.9557147793285
 20
-0.7824443216578
 42
0.0695592047555
  0
VERTEX
  8
Default
 10
-29.025908203125
 20
-0.4612890625
 42
0.1633096026698
  0
VERTEX
  8
Default
 10
-29.242431640625
 20
-0.1788671875
 42
0.0
  0
VERTEX
  8
Default
 10
-29.242431640625
 20
0.53189453125
 42
-0.0827455820306
  0
VERTEX
  8
Default
 10
-29.120048828125
 20
0.56013671875
 42
-0.1213237027169
  0
VERTEX
  8
Default
 10
-28.917646484375
 20
0.4989453125
 42
-0.0011792896722
  0
VERTEX
  8
Default
 10
-28.578740234375
 20
0.33419921875
 42
-0.0306797911991
  0
VERTEX
  8
Default
 10
-28.060966796875
 20
0.508359375
 42
-0.0583429722054
  0
VERTEX
  8
Default
 10
-27.712646484375
 20
0.56013671875
 42
-0.0477738850616
  0
VERTEX
  8
Default
 10
-27.590263671875
 20
0.546015625
 42
0.0050389802761
  0
VERTEX
  8
Default
 10
-27.467880859375
 20
0.52248046875
 42
0.0
  0
SEQEND
  0
POLYLINE
  8
Default
 66
     1
 10
0.0
 20
0.0
 30
0.0
 70
     1
  0
VERTEX
  8
Default
 10
-27.538486328125
 20
-4.8105859375
 42
-0.1258713838659
  0
VERTEX
  8
Default
 10
-27.7355914833912
 20
-5.677507994592
 42
-0.1559665471891
  0
VERTEX
  8
Default
 10
-28.385751953125
 20
-6.28388671875
 42
-0.0520131973916
  0
VERTEX
  8
Default
 10
-28.8065675610336
 20
-6.423638767078
 42
-0.0212470285481
  0
VERTEX
  8
Default
 10
-29.242431640625
 20
-6.5051171875
 42
0.0
  0
VERTEX
  8
Default
 10
-29.242431640625
 20
-5.80376953125
 42
0.0607274417909
  0
VERTEX
  8
Default
 10
-28.988251953125
 20
-5.69080078125
 42
0.2624105988611
  0
VERTEX
  8
Default
 10
-28.715244140625
 20
-5.18244140625
 42
0.0986819102337
  0
VERTEX
  8
Default
 10
-28.7518541146042
 20
-4.9766594928107
 42
0.1511416076711
  0
VERTEX
  8
Default
 10
-28.884697265625
 20
-4.81529296875
 42
0.1033105018394
  0
VERTEX
  8
Default
 10
-29.1501676263606
 20
-4.7223778130897
 42
0.0400474585124
  0
VERTEX
  8
Default
 10
-29.430712890625
 20
-4.70232421875
 42
-0.0181923132862
  0
VERTEX
  8
Default
 10
-29.741376953125
 20
-4.69291015625
 42
-0.01230852856
  0
VERTEX
  8
Default
 10
-30.179130859375
 20
-4.63642578125
 42
0.0653400146085
  0
VERTEX
  8
Default
 10
-30.3738892053712
 20
-4.8538037276626
 42
0.1471604965903
  0
VERTEX
  8
Default
 10
-30.466259765625
 20
-5.1306640625
 42
0.070714259134
  0
VERTEX
  8
Default
 10
-30.353291015625
 20
-5.478984375
 42
0.28546841109
  0
VERTEX
  8
Default
 10
-29.731962890625
 20
-5.82259765625
 42
0.0
  0
VERTEX
  8
Default
 10
-29.731962890625
 20
-6.5051171875
 42
-0.1126736750315
  0
VERTEX
  8
Default
 10
-30.739267578125
 20
-6.26505859375
 42
-0.1024431676484
  0
VERTEX
  8
Default
 10
-31.2027689630557
 20
-5.9328998081794
 42
-0.1862153029643
  0
VERTEX
  8
Default
 10
-31.402958984375
 20
-5.39896484375
 42
-0.1776932082066
  0
VERTEX
  8
Default
 10
-31.2014765625549
 20
-4.8584657319363
 42
-0.0890906723641
  0
VERTEX
  8
Default
 10
-30.753388671875
 20
-4.49521484375
 42
-0.0368532016271
  0
VERTEX
  8
Default
 10
-31.0092921228894
 20
-4.3433895690521
 42
-0.0846949225235
  0
VERTEX
  8
Default
 10
-31.224091796875
 20
-4.13748046875
 42
-0.0952710472683
  0
VERTEX
  8
Default
 10
-31.3218456537276
 20
-3.8921026681735
 42
-0.0513189608646
  0
VERTEX
  8
Default
 10
-31.346474609375
 20
-3.62912109375
 42
-0.0890785508185
  0
VERTEX
  8
Default
 10
-31.2847588972127
 20
-3.2572285477307
 42
-0.1139739990813
  0
VERTEX
  8
Default
 10
-31.078173828125
 20
-2.94189453125
 42
0.0019105235914
  0
VERTEX
  8
Default
 10
-30.485087890625
 20
-2.52767578125
 42
-0.1083285647273
  0
VERTEX
  8
Default
 10
-30.922841796875
 20
-2.04755859375
 42
-0.0838787625322
  0
VERTEX
  8
Default
 10
-31.0905511316475
 20
-1.5931843166066
 42
-0.0495877892178
  0
VERTEX
  8
Default
 10
-31.134658203125
 20
-1.110859375
 42
-0.1122078018307
  0
VERTEX
  8
Default
 10
-30.9749990454022
 20
-0.3318723656766
 42
-0.1423400218243
  0
VERTEX
  8
Default
 10
-30.442724609375
 20
0.25888671875
 42
-0.0545112214675
  0
VERTEX
  8
Default
 10
-30.0968353565473
 20
0.414389086467
 42
-0.0236899858108
  0
VERTEX
  8
Default
 10
-29.731962890625
 20
0.5177734375
 42
0.0
  0
VERTEX
  8
Default
 10
-29.731962890625
 20
-0.2165234375
 42
0.1666100907014
  0
VERTEX
  8
Default
 10
-29.8520764098298
 20
-0.3551170731778
 42
0.0432220837066
  0
VERTEX
  8
Default
 10
-29.915537109375
 20
-0.5271875
 42
0.0661839187454
  0
VERTEX
  8
Default
 10
-29.986142578125
 20
-1.110859375
 42
0.0195237594177
  0
VERTEX
  8
Default
 10
-29.9757697935461
 20
-1.4122446268718
 42
0.0673937303883
  0
VERTEX
  8
Default
 10
-29.920244140625
 20
-1.70865234375
 42
-0.0351642394455
  0
VERTEX
  8
Default
 10
-29.731962890625
 20
-2.02873046875
 42
0.0
  0
VERTEX
  8
Default
 10
-29.731962890625
 20
-2.7394921875
 42
0.0
  0
VERTEX
  8
Default
 10
-29.793154296875
 20
-2.7394921875
 42
0.146314882077
  0
VERTEX
  8
Default
 10
-30.099111328125
 20
-2.81951171875
 42
0.2725853518092
  0
VERTEX
  8
Default
 10
-30.216787109375
 20
-3.0219140625
 42
0.3408616778997
  0
VERTEX
  8
Default
 10
-30.033212890625
 20
-3.2666796875
 42
0.060617170054
  0
VERTEX
  8
Default
 10
-29.7678213616549
 20
-3.324094447057
 42
0.0268999819247
  0
VERTEX
  8
Default
 10
-29.496611328125
 20
-3.33728515625
 42
-0.0293067858485
  0
VERTEX
  8
Default
 10
-28.696416015625
 20
-3.37494140625
 42
-0.1032569097965
  0
VERTEX
  8
Default
 10
-28.216298828125
 20
-3.51615234375
 42
-0.1391474852041
  0
VERTEX
  8
Default
 10
-27.726767578125
 20
-4.03392578125
 42
-0.1275779143152
  0
SEQEND
  0
POLYLINE
  8
Default
 66
     1
 10
0.0
 20
0.0
 30
0.0
 70
     1
  0
VERTEX
  8
Default
 10
-22.906767578125
 20
-4.82
 42
0.0
  0
VERTEX
  8
Default
 10
-24.205908203125
 20
-4.82
 42
0.0
  0
VERTEX
  8
Default
 10
-24.205908203125
 20
-1.36974609375
 42
0.0569694262989
  0
VERTEX
  8
Default
 10
-24.238857421875
 20
-1.00259765625
 42
0.1045922153526
  0
VERTEX
  8
Default
 10
-24.3277913474436
 20
-0.8099678722736
 42
0.1746070858427
  0
VERTEX
  8
Default
 10
-24.507158203125
 20
-0.696640625
 42
0.0
  0
VERTEX
  8
Default
 10
-24.507158203125
 20
0.34361328125
 42
-0.0859416400945
  0
VERTEX
  8
Default
 10
-24.224736328125
 20
0.48953125
 42
-0.0755234261447
  0
VERTEX
  8
Default
 10
-23.942314453125
 20
0.5366015625
 42
-0.1132692635493
  0
VERTEX
  8
Default
 10
-23.5163702051972
 20
0.4465164544449
 42
-0.1244725914944
  0
VERTEX
  8
Default
 10
-23.184482421875
 20
0.16474609375
 42
-0.1030379801248
  0
VERTEX
  8
Default
 10
-22.963382152283
 20
-0.3309713095601
 42
-0.057430891808
  0
VERTEX
  8
Default
 10
-22.906767578125
 20
-0.87080078125
 42
0.0
  0
SEQEND
  0
POLYLINE
  8
Default
 66
     1
 10
0.0
 20
0.0
 30
0.0
 70
     1
  0
VERTEX
  8
Default
 10
-24.987275390625
 20
2.27349609375
 42
0.0
  0
VERTEX
  8
Default
 10
-25.001396484375
 20
-4.82
 42
0.0
  0
VERTEX
  8
Default
 10
-26.300537109375
 20
-4.82
 42
0.0
  0
VERTEX
  8
Default
 10
-26.300537109375
 20
2.27349609375
 42
0.0
  0
SEQEND
  0
POLYLINE
  8
Default
 66
     1
 10
0.0
 20
0.0
 30
0.0
 70
     1
  0
VERTEX
  8
Default
 10
-20.317900390625
 20
1.06849609375
 42
0.0
  0
VERTEX
  8
Default
 10
-21.598212890625
 20
1.06849609375
 42
0.0
  0
VERTEX
  8
Default
 10
-21.598212890625
 20
2.27349609375
 42
0.0
  0
VERTEX
  8
Default
 10
-20.317900390625
 20
2.27349609375
 42
0.0
  0
SEQEND
  0
POLYLINE
  8
Default
 66
     1
 10
0.0
 20
0.0
 30
0.0
 70
     1
  0
VERTEX
  8
Default
 10
-20.317900390625
 20
-4.82
 42
0.0
  0
VERTEX
  8
Default
 10
-21.598212890625
 20
-4.82
 42
0.0
  0
VERTEX
  8
Default
 10
-21.598212890625
 20
0.3859765625
 42
0.0
  0
VERTEX
  8
Default
 10
-20.317900390625
 20
0.3859765625
 42
0.0
  0
SEQEND
  0
POLYLINE
  8
Default
 66
     1
 10
0.0
 20
0.0
 30
0.0
 70
     1
  0
VERTEX
  8
Default
 10
-17.390126953125
 20
2.27349609375
 42
0.0
  0
VERTEX
  8
Default
 10
-17.390126953125
 20
1.06849609375
 42
0.0
  0
VERTEX
  8
Default
 10
-18.670439453125
 20
1.06849609375
 42
0.0
  0
VERTEX
  8
Default
 10
-18.670439453125
 20
2.27349609375
 42
0.0
  0
SEQEND
  0
POLYLINE
  8
Default
 66
     1
 10
0.0
 20
0.0
 30
0.0
 70
     1
  0
VERTEX
  8
Default
 10
-19.164677734375
 20
-6.4109765625
 42
-0.0727569905998
  0
VERTEX
  8
Default
 10
-19.461220703125
 20
-6.37802734375
 42
-0.0823371858774
  0
VERTEX
  8
Default
 10
-19.5928048012174
 20
-6.2905717259736
 42
-0.0241182665994
  0
VERTEX
  8
Default
 10
-19.705986328125
 20
-6.18033203125
 42
-0.0456141354759
  0
VERTEX
  8
Default
 10
-19.851904296875
 20
-6.02029296875
 42
-0.0617760276985
  0
VERTEX
  8
Default
 10
-19.946734595952
 20
-5.7936035473396
 42
-0.0271434147078
  0
VERTEX
  8
Default
 10
-20.002529296875
 20
-5.554296875
 42
0.0
  0
VERTEX
  8
Default
 10
-19.348251953125
 20
-4.97533203125
 42
0.0
  0
VERTEX
  8
Default
 10
-19.164677734375
 20
-5.20126953125
 42
0.0
  0
SEQEND
  0
POLYLINE
  8
Default
 66
     1
 10
0.0
 20
0.0
 30
0.0
 70
     1
  0
VERTEX
  8
Default
 10
-18.670439453125
 20
0.395390625
 42
0.0
  0
VERTEX
  8
Default
 10
-17.361884765625
 20
0.395390625
 42
0.0
  0
VERTEX
  8
Default
 10
-17.361884765625
 20
-4.88119140625
 42
-0.0516338621571
  0
VERTEX
  8
Default
 10
-17.4191802156168
 20
-5.4906199449857
 42
-0.0981133707427
  0
VERTEX
  8
Default
 10
-17.649013671875
 20
-6.05794921875
 42
-0.1511074662219
  0
VERTEX
  8
Default
 10
-18.0534625094472
 20
-6.3867928740248
 42
-0.0973696628362
  0
VERTEX
  8
Default
 10
-18.566884765625
 20
-6.476875
 42
0.0899941257978
  0
VERTEX
  8
Default
 10
-18.670439453125
 20
-6.4486328125
 42
0.0
  0
SEQEND
  0
POLYLINE
  8
Default
 66
     1
 10
0.0
 20
0.0
 30
0.0
 70
     1
  0
VERTEX
  8
Default
 10
-12.165322265625
 20
-4.82
 42
0.0
  0
VERTEX
  8
Default
 10
-13.544482421875
 20
-4.82
 42
0.0
  0
VERTEX
  8
Default
 10
-14.283486328125
 20
-2.8148046875
 42
0.0
  0
VERTEX
  8
Default
 10
-14.292900390625
 20
-0.90375
 42
0.0
  0
VERTEX
  8
Default
 10
-13.525654296875
 20
0.38126953125
 42
0.0
  0
VERTEX
  8
Default
 10
-12.221806640625
 20
0.38126953125
 42
0.0
  0
VERTEX
  8
Default
 10
-13.318544921875
 20
-1.50625
 42
0.0
  0
SEQEND
  0
POLYLINE
  8
Default
 66
     1
 10
0.0
 20
0.0
 30
0.0
 70
     1
  0
VERTEX
  8
Default
 10
-14.782431640625
 20
2.27349609375
 42
0.0
  0
VERTEX
  8
Default
 10
-14.796552734375
 20
-4.82
 42
0.0
  0
VERTEX
  8
Default
 10
-16.095693359375
 20
-4.82
 42
0.0
  0
VERTEX
  8
Default
 10
-16.095693359375
 20
2.27349609375
 42
0.0
  0
SEQEND
  0
POLYLINE
  8
Default
 66
     1
 10
0.0
 20
0.0
 30
0.0
 70
     1
  0
VERTEX
  8
Default
 10
-9.628232421875
 20
2.26408203125
 42
0.0
  0
VERTEX
  8
Default
 10
-9.628232421875
 20
-4.82
 42
0.0
  0
VERTEX
  8
Default
 10
-10.927373046875
 20
-4.82
 42
0.0
  0
VERTEX
  8
Default
 10
-10.927373046875
 20
2.26408203125
 42
0.0
  0
SEQEND
  0
POLYLINE
  8
Default
 66
     1
 10
0.0
 20
0.0
 30
0.0
 70
     1
  0
VERTEX
  8
Default
 10
-2.675947265625
 20
-4.82
 42
0.0
  0
VERTEX
  8
Default
 10
-3.975087890625
 20
-4.82
 42
0.0
  0
VERTEX
  8
Default
 10
-3.975087890625
 20
-1.39798828125
 42
0.0585293188352
  0
VERTEX
  8
Default
 10
-4.0031706460712
 20
-1.1309275127166
 42
0.1225557191582
  0
VERTEX
  8
Default
 10
-4.121005859375
 20
-0.88962890625
 42
0.211664759843
  0
VERTEX
  8
Default
 10
-4.346943359375
 20
-0.771953125
 42
0.0
  0
VERTEX
  8
Default
 10
-4.346943359375
 20
0.2259375
 42
-0.1060973876421
  0
VERTEX
  8
Default
 10
-4.144541015625
 20
0.38126953125
 42
-0.1099889382839
  0
VERTEX
  8
Default
 10
-3.720908203125
 20
0.470703125
 42
-0.243718484411
  0
VERTEX
  8
Default
 10
-2.967783203125
 20
0.1035546875
 42
-0.1013500316216
  0
VERTEX
  8
Default
 10
-2.7394180020156
 20
-0.3539806378265
 42
-0.0675596092153
  0
VERTEX
  8
Default
 10
-2.675947265625
 20
-0.86138671875
 42
0.0
  0
SEQEND
  0
POLYLINE
  8
Default
 66
     1
 10
0.0
 20
0.0
 30
0.0
 70
     1
  0
VERTEX
  8
Default
 10
-4.845888671875
 20
-4.82
 42
0.0
  0
VERTEX
  8
Default
 10
-6.135615234375
 20
-4.82
 42
0.0
  0
VERTEX
  8
Default
 10
-6.135615234375
 20
-1.31326171875
 42
0.1066947645366
  0
VERTEX
  8
Default
 10
-6.187392578125
 20
-1.0073046875
 42
0.2845094837053
  0
VERTEX
  8
Default
 10
-6.516884765625
 20
-0.77666015625
 42
0.0
  0
VERTEX
  8
Default
 10
-6.516884765625
 20
0.2353515625
 42
-0.0715227440783
  0
VERTEX
  8
Default
 10
-6.375673828125
 20
0.35302734375
 42
-0.1319236178147
  0
VERTEX
  8
Default
 10
-5.872021484375
 20
0.470703125
 42
-0.2422892646907
  0
VERTEX
  8
Default
 10
-5.128310546875
 20
0.11296875
 42
-0.1044877856879
  0
VERTEX
  8
Default
 10
-4.9052313635647
 20
-0.3504791849925
 42
-0.0632839905454
  0
VERTEX
  8
Default
 10
-4.845888671875
 20
-0.86138671875
 42
0.0
  0
SEQEND
  0
POLYLINE
  8
Default
 66
     1
 10
0.0
 20
0.0
 30
0.0
 70
     1
  0
VERTEX
  8
Default
 10
-7.006416015625
 20
0.38126953125
 42
0.0
  0
VERTEX
  8
Default
 10
-7.015830078125
 20
-4.82
 42
0.0
  0
VERTEX
  8
Default
 10
-8.305556640625
 20
-4.82
 42
0.0
  0
VERTEX
  8
Default
 10
-8.305556640625
 20
0.38126953125
 42
0.0
  0
SEQEND
  0
POLYLINE
  8
Default
 66
     1
 10
0.0
 20
0.0
 30
0.0
 70
     1
  0
VERTEX
  8
Default
 10
1.974599609375
 20
-4.82
 42
0.0
  0
VERTEX
  8
Default
 10
0.675458984375
 20
-4.82
 42
0.0
  0
VERTEX
  8
Default
 10
0.675458984375
 20
-1.36974609375
 42
0.0455544652188
  0
VERTEX
  8
Default
 10
0.651923828125
 20
-1.00259765625
 42
0.1337884533098
  0
VERTEX
  8
Default
 10
0.5639680234719
 20
-0.8123891881071
 42
0.2164192917047
  0
VERTEX
  8
Default
 10
0.369501953125
 20
-0.734296875
 42
0.0
  0
VERTEX
  8
Default
 10
0.369501953125
 20
0.3483203125
 42
-0.0799987818003
  0
VERTEX
  8
Default
 10
0.651923828125
 20
0.48953125
 42
-0.0828977781349
  0
VERTEX
  8
Default
 10
0.939052734375
 20
0.54130859375
 42
-0.250517317814
  0
VERTEX
  8
Default
 10
1.696884765625
 20
0.169453125
 42
-0.1034178366299
  0
VERTEX
  8
Default
 10
1.9182137424256
 20
-0.3286565180556
 42
-0.0570078125359
  0
VERTEX
  8
Default
 10
1.974599609375
 20
-0.87080078125
 42
0.0
  0
SEQEND
  0
POLYLINE
  8
Default
 66
     1
 10
0.0
 20
0.0
 30
0.0
 70
     1
  0
VERTEX
  8
Default
 10
-0.110615234375
 20
0.4048046875
 42
0.0
  0
VERTEX
  8
Default
 10
-0.120029296875
 20
-4.82
 42
0.0
  0
VERTEX
  8
Default
 10
-1.419169921875
 20
-4.82
 42
0.0
  0
VERTEX
  8
Default
 10
-1.419169921875
 20
0.39068359375
 42
0.0
  0
SEQEND
  0
POLYLINE
  8
Default
 66
     1
 10
0.0
 20
0.0
 30
0.0
 70
     1
  0
VERTEX
  8
Default
 10
6.705166015625
 20
-2.14169921875
 42
-0.0241931402461
  0
VERTEX
  8
Default
 10
6.6629221891809
 20
-3.130492639376
 42
-0.0257841006794
  0
VERTEX
  8
Default
 10
6.5908787647263
 20
-3.6216693882539
 42
-0.0595234294594
  0
VERTEX
  8
Default
 10
6.441572265625
 20
-4.0951171875
 42
-0.152538410904
  0
VERTEX
  8
Default
 10
5.9158895330636
 20
-4.6749565591799
 42
-0.101705153278
  0
VERTEX
  8
Default
 10
5.170673828125
 20
-4.914140625
 42
0.0
  0
VERTEX
  8
Default
 10
5.161259765625
 20
-3.77974609375
 42
0.0465975902176
  0
VERTEX
  8
Default
 10
5.217744140625
 20
-3.71384765625
 42
0.0903431331356
  0
VERTEX
  8
Default
 10
5.3265290588047
 20
-3.4290618611438
 42
0.0498685138531
  0
VERTEX
  8
Default
 10
5.354248046875
 20
-3.12546875
 42
0.0
  0
VERTEX
  8
Default
 10
5.354248046875
 20
-1.2708984375
 42
0.0560392665021
  0
VERTEX
  8
Default
 10
5.326005859375
 20
-0.93669921875
 42
0.0870174807371
  0
VERTEX
  8
Default
 10
5.2585277579387
 20
-0.7912072588878
 42
0.0319956211424
  0
VERTEX
  8
Default
 10
5.161259765625
 20
-0.66369140625
 42
0.0
  0
VERTEX
  8
Default
 10
5.161259765625
 20
0.54130859375
 42
-0.1128417841137
  0
VERTEX
  8
Default
 10
5.9182611744956
 20
0.2442604543113
 42
-0.1329290345781
  0
VERTEX
  8
Default
 10
6.432158203125
 20
-0.3859765625
 42
-0.048313762692
  0
VERTEX
  8
Default
 10
6.5760251995188
 20
-0.8098351018806
 42
-0.0379059816967
  0
VERTEX
  8
Default
 10
6.6787993792739
 20
-1.4720626021363
 42
-0.0212732447704
  0
SEQEND
  0
POLYLINE
  8
Default
 66
     1
 10
0.0
 20
0.0
 30
0.0
 70
     1
  0
VERTEX
  8
Default
 10
4.671728515625
 20
-4.91884765625
 42
-0.1358327811861
  0
VERTEX
  8
Default
 10
4.1633045130991
 20
-4.8511948082226
 42
-0.1108610219433
  0
VERTEX
  8
Default
 10
3.753857421875
 20
-4.54228515625
 42
-0.0830374240072
  0
VERTEX
  8
Default
 10
3.4402014375121
 20
-4.0251432834535
 42
-0.0641211253797
  0
VERTEX
  8
Default
 10
3.2197755688076
 20
-3.1504068445784
 42
-0.0329324188142
  0
VERTEX
  8
Default
 10
3.165478515625
 20
-2.2499609375
 42
-0.0374845017538
  0
VERTEX
  8
Default
 10
3.2340871863402
 20
-1.2385345640236
 42
-0.0818468982637
  0
VERTEX
  8
Default
 10
3.527919921875
 20
-0.26830078125
 42
-0.1192189542181
  0
VERTEX
  8
Default
 10
3.9977959354122
 20
0.2791375679825
 42
-0.11877390494
  0
VERTEX
  8
Default
 10
4.671728515625
 20
0.5366015625
 42
0.0
  0
VERTEX
  8
Default
 10
4.671728515625
 20
-0.6778125
 42
0.0797091892166
  0
VERTEX
  8
Default
 10
4.572880859375
 20
-0.88021484375
 42
0.0684731760543
  0
VERTEX
  8
Default
 10
4.516396484375
 20
-1.29443359375
 42
0.0
  0
VERTEX
  8
Default
 10
4.516396484375
 20
-3.05015625
 42
0.0820337743594
  0
VERTEX
  8
Default
 10
4.591708984375
 20
-3.596171875
 42
0.0551229343362
  0
VERTEX
  8
Default
 10
4.671728515625
 20
-3.74208984375
 42
0.0
  0
SEQEND
  0
POLYLINE
  8
Default
 66
     1
 10
0.0
 20
0.0
 30
0.0
 70
     1
  0
VERTEX
  8
Default
 10
8.065498046875
 20
-6.4486328125
 42
0.0
  0
VERTEX
  8
Default
 10
8.074912109375
 20
0.54130859375
 42
0.0
  0
VERTEX
  8
Default
 10
9.364638671875
 20
0.5271875
 42
0.0
  0
VERTEX
  8
Default
 10
9.364638671875
 20
-6.4486328125
 42
0.0
  0
SEQEND
  0
POLYLINE
  8
Default
 66
     1
 10
0.0
 20
0.0
 30
0.0
 70
     1
  0
VERTEX
  8
Default
 10
10.258974609375
 20
0.54130859375
 42
-0.1627784340113
  0
VERTEX
  8
Default
 10
10.8270365775963
 20
0.361643191776
 42
-0.1134417810424
  0
VERTEX
  8
Default
 10
11.205087890625
 20
-0.09884765625
 42
-0.0563824813071
  0
VERTEX
  8
Default
 10
11.3860584677231
 20
-0.5742168074113
 42
-0.0419749450859
  0
VERTEX
  8
Default
 10
11.5121996651836
 20
-1.324785039129
 42
-0.0226669867731
  0
VERTEX
  8
Default
 10
11.543994140625
 20
-2.08521484375
 42
-0.0322668988421
  0
VERTEX
  8
Default
 10
11.4814853529609
 20
-3.153246519024
 42
-0.0700098660917
  0
VERTEX
  8
Default
 10
11.214501953125
 20
-4.1892578125
 42
-0.101273161105
  0
VERTEX
  8
Default
 10
10.8677861624478
 20
-4.7017935260383
 42
-0.1941755327953
  0
VERTEX
  8
Default
 10
10.291923828125
 20
-4.92826171875
 42
-0.0224372803123
  0
VERTEX
  8
Default
 10
10.13915889827
 20
-4.9222969260499
 42
-0.100272095333
  0
VERTEX
  8
Default
 10
9.990673828125
 20
-4.8858984375
 42
0.0131920301297
  0
VERTEX
  8
Default
 10
9.858876953125
 20
-4.80587890625
 42
0.0
  0
VERTEX
  8
Default
 10
9.858876953125
 20
-3.76091796875
 42
0.2923602267041
  0
VERTEX
  8
Default
 10
10.0588697711907
 20
-3.6245536765789
 42
0.0766063405758
  0
VERTEX
  8
Default
 10
10.131884765625
 20
-3.39376953125
 42
0.0324460743877
  0
VERTEX
  8
Default
 10
10.1923103623917
 20
-2.6394649367256
 42
0.0076707106937
  0
VERTEX
  8
Default
 10
10.202490234375
 20
-1.8828125
 42
0.0158570784233
  0
VERTEX
  8
Default
 10
10.188886230697
 20
-1.3978164472499
 42
0.0521770258924
  0
VERTEX
  8
Default
 10
10.117763671875
 20
-0.91787109375
 42
0.0812727700038
  0
VERTEX
  8
Default
 10
10.0334131119182
 20
-0.7267373709491
 42
0.2182910005941
  0
VERTEX
  8
Default
 10
9.858876953125
 20
-0.6119140625
 42
0.0
  0
VERTEX
  8
Default
 10
9.858876953125
 20
0.54130859375
 42
0.0
  0
VERTEX
  8
Default
 10
9.868291015625
 20
0.54130859375
 42
0.0
  0
SEQEND
  0
POLYLINE
  8
Default
 66
     1
 10
0.0
 20
0.0
 30
0.0
 70
     1
  0
VERTEX
  8
Default
 10
16.199248046875
 20
-6.4015625
 42
0.0
  0
VERTEX
  8
Default
 10
14.900107421875
 20
-6.4015625
 42
0.0
  0
VERTEX
  8
Default
 10
14.885986328125
 20
0.451875
 42
0.0
  0
VERTEX
  8
Default
 10
16.199248046875
 20
0.451875
 42
0.0
  0
SEQEND
  0
POLYLINE
  8
Default
 66
     1
 10
0.0
 20
0.0
 30
0.0
 70
     1
  0
VERTEX
  8
Default
 10
14.396455078125
 20
-4.7541015625
 42
0.0650985574275
  0
VERTEX
  8
Default
 10
14.292900390625
 20
-4.82470703125
 42
-0.1219034756536
  0
VERTEX
  8
Default
 10
14.1335358977322
 20
-4.869590095351
 42
-0.0240041073894
  0
VERTEX
  8
Default
 10
13.968115234375
 20
-4.876484375
 42
-0.1895052572325
  0
VERTEX
  8
Default
 10
13.3887579213295
 20
-4.6564992906434
 42
-0.1043696702292
  0
VERTEX
  8
Default
 10
13.036123046875
 20
-4.14689453125
 42
-0.0445259979983
  0
VERTEX
  8
Default
 10
12.8674094244345
 20
-3.6356469131977
 42
-0.0370898719739
  0
VERTEX
  8
Default
 10
12.7436236041832
 20
-2.8389986094023
 42
-0.0215885755976
  0
VERTEX
  8
Default
 10
12.711337890625
 20
-2.0334375
 42
-0.0331814178836
  0
VERTEX
  8
Default
 10
12.7711802132929
 20
-1.0268293948524
 42
-0.0310392810717
  0
VERTEX
  8
Default
 10
12.8678105219888
 20
-0.5301922363757
 42
-0.0547992619683
  0
VERTEX
  8
Default
 10
13.045537109375
 20
-0.056484375
 42
-0.1150075720197
  0
VERTEX
  8
Default
 10
13.4271280859286
 20
0.4084513750248
 42
-0.1619420126956
  0
VERTEX
  8
Default
 10
14.001064453125
 20
0.58837890625
 42
0.0
  0
VERTEX
  8
Default
 10
14.104619140625
 20
0.58837890625
 42
-0.088123720972
  0
VERTEX
  8
Default
 10
14.288193359375
 20
0.56013671875
 42
-0.2277914539162
  0
VERTEX
  8
Default
 10
14.396455078125
 20
0.4612890625
 42
0.0
  0
VERTEX
  8
Default
 10
14.396455078125
 20
-0.57896484375
 42
0.2243122234401
  0
VERTEX
  8
Default
 10
14.2251078678072
 20
-0.6893014319093
 42
0.0805481227814
  0
VERTEX
  8
Default
 10
14.142275390625
 20
-0.8755078125
 42
0.0501796761006
  0
VERTEX
  8
Default
 10
14.0749504607533
 20
-1.3557133336312
 42
0.0148660801921
  0
VERTEX
  8
Default
 10
14.062255859375
 20
-1.84044921875
 42
0.007372056643
  0
VERTEX
  8
Default
 10
14.0719347457363
 20
-2.5898917693543
 42
0.0298289587043
  0
VERTEX
  8
Default
 10
14.128154296875
 20
-3.33728515625
 42
0.0728913158577
  0
VERTEX
  8
Default
 10
14.1992424355954
 20
-3.5687137072283
 42
0.1059053786612
  0
VERTEX
  8
Default
 10
14.2770624760539
 20
-3.6681190681866
 42
0.1730162204512
  0
VERTEX
  8
Default
 10
14.396455078125
 20
-3.709140625
 42
0.0
  0
SEQEND
  0
POLYLINE
  8
Default
 66
     1
 10
0.0
 20
0.0
 30
0.0
 70
     1
  0
VERTEX
  8
Default
 10
18.886962890625
 20
-4.82
 42
0.0
  0
VERTEX
  8
Default
 10
17.587822265625
 20
-4.82
 42
0.0
  0
VERTEX
  8
Default
 10
17.587822265625
 20
0.38126953125
 42
0.0
  0
VERTEX
  8
Default
 10
18.886962890625
 20
0.38126953125
 42
0.0
  0
SEQEND
  0
POLYLINE
  8
Default
 66
     1
 10
0.0
 20
0.0
 30
0.0
 70
     1
  0
VERTEX
  8
Default
 10
19.371787109375
 20
0.207109375
 42
-0.0192072715475
  0
VERTEX
  8
Default
 10
19.550654296875
 20
0.40009765625
 42
-0.1108965947258
  0
VERTEX
  8
Default
 10
19.7152647349514
 20
0.4586449929189
 42
-0.038958727679
  0
VERTEX
  8
Default
 10
19.889560546875
 20
0.470703125
 42
-0.1678650919217
  0
VERTEX
  8
Default
 10
20.2383281974957
 20
0.3509160214074
 42
-0.0947566996607
  0
VERTEX
  8
Default
 10
20.477939453125
 20
0.07060546875
 42
-0.0820349141699
  0
VERTEX
  8
Default
 10
20.6691856348857
 20
-0.4114485899856
 42
-0.055542361662
  0
VERTEX
  8
Default
 10
20.722705078125
 20
-0.92728515625
 42
-0.0339645509386
  0
VERTEX
  8
Default
 10
20.6833674691116
 20
-1.3793592331997
 42
-0.0132074968558
  0
VERTEX
  8
Default
 10
20.605029296875
 20
-1.826328125
 42
0.0
  0
VERTEX
  8
Default
 10
19.503583984375
 20
-1.8922265625
 42
0.0322970073483
  0
VERTEX
  8
Default
 10
19.555361328125
 20
-1.30384765625
 42
0.0432510431799
  0
VERTEX
  8
Default
 10
19.522412109375
 20
-0.90375
 42
0.0921966045545
  0
VERTEX
  8
Default
 10
19.4817834152114
 20
-0.7749705432359
 42
0.2379581545662
  0
VERTEX
  8
Default
 10
19.371787109375
 20
-0.696640625
 42
0.0
  0
SEQEND
  0
POLYLINE
  8
Default
 66
     1
 10
0.0
 20
0.0
 30
0.0
 70
     1
  0
VERTEX
  8
Default
 10
24.850771484375
 20
-1.07791015625
 42
0.0
  0
VERTEX
  8
Default
 10
23.857587890625
 20
-1.07791015625
 42
0.0333580519247
  0
VERTEX
  8
Default
 10
23.843466796875
 20
-0.753125
 42
0.1477467423651
  0
VERTEX
  8
Default
 10
23.636357421875
 20
-0.3483203125
 42
0.0
  0
VERTEX
  8
Default
 10
23.636357421875
 20
0.52248046875
 42
-0.0938848345803
  0
VERTEX
  8
Default
 10
24.098387383521
 20
0.4417192956917
 42
-0.117377709702
  0
VERTEX
  8
Default
 10
24.483623046875
 20
0.17416015625
 42
-0.1243829959446
  0
VERTEX
  8
Default
 10
24.7799016669782
 20
-0.418826466236
 42
-0.0598374465849
  0
SEQEND
  0
POLYLINE
  8
Default
 66
     1
 10
0.0
 20
0.0
 30
0.0
 70
     1
  0
VERTEX
  8
Default
 10
25.081416015625
 20
-3.3231640625
 42
-0.0771399045053
  0
VERTEX
  8
Default
 10
24.9917419307403
 20
-3.9585566128764
 42
-0.1210624150966
  0
VERTEX
  8
Default
 10
24.662490234375
 20
-4.5093359375
 42
-0.2086506948565
  0
VERTEX
  8
Default
 10
23.636357421875
 20
-4.92826171875
 42
0.0
  0
VERTEX
  8
Default
 10
23.636357421875
 20
-3.81740234375
 42
0.0601276542072
  0
VERTEX
  8
Default
 10
23.768154296875
 20
-3.6432421875
 42
0.0820996568969
  0
VERTEX
  8
Default
 10
23.7961719761407
 20
-3.5128883337937
 42
0.0212056037465
  0
VERTEX
  8
Default
 10
23.801103515625
 20
-3.3796484375
 42
0.1401750719075
  0
VERTEX
  8
Default
 10
23.7458043831106
 20
-3.1964927035736
 42
0.094195410236
  0
VERTEX
  8
Default
 10
23.5483147943583
 20
-2.994458094968
 42
0.0395737040469
  0
VERTEX
  8
Default
 10
23.306865234375
 20
-2.84775390625
 42
-0.0100004628113
  0
VERTEX
  8
Default
 10
22.8309525897976
 20
-2.5930525303942
 42
-0.0442377698924
  0
VERTEX
  8
Default
 10
22.379580078125
 20
-2.29703125
 42
-0.1162874259163
  0
VERTEX
  8
Default
 10
21.9977040310764
 20
-1.7570653984004
 42
-0.0962937770817
  0
VERTEX
  8
Default
 10
21.880634765625
 20
-1.10615234375
 42
-0.0605244809427
  0
VERTEX
  8
Default
 10
21.9476118856236
 20
-0.4960538042264
 42
-0.1137546039535
  0
VERTEX
  8
Default
 10
22.214833984375
 20
0.056484375
 42
-0.2014442531175
  0
VERTEX
  8
Default
 10
23.132705078125
 20
0.52248046875
 42
0.0
  0
VERTEX
  8
Default
 10
23.132705078125
 20
-0.43775390625
 42
0.0183408366911
  0
VERTEX
  8
Default
 10
22.996201171875
 20
-0.5554296875
 42
0.1124412238507
  0
VERTEX
  8
Default
 10
22.9566251513105
 20
-0.6771394828809
 42
0.0334189309868
  0
VERTEX
  8
Default
 10
22.949130859375
 20
-0.80490234375
 42
0.1364893645996
  0
VERTEX
  8
Default
 10
23.0075038796444
 20
-1.0081735429938
 42
0.1011977837697
  0
VERTEX
  8
Default
 10
23.2253654499542
 20
-1.2316523881717
 42
0.0430318089844
  0
VERTEX
  8
Default
 10
23.495146484375
 20
-1.38857421875
 42
-0.0104348699317
  0
VERTEX
  8
Default
 10
24.0261881225668
 20
-1.6492255792381
 42
-0.0124713453995
  0
VERTEX
  8
Default
 10
24.2856482335293
 20
-1.7919036550916
 42
-0.040947560435
  0
VERTEX
  8
Default
 10
24.530693359375
 20
-1.958125
 42
-0.1249145110691
  0
VERTEX
  8
Default
 10
24.9583075526203
 20
-2.5792184405562
 42
-0.089922500266
  0
SEQEND
  0
POLYLINE
  8
Default
 66
     1
 10
0.0
 20
0.0
 30
0.0
 70
     1
  0
VERTEX
  8
Default
 10
23.132705078125
 20
-4.92826171875
 42
-0.0874756864018
  0
VERTEX
  8
Default
 10
22.6399458059589
 20
-4.8468059198884
 42
-0.1024917538251
  0
VERTEX
  8
Default
 10
22.214833984375
 20
-4.5846484375
 42
-0.1130815228802
  0
VERTEX
  8
Default
 10
21.9146136166705
 20
-4.1293121814723
 42
-0.0901253486606
  0
VERTEX
  8
Default
 10
21.824150390625
 20
-3.59146484375
 42
-0.0525688435418
  0
VERTEX
  8
Default
 10
21.880634765625
 20
-3.0972265625
 42
0.0
  0
VERTEX
  8
Default
 10
22.826748046875
 20
-3.0972265625
 42
0.0471377118467
  0
VERTEX
  8
Default
 10
22.798505859375
 20
-3.3608203125
 42
0.0765851984319
  0
VERTEX
  8
Default
 10
22.8315003006666
 20
-3.5990596910704
 42
0.1334050020028
  0
VERTEX
  8
Default
 10
22.958544921875
 20
-3.80328125
 42
0.1089740700451
  0
VERTEX
  8
Default
 10
23.132705078125
 20
-3.8880078125
 42
0.0
  0
SEQEND
  0
POLYLINE
  8
Default
 66
     1
 10
0.0
 20
0.0
 30
0.0
 70
     1
  0
VERTEX
  8
Default
 10
28.823505859375
 20
-0.56013671875
 42
0.0
  0
VERTEX
  8
Default
 10
28.253955078125
 20
-0.56013671875
 42
0.0
  0
VERTEX
  8
Default
 10
28.244541015625
 20
0.395390625
 42
0.0
  0
VERTEX
  8
Default
 10
28.823505859375
 20
0.395390625
 42
0.0
  0
SEQEND
  0
POLYLINE
  8
Default
 66
     1
 10
0.0
 20
0.0
 30
0.0
 70
     1
  0
VERTEX
  8
Default
 10
27.755009765625
 20
-4.97533203125
 42
-0.0884869649774
  0
VERTEX
  8
Default
 10
27.2414834100115
 20
-4.8904695465637
 42
-0.1116293546915
  0
VERTEX
  8
Default
 10
26.804189453125
 20
-4.60818359375
 42
-0.1127936940772
  0
VERTEX
  8
Default
 10
26.5261962590579
 20
-4.1447738977047
 42
-0.0805752740172
  0
VERTEX
  8
Default
 10
26.446455078125
 20
-3.61029296875
 42
0.0
  0
VERTEX
  8
Default
 10
26.446455078125
 20
-0.56013671875
 42
0.0
  0
VERTEX
  8
Default
 10
25.923974609375
 20
-0.56013671875
 42
0.0
  0
VERTEX
  8
Default
 10
25.923974609375
 20
0.395390625
 42
0.0
  0
VERTEX
  8
Default
 10
26.446455078125
 20
0.395390625
 42
0.0
  0
VERTEX
  8
Default
 10
26.446455078125
 20
1.9863671875
 42
0.0
  0
VERTEX
  8
Default
 10
27.778544921875
 20
1.9863671875
 42
0.0
  0
VERTEX
  8
Default
 10
27.778544921875
 20
0.81431640625
 42
0.0
  0
VERTEX
  8
Default
 10
27.778544921875
 20
-0.9790625
 42
0.0
  0
VERTEX
  8
Default
 10
27.778544921875
 20
-3.1725390625
 42
0.0089359430342
  0
VERTEX
  8
Default
 10
27.773837890625
 20
-3.3984765625
 42
0.0193511473907
  0
VERTEX
  8
Default
 10
27.778544921875
 20
-3.5491015625
 42
0.0152608936925
  0
VERTEX
  8
Default
 10
27.778544921875
 20
-3.8503515625
 42
0.0189034026981
  0
VERTEX
  8
Default
 10
27.778544921875
 20
-4.09041015625
 42
0.0233516109968
  0
VERTEX
  8
Default
 10
27.778544921875
 20
-4.2833984375
 42
0.0292096116477
  0
VERTEX
  8
Default
 10
27.778544921875
 20
-4.43873046875
 42
0.0393233845304
  0
VERTEX
  8
Default
 10
27.778544921875
 20
-4.55169921875
 42
0.0
  0
VERTEX
  8
Default
 10
27.778544921875
 20
-4.83412109375
 42
-0.1139703770617
  0
SEQEND
  0
POLYLINE
  8
Default
 66
     1
 10
0.0
 20
0.0
 30
0.0
 70
     1
  0
VERTEX
  8
Default
 10
28.795263671875
 20
-4.64583984375
 42
-0.0350538507857
  0
VERTEX
  8
Default
 10
28.376337890625
 20
-4.8294140625
 42
0.0090259245766
  0
VERTEX
  8
Default
 10
28.244541015625
 20
-4.876484375
 42
0.0
  0
VERTEX
  8
Default
 10
28.244541015625
 20
-3.615
 42
-0.0063361637818
  0
VERTEX
  8
Default
 10
28.456357421875
 20
-3.57734375
 42
0.0202087178171
  0
VERTEX
  8
Default
 10
28.795263671875
 20
-3.48791015625
 42
0.0
  0
SEQEND
  0
POLYLINE
  8
Default
 66
     1
 10
0.0
 20
0.0
 30
0.0
 70
     1
  0
VERTEX
  8
Default
 10
33.304599609375
 20
-4.8670703125
 42
0.0
  0
VERTEX
  8
Default
 10
32.005458984375
 20
-4.876484375
 42
0.0
  0
VERTEX
  8
Default
 10
32.005458984375
 20
0.3671484375
 42
0.0
  0
VERTEX
  8
Default
 10
33.304599609375
 20
0.3671484375
 42
0.0
  0
SEQEND
  0
POLYLINE
  8
Default
 66
     1
 10
0.0
 20
0.0
 30
0.0
 70
     1
  0
VERTEX
  8
Default
 10
31.525341796875
 20
-3.6244140625
 42
0.0
  0
VERTEX
  8
Default
 10
31.515927734375
 20
-4.65525390625
 42
-0.0693137257338
  0
VERTEX
  8
Default
 10
31.2475945299302
 20
-4.8146579629014
 42
-0.09790952338
  0
VERTEX
  8
Default
 10
30.941669921875
 20
-4.876484375
 42
-0.095277426096
  0
VERTEX
  8
Default
 10
30.5404448219229
 20
-4.8052898501353
 42
-0.117872630171
  0
VERTEX
  8
Default
 10
30.207373046875
 20
-4.57052734375
 42
-0.1165720890081
  0
VERTEX
  8
Default
 10
29.9708939780698
 20
-4.1052314780604
 42
-0.0638131536329
  0
VERTEX
  8
Default
 10
29.910830078125
 20
-3.5867578125
 42
0.0
  0
VERTEX
  8
Default
 10
29.910830078125
 20
0.3671484375
 42
0.0
  0
VERTEX
  8
Default
 10
31.209970703125
 20
0.3671484375
 42
0.0
  0
VERTEX
  8
Default
 10
31.209970703125
 20
-3.0878125
 42
0.0601023333453
  0
VERTEX
  8
Default
 10
31.238212890625
 20
-3.40318359375
 42
0.1549205390113
  0
VERTEX
  8
Default
 10
31.3405830422468
 20
-3.5672638241411
 42
0.1712748105299
  0
SEQEND
  0
POLYLINE
  8
Default
 66
     1
 10
0.0
 20
0.0
 30
0.0
 70
     1
  0
VERTEX
  8
Default
 10
37.748037109375
 20
0.3859765625
 42
0.0
  0
VERTEX
  8
Default
 10
36.929013671875
 20
-3.56322265625
 42
0.0
  0
VERTEX
  8
Default
 10
36.401826171875
 20
-1.12498046875
 42
0.0
  0
VERTEX
  8
Default
 10
36.665419921875
 20
0.3859765625
 42
0.0
  0
SEQEND
  0
POLYLINE
  8
Default
 66
     1
 10
0.0
 20
0.0
 30
0.0
 70
     1
  0
VERTEX
  8
Default
 10
36.679541015625
 20
-4.82
 42
0.0
  0
VERTEX
  8
Default
 10
35.394521484375
 20
-4.82
 42
0.0
  0
VERTEX
  8
Default
 10
34.217763671875
 20
0.3859765625
 42
0.0
  0
VERTEX
  8
Default
 10
35.549853515625
 20
0.3859765625
 42
0.0
  0
SEQEND
  0
POLYLINE
  8
Default
 66
     1
 10
0.0
 20
0.0
 30
0.0
 70
     1
  0
VERTEX
  8
Default
 10
44.342587890625
 20
0.3859765625
 42
0.0
  0
VERTEX
  8
Default
 10
43.490615234375
 20
-3.765625
 42
0.0
  0
VERTEX
  8
Default
 10
42.925771484375
 20
-1.35091796875
 42
0.0
  0
VERTEX
  8
Default
 10
43.259970703125
 20
0.3859765625
 42
0.0
  0
SEQEND
  0
POLYLINE
  8
Default
 66
     1
 10
0.0
 20
0.0
 30
0.0
 70
     1
  0
VERTEX
  8
Default
 10
43.241142578125
 20
-4.82
 42
0.0
  0
VERTEX
  8
Default
 10
42.102041015625
 20
-4.82470703125
 42
0.0
  0
VERTEX
  8
Default
 10
41.042958984375
 20
-0.2541796875
 42
0.0
  0
VERTEX
  8
Default
 10
41.170048828125
 20
0.3859765625
 42
0.0
  0
VERTEX
  8
Default
 10
42.017314453125
 20
0.3859765625
 42
0.0
  0
SEQEND
  0
POLYLINE
  8
Default
 66
     1
 10
0.0
 20
0.0
 30
0.0
 70
     1
  0
VERTEX
  8
Default
 10
41.235947265625
 20
-3.29962890625
 42
0.0
  0
VERTEX
  8
Default
 10
40.948818359375
 20
-4.82
 42
0.0
  0
VERTEX
  8
Default
 10
39.809716796875
 20
-4.82
 42
0.0
  0
VERTEX
  8
Default
 10
38.557646484375
 20
0.3859765625
 42
0.0
  0
VERTEX
  8
Default
 10
39.913271484375
 20
0.38126953125
 42
0.0
  0
VERTEX
  8
Default
 10
40.534599609375
 20
-2.76302734375
 42
0.0
  0
VERTEX
  8
Default
 10
40.812314453125
 20
-1.46859375
 42
0.0
  0
SEQEND
  0
POLYLINE
  8
Default
 66
     1
 10
0.0
 20
0.0
 30
0.0
 70
     1
  0
VERTEX
  8
Default
 10
48.950771484375
 20
0.3859765625
 42
0.0
  0
VERTEX
  8
Default
 10
48.150576171875
 20
-1.39328125
 42
0.0
  0
VERTEX
  8
Default
 10
47.623388671875
 20
-0.15533203125
 42
0.0
  0
VERTEX
  8
Default
 10
47.811669921875
 20
0.3859765625
 42
0.0
  0
SEQEND
  0
POLYLINE
  8
Default
 66
     1
 10
0.0
 20
0.0
 30
0.0
 70
     1
  0
VERTEX
  8
Default
 10
49.134345703125
 20
-4.82
 42
0.0
  0
VERTEX
  8
Default
 10
47.679873046875
 20
-4.82
 42
0.0
  0
VERTEX
  8
Default
 10
45.585244140625
 20
0.3859765625
 42
0.0
  0
VERTEX
  8
Default
 10
46.818486328125
 20
0.3859765625
 42
0.0
  0
SEQEND
  0
POLYLINE
  8
Default
 66
     1
 10
0.0
 20
0.0
 30
0.0
 70
     1
  0
VERTEX
  8
Default
 10
46.799658203125
 20
-3.85505859375
 42
0.0
  0
VERTEX
  8
Default
 10
46.470166015625
 20
-4.82
 42
0.0
  0
VERTEX
  8
Default
 10
45.345185546875
 20
-4.82
 42
0.0
  0
VERTEX
  8
Default
 10
46.263056640625
 20
-2.61240234375
 42
0.0
  0
SEQEND
  0
POLYLINE
  8
Default
 66
     1
 10
0.0
 20
0.0
 30
0.0
 70
     1
  0
VERTEX
  8
Default
 10
53.488349609375
 20
0.3859765625
 42
0.0
  0
VERTEX
  8
Default
 10
52.692861328125
 20
-3.22431640625
 42
0.0
  0
VERTEX
  8
Default
 10
52.142138671875
 20
-1.00259765625
 42
0.0
  0
VERTEX
  8
Default
 10
52.410439453125
 20
0.3859765625
 42
0.0
  0
SEQEND
  0
POLYLINE
  8
Default
 66
     1
 10
0.0
 20
0.0
 30
0.0
 70
     1
  0
VERTEX
  8
Default
 10
52.448095703125
 20
-4.3963671875
 42
0.0
  0
VERTEX
  8
Default
 10
52.217451171875
 20
-5.40837890625
 42
-0.1018743034601
  0
VERTEX
  8
Default
 10
51.906787109375
 20
-6.11443359375
 42
-0.0548104511326
  0
VERTEX
  8
Default
 10
51.723212890625
 20
-6.27447265625
 42
0.0
  0
VERTEX
  8
Default
 10
50.066337890625
 20
0.3859765625
 42
0.0
  0
VERTEX
  8
Default
 10
51.299580078125
 20
0.3859765625
 42
0.0
  0
SEQEND
  0
POLYLINE
  8
Default
 66
     1
 10
0.0
 20
0.0
 30
0.0
 70
     1
  0
VERTEX
  8
Default
 10
51.252509765625
 20
-6.50041015625
 42
-0.1526678314874
  0
VERTEX
  8
Default
 10
51.068935546875
 20
-6.54748046875
 42
-0.1878266283146
  0
VERTEX
  8
Default
 10
50.358173828125
 20
-6.2509375
 42
-0.2236216110632
  0
VERTEX
  8
Default
 10
49.925126953125
 20
-5.23892578125
 42
-0.0612668257664
  0
VERTEX
  8
Default
 10
49.991025390625
 20
-4.7352734375
 42
0.0
  0
VERTEX
  8
Default
 10
50.762978515625
 20
-4.7352734375
 42
-0.016777076602
  0
VERTEX
  8
Default
 10
50.748857421875
 20
-4.93767578125
 42
0.0104010350953
  0
VERTEX
  8
Default
 10
50.734736328125
 20
-5.12125
 42
0.0988276914471
  0
VERTEX
  8
Default
 10
50.795927734375
 20
-5.4883984375
 42
0.2304864024325
  0
VERTEX
  8
Default
 10
51.040693359375
 20
-5.69080078125
 42
0.0
  0
SEQEND
  0
POLYLINE
  8
Default
 66
     1
 10
0.0
 20
0.0
 30
0.0
 70
     1
  0
VERTEX
  8
Default
 10
56.938603515625
 20
0.3859765625
 42
0.0
  0
VERTEX
  8
Default
 10
55.964248046875
 20
-0.7625390625
 42
0.0
  0
VERTEX
  8
Default
 10
54.712177734375
 20
-0.7625390625
 42
0.0
  0
VERTEX
  8
Default
 10
54.712177734375
 20
0.3859765625
 42
0.0
  0
SEQEND
  0
POLYLINE
  8
Default
 66
     1
 10
0.0
 20
0.0
 30
0.0
 70
     1
  0
VERTEX
  8
Default
 10
57.691728515625
 20
-0.96494140625
 42
0.0
  0
VERTEX
  8
Default
 10
54.443876953125
 20
-4.82470703125
 42
0.0
  0
VERTEX
  8
Default
 10
54.443876953125
 20
-3.483203125
 42
0.0
  0
VERTEX
  8
Default
 10
57.682314453125
 20
0.38126953125
 42
0.0
  0
SEQEND
  0
POLYLINE
  8
Default
 66
     1
 10
0.0
 20
0.0
 30
0.0
 70
     1
  0
VERTEX
  8
Default
 10
57.762333984375
 20
-4.82470703125
 42
0.0
  0
VERTEX
  8
Default
 10
55.121689453125
 20
-4.82470703125
 42
0.0
  0
VERTEX
  8
Default
 10
56.072509765625
 20
-3.66677734375
 42
0.0
  0
VERTEX
  8
Default
 10
57.762333984375
 20
-3.66677734375
 42
0.0
  0
SEQEND
  0
POLYLINE
  8
Default
 66
     1
 10
0.0
 20
0.0
 30
0.0
 70
     1
  0
VERTEX
  8
Default
 10
-21.08279296875
 20
-24.69912109375
 42
-0.0218709865451
  0
VERTEX
  8
Default
 10
-21.1394380105128
 20
-26.1634812039003
 42
-0.0232400473284
  0
VERTEX
  8
Default
 10
-21.2358041199672
 20
-26.891769219895
 42
-0.05384050831
  0
VERTEX
  8
Default
 10
-21.4358203125
 20
-27.59865234375
 42
-0.150321976754
  0
VERTEX
  8
Default
 10
-21.9240850832772
 20
-28.214402455242
 42
-0.1470501211331
  0
VERTEX
  8
Default
 10
-22.68318359375
 20
-28.41767578125
 42
0.0
  0
VERTEX
  8
Default
 10
-22.68318359375
 20
-27.20326171875
 42
0.0846936980418
  0
VERTEX
  8
Default
 10
-22.537265625
 20
-26.8973046875
 42
0.0673026518519
  0
VERTEX
  8
Default
 10
-22.461953125
 20
-26.29951171875
 42
0.0
  0
VERTEX
  8
Default
 10
-22.461953125
 20
-23.22111328125
 42
0.0171244899193
  0
VERTEX
  8
Default
 10
-22.4713671875
 20
-22.971640625
 42
0.0577277353858
  0
VERTEX
  8
Default
 10
-22.5184375
 20
-22.6798046875
 42
0.0875707177595
  0
VERTEX
  8
Default
 10
-22.68318359375
 20
-22.34560546875
 42
0.0
  0
VERTEX
  8
Default
 10
-22.68318359375
 20
-21.15001953125
 42
-0.0967269135884
  0
VERTEX
  8
Default
 10
-22.0016729271243
 20
-21.3875668957239
 42
-0.136557966572
  0
VERTEX
  8
Default
 10
-21.50642578125
 20
-21.91255859375
 42
-0.0636979056795
  0
VERTEX
  8
Default
 10
-21.2689186645047
 20
-22.5827800609303
 42
-0.0378646966921
  0
VERTEX
  8
Default
 10
-21.1189424001128
 20
-23.635945275792
 42
-0.0185773626972
  0
SEQEND
  0
POLYLINE
  8
Default
 66
     1
 10
0.0
 20
0.0
 30
0.0
 70
     1
  0
VERTEX
  8
Default
 10
-23.1868359375
 20
-28.41767578125
 42
-0.0948562386211
  0
VERTEX
  8
Default
 10
-23.8753030199835
 20
-28.3023917478978
 42
-0.1781216645208
  0
VERTEX
  8
Default
 10
-24.40125
 20
-27.84341796875
 42
-0.0710167674535
  0
VERTEX
  8
Default
 10
-24.6378341125523
 20
-27.1378649170602
 42
-0.0343525371343
  0
VERTEX
  8
Default
 10
-24.7742515192746
 20
-26.0330760901277
 42
-0.0157035218545
  0
VERTEX
  8
Default
 10
-24.8060546875
 20
-24.9203515625
 42
-0.0232608974094
  0
VERTEX
  8
Default
 10
-24.7432580630697
 20
-23.3922584293687
 42
-0.0246913935246
  0
VERTEX
  8
Default
 10
-24.6364039978351
 20
-22.6328173030537
 42
-0.056743891862
  0
VERTEX
  8
Default
 10
-24.41537109375
 20
-21.8984375
 42
-0.1481894373387
  0
VERTEX
  8
Default
 10
-23.9243420288908
 20
-21.3163315129064
 42
-0.1410225463427
  0
VERTEX
  8
Default
 10
-23.1868359375
 20
-21.126484375
 42
0.0
  0
VERTEX
  8
Default
 10
-23.1868359375
 20
-22.34560546875
 42
0.1685656980788
  0
VERTEX
  8
Default
 10
-23.3562890625
 20
-22.5856640625
 42
0.0741429021369
  0
VERTEX
  8
Default
 10
-23.43630859375
 20
-23.23052734375
 42
0.0
  0
VERTEX
  8
Default
 10
-23.43630859375
 20
-24.1483984375
 42
0.0
  0
VERTEX
  8
Default
 10
-23.43630859375
 20
-25.30162109375
 42
0.0
  0
VERTEX
  8
Default
 10
-23.43630859375
 20
-26.35599609375
 42
0.1029010889376
  0
VERTEX
  8
Default
 10
-23.31392578125
 20
-27.0291015625
 42
0.0484972213544
  0
VERTEX
  8
Default
 10
-23.1868359375
 20
-27.23150390625
 42
0.0
  0
SEQEND
  0
POLYLINE
  8
Default
 66
     1
 10
0.0
 20
0.0
 30
0.0
 70
     1
  0
VERTEX
  8
Default
 10
-16.8229296875
 20
-21.18767578125
 42
0.0
  0
VERTEX
  8
Default
 10
-16.80880859375
 20
-28.3
 42
0.0
  0
VERTEX
  8
Default
 10
-18.1408984375
 20
-28.3
 42
0.0
  0
VERTEX
  8
Default
 10
-18.1408984375
 20
-23.3011328125
 42
-0.0529706231358
  0
VERTEX
  8
Default
 10
-18.7245703125
 20
-23.45646484375
 42
-0.0366263823397
  0
VERTEX
  8
Default
 10
-19.4965234375
 20
-23.50353515625
 42
0.0
  0
VERTEX
  8
Default
 10
-19.4965234375
 20
-22.5480078125
 42
0.1401468978127
  0
VERTEX
  8
Default
 10
-18.5739453125
 20
-22.2844140625
 42
0.1040801708126
  0
VERTEX
  8
Default
 10
-18.0738434281157
 20
-21.81399970483
 42
0.0882944722848
  0
VERTEX
  8
Default
 10
-17.792578125
 20
-21.18767578125
 42
0.0
  0
SEQEND
  0
POLYLINE
  8
Default
 66
     1
 10
0.0
 20
0.0
 30
0.0
 70
     1
  0
VERTEX
  8
Default
 10
-13.0196484375
 20
-22.35501953125
 42
0.0113890526126
  0
VERTEX
  8
Default
 10
-13.1193672067661
 20
-22.4886341901858
 42
0.0613026166975
  0
VERTEX
  8
Default
 10
-13.20322265625
 20
-22.632734375
 42
0.0535458697279
  0
VERTEX
  8
Default
 10
-13.243559794981
 20
-22.9397623527792
 42
0.0125408477147
  0
VERTEX
  8
Default
 10
-13.25029296875
 20
-23.24935546875
 42
0.0166836360244
  0
VERTEX
  8
Default
 10
-13.236171875
 20
-23.72005859375
 42
0.0074541362752
  0
VERTEX
  8
Default
 10
-13.17498046875
 20
-24.37904296875
 42
0.0
  0
VERTEX
  8
Default
 10
-14.32349609375
 20
-24.36021484375
 42
-0.0101441514745
  0
VERTEX
  8
Default
 10
-14.398613046114
 20
-23.7972344353287
 42
-0.0259369501659
  0
VERTEX
  8
Default
 10
-14.43646484375
 20
-23.23052734375
 42
-0.0763915253722
  0
VERTEX
  8
Default
 10
-14.3018194183936
 20
-22.2365428464777
 42
-0.0695081225427
  0
VERTEX
  8
Default
 10
-14.0853027702728
 20
-21.7769616438672
 42
-0.0888911928705
  0
VERTEX
  8
Default
 10
-13.7351171875
 20
-21.40890625
 42
-0.0761662680011
  0
VERTEX
  8
Default
 10
-13.3902398228876
 20
-21.2472973250732
 42
-0.0331423121976
  0
VERTEX
  8
Default
 10
-13.0196484375
 20
-21.15943359375
 42
0.0
  0
SEQEND
  0
POLYLINE
  8
Default
 66
     1
 10
0.0
 20
0.0
 30
0.0
 70
     1
  0
VERTEX
  8
Default
 10
-12.28064453125
 20
-26.85494140625
 42
0.0
  0
VERTEX
  8
Default
 10
-10.87794921875
 20
-26.85494140625
 42
0.0
  0
VERTEX
  8
Default
 10
-10.87794921875
 20
-28.3
 42
0.0
  0
VERTEX
  8
Default
 10
-13.6974609375
 20
-28.3
 42
0.0
  0
SEQEND
  0
POLYLINE
  8
Default
 66
     1
 10
0.0
 20
0.0
 30
0.0
 70
     1
  0
VERTEX
  8
Default
 10
-14.40822265625
 20
-28.3
 42
0.0
  0
VERTEX
  8
Default
 10
-14.40822265625
 20
-26.76080078125
 42
-0.0072180096223
  0
VERTEX
  8
Default
 10
-13.5656640625
 20
-25.91353515625
 42
0.0094887326639
  0
VERTEX
  8
Default
 10
-13.1769435248345
 20
-25.5148547470376
 42
0.0305530888834
  0
VERTEX
  8
Default
 10
-12.81724609375
 20
-25.0898046875
 42
0.0816656271188
  0
VERTEX
  8
Default
 10
-12.39361328125
 20
-24.2048828125
 42
0.0710087876458
  0
VERTEX
  8
Default
 10
-12.257109375
 20
-23.25876953125
 42
0.0286871121816
  0
VERTEX
  8
Default
 10
-12.2710662349306
 20
-22.9865838365281
 42
0.0772377278362
  0
VERTEX
  8
Default
 10
-12.33712890625
 20
-22.72216796875
 42
-0.0128648853184
  0
VERTEX
  8
Default
 10
-12.52541015625
 20
-22.38326171875
 42
0.0
  0
VERTEX
  8
Default
 10
-12.52541015625
 20
-21.1170703125
 42
-0.2363585707681
  0
VERTEX
  8
Default
 10
-11.353359375
 20
-21.691328125
 42
-0.1067957604099
  0
VERTEX
  8
Default
 10
-10.9791647210341
 20
-22.428694119857
 42
-0.0670593671353
  0
VERTEX
  8
Default
 10
-10.87794921875
 20
-23.24935546875
 42
-0.0799955001196
  0
VERTEX
  8
Default
 10
-11.01916015625
 20
-24.2237109375
 42
-0.0400201845621
  0
VERTEX
  8
Default
 10
-11.2580463294858
 20
-24.7635822307698
 42
-0.0190609699396
  0
VERTEX
  8
Default
 10
-11.55576171875
 20
-25.27337890625
 42
-0.0349117333596
  0
VERTEX
  8
Default
 10
-12.0111805239741
 20
-25.8571225310454
 42
-0.0104647037528
  0
VERTEX
  8
Default
 10
-12.5112890625
 20
-26.40306640625
 42
-0.0098799143616
  0
VERTEX
  8
Default
 10
-13.7727734375
 20
-27.68337890625
 42
-0.0062035944134
  0
SEQEND
  0
POLYLINE
  8
Default
 66
     1
 10
0.0
 20
0.0
 30
0.0
 70
     1
  0
VERTEX
  8
Default
 10
-8.06314453125
 20
-21.20650390625
 42
0.0
  0
VERTEX
  8
Default
 10
-8.06314453125
 20
-22.5480078125
 42
0.0
  0
VERTEX
  8
Default
 10
-9.19283203125
 20
-22.5480078125
 42
0.0
  0
VERTEX
  8
Default
 10
-9.19283203125
 20
-21.20650390625
 42
0.0
  0
SEQEND
  0
POLYLINE
  8
Default
 66
     1
 10
0.0
 20
0.0
 30
0.0
 70
     1
  0
VERTEX
  8
Default
 10
-8.06314453125
 20
-23.20228515625
 42
0.0
  0
VERTEX
  8
Default
 10
-8.06314453125
 20
-24.64734375
 42
0.0
  0
VERTEX
  8
Default
 10
-8.40205078125
 20
-24.91564453125
 42
0.0
  0
VERTEX
  8
Default
 10
-8.91041015625
 20
-24.1483984375
 42
0.0
  0
SEQEND
  0
POLYLINE
  8
Default
 66
     1
 10
0.0
 20
0.0
 30
0.0
 70
     1
  0
VERTEX
  8
Default
 10
-7.56890625
 20
-28.40826171875
 42
0.0
  0
VERTEX
  8
Default
 10
-7.56890625
 20
-27.245625
 42
-0.0101556127825
  0
VERTEX
  8
Default
 10
-7.3712109375
 20
-26.8973046875
 42
0.0659966758545
  0
VERTEX
  8
Default
 10
-7.2971602461014
 20
-26.6611144067592
 42
0.044591436563
  0
VERTEX
  8
Default
 10
-7.24412109375
 20
-25.92294921875
 42
0.0183303980269
  0
VERTEX
  8
Default
 10
-7.2568932301997
 20
-25.5294762262978
 42
0.0613408142581
  0
VERTEX
  8
Default
 10
-7.324140625
 20
-25.14158203125
 42
0.005768302879
  0
VERTEX
  8
Default
 10
-7.56890625
 20
-24.68970703125
 42
0.0
  0
VERTEX
  8
Default
 10
-7.56890625
 20
-21.20650390625
 42
0.0
  0
VERTEX
  8
Default
 10
-6.081484375
 20
-21.20650390625
 42
0.0
  0
VERTEX
  8
Default
 10
-6.081484375
 20
-22.5291796875
 42
0.0
  0
VERTEX
  8
Default
 10
-7.27236328125
 20
-23.86126953125
 42
-0.1056412810165
  0
VERTEX
  8
Default
 10
-6.70751953125
 20
-24.026015625
 42
-0.1001004546753
  0
VERTEX
  8
Default
 10
-6.29330078125
 20
-24.42140625
 42
-0.099920434369
  0
VERTEX
  8
Default
 10
-5.9539506798207
 20
-25.1807386999574
 42
-0.0586619394588
  0
VERTEX
  8
Default
 10
-5.8649609375
 20
-26.00767578125
 42
-0.0616513779822
  0
VERTEX
  8
Default
 10
-5.9637605662621
 20
-26.882693443828
 42
-0.1049415558403
  0
VERTEX
  8
Default
 10
-6.34037109375
 20
-27.678671875
 42
-0.0983591340293
  0
VERTEX
  8
Default
 10
-6.8912078844951
 20
-28.1502759276233
 42
-0.072111992663
  0
SEQEND
  0
POLYLINE
  8
Default
 66
     1
 10
0.0
 20
0.0
 30
0.0
 70
     1
  0
VERTEX
  8
Default
 10
-8.06314453125
 20
-27.23150390625
 42
0.0
  0
VERTEX
  8
Default
 10
-8.06314453125
 20
-28.42708984375
 42
-0.0407025277126
  0
VERTEX
  8
Default
 10
-8.5806515611343
 20
-28.2605087214325
 42
-0.0992438787057
  0
VERTEX
  8
Default
 10
-9.0375
 20
-27.96580078125
 42
-0.1327009731637
  0
VERTEX
  8
Default
 10
-9.3579463353186
 20
-27.3511010937429
 42
-0.0608191873289
  0
VERTEX
  8
Default
 10
-9.432890625
 20
-26.661953125
 42
-0.0310909762516
  0
VERTEX
  8
Default
 10
-9.39994140625
 20
-26.14888671875
 42
0.0036187719291
  0
VERTEX
  8
Default
 10
-9.3481640625
 20
-25.70642578125
 42
0.0
  0
VERTEX
  8
Default
 10
-8.1996484375
 20
-25.66876953125
 42
0.0229876032783
  0
VERTEX
  8
Default
 10
-8.265546875
 20
-26.5207421875
 42
0.022573109164
  0
VERTEX
  8
Default
 10
-8.2562113052385
 20
-26.7537017409881
 42
0.0693699499846
  0
VERTEX
  8
Default
 10
-8.2090625
 20
-26.98203125
 42
-0.0310187576138
  0
SEQEND
  0
POLYLINE
  8
Default
 66
     1
 10
0.0
 20
0.0
 30
0.0
 70
     1
  0
VERTEX
  8
Default
 10
-2.861875
 20
-23.931875
 42
0.0
  0
VERTEX
  8
Default
 10
-3.596171875
 20
-25.52755859375
 42
0.0
  0
VERTEX
  8
Default
 10
-2.861875
 20
-25.5228515625
 42
0.0
  0
VERTEX
  8
Default
 10
-2.861875
 20
-26.7466796875
 42
0.0
  0
VERTEX
  8
Default
 10
-4.40578125
 20
-26.7466796875
 42
0.0
  0
VERTEX
  8
Default
 10
-4.41048828125
 20
-25.22630859375
 42
0.0
  0
VERTEX
  8
Default
 10
-2.8524609375
 20
-21.90314453125
 42
0.0
  0
SEQEND
  0
POLYLINE
  8
Default
 66
     1
 10
0.0
 20
0.0
 30
0.0
 70
     1
  0
VERTEX
  8
Default
 10
-2.37234375
 20
-21.22533203125
 42
0.0
  0
VERTEX
  8
Default
 10
-1.1202734375
 20
-21.22533203125
 42
0.0
  0
VERTEX
  8
Default
 10
-1.1202734375
 20
-25.5228515625
 42
0.0
  0
VERTEX
  8
Default
 10
-0.52248046875
 20
-25.5228515625
 42
0.0
  0
VERTEX
  8
Default
 10
-0.52248046875
 20
-26.7466796875
 42
0.0
  0
VERTEX
  8
Default
 10
-1.1202734375
 20
-26.7466796875
 42
0.0
  0
VERTEX
  8
Default
 10
-1.1202734375
 20
-28.3
 42
0.0
  0
VERTEX
  8
Default
 10
-2.37234375
 20
-28.3
 42
0.0
  0
SEQEND
  0
POLYLINE
  8
Default
 66
     1
 10
0.0
 20
0.0
 30
0.0
 70
     1
  0
VERTEX
  8
Default
 10
2.63123046875
 20
-28.41767578125
 42
0.0
  0
VERTEX
  8
Default
 10
2.63123046875
 20
-27.226796875
 42
0.1305721972105
  0
VERTEX
  8
Default
 10
2.88541015625
 20
-26.83140625
 42
0.0481650304831
  0
VERTEX
  8
Default
 10
2.9865050451447
 20
-26.3229906589657
 42
0.027125672372
  0
VERTEX
  8
Default
 10
3.0125
 20
-25.8052734375
 42
0.024952449772
  0
VERTEX
  8
Default
 10
2.9956594175075
 20
-25.4267611939074
 42
0.0712402450755
  0
VERTEX
  8
Default
 10
2.91365234375
 20
-25.05685546875
 42
0.0029686148107
  0
VERTEX
  8
Default
 10
2.63123046875
 20
-24.6002734375
 42
0.0
  0
VERTEX
  8
Default
 10
2.63123046875
 20
-23.48470703125
 42
0.0
  0
VERTEX
  8
Default
 10
3.0125
 20
-23.48470703125
 42
-0.1256529449783
  0
VERTEX
  8
Default
 10
3.6109416563777
 20
-23.6228051301261
 42
-0.1411747776886
  0
VERTEX
  8
Default
 10
4.04333984375
 20
-24.05896484375
 42
-0.0557330009998
  0
VERTEX
  8
Default
 10
4.2145545011076
 20
-24.4642232512674
 42
-0.0468517619034
  0
VERTEX
  8
Default
 10
4.3403252037356
 20
-25.110257406764
 42
-0.026700879343
  0
VERTEX
  8
Default
 10
4.37283203125
 20
-25.7676171875
 42
-0.0517904288154
  0
VERTEX
  8
Default
 10
4.2819926913678
 20
-26.7342077036269
 42
-0.1019780248797
  0
VERTEX
  8
Default
 10
3.91154296875
 20
-27.6316015625
 42
-0.1062905171966
  0
VERTEX
  8
Default
 10
3.3439174417475
 20
-28.1427726695345
 42
-0.0745184674676
  0
SEQEND
  0
POLYLINE
  8
Default
 66
     1
 10
0.0
 20
0.0
 30
0.0
 70
     1
  0
VERTEX
  8
Default
 10
1.90634765625
 20
-26.5395703125
 42
0.0548191296176
  0
VERTEX
  8
Default
 10
2.052265625
 20
-27.076171875
 42
0.03741916456
  0
VERTEX
  8
Default
 10
2.1181640625
 20
-27.22208984375
 42
0.0
  0
VERTEX
  8
Default
 10
2.1181640625
 20
-28.394140625
 42
-0.0679732241907
  0
VERTEX
  8
Default
 10
1.590130252771
 20
-28.2405898463413
 42
-0.0858669005212
  0
VERTEX
  8
Default
 10
1.13439453125
 20
-27.9328515625
 42
-0.1119989904426
  0
VERTEX
  8
Default
 10
0.8088939394235
 20
-27.4334817510403
 42
-0.0893533838912
  0
VERTEX
  8
Default
 10
0.71076171875
 20
-26.84552734375
 42
-0.0192225210381
  0
VERTEX
  8
Default
 10
0.71076171875
 20
-26.60546875
 42
-0.005994337123
  0
VERTEX
  8
Default
 10
0.71546875
 20
-26.2006640625
 42
-0.0419922397284
  0
VERTEX
  8
Default
 10
0.77666015625
 20
-25.71583984375
 42
0.0
  0
VERTEX
  8
Default
 10
1.95341796875
 20
-25.68759765625
 42
0.0064609003392
  0
VERTEX
  8
Default
 10
1.89693359375
 20
-25.97001953125
 42
0.0473576479023
  0
VERTEX
  8
Default
 10
1.8733984375
 20
-26.2006640625
 42
0.0211753488975
  0
VERTEX
  8
Default
 10
1.8828125
 20
-26.3701171875
 42
-0.0032354055182
  0
SEQEND
  0
POLYLINE
  8
Default
 66
     1
 10
0.0
 20
0.0
 30
0.0
 70
     1
  0
VERTEX
  8
Default
 10
4.066875
 20
-21.20650390625
 42
0.0
  0
VERTEX
  8
Default
 10
4.066875
 20
-22.53859375
 42
0.0
  0
VERTEX
  8
Default
 10
2.63123046875
 20
-22.53859375
 42
0.0
  0
VERTEX
  8
Default
 10
2.63123046875
 20
-21.18767578125
 42
0.0
  0
SEQEND
  0
POLYLINE
  8
Default
 66
     1
 10
0.0
 20
0.0
 30
0.0
 70
     1
  0
VERTEX
  8
Default
 10
0.922578125
 20
-24.85916015625
 42
0.0
  0
VERTEX
  8
Default
 10
0.922578125
 20
-21.18767578125
 42
0.0
  0
VERTEX
  8
Default
 10
2.10404296875
 20
-21.20650390625
 42
0.0
  0
VERTEX
  8
Default
 10
2.1181640625
 20
-24.85916015625
 42
0.0
  0
SEQEND
  0
POLYLINE
  8
Default
 66
     1
 10
0.0
 20
0.0
 30
0.0
 70
     1
  0
VERTEX
  8
Default
 10
9.4234765625
 20
-23.14580078125
 42
0.0
  0
VERTEX
  8
Default
 10
8.13375
 20
-23.3199609375
 42
0.0163222194824
  0
VERTEX
  8
Default
 10
8.1619921875
 20
-22.84455078125
 42
0.0317661907045
  0
VERTEX
  8
Default
 10
8.152578125
 20
-22.670390625
 42
-0.0024687437357
  0
VERTEX
  8
Default
 10
8.1243359375
 20
-22.4350390625
 42
0.173417083425
  0
VERTEX
  8
Default
 10
7.99724609375
 20
-22.16673828125
 42
0.2510764522602
  0
VERTEX
  8
Default
 10
7.738359375
 20
-22.07259765625
 42
0.0
  0
VERTEX
  8
Default
 10
7.7289453125
 20
-21.13119140625
 42
-0.0266314939016
  0
VERTEX
  8
Default
 10
7.98783203125
 20
-21.1170703125
 42
-0.0863361920406
  0
VERTEX
  8
Default
 10
8.54326171875
 20
-21.20650390625
 42
-0.1521558124667
  0
VERTEX
  8
Default
 10
9.15517578125
 20
-21.64896484375
 42
-0.0810170833532
  0
VERTEX
  8
Default
 10
9.395234375
 20
-22.0961328125
 42
-0.0897318654999
  0
VERTEX
  8
Default
 10
9.48466796875
 20
-22.6233203125
 42
-0.0507740514132
  0
SEQEND
  0
POLYLINE
  8
Default
 66
     1
 10
0.0
 20
0.0
 30
0.0
 70
     1
  0
VERTEX
  8
Default
 10
9.59763671875
 20
-26.06416015625
 42
-0.0401148808163
  0
VERTEX
  8
Default
 10
9.5415888440832
 20
-26.8286464859113
 42
-0.0772659663518
  0
VERTEX
  8
Default
 10
9.31521484375
 20
-27.56099609375
 42
-0.1613732499864
  0
VERTEX
  8
Default
 10
8.6467271100292
 20
-28.2466211704934
 42
-0.0695835632939
  0
VERTEX
  8
Default
 10
8.1902341298184
 20
-28.4017815223826
 42
-0.0488311429357
  0
VERTEX
  8
Default
 10
7.7101171875
 20
-28.44591796875
 42
0.0
  0
VERTEX
  8
Default
 10
7.7289453125
 20
-27.28798828125
 42
0.1343623665445
  0
VERTEX
  8
Default
 10
7.9646559287933
 20
-27.2305723919435
 42
0.1534400958455
  0
VERTEX
  8
Default
 10
8.1243359375
 20
-27.0479296875
 42
0.0623499174401
  0
VERTEX
  8
Default
 10
8.1906391953363
 20
-26.8163049500568
 42
0.0403292239949
  0
VERTEX
  8
Default
 10
8.2373046875
 20
-26.097109375
 42
0.0
  0
VERTEX
  8
Default
 10
8.2373046875
 20
-25.8052734375
 42
0.0290236696807
  0
VERTEX
  8
Default
 10
8.218477463876
 20
-25.4356796277561
 42
0.0327443397054
  0
VERTEX
  8
Default
 10
8.185552900007
 20
-25.2525402402238
 42
0.0811080206507
  0
VERTEX
  8
Default
 10
8.114921875
 20
-25.080390625
 42
0.2243856126137
  0
VERTEX
  8
Default
 10
7.7289453125
 20
-24.84974609375
 42
0.0
  0
VERTEX
  8
Default
 10
7.7289453125
 20
-23.88951171875
 42
-0.0675009581615
  0
VERTEX
  8
Default
 10
8.11021484375
 20
-23.837734375
 42
-0.1029749427405
  0
VERTEX
  8
Default
 10
8.6529548082125
 20
-23.9435470562434
 42
-0.1103045880154
  0
VERTEX
  8
Default
 10
9.09869140625
 20
-24.27078125
 42
-0.0732965077535
  0
VERTEX
  8
Default
 10
9.3536887377708
 20
-24.6725713008139
 42
-0.067884572148
  0
VERTEX
  8
Default
 10
9.5477662185293
 20
-25.3557259301743
 42
-0.0381904005664
  0
SEQEND
  0
POLYLINE
  8
Default
 66
     1
 10
0.0
 20
0.0
 30
0.0
 70
     1
  0
VERTEX
  8
Default
 10
7.23
 20
-28.3753125
 42
-0.0975582753245
  0
VERTEX
  8
Default
 10
6.6755249275678
 20
-28.1100469254375
 42
-0.1129685262445
  0
VERTEX
  8
Default
 10
6.28388671875
 20
-27.63630859375
 42
-0.0586571716824
  0
VERTEX
  8
Default
 10
6.0725740403272
 20
-27.0456004332474
 42
-0.0389761126099
  0
VERTEX
  8
Default
 10
5.9324348360724
 20
-26.1173614917438
 42
-0.0200208891823
  0
VERTEX
  8
Default
 10
5.89791015625
 20
-25.17923828125
 42
-0.0196221067251
  0
VERTEX
  8
Default
 10
5.9457271610791
 20
-23.8422866980811
 42
-0.0413747270687
  0
VERTEX
  8
Default
 10
6.1473828125
 20
-22.519765625
 42
-0.0414949579456
  0
VERTEX
  8
Default
 10
6.3380328895261
 20
-21.9487976622481
 42
-0.0976943301229
  0
VERTEX
  8
Default
 10
6.66986328125
 20
-21.4465625
 42
-0.19855857592
  0
VERTEX
  8
Default
 10
7.13115234375
 20
-21.24416015625
 42
-0.0596859993496
  0
VERTEX
  8
Default
 10
7.19705078125
 20
-21.25357421875
 42
-0.071694069806
  0
VERTEX
  8
Default
 10
7.23
 20
-21.26298828125
 42
0.0
  0
SEQEND
  0
POLYLINE
  8
Default
 66
     1
 10
0.0
 20
0.0
 30
0.0
 70
     1
  0
VERTEX
  8
Default
 10
10.995625
 20
-22.5668359375
 42
0.0
  0
VERTEX
  8
Default
 10
10.995625
 20
-21.22533203125
 42
0.0
  0
VERTEX
  8
Default
 10
14.47412109375
 20
-21.22533203125
 42
0.0
  0
VERTEX
  8
Default
 10
14.47412109375
 20
-22.557421875
 42
0.0
  0
SEQEND
  0
POLYLINE
  8
Default
 66
     1
 10
0.0
 20
0.0
 30
0.0
 70
     1
  0
VERTEX
  8
Default
 10
14.2434765625
 20
-23.13638671875
 42
0.0285863794274
  0
VERTEX
  8
Default
 10
13.77748046875
 20
-24.49671875
 42
0.0275362967281
  0
VERTEX
  8
Default
 10
13.499765625
 20
-25.833515625
 42
0.0095838172099
  0
VERTEX
  8
Default
 10
13.3773828125
 20
-26.7466796875
 42
0.0222476318801
  0
VERTEX
  8
Default
 10
13.3208984375
 20
-28.3
 42
0.0
  0
VERTEX
  8
Default
 10
11.93232421875
 20
-28.3
 42
-0.0224633871808
  0
VERTEX
  8
Default
 10
11.98880859375
 20
-26.75138671875
 42
-0.0090392415166
  0
VERTEX
  8
Default
 10
12.1158984375
 20
-25.7864453125
 42
-0.0368853720937
  0
VERTEX
  8
Default
 10
12.3289407672156
 20
-24.8662905892764
 42
-0.0249790690681
  0
VERTEX
  8
Default
 10
12.6525
 20
-23.9789453125
 42
-0.0216831360678
  0
VERTEX
  8
Default
 10
13.047890625
 20
-23.13638671875
 42
0.0
  0
SEQEND
  0
POLYLINE
  8
Default
 66
     1
 10
0.0
 20
0.0
 30
0.0
 70
     1
  0
VERTEX
  8
Default
 10
17.69373046875
 20
-28.40826171875
 42
-0.085206012952
  0
VERTEX
  8
Default
 10
17.0726047566091
 20
-28.2318509142927
 42
-0.104318276475
  0
VERTEX
  8
Default
 10
16.56404296875
 20
-27.83400390625
 42
-0.1086701880808
  0
VERTEX
  8
Default
 10
16.2084919457086
 20
-27.1495201488721
 42
-0.0684800718203
  0
VERTEX
  8
Default
 10
16.11216796875
 20
-26.38423828125
 42
-0.0242755066993
  0
VERTEX
  8
Default
 10
16.1336310749645
 20
-25.8976673266912
 42
-0.0523835112319
  0
VERTEX
  8
Default
 10
16.22513671875
 20
-25.419296875
 42
-0.1246021144119
  0
VERTEX
  8
Default
 10
16.5563234181551
 20
-24.879721085313
 42
-0.1277664335466
  0
VERTEX
  8
Default
 10
17.114765625
 20
-24.5814453125
 42
-0.0929262947132
  0
VERTEX
  8
Default
 10
16.6921808885909
 20
-24.3601650582153
 42
-0.1151982029025
  0
VERTEX
  8
Default
 10
16.399296875
 20
-23.98365234375
 42
-0.0693945246634
  0
VERTEX
  8
Default
 10
16.2714388272471
 20
-23.5306618199658
 42
-0.0373276135029
  0
VERTEX
  8
Default
 10
16.2392578125
 20
-23.06107421875
 42
-0.0621770524295
  0
VERTEX
  8
Default
 10
16.3213367619276
 20
-22.3372705804654
 42
-0.109663340495
  0
VERTEX
  8
Default
 10
16.63935546875
 20
-21.6819140625
 42
-0.1095044524272
  0
VERTEX
  8
Default
 10
17.1123364091495
 20
-21.3027725167972
 42
-0.0816724522633
  0
VERTEX
  8
Default
 10
17.69373046875
 20
-21.13119140625
 42
0.0
  0
VERTEX
  8
Default
 10
17.69373046875
 20
-22.37384765625
 42
0.1350709623533
  0
VERTEX
  8
Default
 10
17.566640625
 20
-22.61390625
 42
0.0560599331965
  0
VERTEX
  8
Default
 10
17.51015625
 20
-23.23052734375
 42
0.0564510784283
  0
VERTEX
  8
Default
 10
17.566640625
 20
-23.837734375
 42
0.1258485590746
  0
VERTEX
  8
Default
 10
17.69373046875
 20
-24.0919140625
 42
0.0
  0
VERTEX
  8
Default
 10
17.69373046875
 20
-25.2592578125
 42
0.0797343568862
  0
VERTEX
  8
Default
 10
17.63724609375
 20
-25.3345703125
 42
0.0781283692716
  0
VERTEX
  8
Default
 10
17.531676557051
 20
-25.7709958139696
 42
0.0269832082268
  0
VERTEX
  8
Default
 10
17.51015625
 20
-26.2194921875
 42
0.0117064902338
  0
VERTEX
  8
Default
 10
17.52427734375
 20
-26.5960546875
 42
0.0835241167023
  0
VERTEX
  8
Default
 10
17.69373046875
 20
-27.245625
 42
0.0
  0
SEQEND
  0
POLYLINE
  8
Default
 66
     1
 10
0.0
 20
0.0
 30
0.0
 70
     1
  0
VERTEX
  8
Default
 10
18.18326171875
 20
-27.23150390625
 42
0.1233583676829
  0
VERTEX
  8
Default
 10
18.33388671875
 20
-26.9349609375
 42
0.0694076294453
  0
VERTEX
  8
Default
 10
18.4233203125
 20
-26.2194921875
 42
0.0296096782241
  0
VERTEX
  8
Default
 10
18.4013172151724
 20
-25.8093335691328
 42
0.0667674901551
  0
VERTEX
  8
Default
 10
18.30564453125
 20
-25.4098828125
 42
0.0704650962633
  0
VERTEX
  8
Default
 10
18.18326171875
 20
-25.22630859375
 42
0.0
  0
VERTEX
  8
Default
 10
18.18326171875
 20
-24.1107421875
 42
0.1508540478439
  0
VERTEX
  8
Default
 10
18.23974609375
 20
-24.05896484375
 42
0.083737675346
  0
VERTEX
  8
Default
 10
18.3194336047108
 20
-23.8619804519727
 42
0.0560980055424
  0
VERTEX
  8
Default
 10
18.37625
 20
-23.23052734375
 42
0.0527337919104
  0
VERTEX
  8
Default
 10
18.3291796875
 20
-22.64685546875
 42
0.1308096306058
  0
VERTEX
  8
Default
 10
18.18326171875
 20
-22.34560546875
 42
0.0
  0
VERTEX
  8
Default
 10
18.18326171875
 20
-21.1170703125
 42
-0.0927795806185
  0
VERTEX
  8
Default
 10
18.7774122328535
 20
-21.2868765676777
 42
-0.1046054793975
  0
VERTEX
  8
Default
 10
19.25646484375
 20
-21.67720703125
 42
-0.1105071319937
  0
VERTEX
  8
Default
 10
19.5745334021428
 20
-22.3276070371962
 42
-0.0625450140277
  0
VERTEX
  8
Default
 10
19.6565625
 20
-23.046953125
 42
-0.0354807145214
  0
VERTEX
  8
Default
 10
19.6280840968552
 20
-23.4793120261096
 42
-0.0596715092704
  0
VERTEX
  8
Default
 10
19.52005859375
 20
-23.89892578125
 42
-0.1107676640392
  0
VERTEX
  8
Default
 10
19.2331768051268
 20
-24.3296433393695
 42
-0.1178510047534
  0
VERTEX
  8
Default
 10
18.7810546875
 20
-24.5814453125
 42
-0.2623796881716
  0
VERTEX
  8
Default
 10
19.637734375
 20
-25.343984375
 42
-0.0597957848028
  0
VERTEX
  8
Default
 10
19.754530072851
 20
-25.8341358847424
 42
-0.0315046922082
  0
VERTEX
  8
Default
 10
19.78365234375
 20
-26.33716796875
 42
-0.085309659579
  0
VERTEX
  8
Default
 10
19.6432666980925
 20
-27.2480571603974
 42
-0.1412680227969
  0
VERTEX
  8
Default
 10
19.11525390625
 20
-28.00345703125
 42
-0.071721445951
  0
VERTEX
  8
Default
 10
18.6744610915414
 20
-28.2562171226886
 42
-0.0326060414354
  0
VERTEX
  8
Default
 10
18.19267578125
 20
-28.41767578125
 42
0.0
  0
SEQEND
  0
POLYLINE
  8
Default
 66
     1
 10
0.0
 20
0.0
 30
0.0
 70
     1
  0
VERTEX
  8
Default
 10
22.895
 20
-25.64994140625
 42
-0.0300733898786
  0
VERTEX
  8
Default
 10
22.650234375
 20
-25.69701171875
 42
-0.0275136556827
  0
VERTEX
  8
Default
 10
22.46666015625
 20
-25.70642578125
 42
-0.1028726457739
  0
VERTEX
  8
Default
 10
21.9382425220318
 20
-25.6040902736863
 42
-0.114003139572
  0
VERTEX
  8
Default
 10
21.50642578125
 20
-25.28279296875
 42
-0.0750111348557
  0
VERTEX
  8
Default
 10
21.2535556827901
 20
-24.8752132381893
 42
-0.0663536391226
  0
VERTEX
  8
Default
 10
21.0648804494457
 20
-24.1847519327925
 42
-0.0365022340649
  0
VERTEX
  8
Default
 10
21.01689453125
 20
-23.4705859375
 42
-0.051303164184
  0
VERTEX
  8
Default
 10
21.1026989858525
 20
-22.5366410615147
 42
-0.0466021952423
  0
VERTEX
  8
Default
 10
21.239968986494
 20
-22.0848729774809
 42
-0.0714886787342
  0
VERTEX
  8
Default
 10
21.47818359375
 20
-21.67720703125
 42
-0.1395061029507
  0
VERTEX
  8
Default
 10
22.1205525537021
 20
-21.2281527279504
 42
-0.0859592749888
  0
VERTEX
  8
Default
 10
22.895
 20
-21.10765625
 42
0.0
  0
VERTEX
  8
Default
 10
22.895
 20
-22.2467578125
 42
0.1326772089291
  0
VERTEX
  8
Default
 10
22.6535624445244
 20
-22.3045825144197
 42
0.1571410661069
  0
VERTEX
  8
Default
 10
22.4901953125
 20
-22.4915234375
 42
0.0623499174402
  0
VERTEX
  8
Default
 10
22.4238920546637
 20
-22.7231481749432
 42
0.0403292239949
  0
VERTEX
  8
Default
 10
22.3772265625
 20
-23.44234375
 42
0.0209972281578
  0
VERTEX
  8
Default
 10
22.3954227453183
 20
-23.934430058549
 42
0.0231675086472
  0
VERTEX
  8
Default
 10
22.4269050741247
 20
-24.1793308938488
 42
0.0587778654887
  0
VERTEX
  8
Default
 10
22.49490234375
 20
-24.41669921875
 42
0.3219477845736
  0
VERTEX
  8
Default
 10
22.895
 20
-24.6755859375
 42
0.0
  0
SEQEND
  0
POLYLINE
  8
Default
 66
     1
 10
0.0
 20
0.0
 30
0.0
 70
     1
  0
VERTEX
  8
Default
 10
23.38453125
 20
-21.15943359375
 42
-0.0796843015207
  0
VERTEX
  8
Default
 10
23.9204170409319
 20
-21.3988214601143
 42
-0.1116741012941
  0
VERTEX
  8
Default
 10
24.3259375
 20
-21.823125
 42
-0.0657001814754
  0
VERTEX
  8
Default
 10
24.5434079173724
 20
-22.3422834178451
 42
-0.0453951425125
  0
VERTEX
  8
Default
 10
24.689899233961
 20
-23.1710533117728
 42
-0.0234175774247
  0
VERTEX
  8
Default
 10
24.72603515625
 20
-24.01189453125
 42
-0.005386090793
  0
VERTEX
  8
Default
 10
24.7172101073957
 20
-24.9325993064066
 42
-0.0152385688353
  0
VERTEX
  8
Default
 10
24.6742578125
 20
-25.85234375
 42
-0.0261683839568
  0
VERTEX
  8
Default
 10
24.5676605091747
 20
-26.7065534507498
 42
-0.0592346379722
  0
VERTEX
  8
Default
 10
24.3259375
 20
-27.53275390625
 42
-0.1060997393687
  0
VERTEX
  8
Default
 10
23.9742562358191
 20
-28.0435767141408
 42
-0.1891183801352
  0
VERTEX
  8
Default
 10
23.3939453125
 20
-28.26234375
 42
0.0
  0
SEQEND
  0
POLYLINE
  8
Default
 66
     1
 10
0.0
 20
0.0
 30
0.0
 70
     1
  0
VERTEX
  8
Default
 10
22.895
 20
-28.40826171875
 42
-0.0263325948334
  0
VERTEX
  8
Default
 10
22.4411176205378
 20
-28.3864815994156
 42
-0.0547006181588
  0
VERTEX
  8
Default
 10
21.99595703125
 20
-28.29529296875
 42
-0.0730287555399
  0
VERTEX
  8
Default
 10
21.6645652011868
 20
-28.1204484579843
 42
-0.0983999020162
  0
VERTEX
  8
Default
 10
21.41228515625
 20
-27.84341796875
 42
-0.0649029668602
  0
VERTEX
  8
Default
 10
21.23341796875
 20
-27.4056640625
 42
-0.0655349245179
  0
VERTEX
  8
Default
 10
21.1628125
 20
-26.79845703125
 42
-0.0314190465662
  0
VERTEX
  8
Default
 10
21.1910546875
 20
-26.39365234375
 42
0.0
  0
VERTEX
  8
Default
 10
22.48548828125
 20
-26.2194921875
 42
0.0021827344867
  0
VERTEX
  8
Default
 10
22.4525390625
 20
-26.5207421875
 42
0.0167030590247
  0
VERTEX
  8
Default
 10
22.443125
 20
-26.76080078125
 42
0.0694448265001
  0
VERTEX
  8
Default
 10
22.4901953125
 20
-27.07146484375
 42
0.1007512167157
  0
VERTEX
  8
Default
 10
22.612578125
 20
-27.3209375
 42
0.2234379622822
  0
VERTEX
  8
Default
 10
22.895
 20
-27.452734375
 42
0.0
  0
SEQEND
  0
ENDSEC
  0
EOF
