  0
SECTION
  2
HEADER
  9
$ACADVER
  1
AC1009
  9
$EXTMIN
 10
0.08550694
 20
2.32297586
 30
0.0
  9
$EXTMAX
 10
9.89419614
 20
7.74014402
 30
0.0
  0
ENDSEC
  0
SECTION
  2
TABLES
  0
TABLE
  2
LAYER
 70
1
 0
LAYER
 2
Default_Layer
 70
0
 62
1
 6
CONTINUOUS
 0
ENDTAB
 0
ENDSEC
  0
SECTION
  2
ENTITIES
  0
POLYLINE
  8
Default_Layer
 66
   1
 39
0.000000
 70
    1
  0
VERTEX
  8
0
 10
0.23106266
 20
4.77697794
  0
VERTEX
  8
0
 10
0.22994543
 20
4.68995603
  0
VERTEX
  8
0
 10
0.26462230
 20
4.61569150
  0
VERTEX
  8
0
 10
0.32746173
 20
4.55623998
  0
VERTEX
  8
0
 10
0.41083216
 20
4.51365710
  0
VERTEX
  8
0
 10
0.50710207
 20
4.48999849
  0
VERTEX
  8
0
 10
0.60863989
 20
4.48731978
  0
VERTEX
  8
0
 10
0.70781407
 20
4.50767661
  0
VERTEX
  8
0
 10
0.79699308
 20
4.55312459
  0
VERTEX
  8
0
 10
0.88173970
 20
4.64136798
  0
VERTEX
  8
0
 10
0.93555873
 20
4.75406721
  0
VERTEX
  8
0
 10
0.96716677
 20
4.88540526
  0
VERTEX
  8
0
 10
0.98528043
 20
5.02956507
  0
VERTEX
  8
0
 10
1.01589103
 20
5.33308188
  0
VERTEX
  8
0
 10
1.04582119
 20
5.48080478
  0
VERTEX
  8
0
 10
1.09712338
 20
5.61808131
  0
VERTEX
  8
0
 10
1.16151782
 20
5.71765639
  0
VERTEX
  8
0
 10
1.25028109
 20
5.80425903
  0
VERTEX
  8
0
 10
1.36160967
 20
5.86960175
  0
VERTEX
  8
0
 10
1.49370005
 20
5.90539706
  0
VERTEX
  8
0
 10
1.60269735
 20
5.90052137
  0
VERTEX
  8
0
 10
1.69428105
 20
5.86317217
  0
VERTEX
  8
0
 10
1.76353800
 20
5.80320100
  0
VERTEX
  8
0
 10
1.80555504
 20
5.73045943
  0
VERTEX
  8
0
 10
1.81541901
 20
5.65479902
  0
VERTEX
  8
0
 10
1.78821676
 20
5.58607134
  0
VERTEX
  8
0
 10
1.71903513
 20
5.53412794
  0
VERTEX
  8
0
 10
1.60296096
 20
5.50882039
  0
VERTEX
  8
0
 10
1.62226184
 20
5.59512369
  0
VERTEX
  8
0
 10
1.62801247
 20
5.71023318
  0
VERTEX
  8
0
 10
1.61648407
 20
5.76483212
  0
VERTEX
  8
0
 10
1.59038126
 20
5.81012283
  0
VERTEX
  8
0
 10
1.54597508
 20
5.84060208
  0
VERTEX
  8
0
 10
1.47953659
 20
5.85076660
  0
VERTEX
  8
0
 10
1.43369376
 20
5.84141061
  0
VERTEX
  8
0
 10
1.39164676
 20
5.81785268
  0
VERTEX
  8
0
 10
1.32000877
 20
5.73943161
  0
VERTEX
  8
0
 10
1.26675973
 20
5.63810460
  0
VERTEX
  8
0
 10
1.23403675
 20
5.53647285
  0
VERTEX
  8
0
 10
1.20556781
 20
5.35497935
  0
VERTEX
  8
0
 10
1.19052775
 20
5.16116274
  0
VERTEX
  8
0
 10
1.17667146
 20
4.97407995
  0
VERTEX
  8
0
 10
1.15175384
 20
4.81278788
  0
VERTEX
  8
0
 10
1.05665638
 20
4.64889651
  0
VERTEX
  8
0
 10
0.98512804
 20
4.58170255
  0
VERTEX
  8
0
 10
0.89398165
 20
4.52396836
  0
VERTEX
  8
0
 10
0.78835849
 20
4.47835918
  0
VERTEX
  8
0
 10
0.67339983
 20
4.44754027
  0
VERTEX
  8
0
 10
0.55424697
 20
4.43417686
  0
VERTEX
  8
0
 10
0.43604120
 20
4.44093421
  0
VERTEX
  8
0
 10
0.32392379
 20
4.47047755
  0
VERTEX
  8
0
 10
0.22303604
 20
4.52547214
  0
VERTEX
  8
0
 10
0.16139155
 20
4.59284966
  0
VERTEX
  8
0
 10
0.10846380
 20
4.69581736
  0
VERTEX
  8
0
 10
0.08550694
 20
4.81612886
  0
VERTEX
  8
0
 10
0.09190952
 20
4.87708655
  0
VERTEX
  8
0
 10
0.11377512
 20
4.93553780
  0
VERTEX
  8
0
 10
0.17185960
 20
4.99345616
  0
VERTEX
  8
0
 10
0.25600169
 20
5.02406180
  0
VERTEX
  8
0
 10
0.29866777
 20
5.02271586
  0
VERTEX
  8
0
 10
0.33683639
 20
5.00685395
  0
VERTEX
  8
0
 10
0.36683691
 20
4.97391348
  0
VERTEX
  8
0
 10
0.38499871
 20
4.92133185
  0
VERTEX
  8
0
 10
0.38250568
 20
4.89472572
  0
VERTEX
  8
0
 10
0.36016584
 20
4.86141140
  0
VERTEX
  8
0
 10
0.32810999
 20
4.83775924
  0
VERTEX
  8
0
 10
0.25029187
 20
4.80412055
  0
VERTEX
  8
0
 10
0.23106266
 20
4.77697794
  0
SEQEND
  0
POLYLINE
  8
Default_Layer
 66
   1
 39
0.000000
 70
    1
  0
VERTEX
  8
0
 10
8.37270108
 20
4.49513902
  0
VERTEX
  8
0
 10
8.35388598
 20
4.54418124
  0
VERTEX
  8
0
 10
8.34948540
 20
4.60775505
  0
VERTEX
  8
0
 10
8.17243569
 20
4.49102192
  0
VERTEX
  8
0
 10
8.06706579
 20
4.44955445
  0
VERTEX
  8
0
 10
7.92593073
 20
4.44386367
  0
VERTEX
  8
0
 10
7.88401213
 20
4.49044216
  0
VERTEX
  8
0
 10
7.85781127
 20
4.55312459
  0
VERTEX
  8
0
 10
7.73998650
 20
4.48225309
  0
VERTEX
  8
0
 10
7.58466152
 20
4.44736067
  0
VERTEX
  8
0
 10
7.51108323
 20
4.45401060
  0
VERTEX
  8
0
 10
7.44990601
 20
4.48238007
  0
VERTEX
  8
0
 10
7.40838856
 20
4.53671069
  0
VERTEX
  8
0
 10
7.39378960
 20
4.62124405
  0
VERTEX
  8
0
 10
7.29559474
 20
4.56560087
  0
VERTEX
  8
0
 10
7.20635087
 20
4.50115392
  0
VERTEX
  8
0
 10
7.10156545
 20
4.45240694
  0
VERTEX
  8
0
 10
6.95674593
 20
4.44386367
  0
VERTEX
  8
0
 10
6.90314168
 20
4.49284590
  0
VERTEX
  8
0
 10
6.86097401
 20
4.55312459
  0
VERTEX
  8
0
 10
6.78309062
 20
4.50419748
  0
VERTEX
  8
0
 10
6.69137245
 20
4.48005982
  0
VERTEX
  8
0
 10
6.59559625
 20
4.48554144
  0
VERTEX
  8
0
 10
6.50553880
 20
4.52547214
  0
VERTEX
  8
0
 10
6.47302795
 20
4.58917526
  0
VERTEX
  8
0
 10
6.46507180
 20
4.66238551
  0
VERTEX
  8
0
 10
6.35352134
 20
4.60976133
  0
VERTEX
  8
0
 10
6.26293484
 20
4.53636375
  0
VERTEX
  8
0
 10
6.16752815
 20
4.46797433
  0
VERTEX
  8
0
 10
6.04151713
 20
4.43037467
  0
VERTEX
  8
0
 10
5.96005645
 20
4.36542793
  0
VERTEX
  8
0
 10
5.89498310
 20
4.28846238
  0
VERTEX
  8
0
 10
5.83675298
 20
4.21320097
  0
VERTEX
  8
0
 10
5.77582198
 20
4.15336662
  0
VERTEX
  8
0
 10
5.66067586
 20
4.04134907
  0
VERTEX
  8
0
 10
5.53635400
 20
3.95218954
  0
VERTEX
  8
0
 10
5.33505699
 20
3.90533338
  0
VERTEX
  8
0
 10
5.11279933
 20
3.89755908
  0
VERTEX
  8
0
 10
5.03580860
 20
3.90459687
  0
VERTEX
  8
0
 10
4.96239696
 20
3.92453709
  0
VERTEX
  8
0
 10
4.90173538
 20
3.95954350
  0
VERTEX
  8
0
 10
4.84701401
 20
4.01196010
  0
VERTEX
  8
0
 10
4.80901127
 20
4.08220877
  0
VERTEX
  8
0
 10
4.79850558
 20
4.17071138
  0
VERTEX
  8
0
 10
4.81113349
 20
4.22407548
  0
VERTEX
  8
0
 10
4.83981097
 20
4.27289680
  0
VERTEX
  8
0
 10
4.93625346
 20
4.34817293
  0
VERTEX
  8
0
 10
4.99948787
 20
4.37025863
  0
VERTEX
  8
0
 10
5.06971067
 20
4.37906337
  0
VERTEX
  8
0
 10
5.14465656
 20
4.37240260
  0
VERTEX
  8
0
 10
5.22206025
 20
4.34809176
  0
VERTEX
  8
0
 10
5.16110510
 20
4.35014530
  0
VERTEX
  8
0
 10
5.10420382
 20
4.33685322
  0
VERTEX
  8
0
 10
5.01053724
 20
4.27108668
  0
VERTEX
  8
0
 10
4.95700927
 20
4.16450110
  0
VERTEX
  8
0
 10
4.95028126
 20
4.10018523
  0
VERTEX
  8
0
 10
4.95956868
 20
4.03080546
  0
VERTEX
  8
0
 10
4.97594486
 20
4.00097002
  0
VERTEX
  8
0
 10
5.00353841
 20
3.97916755
  0
VERTEX
  8
0
 10
5.08635936
 20
3.95647616
  0
VERTEX
  8
0
 10
5.20067865
 20
3.95426549
  0
VERTEX
  8
0
 10
5.32262054
 20
3.96979134
  0
VERTEX
  8
0
 10
5.42830927
 20
4.00030949
  0
VERTEX
  8
0
 10
5.48965903
 20
4.03839518
  0
VERTEX
  8
0
 10
5.54410085
 20
4.08795876
  0
VERTEX
  8
0
 10
5.69154538
 20
4.25250226
  0
VERTEX
  8
0
 10
5.77004465
 20
4.37570430
  0
VERTEX
  8
0
 10
5.80950629
 20
4.49849413
  0
VERTEX
  8
0
 10
5.73494366
 20
4.46673582
  0
VERTEX
  8
0
 10
5.64561492
 20
4.45735267
  0
VERTEX
  8
0
 10
5.58246124
 20
4.49154306
  0
VERTEX
  8
0
 10
5.52673068
 20
4.53948206
  0
VERTEX
  8
0
 10
5.49284164
 20
4.60098682
  0
VERTEX
  8
0
 10
5.49521254
 20
4.67587451
  0
VERTEX
  8
0
 10
5.27669071
 20
4.51527270
  0
VERTEX
  8
0
 10
5.23568548
 20
4.48606353
  0
VERTEX
  8
0
 10
5.16742979
 20
4.47084168
  0
VERTEX
  8
0
 10
5.08539816
 20
4.48750485
  0
VERTEX
  8
0
 10
5.03051642
 20
4.52547214
  0
VERTEX
  8
0
 10
4.99586519
 20
4.62190819
  0
VERTEX
  8
0
 10
4.99881947
 20
4.70643311
  0
VERTEX
  8
0
 10
5.02894710
 20
4.78220980
  0
VERTEX
  8
0
 10
5.07581593
 20
4.85240114
  0
VERTEX
  8
0
 10
5.17804860
 20
4.98867928
  0
VERTEX
  8
0
 10
5.21254813
 20
5.06109186
  0
VERTEX
  8
0
 10
5.22206025
 20
5.14057063
  0
VERTEX
  8
0
 10
5.21541665
 20
5.15692117
  0
VERTEX
  8
0
 10
5.19440779
 20
5.16754864
  0
VERTEX
  8
0
 10
5.10726518
 20
5.14783223
  0
VERTEX
  8
0
 10
5.00586761
 20
5.09393178
  0
VERTEX
  8
0
 10
5.00472603
 20
5.09352672
  0
VERTEX
  8
0
 10
4.57998374
 20
4.49849413
  0
VERTEX
  8
0
 10
4.50596357
 20
4.51310092
  0
VERTEX
  8
0
 10
4.41609237
 20
4.51198313
  0
VERTEX
  8
0
 10
4.40802686
 20
4.53550018
  0
VERTEX
  8
0
 10
4.41609237
 20
4.56661359
  0
VERTEX
  8
0
 10
4.33519915
 20
4.52725833
  0
VERTEX
  8
0
 10
4.24623789
 20
4.49616361
  0
VERTEX
  8
0
 10
4.15351369
 20
4.49000851
  0
VERTEX
  8
0
 10
4.06133161
 20
4.52547214
  0
VERTEX
  8
0
 10
4.04341011
 20
4.57838186
  0
VERTEX
  8
0
 10
4.04716816
 20
4.63473305
  0
VERTEX
  8
0
 10
3.96266005
 20
4.59568661
  0
VERTEX
  8
0
 10
3.86708512
 20
4.52812994
  0
VERTEX
  8
0
 10
3.81259992
 20
4.49963661
  0
VERTEX
  8
0
 10
3.75229079
 20
4.48318734
  0
VERTEX
  8
0
 10
3.68513867
 20
4.48517267
  0
VERTEX
  8
0
 10
3.61012449
 20
4.51198313
  0
VERTEX
  8
0
 10
3.58314648
 20
4.53963559
  0
VERTEX
  8
0
 10
3.57288751
 20
4.61280134
  0
VERTEX
  8
0
 10
3.58329964
 20
4.68123903
  0
VERTEX
  8
0
 10
3.64752502
 20
4.80903201
  0
VERTEX
  8
0
 10
3.73859823
 20
4.93321813
  0
VERTEX
  8
0
 10
3.81929488
 20
5.06400097
  0
VERTEX
  8
0
 10
3.82103495
 20
5.08947822
  0
VERTEX
  8
0
 10
3.80752253
 20
5.11293317
  0
VERTEX
  8
0
 10
3.74744140
 20
5.14428445
  0
VERTEX
  8
0
 10
3.68566462
 20
5.12591987
  0
VERTEX
  8
0
 10
3.56082416
 20
5.01058201
  0
VERTEX
  8
0
 10
3.18724427
 20
4.51198313
  0
VERTEX
  8
0
 10
3.12441857
 20
4.51458113
  0
VERTEX
  8
0
 10
3.05890779
 20
4.50190909
  0
VERTEX
  8
0
 10
3.01305153
 20
4.50118719
  0
VERTEX
  8
0
 10
3.00447499
 20
4.51381384
  0
VERTEX
  8
0
 10
3.00918944
 20
4.53963559
  0
VERTEX
  8
0
 10
2.85480773
 20
4.46854250
  0
VERTEX
  8
0
 10
2.76919633
 20
4.44994421
  0
VERTEX
  8
0
 10
2.68762344
 20
4.46398998
  0
VERTEX
  8
0
 10
2.65353487
 20
4.50525315
  0
VERTEX
  8
0
 10
2.63989277
 20
4.56523110
  0
VERTEX
  8
0
 10
2.63677316
 20
4.64068240
  0
VERTEX
  8
0
 10
2.66312868
 20
4.71453025
  0
VERTEX
  8
0
 10
2.70905914
 20
4.76885111
  0
VERTEX
  8
0
 10
2.81753489
 20
4.88907936
  0
VERTEX
  8
0
 10
2.87779833
 20
4.96827736
  0
VERTEX
  8
0
 10
2.91515241
 20
5.04083249
  0
VERTEX
  8
0
 10
2.91191747
 20
5.08160256
  0
VERTEX
  8
0
 10
2.87753010
 20
5.10725784
  0
VERTEX
  8
0
 10
2.81404171
 20
5.10408515
  0
VERTEX
  8
0
 10
2.72350368
 20
5.05837133
  0
VERTEX
  8
0
 10
2.61328723
 20
4.94902680
  0
VERTEX
  8
0
 10
2.41230978
 20
4.74732764
  0
VERTEX
  8
0
 10
2.32326493
 20
4.63322753
  0
VERTEX
  8
0
 10
2.25852647
 20
4.49849413
  0
VERTEX
  8
0
 10
2.24835192
 20
4.46476061
  0
VERTEX
  8
0
 10
2.21738501
 20
4.47084168
  0
VERTEX
  8
0
 10
2.09306859
 20
4.46973886
  0
VERTEX
  8
0
 10
2.04123273
 20
4.47939915
  0
VERTEX
  8
0
 10
2.01235218
 20
4.51198313
  0
VERTEX
  8
0
 10
1.91000253
 20
4.46759435
  0
VERTEX
  8
0
 10
1.79524391
 20
4.45350123
  0
VERTEX
  8
0
 10
1.74540418
 20
4.46602195
  0
VERTEX
  8
0
 10
1.70709374
 20
4.49596429
  0
VERTEX
  8
0
 10
1.68518976
 20
4.54661080
  0
VERTEX
  8
0
 10
1.68456943
 20
4.62124405
  0
VERTEX
  8
0
 10
1.49936066
 20
4.49667500
  0
VERTEX
  8
0
 10
1.39062774
 20
4.45577855
  0
VERTEX
  8
0
 10
1.26101476
 20
4.45735267
  0
VERTEX
  8
0
 10
1.22339422
 20
4.51231259
  0
VERTEX
  8
0
 10
1.20979528
 20
4.57529318
  0
VERTEX
  8
0
 10
1.21553259
 20
4.64345346
  0
VERTEX
  8
0
 10
1.23592080
 20
4.71395245
  0
VERTEX
  8
0
 10
1.30190853
 20
4.85060262
  0
VERTEX
  8
0
 10
1.37027568
 20
4.96251581
  0
VERTEX
  8
0
 10
1.48180616
 20
5.14087615
  0
VERTEX
  8
0
 10
1.54078748
 20
5.20779782
  0
VERTEX
  8
0
 10
1.59645859
 20
5.20670893
  0
VERTEX
  8
0
 10
1.69805843
 20
5.18103764
  0
VERTEX
  8
0
 10
1.68535413
 20
5.09620813
  0
VERTEX
  8
0
 10
1.64334069
 20
5.02117657
  0
VERTEX
  8
0
 10
1.53416705
 20
4.88090734
  0
VERTEX
  8
0
 10
1.44636920
 20
4.72762175
  0
VERTEX
  8
0
 10
1.37027568
 20
4.56661359
  0
VERTEX
  8
0
 10
1.37034530
 20
4.52599528
  0
VERTEX
  8
0
 10
1.39792813
 20
4.51198313
  0
VERTEX
  8
0
 10
1.50965376
 20
4.55388446
  0
VERTEX
  8
0
 10
1.60371049
 20
4.61726440
  0
VERTEX
  8
0
 10
1.68394382
 20
4.69734515
  0
VERTEX
  8
0
 10
1.75419927
 20
4.78934889
  0
VERTEX
  8
0
 10
1.88015849
 20
4.99001413
  0
VERTEX
  8
0
 10
2.01235218
 20
5.18103764
  0
VERTEX
  8
0
 10
2.10278403
 20
5.18284253
  0
VERTEX
  8
0
 10
2.14598793
 20
5.18167762
  0
VERTEX
  8
0
 10
2.17624356
 20
5.16754864
  0
VERTEX
  8
0
 10
2.15761372
 20
5.08578995
  0
VERTEX
  8
0
 10
2.11650105
 20
5.01146855
  0
VERTEX
  8
0
 10
2.01235218
 20
4.86741834
  0
VERTEX
  8
0
 10
1.92016328
 20
4.71074681
  0
VERTEX
  8
0
 10
1.84846080
 20
4.53963559
  0
VERTEX
  8
0
 10
1.85676303
 20
4.50605704
  0
VERTEX
  8
0
 10
1.88960226
 20
4.49849413
  0
VERTEX
  8
0
 10
1.97001191
 20
4.53596258
  0
VERTEX
  8
0
 10
2.04064516
 20
4.58628048
  0
VERTEX
  8
0
 10
2.15933133
 20
4.71641345
  0
VERTEX
  8
0
 10
2.35362394
 20
5.03130972
  0
VERTEX
  8
0
 10
2.40732740
 20
5.11860828
  0
VERTEX
  8
0
 10
2.47197955
 20
5.18605889
  0
VERTEX
  8
0
 10
2.68287260
 20
5.16758354
  0
VERTEX
  8
0
 10
2.65642117
 20
5.12689062
  0
VERTEX
  8
0
 10
2.65554436
 20
5.11297342
  0
VERTEX
  8
0
 10
2.71158185
 20
5.13064346
  0
VERTEX
  8
0
 10
2.77301359
 20
5.17021605
  0
VERTEX
  8
0
 10
2.85400523
 20
5.20846874
  0
VERTEX
  8
0
 10
2.96872243
 20
5.22217910
  0
VERTEX
  8
0
 10
3.00682025
 20
5.20755310
  0
VERTEX
  8
0
 10
3.03453861
 20
5.17266341
  0
VERTEX
  8
0
 10
3.06381990
 20
5.07177672
  0
VERTEX
  8
0
 10
3.06236816
 20
4.98620784
  0
VERTEX
  8
0
 10
3.03724764
 20
4.91543645
  0
VERTEX
  8
0
 10
2.94369302
 20
4.79957758
  0
VERTEX
  8
0
 10
2.83854151
 20
4.68678300
  0
VERTEX
  8
0
 10
2.79892489
 20
4.61984197
  0
VERTEX
  8
0
 10
2.77717860
 20
4.53963559
  0
VERTEX
  8
0
 10
2.78716282
 20
4.50648760
  0
VERTEX
  8
0
 10
2.81832006
 20
4.49849413
  0
VERTEX
  8
0
 10
2.93468420
 20
4.55863815
  0
VERTEX
  8
0
 10
3.02772044
 20
4.64804889
  0
VERTEX
  8
0
 10
3.18724427
 20
4.86741834
  0
VERTEX
  8
0
 10
3.30853279
 20
5.02060736
  0
VERTEX
  8
0
 10
3.36016041
 20
5.10326552
  0
VERTEX
  8
0
 10
3.39160265
 20
5.19520109
  0
VERTEX
  8
0
 10
3.51542535
 20
5.19228112
  0
VERTEX
  8
0
 10
3.59663549
 20
5.18103764
  0
VERTEX
  8
0
 10
3.60438131
 20
5.17047962
  0
VERTEX
  8
0
 10
3.59086717
 20
5.15661380
  0
VERTEX
  8
0
 10
3.57713005
 20
5.14414431
  0
VERTEX
  8
0
 10
3.58420692
 20
5.13777531
  0
VERTEX
  8
0
 10
3.62224735
 20
5.15061687
  0
VERTEX
  8
0
 10
3.65698269
 20
5.18166200
  0
VERTEX
  8
0
 10
3.69941014
 20
5.21523697
  0
VERTEX
  8
0
 10
3.76052686
 20
5.23566810
  0
VERTEX
  8
0
 10
3.82158604
 20
5.23655936
  0
VERTEX
  8
0
 10
3.87038153
 20
5.22414884
  0
VERTEX
  8
0
 10
3.93546306
 20
5.16894454
  0
VERTEX
  8
0
 10
3.96433469
 20
5.08909931
  0
VERTEX
  8
0
 10
3.96555969
 20
5.00365726
  0
VERTEX
  8
0
 10
3.92722128
 20
4.91595880
  0
VERTEX
  8
0
 10
3.85629878
 20
4.81278788
  0
VERTEX
  8
0
 10
3.76939714
 20
4.69200497
  0
VERTEX
  8
0
 10
3.70102519
 20
4.57311094
  0
VERTEX
  8
0
 10
3.70970020
 20
4.54672976
  0
VERTEX
  8
0
 10
3.76402052
 20
4.53989641
  0
VERTEX
  8
0
 10
3.82055349
 20
4.54919813
  0
VERTEX
  8
0
 10
3.93279891
 20
4.60390688
  0
VERTEX
  8
0
 10
4.03151959
 20
4.68625624
  0
VERTEX
  8
0
 10
4.10179862
 20
4.77164642
  0
VERTEX
  8
0
 10
4.21363271
 20
4.99215873
  0
VERTEX
  8
0
 10
4.32032045
 20
5.20869010
  0
VERTEX
  8
0
 10
4.53884229
 20
5.19520109
  0
VERTEX
  8
0
 10
4.40850757
 20
5.01155313
  0
VERTEX
  8
0
 10
4.29297760
 20
4.82627688
  0
VERTEX
  8
0
 10
4.22418216
 20
4.70287292
  0
VERTEX
  8
0
 10
4.20076745
 20
4.63553316
  0
VERTEX
  8
0
 10
4.20524771
 20
4.56135301
  0
VERTEX
  8
0
 10
4.22826343
 20
4.54505661
  0
VERTEX
  8
0
 10
4.30448348
 20
4.56056774
  0
VERTEX
  8
0
 10
4.36605881
 20
4.59789445
  0
VERTEX
  8
0
 10
4.48421183
 20
4.70073164
  0
VERTEX
  8
0
 10
4.64011402
 20
4.93112640
  0
VERTEX
  8
0
 10
4.72035305
 20
5.05268188
  0
VERTEX
  8
0
 10
4.79993086
 20
5.19874724
  0
VERTEX
  8
0
 10
5.00353841
 20
5.19520109
  0
VERTEX
  8
0
 10
5.01464784
 20
5.18741803
  0
VERTEX
  8
0
 10
5.00795780
 20
5.17300790
  0
VERTEX
  8
0
 10
4.99004941
 20
5.14057063
  0
VERTEX
  8
0
 10
5.06815251
 20
5.16555239
  0
VERTEX
  8
0
 10
5.15874255
 20
5.21370787
  0
VERTEX
  8
0
 10
5.20833573
 20
5.23096776
  0
VERTEX
  8
0
 10
5.26058933
 20
5.23541148
  0
VERTEX
  8
0
 10
5.31534955
 20
5.22083584
  0
VERTEX
  8
0
 10
5.37246262
 20
5.18103764
  0
VERTEX
  8
0
 10
5.39109794
 20
5.09518981
  0
VERTEX
  8
0
 10
5.37904023
 20
5.01478819
  0
VERTEX
  8
0
 10
5.34481873
 20
4.93840179
  0
VERTEX
  8
0
 10
5.29696267
 20
4.86459962
  0
VERTEX
  8
0
 10
5.19446376
 20
4.71902405
  0
VERTEX
  8
0
 10
5.15687938
 20
4.64438867
  0
VERTEX
  8
0
 10
5.13977733
 20
4.56661359
  0
VERTEX
  8
0
 10
5.19196316
 20
4.55280263
  0
VERTEX
  8
0
 10
5.23987313
 20
4.55791198
  0
VERTEX
  8
0
 10
5.32698493
 20
4.60664952
  0
VERTEX
  8
0
 10
5.40935174
 20
4.67634194
  0
VERTEX
  8
0
 10
5.49521254
 20
4.73050497
  0
VERTEX
  8
0
 10
5.51727648
 20
4.84589881
  0
VERTEX
  8
0
 10
5.57351849
 20
4.95795358
  0
VERTEX
  8
0
 10
5.65588581
 20
5.05941744
  0
VERTEX
  8
0
 10
5.75632571
 20
5.14303859
  0
VERTEX
  8
0
 10
5.86678543
 20
5.20156520
  0
VERTEX
  8
0
 10
5.97921222
 20
5.22774546
  0
VERTEX
  8
0
 10
6.08555334
 20
5.21432754
  0
VERTEX
  8
0
 10
6.17775605
 20
5.15405964
  0
VERTEX
  8
0
 10
6.28861026
 20
5.18239565
  0
VERTEX
  8
0
 10
6.34948460
 20
5.17780228
  0
VERTEX
  8
0
 10
6.39627789
 20
5.15405964
  0
VERTEX
  8
0
 10
6.31204162
 20
4.98301277
  0
VERTEX
  8
0
 10
6.22317976
 20
4.82948835
  0
VERTEX
  8
0
 10
6.02802813
 20
4.49849413
  0
VERTEX
  8
0
 10
6.04614958
 20
4.48160655
  0
VERTEX
  8
0
 10
6.07241950
 20
4.48179686
  0
VERTEX
  8
0
 10
6.12312559
 20
4.50595127
  0
VERTEX
  8
0
 10
6.45867509
 20
4.74324314
  0
VERTEX
  8
0
 10
6.46014801
 20
4.80851813
  0
VERTEX
  8
0
 10
6.47856080
 20
4.86741834
  0
VERTEX
  8
0
 10
6.53288309
 20
4.95955609
  0
VERTEX
  8
0
 10
6.62003981
 20
5.05426040
  0
VERTEX
  8
0
 10
6.72868808
 20
5.13748937
  0
VERTEX
  8
0
 10
6.84748501
 20
5.19520109
  0
VERTEX
  8
0
 10
6.95519167
 20
5.22327586
  0
VERTEX
  8
0
 10
7.04698153
 20
5.22496507
  0
VERTEX
  8
0
 10
7.12096882
 20
5.19120156
  0
VERTEX
  8
0
 10
7.17526776
 20
5.11291818
  0
VERTEX
  8
0
 10
7.22534685
 20
5.15814664
  0
VERTEX
  8
0
 10
7.27036523
 20
5.20869010
  0
VERTEX
  8
0
 10
7.34791857
 20
5.39513553
  0
VERTEX
  8
0
 10
7.46190906
 20
5.59110331
  0
VERTEX
  8
0
 10
7.62580044
 20
5.85076660
  0
VERTEX
  8
0
 10
7.72930404
 20
5.85169398
  0
VERTEX
  8
0
 10
7.77843608
 20
5.84959194
  0
VERTEX
  8
0
 10
7.81666982
 20
5.83660315
  0
VERTEX
  8
0
 10
7.65414907
 20
5.53982280
  0
VERTEX
  8
0
 10
7.47640580
 20
5.25351695
  0
VERTEX
  8
0
 10
7.12791202
 20
4.69203165
  0
VERTEX
  8
0
 10
7.07193141
 20
4.60960589
  0
VERTEX
  8
0
 10
7.05436694
 20
4.56111736
  0
VERTEX
  8
0
 10
7.06051189
 20
4.50959827
  0
VERTEX
  8
0
 10
7.08870807
 20
4.50289164
  0
VERTEX
  8
0
 10
7.17448965
 20
4.53120585
  0
VERTEX
  8
0
 10
7.25684468
 20
4.57711298
  0
VERTEX
  8
0
 10
7.33140180
 20
4.63944053
  0
VERTEX
  8
0
 10
7.39378960
 20
4.71701597
  0
VERTEX
  8
0
 10
7.44398586
 20
4.82375624
  0
VERTEX
  8
0
 10
7.50305052
 20
4.93553780
  0
VERTEX
  8
0
 10
7.62177855
 20
5.05593820
  0
VERTEX
  8
0
 10
7.80350978
 20
5.17796716
  0
VERTEX
  8
0
 10
7.90042203
 20
5.21400786
  0
VERTEX
  8
0
 10
7.99198963
 20
5.21975429
  0
VERTEX
  8
0
 10
8.07118075
 20
5.18497266
  0
VERTEX
  8
0
 10
8.13096357
 20
5.09942918
  0
VERTEX
  8
0
 10
8.16575939
 20
5.15107979
  0
VERTEX
  8
0
 10
8.23279729
 20
5.17933088
  0
VERTEX
  8
0
 10
8.31046190
 20
5.18128873
  0
VERTEX
  8
0
 10
8.37713786
 20
5.15405964
  0
VERTEX
  8
0
 10
8.29203267
 20
4.99986421
  0
VERTEX
  8
0
 10
8.19526489
 20
4.85749456
  0
VERTEX
  8
0
 10
8.10394705
 20
4.70980144
  0
VERTEX
  8
0
 10
8.03519165
 20
4.53963559
  0
VERTEX
  8
0
 10
8.06284411
 20
4.49849413
  0
VERTEX
  8
0
 10
8.17100236
 20
4.54037326
  0
VERTEX
  8
0
 10
8.26091782
 20
4.60055413
  0
VERTEX
  8
0
 10
8.41760486
 20
4.74399397
  0
VERTEX
  8
0
 10
8.73770465
 20
5.29823786
  0
VERTEX
  8
0
 10
9.07317037
 20
5.83660315
  0
VERTEX
  8
0
 10
9.18389396
 20
5.85522543
  0
VERTEX
  8
0
 10
9.23847452
 20
5.85638058
  0
VERTEX
  8
0
 10
9.26471420
 20
5.83660315
  0
VERTEX
  8
0
 10
9.27589192
 20
5.81044592
  0
VERTEX
  8
0
 10
9.26251383
 20
5.76673774
  0
VERTEX
  8
0
 10
9.21008374
 20
5.67271177
  0
VERTEX
  8
0
 10
8.89578999
 20
5.20869010
  0
VERTEX
  8
0
 10
8.70492061
 20
4.88090734
  0
VERTEX
  8
0
 10
8.60587598
 20
4.72782102
  0
VERTEX
  8
0
 10
8.53251725
 20
4.56381464
  0
VERTEX
  8
0
 10
8.53872630
 20
4.53073512
  0
VERTEX
  8
0
 10
8.57958052
 20
4.51424705
  0
VERTEX
  8
0
 10
8.62023938
 20
4.51650619
  0
VERTEX
  8
0
 10
8.70012810
 20
4.56026263
  0
VERTEX
  8
0
 10
8.84828861
 20
4.68570338
  0
VERTEX
  8
0
 10
8.85622947
 20
4.69386538
  0
VERTEX
  8
0
 10
8.95262925
 20
4.90002665
  0
VERTEX
  8
0
 10
9.01625891
 20
4.98764378
  0
VERTEX
  8
0
 10
9.09226344
 20
5.06287177
  0
VERTEX
  8
0
 10
9.18220911
 20
5.12415050
  0
VERTEX
  8
0
 10
9.28766216
 20
5.16991987
  0
VERTEX
  8
0
 10
9.41018887
 20
5.19861977
  0
VERTEX
  8
0
 10
9.55135550
 20
5.20869010
  0
VERTEX
  8
0
 10
9.61094153
 20
5.16576216
  0
VERTEX
  8
0
 10
9.63959404
 20
5.11595058
  0
VERTEX
  8
0
 10
9.64712741
 20
5.04479872
  0
VERTEX
  8
0
 10
9.62571350
 20
4.98582112
  0
VERTEX
  8
0
 10
9.57833909
 20
4.93588613
  0
VERTEX
  8
0
 10
9.42978539
 20
4.85943107
  0
VERTEX
  8
0
 10
9.24961946
 20
4.80800788
  0
VERTEX
  8
0
 10
9.08599447
 20
4.77419086
  0
VERTEX
  8
0
 10
9.07230561
 20
4.75000860
  0
VERTEX
  8
0
 10
9.07675838
 20
4.66999246
  0
VERTEX
  8
0
 10
9.09517244
 20
4.60084788
  0
VERTEX
  8
0
 10
9.12968450
 20
4.55014955
  0
VERTEX
  8
0
 10
9.18243129
 20
4.52547214
  0
VERTEX
  8
0
 10
9.29285976
 20
4.52776902
  0
VERTEX
  8
0
 10
9.39918703
 20
4.56170911
  0
VERTEX
  8
0
 10
9.50037027
 20
4.61968172
  0
VERTEX
  8
0
 10
9.59536666
 20
4.69407611
  0
VERTEX
  8
0
 10
9.76262760
 20
4.86168739
  0
VERTEX
  8
0
 10
9.89262725
 20
5.00365726
  0
VERTEX
  8
0
 10
9.88671247
 20
4.95404266
  0
VERTEX
  8
0
 10
9.85470409
 20
4.90378127
  0
VERTEX
  8
0
 10
9.75638833
 20
4.79862443
  0
VERTEX
  8
0
 10
9.63290034
 20
4.66807811
  0
VERTEX
  8
0
 10
9.47283349
 20
4.53730094
  0
VERTEX
  8
0
 10
9.37828145
 20
4.48501404
  0
VERTEX
  8
0
 10
9.27362282
 20
4.44849532
  0
VERTEX
  8
0
 10
9.15853700
 20
4.43302010
  0
VERTEX
  8
0
 10
9.03270336
 20
4.44386367
  0
VERTEX
  8
0
 10
8.97970972
 20
4.46442236
  0
VERTEX
  8
0
 10
8.93567738
 20
4.50234440
  0
VERTEX
  8
0
 10
8.87312344
 20
4.62083211
  0
VERTEX
  8
0
 10
8.85670160
 20
4.62851107
  0
VERTEX
  8
0
 10
8.63984763
 20
4.49027575
  0
VERTEX
  8
0
 10
8.51818821
 20
4.45114326
  0
VERTEX
  8
0
 10
8.45386061
 20
4.45460153
  0
VERTEX
  8
0
 10
8.38712877
 20
4.47932500
  0
VERTEX
  8
0
 10
8.37270108
 20
4.49513902
  0
SEQEND
  0
POLYLINE
  8
Default_Layer
 66
   1
 39
0.000000
 70
    1
  0
VERTEX
  8
0
 10
4.67712570
 20
5.57990089
  0
VERTEX
  8
0
 10
4.63098426
 20
5.56513178
  0
VERTEX
  8
0
 10
4.58918604
 20
5.56669382
  0
VERTEX
  8
0
 10
4.52748334
 20
5.60725855
  0
VERTEX
  8
0
 10
4.50974572
 20
5.67848955
  0
VERTEX
  8
0
 10
4.52290387
 20
5.71838441
  0
VERTEX
  8
0
 10
4.55370133
 20
5.75728127
  0
VERTEX
  8
0
 10
4.64003886
 20
5.75680530
  0
VERTEX
  8
0
 10
4.69085436
 20
5.71303473
  0
VERTEX
  8
0
 10
4.70394944
 20
5.64704233
  0
VERTEX
  8
0
 10
4.67712570
 20
5.57990089
  0
SEQEND
  0
POLYLINE
  8
Default_Layer
 66
   1
 39
0.000000
 70
    1
  0
VERTEX
  8
0
 10
5.62439312
 20
4.60914833
  0
VERTEX
  8
0
 10
5.61590166
 20
4.67515872
  0
VERTEX
  8
0
 10
5.62711366
 20
4.73584287
  0
VERTEX
  8
0
 10
5.73287372
 20
4.94070819
  0
VERTEX
  8
0
 10
5.79776723
 20
5.03440752
  0
VERTEX
  8
0
 10
5.87477654
 20
5.11779291
  0
VERTEX
  8
0
 10
5.94502094
 20
5.16708023
  0
VERTEX
  8
0
 10
6.01386468
 20
5.18103764
  0
VERTEX
  8
0
 10
6.06312514
 20
5.16761446
  0
VERTEX
  8
0
 10
6.09545279
 20
5.14077576
  0
VERTEX
  8
0
 10
6.11301148
 20
5.10305276
  0
VERTEX
  8
0
 10
6.11796510
 20
5.05697668
  0
VERTEX
  8
0
 10
6.09871256
 20
4.94989015
  0
VERTEX
  8
0
 10
6.05500613
 20
4.83976589
  0
VERTEX
  8
0
 10
5.99570439
 20
4.73724341
  0
VERTEX
  8
0
 10
5.91309678
 20
4.64148136
  0
VERTEX
  8
0
 10
5.80875390
 20
4.57461617
  0
VERTEX
  8
0
 10
5.74892254
 20
4.55893753
  0
VERTEX
  8
0
 10
5.68424634
 20
4.55878426
  0
VERTEX
  8
0
 10
5.64658952
 20
4.57509128
  0
VERTEX
  8
0
 10
5.62439312
 20
4.60914833
  0
SEQEND
  0
POLYLINE
  8
Default_Layer
 66
   1
 39
0.000000
 70
    1
  0
VERTEX
  8
0
 10
6.81906895
 20
4.59793043
  0
VERTEX
  8
0
 10
6.74152190
 20
4.54746858
  0
VERTEX
  8
0
 10
6.69100780
 20
4.53643996
  0
VERTEX
  8
0
 10
6.63108404
 20
4.53963559
  0
VERTEX
  8
0
 10
6.59796784
 20
4.59247366
  0
VERTEX
  8
0
 10
6.59105948
 20
4.66309333
  0
VERTEX
  8
0
 10
6.60515343
 20
4.74505182
  0
VERTEX
  8
0
 10
6.63504416
 20
4.83190633
  0
VERTEX
  8
0
 10
6.72139388
 20
4.99453236
  0
VERTEX
  8
0
 10
6.80846442
 20
5.09942918
  0
VERTEX
  8
0
 10
6.86954373
 20
5.13679357
  0
VERTEX
  8
0
 10
6.95418624
 20
5.16996576
  0
VERTEX
  8
0
 10
7.03779678
 20
5.17815502
  0
VERTEX
  8
0
 10
7.07152907
 20
5.16638395
  0
VERTEX
  8
0
 10
7.09578017
 20
5.14057063
  0
VERTEX
  8
0
 10
7.09685908
 20
5.07299634
  0
VERTEX
  8
0
 10
7.07559615
 20
4.96381206
  0
VERTEX
  8
0
 10
7.03569995
 20
4.86056264
  0
VERTEX
  8
0
 10
6.97495453
 20
4.76651177
  0
VERTEX
  8
0
 10
6.81906895
 20
4.59793043
  0
SEQEND
  0
POLYLINE
  8
Default_Layer
 66
   1
 39
0.000000
 70
    1
  0
VERTEX
  8
0
 10
8.03001344
 20
5.11272030
  0
VERTEX
  8
0
 10
8.03552311
 20
5.01841783
  0
VERTEX
  8
0
 10
8.02349896
 20
4.92785783
  0
VERTEX
  8
0
 10
7.99616001
 20
4.84246267
  0
VERTEX
  8
0
 10
7.95572528
 20
4.76365473
  0
VERTEX
  8
0
 10
7.84444455
 20
4.63149002
  0
VERTEX
  8
0
 10
7.70740890
 20
4.54274273
  0
VERTEX
  8
0
 10
7.66870561
 20
4.53490484
  0
VERTEX
  8
0
 10
7.62580044
 20
4.53963559
  0
VERTEX
  8
0
 10
7.60049716
 20
4.64565964
  0
VERTEX
  8
0
 10
7.61762914
 20
4.75191164
  0
VERTEX
  8
0
 10
7.65924889
 20
4.85100116
  0
VERTEX
  8
0
 10
7.70740890
 20
4.93553780
  0
VERTEX
  8
0
 10
7.80147816
 20
5.06540985
  0
VERTEX
  8
0
 10
7.86439692
 20
5.11861377
  0
VERTEX
  8
0
 10
7.94074195
 20
5.15089266
  0
VERTEX
  8
0
 10
7.99845815
 20
5.14794481
  0
VERTEX
  8
0
 10
8.03001344
 20
5.11272030
  0
SEQEND
  0
POLYLINE
  8
Default_Layer
 66
   1
 39
0.000000
 70
    1
  0
VERTEX
  8
0
 10
9.09851067
 20
4.86128945
  0
VERTEX
  8
0
 10
9.20434829
 20
4.99855395
  0
VERTEX
  8
0
 10
9.26694923
 20
5.06439076
  0
VERTEX
  8
0
 10
9.32984091
 20
5.10879988
  0
VERTEX
  8
0
 10
9.38664907
 20
5.13008037
  0
VERTEX
  8
0
 10
9.45388154
 20
5.13191716
  0
VERTEX
  8
0
 10
9.48197588
 20
5.11357908
  0
VERTEX
  8
0
 10
9.48637917
 20
5.08398030
  0
VERTEX
  8
0
 10
9.42452698
 20
4.98236472
  0
VERTEX
  8
0
 10
9.33714428
 20
4.91526989
  0
VERTEX
  8
0
 10
9.23125276
 20
4.87324744
  0
VERTEX
  8
0
 10
9.11387413
 20
4.84684903
  0
VERTEX
  8
0
 10
9.09969988
 20
4.85072458
  0
VERTEX
  8
0
 10
9.09851067
 20
4.86128945
  0
SEQEND
  0
POLYLINE
  8
Default_Layer
 66
   1
 39
0.000000
 70
    1
  0
VERTEX
  8
0
 10
4.24952933
 20
7.26669515
  0
VERTEX
  8
0
 10
4.18405209
 20
7.20203771
  0
VERTEX
  8
0
 10
4.12934361
 20
7.11759794
  0
VERTEX
  8
0
 10
4.08742231
 20
7.01812354
  0
VERTEX
  8
0
 10
4.06030662
 20
6.90836221
  0
VERTEX
  8
0
 10
4.05001496
 20
6.79306167
  0
VERTEX
  8
0
 10
4.05856575
 20
6.67696960
  0
VERTEX
  8
0
 10
4.08797743
 20
6.56483372
  0
VERTEX
  8
0
 10
4.14026841
 20
6.46140172
  0
VERTEX
  8
0
 10
4.22705693
 20
6.36039053
  0
VERTEX
  8
0
 10
4.34959060
 20
6.25458722
  0
VERTEX
  8
0
 10
4.63194254
 20
6.06482506
  0
VERTEX
  8
0
 10
4.77783595
 20
5.99781255
  0
VERTEX
  8
0
 10
4.94623629
 20
5.92858614
  0
VERTEX
  8
0
 10
5.12001159
 20
5.83804236
  0
VERTEX
  8
0
 10
5.19757365
 20
5.80308480
  0
VERTEX
  8
0
 10
5.26053004
 20
5.79167277
  0
VERTEX
  8
0
 10
5.32420159
 20
5.81351216
  0
VERTEX
  8
0
 10
5.38497478
 20
5.85780033
  0
VERTEX
  8
0
 10
5.49254088
 20
5.95556414
  0
VERTEX
  8
0
 10
5.59014390
 20
6.03061665
  0
VERTEX
  8
0
 10
5.66197511
 20
6.10500297
  0
VERTEX
  8
0
 10
5.70034741
 20
6.20718630
  0
VERTEX
  8
0
 10
5.69757371
 20
6.36562981
  0
VERTEX
  8
0
 10
5.66951661
 20
6.48466507
  0
VERTEX
  8
0
 10
5.61919595
 20
6.61714372
  0
VERTEX
  8
0
 10
5.47905188
 20
6.88428194
  0
VERTEX
  8
0
 10
5.32430981
 20
7.08663795
  0
VERTEX
  8
0
 10
5.23003418
 20
7.17474768
  0
VERTEX
  8
0
 10
5.12500063
 20
7.25052330
  0
VERTEX
  8
0
 10
5.00959302
 20
7.31124839
  0
VERTEX
  8
0
 10
4.88419523
 20
7.35420650
  0
VERTEX
  8
0
 10
4.74919111
 20
7.37668121
  0
VERTEX
  8
0
 10
4.60496454
 20
7.37595607
  0
VERTEX
  8
0
 10
4.40518033
 20
7.34316222
  0
VERTEX
  8
0
 10
4.32335205
 20
7.31209692
  0
VERTEX
  8
0
 10
4.24952933
 20
7.26669515
  0
SEQEND
  0
POLYLINE
  8
Default_Layer
 66
   1
 39
0.000000
 70
    1
  0
VERTEX
  8
0
 10
6.90511812
 20
5.03398721
  0
VERTEX
  8
0
 10
6.92830103
 20
5.14881627
  0
VERTEX
  8
0
 10
6.99152293
 20
5.24258688
  0
VERTEX
  8
0
 10
7.08529354
 20
5.30580878
  0
VERTEX
  8
0
 10
7.20012260
 20
5.32899169
  0
VERTEX
  8
0
 10
7.31495165
 20
5.30580878
  0
VERTEX
  8
0
 10
7.40872226
 20
5.24258688
  0
VERTEX
  8
0
 10
7.47194416
 20
5.14881627
  0
VERTEX
  8
0
 10
7.49512707
 20
5.03398721
  0
VERTEX
  8
0
 10
7.47194416
 20
4.91915816
  0
VERTEX
  8
0
 10
7.40872226
 20
4.82538755
  0
VERTEX
  8
0
 10
7.31495165
 20
4.76216565
  0
VERTEX
  8
0
 10
7.20012260
 20
4.73898274
  0
VERTEX
  8
0
 10
7.08529354
 20
4.76216565
  0
VERTEX
  8
0
 10
6.99152293
 20
4.82538755
  0
VERTEX
  8
0
 10
6.92830103
 20
4.91915816
  0
VERTEX
  8
0
 10
6.90511812
 20
5.03398721
  0
SEQEND
  0
POLYLINE
  8
Default_Layer
 66
   1
 39
0.000000
 70
    1
  0
VERTEX
  8
0
 10
2.49049095
 20
5.03398721
  0
VERTEX
  8
0
 10
2.51367387
 20
5.14881627
  0
VERTEX
  8
0
 10
2.57689576
 20
5.24258688
  0
VERTEX
  8
0
 10
2.67066637
 20
5.30580878
  0
VERTEX
  8
0
 10
2.78549543
 20
5.32899169
  0
VERTEX
  8
0
 10
2.90032449
 20
5.30580878
  0
VERTEX
  8
0
 10
2.99409510
 20
5.24258688
  0
VERTEX
  8
0
 10
3.05731699
 20
5.14881627
  0
VERTEX
  8
0
 10
3.08049991
 20
5.03398721
  0
VERTEX
  8
0
 10
3.05731699
 20
4.91915816
  0
VERTEX
  8
0
 10
2.99409510
 20
4.82538755
  0
VERTEX
  8
0
 10
2.90032449
 20
4.76216565
  0
VERTEX
  8
0
 10
2.78549543
 20
4.73898274
  0
VERTEX
  8
0
 10
2.67066637
 20
4.76216565
  0
VERTEX
  8
0
 10
2.57689576
 20
4.82538755
  0
VERTEX
  8
0
 10
2.51367387
 20
4.91915816
  0
VERTEX
  8
0
 10
2.49049095
 20
5.03398721
  0
SEQEND
  0
POLYLINE
  8
Default_Layer
 66
   1
 39
0.000000
 70
    1
  0
VERTEX
  8
0
 10
4.82703046
 20
4.67315040
  0
VERTEX
  8
0
 10
5.00869401
 20
4.55853687
  0
VERTEX
  8
0
 10
5.19794489
 20
4.42264517
  0
VERTEX
  8
0
 10
5.28909469
 20
4.34766988
  0
VERTEX
  8
0
 10
5.36979096
 20
4.26201992
  0
VERTEX
  8
0
 10
5.43229766
 20
4.16880626
  0
VERTEX
  8
0
 10
5.48078946
 20
4.06518099
  0
VERTEX
  8
0
 10
5.51431983
 20
3.95357569
  0
VERTEX
  8
0
 10
5.53194223
 20
3.83642195
  0
VERTEX
  8
0
 10
5.53271013
 20
3.71615139
  0
VERTEX
  8
0
 10
5.51567698
 20
3.59519557
  0
VERTEX
  8
0
 10
5.47989626
 20
3.47598610
  0
VERTEX
  8
0
 10
5.42442142
 20
3.36095457
  0
VERTEX
  8
0
 10
5.30448294
 20
3.19243646
  0
VERTEX
  8
0
 10
5.23578394
 20
3.12372140
  0
VERTEX
  8
0
 10
5.16475813
 20
3.07431328
  0
VERTEX
  8
0
 10
5.15658769
 20
3.13919626
  0
VERTEX
  8
0
 10
5.16762809
 20
3.20077111
  0
VERTEX
  8
0
 10
5.19241058
 20
3.31981312
  0
VERTEX
  8
0
 10
5.18354373
 20
3.40951483
  0
VERTEX
  8
0
 10
5.16027645
 20
3.49020162
  0
VERTEX
  8
0
 10
5.07649823
 20
3.62789468
  0
VERTEX
  8
0
 10
4.95299110
 20
3.73962072
  0
VERTEX
  8
0
 10
4.80167022
 20
3.83210820
  0
VERTEX
  8
0
 10
4.46324792
 20
3.98628127
  0
VERTEX
  8
0
 10
4.29997685
 20
4.06142374
  0
VERTEX
  8
0
 10
4.15655273
 20
4.14424143
  0
VERTEX
  8
0
 10
4.01854054
 20
4.04773158
  0
VERTEX
  8
0
 10
3.88381227
 20
3.92412989
  0
VERTEX
  8
0
 10
3.60812728
 20
3.66108487
  0
VERTEX
  8
0
 10
3.47533081
 20
3.55061119
  0
VERTEX
  8
0
 10
3.40068297
 20
3.50894301
  0
VERTEX
  8
0
 10
3.30732253
 20
3.48370449
  0
VERTEX
  8
0
 10
3.11435765
 20
3.48283593
  0
VERTEX
  8
0
 10
2.95086952
 20
3.52748038
  0
VERTEX
  8
0
 10
2.80862964
 20
3.59812284
  0
VERTEX
  8
0
 10
2.67940948
 20
3.67524833
  0
VERTEX
  8
0
 10
2.56117749
 20
3.74657087
  0
VERTEX
  8
0
 10
2.51425837
 20
3.78900668
  0
VERTEX
  8
0
 10
2.48786565
 20
3.83913970
  0
VERTEX
  8
0
 10
2.48211834
 20
3.92963590
  0
VERTEX
  8
0
 10
2.50414816
 20
4.00574469
  0
VERTEX
  8
0
 10
2.58363756
 20
4.12578100
  0
VERTEX
  8
0
 10
2.67408080
 20
4.23242158
  0
VERTEX
  8
0
 10
2.72747668
 20
4.27133693
  0
VERTEX
  8
0
 10
2.78867039
 20
4.28967237
  0
VERTEX
  8
0
 10
2.88728930
 20
4.27132813
  0
VERTEX
  8
0
 10
2.98319983
 20
4.21378362
  0
VERTEX
  8
0
 10
3.14343115
 20
4.05766154
  0
VERTEX
  8
0
 10
3.27427988
 20
3.88121865
  0
VERTEX
  8
0
 10
3.33347953
 20
3.80537393
  0
VERTEX
  8
0
 10
3.40309444
 20
3.74336779
  0
VERTEX
  8
0
 10
3.56478881
 20
3.85228517
  0
VERTEX
  8
0
 10
3.69110578
 20
3.96543577
  0
VERTEX
  8
0
 10
4.00539953
 20
4.21733232
  0
VERTEX
  8
0
 10
3.89855633
 20
4.30648556
  0
VERTEX
  8
0
 10
3.74436620
 20
4.38544429
  0
VERTEX
  8
0
 10
3.68222949
 20
4.36086760
  0
VERTEX
  8
0
 10
3.62609107
 20
4.32309867
  0
VERTEX
  8
0
 10
3.56771525
 20
4.28564646
  0
VERTEX
  8
0
 10
3.49886636
 20
4.26201992
  0
VERTEX
  8
0
 10
3.36598843
 20
4.26424432
  0
VERTEX
  8
0
 10
3.23728395
 20
4.30109917
  0
VERTEX
  8
0
 10
3.02068123
 20
4.41242229
  0
VERTEX
  8
0
 10
2.98930676
 20
4.47776717
  0
VERTEX
  8
0
 10
2.97766241
 20
4.54203970
  0
VERTEX
  8
0
 10
2.98279802
 20
4.60302901
  0
VERTEX
  8
0
 10
3.00176345
 20
4.65852422
  0
VERTEX
  8
0
 10
3.06938311
 20
4.74418883
  0
VERTEX
  8
0
 10
3.15692015
 20
4.78134650
  0
VERTEX
  8
0
 10
3.23563973
 20
4.77046069
  0
VERTEX
  8
0
 10
3.29972002
 20
4.73207107
  0
VERTEX
  8
0
 10
3.40309444
 20
4.61745513
  0
VERTEX
  8
0
 10
3.48385744
 20
4.49228697
  0
VERTEX
  8
0
 10
3.53089721
 20
4.44735416
  0
VERTEX
  8
0
 10
3.59396382
 20
4.44007475
  0
VERTEX
  8
0
 10
3.60626061
 20
4.47982068
  0
VERTEX
  8
0
 10
3.59565333
 20
4.51331607
  0
VERTEX
  8
0
 10
3.53218434
 20
4.56853397
  0
VERTEX
  8
0
 10
3.43195101
 20
4.65780349
  0
VERTEX
  8
0
 10
3.34758985
 20
4.76509752
  0
VERTEX
  8
0
 10
3.33497498
 20
4.78134650
  0
VERTEX
  8
0
 10
3.20240368
 20
4.95962050
  0
VERTEX
  8
0
 10
3.15432732
 20
5.06485795
  0
VERTEX
  8
0
 10
3.11645315
 20
5.20490117
  0
VERTEX
  8
0
 10
3.09273885
 20
5.40213136
  0
VERTEX
  8
0
 10
3.10195630
 20
5.61944162
  0
VERTEX
  8
0
 10
3.12258588
 20
5.72433187
  0
VERTEX
  8
0
 10
3.15585415
 20
5.82068826
  0
VERTEX
  8
0
 10
3.20322969
 20
5.90399282
  0
VERTEX
  8
0
 10
3.26618107
 20
5.96972760
  0
VERTEX
  8
0
 10
3.33884642
 20
5.74995923
  0
VERTEX
  8
0
 10
3.42758143
 20
5.55956254
  0
VERTEX
  8
0
 10
3.54487717
 20
5.39669939
  0
VERTEX
  8
0
 10
3.70322474
 20
5.25953163
  0
VERTEX
  8
0
 10
3.85973148
 20
5.14310568
  0
VERTEX
  8
0
 10
4.01751849
 20
5.04100980
  0
VERTEX
  8
0
 10
4.05117680
 20
5.02370177
  0
VERTEX
  8
0
 10
4.21905606
 20
4.93999566
  0
VERTEX
  8
0
 10
4.50579498
 20
5.16623722
  0
VERTEX
  8
0
 10
4.25715084
 20
5.36319059
  0
VERTEX
  8
0
 10
3.97637704
 20
5.57315093
  0
VERTEX
  8
0
 10
3.44423590
 20
5.96972760
  0
VERTEX
  8
0
 10
3.19773706
 20
6.16361717
  0
VERTEX
  8
0
 10
2.92490932
 20
6.37911881
  0
VERTEX
  8
0
 10
2.65175702
 20
6.57066264
  0
VERTEX
  8
0
 10
2.51755311
 20
6.67291363
  0
VERTEX
  8
0
 10
2.46725189
 20
6.73841916
  0
VERTEX
  8
0
 10
2.46146920
 20
6.77121075
  0
VERTEX
  8
0
 10
2.47437664
 20
6.80267348
  0
VERTEX
  8
0
 10
2.50542594
 20
6.82971514
  0
VERTEX
  8
0
 10
2.53945080
 20
6.83842563
  0
VERTEX
  8
0
 10
2.61128104
 20
6.81618570
  0
VERTEX
  8
0
 10
2.73403994
 20
6.72039057
  0
VERTEX
  8
0
 10
3.16235956
 20
6.37692027
  0
VERTEX
  8
0
 10
3.59396382
 20
6.03784706
  0
VERTEX
  8
0
 10
4.42758416
 20
5.39577055
  0
VERTEX
  8
0
 10
4.61425557
 20
5.25181434
  0
VERTEX
  8
0
 10
4.72637418
 20
5.34027770
  0
VERTEX
  8
0
 10
4.68297344
 20
5.36523812
  0
VERTEX
  8
0
 10
4.55638116
 20
5.44237118
  0
VERTEX
  8
0
 10
4.48221462
 20
5.49154247
  0
VERTEX
  8
0
 10
4.19189966
 20
5.70097396
  0
VERTEX
  8
0
 10
4.05918047
 20
5.81839249
  0
VERTEX
  8
0
 10
3.94223344
 20
5.95146388
  0
VERTEX
  8
0
 10
3.84666853
 20
6.10557638
  0
VERTEX
  8
0
 10
3.77809570
 20
6.28611824
  0
VERTEX
  8
0
 10
3.74212494
 20
6.49847770
  0
VERTEX
  8
0
 10
3.74436620
 20
6.74804302
  0
VERTEX
  8
0
 10
3.78915397
 20
6.97490998
  0
VERTEX
  8
0
 10
3.87655971
 20
7.18058629
  0
VERTEX
  8
0
 10
3.99684425
 20
7.35782532
  0
VERTEX
  8
0
 10
4.14026841
 20
7.49938044
  0
VERTEX
  8
0
 10
4.24481145
 20
7.57052533
  0
VERTEX
  8
0
 10
4.36410837
 20
7.63391316
  0
VERTEX
  8
0
 10
4.59147553
 20
7.71790228
  0
VERTEX
  8
0
 10
4.75939481
 20
7.73925757
  0
VERTEX
  8
0
 10
4.93379343
 20
7.73413624
  0
VERTEX
  8
0
 10
5.09738361
 20
7.71061256
  0
VERTEX
  8
0
 10
5.23287759
 20
7.67676082
  0
VERTEX
  8
0
 10
5.41740272
 20
7.60402261
  0
VERTEX
  8
0
 10
5.58645257
 20
7.50942911
  0
VERTEX
  8
0
 10
5.74164960
 20
7.39624555
  0
VERTEX
  8
0
 10
5.88461626
 20
7.26773717
  0
VERTEX
  8
0
 10
6.14034827
 20
6.97780688
  0
VERTEX
  8
0
 10
6.36662822
 20
6.66576011
  0
VERTEX
  8
0
 10
6.72206343
 20
6.92542340
  0
VERTEX
  8
0
 10
6.79963203
 20
6.99528201
  0
VERTEX
  8
0
 10
6.88840082
 20
7.06664109
  0
VERTEX
  8
0
 10
6.93521069
 20
7.08888515
  0
VERTEX
  8
0
 10
6.98269110
 20
7.09470655
  0
VERTEX
  8
0
 10
7.03013221
 20
7.07850602
  0
VERTEX
  8
0
 10
7.07682419
 20
7.03468432
  0
VERTEX
  8
0
 10
7.05441560
 20
6.96585273
  0
VERTEX
  8
0
 10
7.00544384
 20
6.91727303
  0
VERTEX
  8
0
 10
6.88595480
 20
6.84381494
  0
VERTEX
  8
0
 10
6.15401849
 20
6.28397549
  0
VERTEX
  8
0
 10
5.42442142
 20
5.71006430
  0
VERTEX
  8
0
 10
5.47710129
 20
5.65689503
  0
VERTEX
  8
0
 10
5.54366652
 20
5.61759530
  0
VERTEX
  8
0
 10
5.68408471
 20
5.54617293
  0
VERTEX
  8
0
 10
5.93945736
 20
5.71024874
  0
VERTEX
  8
0
 10
6.18924784
 20
5.90093368
  0
VERTEX
  8
0
 10
6.78207355
 20
6.36304467
  0
VERTEX
  8
0
 10
7.39111794
 20
6.82965148
  0
VERTEX
  8
0
 10
7.51154373
 20
6.91774254
  0
VERTEX
  8
0
 10
7.58031348
 20
6.92979177
  0
VERTEX
  8
0
 10
7.61552291
 20
6.91592994
  0
VERTEX
  8
0
 10
7.65078123
 20
6.88428194
  0
VERTEX
  8
0
 10
7.63737543
 20
6.80330578
  0
VERTEX
  8
0
 10
7.58834674
 20
6.74667204
  0
VERTEX
  8
0
 10
7.45923740
 20
6.66576011
  0
VERTEX
  8
0
 10
6.65614020
 20
6.07417724
  0
VERTEX
  8
0
 10
5.86146509
 20
5.46389001
  0
VERTEX
  8
0
 10
6.04366721
 20
5.28690770
  0
VERTEX
  8
0
 10
6.25223518
 20
5.11030173
  0
VERTEX
  8
0
 10
6.35153943
 20
5.01435688
  0
VERTEX
  8
0
 10
6.43959484
 20
4.90916654
  0
VERTEX
  8
0
 10
6.51045464
 20
4.79161751
  0
VERTEX
  8
0
 10
6.55817205
 20
4.65859658
  0
VERTEX
  8
0
 10
6.58403794
 20
4.48272434
  0
VERTEX
  8
0
 10
6.58646706
 20
4.28129613
  0
VERTEX
  8
0
 10
6.56446330
 20
4.07377067
  0
VERTEX
  8
0
 10
6.51703060
 20
3.87960671
  0
VERTEX
  8
0
 10
6.56456605
 20
3.81658235
  0
VERTEX
  8
0
 10
6.62618834
 20
3.76759772
  0
VERTEX
  8
0
 10
6.75835636
 20
3.67871080
  0
VERTEX
  8
0
 10
6.76576032
 20
3.67718975
  0
VERTEX
  8
0
 10
6.84602904
 20
3.73905465
  0
VERTEX
  8
0
 10
6.91492287
 20
3.81437261
  0
VERTEX
  8
0
 10
7.04984618
 20
3.98886763
  0
VERTEX
  8
0
 10
7.19001061
 20
4.16170145
  0
VERTEX
  8
0
 10
7.27690751
 20
4.23187868
  0
VERTEX
  8
0
 10
7.37762893
 20
4.26201992
  0
VERTEX
  8
0
 10
7.45269673
 20
4.24983192
  0
VERTEX
  8
0
 10
7.51477103
 20
4.21466131
  0
VERTEX
  8
0
 10
7.60963977
 20
4.11229200
  0
VERTEX
  8
0
 10
7.68872475
 20
3.99329440
  0
VERTEX
  8
0
 10
7.71474783
 20
3.92485006
  0
VERTEX
  8
0
 10
7.71890069
 20
3.85262870
  0
VERTEX
  8
0
 10
7.68146474
 20
3.77347479
  0
VERTEX
  8
0
 10
7.60394383
 20
3.69859390
  0
VERTEX
  8
0
 10
7.40460694
 20
3.57947641
  0
VERTEX
  8
0
 10
7.18566513
 20
3.48223143
  0
VERTEX
  8
0
 10
7.07148517
 20
3.44485292
  0
VERTEX
  8
0
 10
6.96756327
 20
3.42907404
  0
VERTEX
  8
0
 10
6.81076504
 20
3.45330758
  0
VERTEX
  8
0
 10
6.68177545
 20
3.51801643
  0
VERTEX
  8
0
 10
6.44891113
 20
3.68873733
  0
VERTEX
  8
0
 10
6.23963193
 20
3.47458931
  0
VERTEX
  8
0
 10
6.13759063
 20
3.36617525
  0
VERTEX
  8
0
 10
6.02535647
 20
3.26518266
  0
VERTEX
  8
0
 10
5.54247653
 20
2.91536735
  0
VERTEX
  8
0
 10
5.01435575
 20
2.59612815
  0
VERTEX
  8
0
 10
4.74104438
 20
2.44738841
  0
VERTEX
  8
0
 10
4.45456216
 20
2.32297586
  0
VERTEX
  8
0
 10
4.41465827
 20
2.35962139
  0
VERTEX
  8
0
 10
4.38762542
 20
2.40765381
  0
VERTEX
  8
0
 10
4.33181224
 20
2.51384524
  0
VERTEX
  8
0
 10
4.18239922
 20
2.65822592
  0
VERTEX
  8
0
 10
3.96882081
 20
2.79645050
  0
VERTEX
  8
0
 10
3.72158853
 20
2.90617423
  0
VERTEX
  8
0
 10
3.59488704
 20
2.94336554
  0
VERTEX
  8
0
 10
3.47121390
 20
2.96505236
  0
VERTEX
  8
0
 10
3.31213966
 20
2.97241493
  0
VERTEX
  8
0
 10
3.15692015
 20
2.96505236
  0
VERTEX
  8
0
 10
3.05130830
 20
2.94248074
  0
VERTEX
  8
0
 10
2.95359596
 20
2.90334018
  0
VERTEX
  8
0
 10
2.77450694
 20
2.80116098
  0
VERTEX
  8
0
 10
2.80960858
 20
2.90550990
  0
VERTEX
  8
0
 10
2.87486795
 20
3.00385637
  0
VERTEX
  8
0
 10
2.96434307
 20
3.09429095
  0
VERTEX
  8
0
 10
3.07209197
 20
3.17490418
  0
VERTEX
  8
0
 10
3.19217267
 20
3.24378662
  0
VERTEX
  8
0
 10
3.31864319
 20
3.29902879
  0
VERTEX
  8
0
 10
3.44556157
 20
3.33872127
  0
VERTEX
  8
0
 10
3.56698582
 20
3.36095457
  0
VERTEX
  8
0
 10
3.80652995
 20
3.35829911
  0
VERTEX
  8
0
 10
4.03740438
 20
3.31054497
  0
VERTEX
  8
0
 10
4.24821912
 20
3.23673742
  0
VERTEX
  8
0
 10
4.42758416
 20
3.15592174
  0
VERTEX
  8
0
 10
4.70073645
 20
2.99203037
  0
VERTEX
  8
0
 10
4.84521533
 20
2.89948646
  0
VERTEX
  8
0
 10
4.91772204
 20
2.85941234
  0
VERTEX
  8
0
 10
4.97388875
 20
2.84162799
  0
VERTEX
  8
0
 10
5.02824402
 20
2.85344923
  0
VERTEX
  8
0
 10
5.09651093
 20
2.88531104
  0
VERTEX
  8
0
 10
5.23287759
 20
2.96505236
  0
VERTEX
  8
0
 10
5.46556288
 20
3.10129128
  0
VERTEX
  8
0
 10
5.69381405
 20
3.24814587
  0
VERTEX
  8
0
 10
5.90270609
 20
3.41689877
  0
VERTEX
  8
0
 10
5.99417642
 20
3.51524261
  0
VERTEX
  8
0
 10
6.07394776
 20
3.62596764
  0
VERTEX
  8
0
 10
6.13973370
 20
3.75137609
  0
VERTEX
  8
0
 10
6.18924784
 20
3.89377016
  0
VERTEX
  8
0
 10
6.08704157
 20
3.98792736
  0
VERTEX
  8
0
 10
5.97422897
 20
4.06920538
  0
VERTEX
  8
0
 10
5.73871517
 20
4.22155291
  0
VERTEX
  8
0
 10
5.66992126
 20
4.27618337
  0
VERTEX
  8
0
 10
5.35245190
 20
4.51672922
  0
VERTEX
  8
0
 10
5.02851921
 20
4.76785750
  0
VERTEX
  8
0
 10
4.98858436
 20
4.79657879
  0
VERTEX
  8
0
 10
4.82703046
 20
4.67315040
  0
SEQEND
  0
POLYLINE
  8
Default_Layer
 66
   1
 39
0.000000
 70
    1
  0
VERTEX
  8
0
 10
4.68467349
 20
4.74335997
  0
VERTEX
  8
0
 10
4.37417966
 20
4.87347641
  0
VERTEX
  8
0
 10
4.62551171
 20
5.07178139
  0
VERTEX
  8
0
 10
4.82534917
 20
4.91747676
  0
VERTEX
  8
0
 10
4.86929367
 20
4.88441118
  0
VERTEX
  8
0
 10
4.68467349
 20
4.74335997
  0
SEQEND
  0
POLYLINE
  8
Default_Layer
 66
   1
 39
0.000000
 70
    1
  0
VERTEX
  8
0
 10
4.98336049
 20
4.97155909
  0
VERTEX
  8
0
 10
4.91749136
 20
5.02225305
  0
VERTEX
  8
0
 10
4.73651053
 20
5.15936122
  0
VERTEX
  8
0
 10
4.86672674
 20
5.26210388
  0
VERTEX
  8
0
 10
4.89673423
 20
5.24572690
  0
VERTEX
  8
0
 10
5.07240456
 20
5.14917522
  0
VERTEX
  8
0
 10
5.15433890
 20
5.10218788
  0
VERTEX
  8
0
 10
4.98336049
 20
4.97155909
  0
SEQEND
  0
POLYLINE
  8
Default_Layer
 66
   1
 39
0.000000
 70
    1
  0
VERTEX
  8
0
 10
5.28471339
 20
5.02282360
  0
VERTEX
  8
0
 10
5.30167150
 20
5.01198730
  0
VERTEX
  8
0
 10
5.57482379
 20
4.84946597
  0
VERTEX
  8
0
 10
5.71039126
 20
4.75565897
  0
VERTEX
  8
0
 10
5.87495409
 20
4.63094413
  0
VERTEX
  8
0
 10
6.00308480
 20
4.50252061
  0
VERTEX
  8
0
 10
6.07493893
 20
4.41659115
  0
VERTEX
  8
0
 10
6.13548308
 20
4.31936663
  0
VERTEX
  8
0
 10
6.17974110
 20
4.20587658
  0
VERTEX
  8
0
 10
6.20273684
 20
4.07115054
  0
VERTEX
  8
0
 10
5.90872528
 20
4.26933569
  0
VERTEX
  8
0
 10
5.65643226
 20
4.45356375
  0
VERTEX
  8
0
 10
5.13778012
 20
4.84946597
  0
VERTEX
  8
0
 10
5.09876466
 20
4.88075737
  0
VERTEX
  8
0
 10
5.28471339
 20
5.02282360
  0
SEQEND
  0
ENDSEC
  0
EOF
