  0
SECTION
  2
HEADER
  9
$ACADVER
  1
AC1009
  9
$EXTMIN
 10
0.24923967
 20
2.90538034
 30
0.0
  9
$EXTMAX
 10
9.75076033
 20
7.09461966
 30
0.0
  0
ENDSEC
  0
SECTION
  2
TABLES
  0
TABLE
  2
LAYER
 70
1
 0
LAYER
 2
Default_Layer
 70
0
 62
1
 6
CONTINUOUS
 0
ENDTAB
 0
ENDSEC
  0
SECTION
  2
ENTITIES
  0
POLYLINE
  8
Default_Layer
 66
   1
 39
0.000000
 70
    1
  0
VERTEX
  8
0
 10
1.31069601
 20
5.29639636
 42
0.41421356
  0
VERTEX
  8
0
 10
1.35239601
 20
5.25469636
  0
VERTEX
  8
0
 10
1.35489601
 20
5.25469636
 42
0.41421356
  0
VERTEX
  8
0
 10
1.39659601
 20
5.29639636
  0
VERTEX
  8
0
 10
1.39659601
 20
5.61174196
 42
0.41421356
  0
VERTEX
  8
0
 10
1.35489601
 20
5.65344196
  0
VERTEX
  8
0
 10
1.35239601
 20
5.65344196
 42
0.41421356
  0
VERTEX
  8
0
 10
1.31069601
 20
5.61174196
  0
VERTEX
  8
0
 10
1.31069601
 20
5.29639636
  0
SEQEND
  0
POLYLINE
  8
Default_Layer
 66
   1
 39
0.000000
 70
    1
  0
VERTEX
  8
0
 10
9.15566400
 20
3.49021693
  0
VERTEX
  8
0
 10
9.16815379
 20
3.53071323
  0
VERTEX
  8
0
 10
9.16941781
 20
3.58255840
  0
VERTEX
  8
0
 10
9.17709761
 20
3.62811087
  0
VERTEX
  8
0
 10
9.20883472
 20
3.64972909
  0
VERTEX
  8
0
 10
9.28424141
 20
3.64712445
  0
VERTEX
  8
0
 10
9.31696499
 20
3.65087112
  0
VERTEX
  8
0
 10
9.32830474
 20
3.67598624
  0
VERTEX
  8
0
 10
9.27873283
 20
3.69543297
  0
VERTEX
  8
0
 10
9.23244016
 20
3.69498620
  0
VERTEX
  8
0
 10
9.19178593
 20
3.67849729
  0
VERTEX
  8
0
 10
9.15912937
 20
3.64981755
  0
VERTEX
  8
0
 10
9.12724608
 20
3.57129091
  0
VERTEX
  8
0
 10
9.13273778
 20
3.52914667
  0
VERTEX
  8
0
 10
9.15566400
 20
3.49021693
  0
SEQEND
  0
POLYLINE
  8
Default_Layer
 66
   1
 39
0.000000
 70
    1
  0
VERTEX
  8
0
 10
8.01216524
 20
3.51647407
  0
VERTEX
  8
0
 10
8.22612090
 20
3.48916768
  0
VERTEX
  8
0
 10
8.45949588
 20
3.48421618
  0
VERTEX
  8
0
 10
8.90293896
 20
3.51647407
  0
VERTEX
  8
0
 10
9.01524731
 20
3.52440168
  0
VERTEX
  8
0
 10
9.06309355
 20
3.54186086
  0
VERTEX
  8
0
 10
9.08936470
 20
3.58342980
  0
VERTEX
  8
0
 10
8.89164994
 20
3.58817237
  0
VERTEX
  8
0
 10
8.69191406
 20
3.57131137
  0
VERTEX
  8
0
 10
8.49479542
 20
3.56379173
  0
VERTEX
  8
0
 10
8.39866707
 20
3.57320520
  0
VERTEX
  8
0
 10
8.30493243
 20
3.59655837
  0
VERTEX
  8
0
 10
8.26070791
 20
3.64538262
  0
VERTEX
  8
0
 10
8.23159716
 20
3.70932063
  0
VERTEX
  8
0
 10
8.18546241
 20
3.84928341
  0
VERTEX
  8
0
 10
8.01827214
 20
3.84823114
  0
VERTEX
  8
0
 10
7.86643807
 20
3.86241199
  0
VERTEX
  8
0
 10
7.92029406
 20
3.67049697
  0
VERTEX
  8
0
 10
8.01216524
 20
3.51647407
  0
SEQEND
  0
POLYLINE
  8
Default_Layer
 66
   1
 39
0.000000
 70
    1
  0
VERTEX
  8
0
 10
5.43371339
 20
5.29802151
  0
VERTEX
  8
0
 10
5.35921038
 20
5.14920379
  0
VERTEX
  8
0
 10
5.29039702
 20
4.96840599
  0
VERTEX
  8
0
 10
5.23150830
 20
4.76486239
  0
VERTEX
  8
0
 10
5.18677921
 20
4.54780726
  0
VERTEX
  8
0
 10
5.16044475
 20
4.32647487
  0
VERTEX
  8
0
 10
5.15673991
 20
4.11009951
  0
VERTEX
  8
0
 10
5.17989968
 20
3.90791545
  0
VERTEX
  8
0
 10
5.23415907
 20
3.72915696
  0
VERTEX
  8
0
 10
6.89558005
 20
3.56964480
  0
VERTEX
  8
0
 10
6.95303504
 20
3.94398448
  0
VERTEX
  8
0
 10
6.97812998
 20
4.02421574
  0
VERTEX
  8
0
 10
7.01615933
 20
4.09103642
  0
VERTEX
  8
0
 10
7.07144404
 20
4.14041194
  0
VERTEX
  8
0
 10
7.14830510
 20
4.16830775
  0
VERTEX
  8
0
 10
7.27224814
 20
4.16333423
  0
VERTEX
  8
0
 10
7.42728728
 20
4.14139418
  0
VERTEX
  8
0
 10
7.58202524
 20
4.12560190
  0
VERTEX
  8
0
 10
7.70692590
 20
4.10135203
  0
VERTEX
  8
0
 10
7.75434148
 20
4.06781502
  0
VERTEX
  8
0
 10
7.79568971
 20
4.02458758
  0
VERTEX
  8
0
 10
7.83909836
 20
3.99315701
  0
VERTEX
  8
0
 10
7.89269522
 20
3.99501058
  0
VERTEX
  8
0
 10
7.91167245
 20
4.09572260
  0
VERTEX
  8
0
 10
7.94972928
 20
4.17734734
  0
VERTEX
  8
0
 10
8.00577417
 20
4.24098402
  0
VERTEX
  8
0
 10
8.07871556
 20
4.28773188
  0
VERTEX
  8
0
 10
8.16746192
 20
4.31869016
  0
VERTEX
  8
0
 10
8.27092170
 20
4.33495811
  0
VERTEX
  8
0
 10
8.51761532
 20
4.32781992
  0
VERTEX
  8
0
 10
8.55238631
 20
4.36587662
  0
VERTEX
  8
0
 10
8.57018908
 20
4.42105538
  0
VERTEX
  8
0
 10
8.58829034
 20
4.47605874
  0
VERTEX
  8
0
 10
8.62395677
 20
4.51358924
  0
VERTEX
  8
0
 10
8.86980136
 20
4.54680888
  0
VERTEX
  8
0
 10
8.98920584
 20
4.56710576
  0
VERTEX
  8
0
 10
9.08936470
 20
4.60680211
  0
VERTEX
  8
0
 10
9.19481605
 20
4.58607555
  0
VERTEX
  8
0
 10
9.31517617
 20
4.57988853
  0
VERTEX
  8
0
 10
9.27827537
 20
4.61226674
  0
VERTEX
  8
0
 10
9.23062148
 20
4.62888853
  0
VERTEX
  8
0
 10
9.12875042
 20
4.64684426
  0
VERTEX
  8
0
 10
8.88280152
 20
4.69636541
  0
VERTEX
  8
0
 10
8.61508650
 20
4.72966081
  0
VERTEX
  8
0
 10
8.04084281
 20
4.75266580
  0
VERTEX
  8
0
 10
7.45898873
 20
4.72604217
  0
VERTEX
  8
0
 10
6.92249363
 20
4.65997283
  0
VERTEX
  8
0
 10
6.82103874
 20
4.80443767
  0
VERTEX
  8
0
 10
6.73126775
 20
4.96061717
  0
VERTEX
  8
0
 10
6.56342714
 20
5.28489293
  0
VERTEX
  8
0
 10
6.95343781
 20
5.32694541
  0
VERTEX
  8
0
 10
7.37411656
 20
5.33806366
  0
VERTEX
  8
0
 10
7.49451354
 20
5.32848945
  0
VERTEX
  8
0
 10
7.55139283
 20
5.33159830
  0
VERTEX
  8
0
 10
7.60058446
 20
5.35119223
  0
VERTEX
  8
0
 10
7.06234968
 20
5.39607380
  0
VERTEX
  8
0
 10
6.49468244
 20
5.40427244
  0
VERTEX
  8
0
 10
5.93824844
 20
5.37263830
  0
VERTEX
  8
0
 10
5.43371339
 20
5.29802151
  0
SEQEND
  0
POLYLINE
  8
Default_Layer
 66
   1
 39
0.000000
 70
    1
  0
VERTEX
  8
0
 10
5.12781762
 20
4.92582645
  0
VERTEX
  8
0
 10
5.13235982
 20
4.89040855
  0
VERTEX
  8
0
 10
5.14094619
 20
4.85952715
  0
VERTEX
  8
0
 10
5.20790192
 20
4.85952715
  0
VERTEX
  8
0
 10
5.22067470
 20
4.89272489
  0
VERTEX
  8
0
 10
5.22103049
 20
4.93895502
  0
VERTEX
  8
0
 10
5.16754736
 20
4.93914435
  0
VERTEX
  8
0
 10
5.12781762
 20
4.92582645
  0
SEQEND
  0
POLYLINE
  8
Default_Layer
 66
   1
 39
0.000000
 70
    1
  0
VERTEX
  8
0
 10
5.99167776
 20
6.42773527
  0
VERTEX
  8
0
 10
5.92602657
 20
6.69982106
  0
VERTEX
  8
0
 10
5.87846304
 20
6.81797625
  0
VERTEX
  8
0
 10
5.81903702
 20
6.89314320
  0
VERTEX
  8
0
 10
5.70816693
 20
6.93661731
  0
VERTEX
  8
0
 10
5.55690810
 20
6.96053621
  0
VERTEX
  8
0
 10
5.24728764
 20
6.98635607
  0
VERTEX
  8
0
 10
4.62302397
 20
7.03952680
  0
VERTEX
  8
0
 10
4.20622307
 20
7.05257332
  0
VERTEX
  8
0
 10
3.82546312
 20
7.03952680
  0
VERTEX
  8
0
 10
3.56680069
 20
7.01846563
  0
VERTEX
  8
0
 10
3.30688446
 20
6.98635607
  0
VERTEX
  8
0
 10
1.15314197
 20
6.50781956
  0
VERTEX
  8
0
 10
0.72302457
 20
6.40719705
  0
VERTEX
  8
0
 10
0.31619540
 20
6.29513667
  0
VERTEX
  8
0
 10
0.31822969
 20
5.38663952
  0
VERTEX
  8
0
 10
0.32932397
 20
4.48733209
  0
VERTEX
  8
0
 10
0.44453423
 20
4.37979507
  0
VERTEX
  8
0
 10
0.57580822
 20
4.28836793
  0
VERTEX
  8
0
 10
0.73662386
 20
4.22651322
  0
VERTEX
  8
0
 10
0.94045907
 20
4.20769347
  0
VERTEX
  8
0
 10
0.96168933
 20
4.32634074
  0
VERTEX
  8
0
 10
0.97463373
 20
4.38326711
  0
VERTEX
  8
0
 10
1.00741480
 20
4.42037636
  0
VERTEX
  8
0
 10
1.16352008
 20
4.41079827
  0
VERTEX
  8
0
 10
1.31265414
 20
4.39411922
  0
VERTEX
  8
0
 10
1.33436024
 20
4.36245474
  0
VERTEX
  8
0
 10
1.34364198
 20
4.31843075
  0
VERTEX
  8
0
 10
1.35745087
 20
4.27893724
  0
VERTEX
  8
0
 10
1.39273843
 20
4.26086419
  0
VERTEX
  8
0
 10
1.40530250
 20
4.29150779
  0
VERTEX
  8
0
 10
1.40558702
 20
4.33447625
  0
VERTEX
  8
0
 10
1.41273992
 20
4.37067030
  0
VERTEX
  8
0
 10
1.44590916
 20
4.38099064
  0
VERTEX
  8
0
 10
1.55225060
 20
4.38099064
  0
VERTEX
  8
0
 10
1.58438609
 20
4.35856325
  0
VERTEX
  8
0
 10
1.60452108
 20
4.32227074
  0
VERTEX
  8
0
 10
1.62296099
 20
4.22486414
  0
VERTEX
  8
0
 10
1.63591320
 20
4.12231846
  0
VERTEX
  8
0
 10
1.67172062
 20
4.04818130
  0
VERTEX
  8
0
 10
1.67172062
 20
4.36720564
  0
VERTEX
  8
0
 10
1.79941857
 20
4.36873234
  0
VERTEX
  8
0
 10
1.86101485
 20
4.36710723
  0
VERTEX
  8
0
 10
1.91131709
 20
4.35407707
  0
VERTEX
  8
0
 10
1.91131709
 20
4.03505273
  0
VERTEX
  8
0
 10
2.41121801
 20
3.96365224
  0
VERTEX
  8
0
 10
2.92156083
 20
3.90245414
  0
VERTEX
  8
0
 10
2.96795052
 20
4.15477564
  0
VERTEX
  8
0
 10
3.00245386
 20
4.41919906
  0
VERTEX
  8
0
 10
3.03638872
 20
4.68437524
  0
VERTEX
  8
0
 10
3.08107300
 20
4.93895502
  0
VERTEX
  8
0
 10
3.62744920
 20
4.91240330
  0
VERTEX
  8
0
 10
4.17782809
 20
4.92203534
  0
VERTEX
  8
0
 10
5.23415907
 20
4.97899717
  0
VERTEX
  8
0
 10
5.28035510
 20
5.06896650
  0
VERTEX
  8
0
 10
5.31761034
 20
5.16798432
  0
VERTEX
  8
0
 10
5.35974638
 20
5.26227518
  0
VERTEX
  8
0
 10
5.42058481
 20
5.33806366
  0
VERTEX
  8
0
 10
5.56742854
 20
5.37361736
  0
VERTEX
  8
0
 10
5.73089289
 20
5.39275044
  0
VERTEX
  8
0
 10
6.05863349
 20
5.43062010
  0
VERTEX
  8
0
 10
6.07042436
 20
5.69367079
  0
VERTEX
  8
0
 10
6.06109066
 20
5.94303836
  0
VERTEX
  8
0
 10
6.03378945
 20
6.18547559
  0
VERTEX
  8
0
 10
5.99167776
 20
6.42773527
  0
SEQEND
  0
POLYLINE
  8
Default_Layer
 66
   1
 39
0.000000
 70
    1
  0
VERTEX
  8
0
 10
3.70533667
 20
6.90627177
  0
VERTEX
  8
0
 10
3.76920052
 20
6.51358340
  0
VERTEX
  8
0
 10
3.84621254
 20
6.11420754
  0
VERTEX
  8
0
 10
3.90267520
 20
5.70207284
  0
VERTEX
  8
0
 10
3.91267005
 20
5.48932362
  0
VERTEX
  8
0
 10
3.90489099
 20
5.27110793
  0
VERTEX
  8
0
 10
3.88353696
 20
5.09457975
  0
VERTEX
  8
0
 10
3.88354502
 20
5.00812793
  0
VERTEX
  8
0
 10
3.90489099
 20
4.92582645
  0
VERTEX
  8
0
 10
3.95288369
 20
5.18139156
  0
VERTEX
  8
0
 10
3.96851191
 20
5.43925102
  0
VERTEX
  8
0
 10
3.95801891
 20
5.69734789
  0
VERTEX
  8
0
 10
3.92764797
 20
5.95362522
  0
VERTEX
  8
0
 10
3.83224535
 20
6.45249351
  0
VERTEX
  8
0
 10
3.73225025
 20
6.91940035
  0
VERTEX
  8
0
 10
3.70533667
 20
6.94631392
  0
VERTEX
  8
0
 10
3.69586709
 20
6.92399216
  0
VERTEX
  8
0
 10
3.70533667
 20
6.90627177
  0
SEQEND
  0
POLYLINE
  8
Default_Layer
 66
   1
 39
0.000000
 70
    1
  0
VERTEX
  8
0
 10
3.17362944
 20
6.65354673
  0
VERTEX
  8
0
 10
3.15727624
 20
6.30799564
  0
VERTEX
  8
0
 10
3.17362944
 20
5.96232733
  0
VERTEX
  8
0
 10
3.23752230
 20
5.93767563
  0
VERTEX
  8
0
 10
3.31432528
 20
5.93784681
  0
VERTEX
  8
0
 10
3.38724374
 20
5.95698665
  0
VERTEX
  8
0
 10
3.43948306
 20
5.98924091
  0
VERTEX
  8
0
 10
3.45777173
 20
6.36312819
  0
VERTEX
  8
0
 10
3.44910511
 20
6.55237995
  0
VERTEX
  8
0
 10
3.41322591
 20
6.70671745
  0
VERTEX
  8
0
 10
3.28524337
 20
6.70200466
  0
VERTEX
  8
0
 10
3.17362944
 20
6.65354673
  0
SEQEND
  0
POLYLINE
  8
Default_Layer
 66
   1
 39
0.000000
 70
    1
  0
VERTEX
  8
0
 10
3.45326806
 20
6.89314320
  0
VERTEX
  8
0
 10
1.99227933
 20
6.61285494
  0
VERTEX
  8
0
 10
0.54200687
 20
6.30826525
  0
VERTEX
  8
0
 10
0.44694405
 20
6.29072268
  0
VERTEX
  8
0
 10
0.40292307
 20
6.27343911
  0
VERTEX
  8
0
 10
0.36936612
 20
6.24196595
  0
VERTEX
  8
0
 10
0.77288191
 20
6.29900253
  0
VERTEX
  8
0
 10
1.18073942
 20
6.37532479
  0
VERTEX
  8
0
 10
2.00387353
 20
6.54720529
  0
VERTEX
  8
0
 10
3.55960951
 20
6.83997248
  0
VERTEX
  8
0
 10
3.60274419
 20
6.84350772
  0
VERTEX
  8
0
 10
3.63903738
 20
6.86622962
  0
VERTEX
  8
0
 10
3.60168110
 20
6.90238271
  0
VERTEX
  8
0
 10
3.54729244
 20
6.90956238
  0
VERTEX
  8
0
 10
3.45326806
 20
6.89314320
  0
SEQEND
  0
POLYLINE
  8
Default_Layer
 66
   1
 39
0.000000
 70
    1
  0
VERTEX
  8
0
 10
0.24923967
 20
5.94919876
  0
VERTEX
  8
0
 10
0.24923967
 20
6.30826525
  0
VERTEX
  8
0
 10
0.43210950
 20
6.38164083
  0
VERTEX
  8
0
 10
0.62874650
 20
6.43413086
  0
VERTEX
  8
0
 10
1.04680052
 20
6.52094814
  0
VERTEX
  8
0
 10
2.69509293
 20
6.89314320
  0
VERTEX
  8
0
 10
3.11659581
 20
7.00067041
  0
VERTEX
  8
0
 10
3.32210460
 20
7.04813097
  0
VERTEX
  8
0
 10
3.51956736
 20
7.07891252
  0
VERTEX
  8
0
 10
3.81596154
 20
7.09429798
  0
VERTEX
  8
0
 10
4.11757388
 20
7.09269752
  0
VERTEX
  8
0
 10
4.72078111
 20
7.07198356
  0
VERTEX
  8
0
 10
5.28732979
 20
7.02574179
  0
VERTEX
  8
0
 10
5.56881294
 20
6.99808822
  0
VERTEX
  8
0
 10
5.70879982
 20
6.97370910
  0
VERTEX
  8
0
 10
5.81903702
 20
6.93318535
  0
VERTEX
  8
0
 10
5.87615838
 20
6.88544720
  0
VERTEX
  8
0
 10
5.92196962
 20
6.81870793
  0
VERTEX
  8
0
 10
5.98675525
 20
6.64413443
  0
VERTEX
  8
0
 10
6.02758088
 20
6.44128154
  0
VERTEX
  8
0
 10
6.05863349
 20
6.24196595
  0
VERTEX
  8
0
 10
6.11393097
 20
5.81425053
  0
VERTEX
  8
0
 10
6.13806136
 20
5.45753368
  0
VERTEX
  8
0
 10
6.69351188
 20
5.44137050
  0
VERTEX
  8
0
 10
7.24151797
 20
5.43062010
  0
VERTEX
  8
0
 10
7.43880639
 20
5.42992085
  0
VERTEX
  8
0
 10
7.52902854
 20
5.42364367
  0
VERTEX
  8
0
 10
7.60058446
 20
5.40436295
  0
VERTEX
  8
0
 10
7.64382049
 20
5.36992562
  0
VERTEX
  8
0
 10
7.67620322
 20
5.32209328
  0
VERTEX
  8
0
 10
7.74631162
 20
5.21793721
  0
VERTEX
  8
0
 10
7.99903666
 20
5.00525432
  0
VERTEX
  8
0
 10
8.26489028
 20
4.79257143
  0
VERTEX
  8
0
 10
8.62654325
 20
4.77880104
  0
VERTEX
  8
0
 10
8.95771942
 20
4.73450770
  0
VERTEX
  8
0
 10
9.26150536
 20
4.66279336
  0
VERTEX
  8
0
 10
9.54098763
 20
4.56675996
  0
VERTEX
  8
0
 10
9.57938013
 20
4.49218518
  0
VERTEX
  8
0
 10
9.63420051
 20
4.43416137
  0
VERTEX
  8
0
 10
9.64936087
 20
4.30302018
  0
VERTEX
  8
0
 10
9.66045765
 20
4.16830775
  0
VERTEX
  8
0
 10
9.70570522
 20
4.11717216
  0
VERTEX
  8
0
 10
9.74054195
 20
4.04818130
  0
VERTEX
  8
0
 10
9.75031830
 20
3.92703073
  0
VERTEX
  8
0
 10
9.73266800
 20
3.79756844
  0
VERTEX
  8
0
 10
9.69565145
 20
3.68378900
  0
VERTEX
  8
0
 10
9.64732908
 20
3.60968694
  0
VERTEX
  8
0
 10
9.62221853
 20
3.57830617
  0
VERTEX
  8
0
 10
9.61557809
 20
3.52847066
  0
VERTEX
  8
0
 10
9.60823832
 20
3.47936525
  0
VERTEX
  8
0
 10
9.58102978
 20
3.45017478
  0
VERTEX
  8
0
 10
9.35521832
 20
3.41013263
  0
VERTEX
  8
0
 10
9.25599992
 20
3.28843603
  0
VERTEX
  8
0
 10
9.14094954
 20
3.19183808
  0
VERTEX
  8
0
 10
9.07227210
 20
3.15952343
  0
VERTEX
  8
0
 10
8.99337835
 20
3.14137025
  0
VERTEX
  8
0
 10
8.90218218
 20
3.14000746
  0
VERTEX
  8
0
 10
8.79659751
 20
3.15806401
  0
VERTEX
  8
0
 10
8.72508529
 20
3.19057964
  0
VERTEX
  8
0
 10
8.66345726
 20
3.23799598
  0
VERTEX
  8
0
 10
8.59865382
 20
3.28532438
  0
VERTEX
  8
0
 10
8.51761532
 20
3.31757618
  0
VERTEX
  8
0
 10
8.37292228
 20
3.32183491
  0
VERTEX
  8
0
 10
8.23863313
 20
3.31757618
  0
VERTEX
  8
0
 10
8.11341659
 20
3.34888446
  0
VERTEX
  8
0
 10
8.05257302
 20
3.36145073
  0
VERTEX
  8
0
 10
7.98590809
 20
3.35696190
  0
VERTEX
  8
0
 10
7.88974282
 20
3.13136445
  0
VERTEX
  8
0
 10
7.82765080
 20
3.03190549
  0
VERTEX
  8
0
 10
7.73318305
 20
2.95850969
  0
VERTEX
  8
0
 10
7.59496884
 20
2.91255928
  0
VERTEX
  8
0
 10
7.46553101
 20
2.90778048
  0
VERTEX
  8
0
 10
7.34764861
 20
2.93846269
  0
VERTEX
  8
0
 10
7.24410070
 20
2.99889530
  0
VERTEX
  8
0
 10
7.15766634
 20
3.08336771
  0
VERTEX
  8
0
 10
7.09112458
 20
3.18616930
  0
VERTEX
  8
0
 10
7.04725447
 20
3.30158948
  0
VERTEX
  8
0
 10
7.02883508
 20
3.42391763
  0
VERTEX
  8
0
 10
6.95329256
 20
3.37865009
  0
VERTEX
  8
0
 10
6.85619433
 20
3.35696190
  0
VERTEX
  8
0
 10
6.72120719
 20
3.36451275
  0
VERTEX
  8
0
 10
6.57655572
 20
3.38387548
  0
VERTEX
  8
0
 10
5.57109852
 20
3.50286621
  0
VERTEX
  8
0
 10
4.56985324
 20
3.60968694
  0
VERTEX
  8
0
 10
4.49623109
 20
3.46233036
  0
VERTEX
  8
0
 10
4.45622423
 20
3.40280370
  0
VERTEX
  8
0
 10
4.39655607
 20
3.35696190
  0
VERTEX
  8
0
 10
4.28826996
 20
3.32073051
  0
VERTEX
  8
0
 10
4.18106633
 20
3.31902149
  0
VERTEX
  8
0
 10
4.07990975
 20
3.34759156
  0
VERTEX
  8
0
 10
3.98976476
 20
3.40219741
  0
VERTEX
  8
0
 10
3.91559591
 20
3.47859575
  0
VERTEX
  8
0
 10
3.86236774
 20
3.57254327
  0
VERTEX
  8
0
 10
3.83504482
 20
3.67979669
  0
VERTEX
  8
0
 10
3.83859169
 20
3.79611269
  0
VERTEX
  8
0
 10
3.75590068
 20
3.79652935
  0
VERTEX
  8
0
 10
3.66981525
 20
3.82658951
  0
VERTEX
  8
0
 10
3.58163356
 20
3.86455037
  0
VERTEX
  8
0
 10
3.49265378
 20
3.88866913
  0
VERTEX
  8
0
 10
3.37097309
 20
3.88854507
  0
VERTEX
  8
0
 10
3.22965556
 20
3.87241935
  0
VERTEX
  8
0
 10
3.07361765
 20
3.85457209
  0
VERTEX
  8
0
 10
2.90777583
 20
3.84928341
  0
VERTEX
  8
0
 10
2.66691847
 20
3.87596566
  0
VERTEX
  8
0
 10
2.41611075
 20
3.91558271
  0
VERTEX
  8
0
 10
2.09073308
 20
3.96186163
  0
VERTEX
  8
0
 10
1.95586175
 20
3.95607996
  0
VERTEX
  8
0
 10
1.90579499
 20
3.93658648
  0
VERTEX
  8
0
 10
1.87127494
 20
3.90245414
  0
VERTEX
  8
0
 10
1.84436137
 20
3.82236984
  0
VERTEX
  8
0
 10
1.80613739
 20
3.78279145
  0
VERTEX
  8
0
 10
1.75761215
 20
3.75747157
  0
VERTEX
  8
0
 10
1.64364183
 20
3.74464430
  0
VERTEX
  8
0
 10
1.53041822
 20
3.77396194
  0
VERTEX
  8
0
 10
1.44590916
 20
3.83549841
  0
VERTEX
  8
0
 10
1.39494224
 20
3.80720821
  0
VERTEX
  8
0
 10
1.33956771
 20
3.80924126
  0
VERTEX
  8
0
 10
1.27761116
 20
3.82785745
  0
VERTEX
  8
0
 10
1.24635484
 20
3.84928341
  0
VERTEX
  8
0
 10
1.15314197
 20
3.86241199
  0
VERTEX
  8
0
 10
1.05890997
 20
3.88534794
  0
VERTEX
  8
0
 10
1.01123457
 20
3.94571661
  0
VERTEX
  8
0
 10
0.98807053
 20
4.03746066
  0
VERTEX
  8
0
 10
0.96737265
 20
4.15452275
  0
VERTEX
  8
0
 10
0.79930398
 20
4.16384613
  0
VERTEX
  8
0
 10
0.66396053
 20
4.20177742
  0
VERTEX
  8
0
 10
0.55067847
 20
4.25940566
  0
VERTEX
  8
0
 10
0.44879399
 20
4.32781992
  0
VERTEX
  8
0
 10
0.34134385
 20
4.39929735
  0
VERTEX
  8
0
 10
0.30012137
 20
4.43461405
  0
VERTEX
  8
0
 10
0.27615325
 20
4.47354709
  0
VERTEX
  8
0
 10
0.26407136
 20
4.55205990
  0
VERTEX
  8
0
 10
0.26537276
 20
4.64640988
  0
VERTEX
  8
0
 10
0.27615325
 20
4.84574215
  0
VERTEX
  8
0
 10
0.24923967
 20
5.94919876
  0
SEQEND
  0
POLYLINE
  8
Default_Layer
 66
   1
 39
0.000000
 70
    1
  0
VERTEX
  8
0
 10
2.10670809
 20
6.24196595
  0
VERTEX
  8
0
 10
2.12030181
 20
6.15572430
  0
VERTEX
  8
0
 10
2.11983666
 20
6.05554020
  0
VERTEX
  8
0
 10
2.06367832
 20
6.04527351
  0
VERTEX
  8
0
 10
2.00036664
 20
6.04241163
  0
VERTEX
  8
0
 10
1.99291924
 20
6.11879725
  0
VERTEX
  8
0
 10
1.99465199
 20
6.18972290
  0
VERTEX
  8
0
 10
2.02582743
 20
6.23688149
  0
VERTEX
  8
0
 10
2.10670809
 20
6.24196595
  0
SEQEND
  0
POLYLINE
  8
Default_Layer
 66
   1
 39
0.000000
 70
    1
  0
VERTEX
  8
0
 10
2.00415835
 20
5.98924091
  0
VERTEX
  8
0
 10
2.00309566
 20
5.88184009
  0
VERTEX
  8
0
 10
2.00924481
 20
5.83481894
  0
VERTEX
  8
0
 10
2.03041550
 20
5.80281516
  0
VERTEX
  8
0
 10
2.11049980
 20
5.80281516
  0
VERTEX
  8
0
 10
2.13084146
 20
5.90616455
  0
VERTEX
  8
0
 10
2.11049980
 20
6.01549806
  0
VERTEX
  8
0
 10
2.00415835
 20
5.98924091
  0
SEQEND
  0
POLYLINE
  8
Default_Layer
 66
   1
 39
0.000000
 70
    1
  0
VERTEX
  8
0
 10
4.84883543
 20
4.91269787
  0
VERTEX
  8
0
 10
4.85378028
 20
4.86434891
  0
VERTEX
  8
0
 10
4.86196401
 20
4.81948500
  0
VERTEX
  8
0
 10
5.10156047
 20
4.81948500
  0
VERTEX
  8
0
 10
5.07464690
 20
4.92582645
  0
VERTEX
  8
0
 10
4.95368939
 20
4.92707375
  0
VERTEX
  8
0
 10
4.89562484
 20
4.92544771
  0
VERTEX
  8
0
 10
4.84883543
 20
4.91269787
  0
SEQEND
  0
POLYLINE
  8
Default_Layer
 66
   1
 39
0.000000
 70
    1
  0
VERTEX
  8
0
 10
4.51668252
 20
4.89891287
  0
VERTEX
  8
0
 10
3.82851240
 20
4.87953284
  0
VERTEX
  8
0
 10
3.46323766
 20
4.87301636
  0
VERTEX
  8
0
 10
3.10733014
 20
4.88578430
  0
VERTEX
  8
0
 10
3.03636101
 20
4.39854556
  0
VERTEX
  8
0
 10
2.97473155
 20
3.90245414
  0
VERTEX
  8
0
 10
3.21031169
 20
3.91219371
  0
VERTEX
  8
0
 10
3.42635448
 20
3.94183986
  0
VERTEX
  8
0
 10
3.39029609
 20
4.00054892
  0
VERTEX
  8
0
 10
3.37318376
 20
4.07509488
  0
VERTEX
  8
0
 10
3.38382371
 20
4.12673416
  0
VERTEX
  8
0
 10
3.40009734
 20
4.18143632
  0
VERTEX
  8
0
 10
3.40617344
 20
4.49094383
  0
VERTEX
  8
0
 10
3.42889948
 20
4.63488408
  0
VERTEX
  8
0
 10
3.45434015
 20
4.69358041
  0
VERTEX
  8
0
 10
3.49265378
 20
4.73940070
  0
VERTEX
  8
0
 10
4.39655607
 20
4.81948500
  0
VERTEX
  8
0
 10
4.54005866
 20
4.81464426
  0
VERTEX
  8
0
 10
4.60759849
 20
4.82395493
  0
VERTEX
  8
0
 10
4.66240969
 20
4.85952715
  0
VERTEX
  8
0
 10
4.64207253
 20
4.90466969
  0
VERTEX
  8
0
 10
4.60272540
 20
4.91388294
  0
VERTEX
  8
0
 10
4.51668252
 20
4.89891287
  0
SEQEND
  0
POLYLINE
  8
Default_Layer
 66
   1
 39
0.000000
 70
    1
  0
VERTEX
  8
0
 10
4.68932326
 20
4.88578430
  0
VERTEX
  8
0
 10
4.70179879
 20
4.87509764
  0
VERTEX
  8
0
 10
4.70419783
 20
4.85431910
  0
VERTEX
  8
0
 10
4.71558041
 20
4.81948500
  0
VERTEX
  8
0
 10
4.82192186
 20
4.81948500
  0
VERTEX
  8
0
 10
4.81125376
 20
4.86836729
  0
VERTEX
  8
0
 10
4.79566471
 20
4.91269787
  0
VERTEX
  8
0
 10
4.72841293
 20
4.91307931
  0
VERTEX
  8
0
 10
4.70144502
 20
4.90680831
  0
VERTEX
  8
0
 10
4.68932326
 20
4.88578430
  0
SEQEND
  0
POLYLINE
  8
Default_Layer
 66
   1
 39
0.000000
 70
    1
  0
VERTEX
  8
0
 10
5.15473120
 20
4.70001498
  0
VERTEX
  8
0
 10
5.10440403
 20
4.73736833
  0
VERTEX
  8
0
 10
5.04379906
 20
4.74361690
  0
VERTEX
  8
0
 10
4.91513473
 20
4.72627213
  0
VERTEX
  8
0
 10
4.74249399
 20
4.72627213
  0
VERTEX
  8
0
 10
4.34723618
 20
4.75011729
  0
VERTEX
  8
0
 10
4.15505530
 20
4.75139685
  0
VERTEX
  8
0
 10
3.97119029
 20
4.73940070
  0
VERTEX
  8
0
 10
4.57956424
 20
4.70569165
  0
VERTEX
  8
0
 10
4.87921872
 20
4.69513002
  0
VERTEX
  8
0
 10
5.15473120
 20
4.70001498
  0
SEQEND
  0
POLYLINE
  8
Default_Layer
 66
   1
 39
0.000000
 70
    1
  0
VERTEX
  8
0
 10
3.53269593
 20
4.71314356
  0
VERTEX
  8
0
 10
3.49493576
 20
4.67844739
  0
VERTEX
  8
0
 10
3.47831970
 20
4.63764045
  0
VERTEX
  8
0
 10
3.48593343
 20
4.53935891
  0
VERTEX
  8
0
 10
3.51036411
 20
4.42162824
  0
VERTEX
  8
0
 10
3.50643878
 20
4.28777777
  0
VERTEX
  8
0
 10
3.57687568
 20
4.26857384
  0
VERTEX
  8
0
 10
3.65888963
 20
4.26087335
  0
VERTEX
  8
0
 10
3.82546312
 20
4.24773562
  0
VERTEX
  8
0
 10
3.87490443
 20
4.31367871
  0
VERTEX
  8
0
 10
3.90127165
 20
4.34530977
  0
VERTEX
  8
0
 10
3.94493314
 20
4.36720564
  0
VERTEX
  8
0
 10
4.09827007
 20
4.36494374
  0
VERTEX
  8
0
 10
4.26395748
 20
4.32781992
  0
VERTEX
  8
0
 10
4.30802205
 20
4.29531118
  0
VERTEX
  8
0
 10
4.33686514
 20
4.25658438
  0
VERTEX
  8
0
 10
4.38342750
 20
4.19456490
  0
VERTEX
  8
0
 10
4.87509258
 20
4.15452275
  0
VERTEX
  8
0
 10
4.99475208
 20
4.16105529
  0
VERTEX
  8
0
 10
5.04929317
 20
4.15175589
  0
VERTEX
  8
0
 10
5.08777547
 20
4.11513703
  0
VERTEX
  8
0
 10
5.07674175
 20
4.07914850
  0
VERTEX
  8
0
 10
5.05265801
 20
4.05559107
  0
VERTEX
  8
0
 10
4.97594267
 20
4.03668963
  0
VERTEX
  8
0
 10
4.78253614
 20
4.04818130
  0
VERTEX
  8
0
 10
4.58796560
 20
4.06821930
  0
VERTEX
  8
0
 10
4.41034107
 20
4.07509488
  0
VERTEX
  8
0
 10
4.42236566
 20
3.95731638
  0
VERTEX
  8
0
 10
4.44972679
 20
3.82236984
  0
VERTEX
  8
0
 10
4.81717441
 20
3.76772810
  0
VERTEX
  8
0
 10
5.18098834
 20
3.74294197
  0
VERTEX
  8
0
 10
5.14613341
 20
3.83758697
  0
VERTEX
  8
0
 10
5.12504018
 20
3.94341285
  0
VERTEX
  8
0
 10
5.11465702
 20
4.17672709
  0
VERTEX
  8
0
 10
5.15473120
 20
4.64684426
  0
VERTEX
  8
0
 10
3.53269593
 20
4.71314356
  0
SEQEND
  0
POLYLINE
  8
Default_Layer
 66
   1
 39
0.000000
 70
    1
  0
VERTEX
  8
0
 10
9.18192115
 20
4.30090634
  0
VERTEX
  8
0
 10
9.07356511
 20
4.27310479
  0
VERTEX
  8
0
 10
8.94830032
 20
4.26216416
  0
VERTEX
  8
0
 10
8.69025606
 20
4.24773562
  0
VERTEX
  8
0
 10
8.66309328
 20
4.26377148
  0
VERTEX
  8
0
 10
8.65141866
 20
4.29528013
  0
VERTEX
  8
0
 10
8.63930577
 20
4.32631973
  0
VERTEX
  8
0
 10
8.61082819
 20
4.34094849
  0
VERTEX
  8
0
 10
8.58620707
 20
4.27033360
  0
VERTEX
  8
0
 10
8.58794801
 20
4.17799729
  0
VERTEX
  8
0
 10
8.62395677
 20
4.00879558
  0
VERTEX
  8
0
 10
9.12413116
 20
4.03668006
  0
VERTEX
  8
0
 10
9.37610028
 20
4.06984494
  0
VERTEX
  8
0
 10
9.60728693
 20
4.11513703
  0
VERTEX
  8
0
 10
9.62218943
 20
4.18779682
  0
VERTEX
  8
0
 10
9.61156521
 20
4.25615635
  0
VERTEX
  8
0
 10
9.59551970
 20
4.32703392
  0
VERTEX
  8
0
 10
9.59415836
 20
4.40724779
  0
VERTEX
  8
0
 10
9.56935089
 20
4.39883117
  0
VERTEX
  8
0
 10
9.56598319
 20
4.36900723
  0
VERTEX
  8
0
 10
9.56341039
 20
4.33844659
  0
VERTEX
  8
0
 10
9.54098763
 20
4.32781992
  0
VERTEX
  8
0
 10
9.40004117
 20
4.30901536
  0
VERTEX
  8
0
 10
9.24887687
 20
4.30090634
  0
VERTEX
  8
0
 10
9.20090228
 20
4.48254542
  0
VERTEX
  8
0
 10
9.15784351
 20
4.55050021
  0
VERTEX
  8
0
 10
9.12285398
 20
4.56249284
  0
VERTEX
  8
0
 10
9.07557970
 20
4.55363139
  0
VERTEX
  8
0
 10
9.12895348
 20
4.51709238
  0
VERTEX
  8
0
 10
9.15717296
 20
4.45550678
  0
VERTEX
  8
0
 10
9.18192115
 20
4.30090634
  0
SEQEND
  0
POLYLINE
  8
Default_Layer
 66
   1
 39
0.000000
 70
    1
  0
VERTEX
  8
0
 10
1.08684267
 20
3.99501058
  0
VERTEX
  8
0
 10
1.10298047
 20
4.14930057
  0
VERTEX
  8
0
 10
1.09441465
 20
4.22583832
  0
VERTEX
  8
0
 10
1.06058552
 20
4.27464920
  0
VERTEX
  8
0
 10
1.04241702
 20
4.11928836
  0
VERTEX
  8
0
 10
1.05033430
 20
4.04018050
  0
VERTEX
  8
0
 10
1.06420569
 20
4.01171785
  0
VERTEX
  8
0
 10
1.08684267
 20
3.99501058
  0
SEQEND
  0
POLYLINE
  8
Default_Layer
 66
   1
 39
0.000000
 70
    1
  0
VERTEX
  8
0
 10
1.31265414
 20
3.94183986
  0
VERTEX
  8
0
 10
1.33286041
 20
4.01598942
  0
VERTEX
  8
0
 10
1.34224957
 20
4.10929045
  0
VERTEX
  8
0
 10
1.33027672
 20
4.19534012
  0
VERTEX
  8
0
 10
1.31298427
 20
4.22739482
  0
VERTEX
  8
0
 10
1.28639699
 20
4.24773562
  0
VERTEX
  8
0
 10
1.25666260
 20
4.17696382
  0
VERTEX
  8
0
 10
1.24548483
 20
4.08182245
  0
VERTEX
  8
0
 10
1.26132743
 20
3.99316373
  0
VERTEX
  8
0
 10
1.28202628
 20
3.96090667
  0
VERTEX
  8
0
 10
1.31265414
 20
3.94183986
  0
SEQEND
  0
POLYLINE
  8
Default_Layer
 66
   1
 39
0.000000
 70
    1
  0
VERTEX
  8
0
 10
1.55225060
 20
3.92871128
  0
VERTEX
  8
0
 10
1.57801473
 20
3.94984780
  0
VERTEX
  8
0
 10
1.59605255
 20
3.98546097
  0
VERTEX
  8
0
 10
1.60967951
 20
4.08093565
  0
VERTEX
  8
0
 10
1.59459202
 20
4.17677209
  0
VERTEX
  8
0
 10
1.55225060
 20
4.23460705
  0
VERTEX
  8
0
 10
1.52672815
 20
4.21376169
  0
VERTEX
  8
0
 10
1.50849782
 20
4.17799385
  0
VERTEX
  8
0
 10
1.49391356
 20
4.08159763
  0
VERTEX
  8
0
 10
1.50849782
 20
3.98523217
  0
VERTEX
  8
0
 10
1.52672815
 20
3.94950279
  0
VERTEX
  8
0
 10
1.55225060
 20
3.92871128
  0
SEQEND
  0
POLYLINE
  8
Default_Layer
 66
   1
 39
0.000000
 70
    1
  0
VERTEX
  8
0
 10
7.95899452
 20
3.99501058
  0
VERTEX
  8
0
 10
8.18546241
 20
3.99501058
  0
VERTEX
  8
0
 10
8.18546241
 20
4.18143632
  0
VERTEX
  8
0
 10
8.08633799
 20
4.17725346
  0
VERTEX
  8
0
 10
8.01590698
 20
4.14448406
  0
VERTEX
  8
0
 10
7.97363671
 20
4.08358435
  0
VERTEX
  8
0
 10
7.95899452
 20
3.99501058
  0
SEQEND
  0
POLYLINE
  8
Default_Layer
 66
   1
 39
0.000000
 70
    1
  0
VERTEX
  8
0
 10
8.23863313
 20
4.18143632
  0
VERTEX
  8
0
 10
8.22633924
 20
4.08253751
  0
VERTEX
  8
0
 10
8.25176171
 20
3.99501058
  0
VERTEX
  8
0
 10
8.54387247
 20
3.99501058
  0
VERTEX
  8
0
 10
8.55584270
 20
4.03847331
  0
VERTEX
  8
0
 10
8.55200505
 20
4.08177185
  0
VERTEX
  8
0
 10
8.54387247
 20
4.18143632
  0
VERTEX
  8
0
 10
8.23863313
 20
4.18143632
  0
SEQEND
  0
POLYLINE
  8
Default_Layer
 66
   1
 39
0.000000
 70
    1
  0
VERTEX
  8
0
 10
3.79854954
 20
3.84928341
  0
VERTEX
  8
0
 10
3.81178882
 20
3.90896414
  0
VERTEX
  8
0
 10
3.81326928
 20
3.98049597
  0
VERTEX
  8
0
 10
3.81167812
 20
4.12826560
  0
VERTEX
  8
0
 10
3.64570964
 20
4.15476767
  0
VERTEX
  8
0
 10
3.46639663
 20
4.16830775
  0
VERTEX
  8
0
 10
3.49367089
 20
4.03266066
  0
VERTEX
  8
0
 10
3.55886315
 20
3.93500434
  0
VERTEX
  8
0
 10
3.66086037
 20
3.87424364
  0
VERTEX
  8
0
 10
3.79854954
 20
3.84928341
  0
SEQEND
  0
POLYLINE
  8
Default_Layer
 66
   1
 39
0.000000
 70
    1
  0
VERTEX
  8
0
 10
3.47952521
 20
3.95562486
  0
VERTEX
  8
0
 10
3.45748452
 20
4.02954349
  0
VERTEX
  8
0
 10
3.43877951
 20
4.05495706
  0
VERTEX
  8
0
 10
3.41322591
 20
4.04818130
  0
VERTEX
  8
0
 10
3.43869731
 20
3.99422816
  0
VERTEX
  8
0
 10
3.45166083
 20
3.96744738
  0
VERTEX
  8
0
 10
3.47952521
 20
3.95562486
  0
SEQEND
  0
POLYLINE
  8
Default_Layer
 66
   1
 39
0.000000
 70
    1
  0
VERTEX
  8
0
 10
4.07753173
 20
3.95562486
  0
VERTEX
  8
0
 10
4.04076426
 20
3.90593900
  0
VERTEX
  8
0
 10
4.01475789
 20
3.84026617
  0
VERTEX
  8
0
 10
3.99831413
 20
3.68615965
  0
VERTEX
  8
0
 10
4.00951959
 20
3.61032597
  0
VERTEX
  8
0
 10
4.03477185
 20
3.54370535
  0
VERTEX
  8
0
 10
4.07489233
 20
3.49259781
  0
VERTEX
  8
0
 10
4.13070246
 20
3.46330335
  0
VERTEX
  8
0
 10
4.19105651
 20
3.50174734
  0
VERTEX
  8
0
 10
4.23317732
 20
3.56944737
  0
VERTEX
  8
0
 10
4.25661001
 20
3.65507489
  0
VERTEX
  8
0
 10
4.26089973
 20
3.74730133
  0
VERTEX
  8
0
 10
4.24559163
 20
3.83479811
  0
VERTEX
  8
0
 10
4.21023083
 20
3.90623667
  0
VERTEX
  8
0
 10
4.15436248
 20
3.95028844
  0
VERTEX
  8
0
 10
4.07753173
 20
3.95562486
  0
SEQEND
  0
POLYLINE
  8
Default_Layer
 66
   1
 39
0.000000
 70
    1
  0
VERTEX
  8
0
 10
9.66045765
 20
3.95562486
  0
VERTEX
  8
0
 10
8.98735545
 20
3.88757805
  0
VERTEX
  8
0
 10
8.62230658
 20
3.86104144
  0
VERTEX
  8
0
 10
8.25176171
 20
3.84928341
  0
VERTEX
  8
0
 10
8.26969416
 20
3.72754016
  0
VERTEX
  8
0
 10
8.31806100
 20
3.63660052
  0
VERTEX
  8
0
 10
8.49616772
 20
3.60337470
  0
VERTEX
  8
0
 10
8.67969569
 20
3.60592010
  0
VERTEX
  8
0
 10
9.06245113
 20
3.63660052
  0
VERTEX
  8
0
 10
9.11654730
 20
3.68235931
  0
VERTEX
  8
0
 10
9.18250289
 20
3.70525075
  0
VERTEX
  8
0
 10
9.33713839
 20
3.70862959
  0
VERTEX
  8
0
 10
9.50064975
 20
3.69913301
  0
VERTEX
  8
0
 10
9.57770016
 20
3.70593017
  0
VERTEX
  8
0
 10
9.64732908
 20
3.72915696
  0
VERTEX
  8
0
 10
9.68773161
 20
3.84132312
  0
VERTEX
  8
0
 10
9.68898275
 20
3.90809266
  0
VERTEX
  8
0
 10
9.66045765
 20
3.95562486
  0
SEQEND
  0
POLYLINE
  8
Default_Layer
 66
   1
 39
0.000000
 70
    1
  0
VERTEX
  8
0
 10
4.50289752
 20
3.72915696
  0
VERTEX
  8
0
 10
4.65836997
 20
3.69878161
  0
VERTEX
  8
0
 10
4.83373452
 20
3.68594316
  0
VERTEX
  8
0
 10
5.19411692
 20
3.66285767
  0
VERTEX
  8
0
 10
5.17868054
 20
3.69289564
  0
VERTEX
  8
0
 10
5.14582132
 20
3.70742138
  0
VERTEX
  8
0
 10
5.07464690
 20
3.71602839
  0
VERTEX
  8
0
 10
4.77472082
 20
3.73878480
  0
VERTEX
  8
0
 10
4.62723196
 20
3.74808411
  0
VERTEX
  8
0
 10
4.48976894
 20
3.76919911
  0
VERTEX
  8
0
 10
4.46351180
 20
3.76919911
  0
VERTEX
  8
0
 10
4.47495217
 20
3.73516795
  0
VERTEX
  8
0
 10
4.50289752
 20
3.72915696
  0
SEQEND
  0
POLYLINE
  8
Default_Layer
 66
   1
 39
0.000000
 70
    1
  0
VERTEX
  8
0
 10
7.37411656
 20
3.14427901
  0
VERTEX
  8
0
 10
7.43451655
 20
3.14512003
  0
VERTEX
  8
0
 10
7.48594928
 20
3.16166110
  0
VERTEX
  8
0
 10
7.56250873
 20
3.23246782
  0
VERTEX
  8
0
 10
7.60498657
 20
3.33794793
  0
VERTEX
  8
0
 10
7.61457445
 20
3.45935023
  0
VERTEX
  8
0
 10
7.59246403
 20
3.57792350
  0
VERTEX
  8
0
 10
7.53984695
 20
3.67491652
  0
VERTEX
  8
0
 10
7.45791486
 20
3.73157808
  0
VERTEX
  8
0
 10
7.40632808
 20
3.73892481
  0
VERTEX
  8
0
 10
7.34785941
 20
3.72915696
  0
VERTEX
  8
0
 10
7.27890219
 20
3.68664745
  0
VERTEX
  8
0
 10
7.22999381
 20
3.61453718
  0
VERTEX
  8
0
 10
7.20142976
 20
3.52325506
  0
VERTEX
  8
0
 10
7.19350553
 20
3.42323003
  0
VERTEX
  8
0
 10
7.20651660
 20
3.32489099
  0
VERTEX
  8
0
 10
7.24075848
 20
3.23866686
  0
VERTEX
  8
0
 10
7.29652663
 20
3.17498656
  0
VERTEX
  8
0
 10
7.37411656
 20
3.14427901
  0
SEQEND
  0
POLYLINE
  8
Default_Layer
 66
   1
 39
0.000000
 70
    1
  0
VERTEX
  8
0
 10
4.83570686
 20
3.64972909
  0
VERTEX
  8
0
 10
4.51668252
 20
3.68977124
  0
VERTEX
  8
0
 10
4.48919842
 20
3.68724796
  0
VERTEX
  8
0
 10
4.50161529
 20
3.67878744
  0
VERTEX
  8
0
 10
4.55606824
 20
3.66285767
  0
VERTEX
  8
0
 10
4.85651618
 20
3.62253290
  0
VERTEX
  8
0
 10
5.14094619
 20
3.59655837
  0
VERTEX
  8
0
 10
5.08489426
 20
3.63252337
  0
VERTEX
  8
0
 10
5.00823325
 20
3.64480935
  0
VERTEX
  8
0
 10
4.83570686
 20
3.64972909
  0
SEQEND
  0
POLYLINE
  8
Default_Layer
 66
   1
 39
0.000000
 70
    1
  0
VERTEX
  8
0
 10
5.27420122
 20
3.64972909
  0
VERTEX
  8
0
 10
6.07827327
 20
3.55652468
  0
VERTEX
  8
0
 10
6.90936506
 20
3.49021693
  0
VERTEX
  8
0
 10
6.87982566
 20
3.53056577
  0
VERTEX
  8
0
 10
6.83372773
 20
3.54377102
  0
VERTEX
  8
0
 10
6.73606789
 20
3.54338765
  0
VERTEX
  8
0
 10
5.26107264
 20
3.68977124
  0
VERTEX
  8
0
 10
5.23415907
 20
3.68977124
  0
VERTEX
  8
0
 10
5.24234527
 20
3.65779222
  0
VERTEX
  8
0
 10
5.27420122
 20
3.64972909
  0
SEQEND
  0
POLYLINE
  8
Default_Layer
 66
   1
 39
0.000000
 70
    1
  0
VERTEX
  8
0
 10
9.44777476
 20
3.64972909
  0
VERTEX
  8
0
 10
9.44777476
 20
3.58342980
  0
VERTEX
  8
0
 10
9.56703398
 20
3.60360014
  0
VERTEX
  8
0
 10
9.61081537
 20
3.62958737
  0
VERTEX
  8
0
 10
9.63420051
 20
3.67598624
  0
VERTEX
  8
0
 10
9.53702176
 20
3.66682354
  0
VERTEX
  8
0
 10
9.44777476
 20
3.64972909
  0
SEQEND
  0
POLYLINE
  8
Default_Layer
 66
   1
 39
0.000000
 70
    1
  0
VERTEX
  8
0
 10
9.22196329
 20
3.51647407
  0
VERTEX
  8
0
 10
9.33787215
 20
3.53362175
  0
VERTEX
  8
0
 10
9.37781989
 20
3.56010249
  0
VERTEX
  8
0
 10
9.38147546
 20
3.62281552
  0
VERTEX
  8
0
 10
9.22196329
 20
3.62281552
  0
VERTEX
  8
0
 10
9.20730811
 20
3.56976788
  0
VERTEX
  8
0
 10
9.22196329
 20
3.51647407
  0
SEQEND
  0
POLYLINE
  8
Default_Layer
 66
   1
 39
0.000000
 70
    1
  0
VERTEX
  8
0
 10
6.73606789
 20
3.46330335
  0
VERTEX
  8
0
 10
6.51025642
 20
3.47708835
  0
VERTEX
  8
0
 10
5.84848013
 20
3.55193538
  0
VERTEX
  8
0
 10
5.20790192
 20
3.60968694
  0
VERTEX
  8
0
 10
5.18424759
 20
3.60708338
  0
VERTEX
  8
0
 10
5.18662550
 20
3.59853155
  0
VERTEX
  8
0
 10
5.22103049
 20
3.58342980
  0
VERTEX
  8
0
 10
6.07300937
 20
3.48693825
  0
VERTEX
  8
0
 10
6.90936506
 20
3.41013263
  0
VERTEX
  8
0
 10
6.87400122
 20
3.43997130
  0
VERTEX
  8
0
 10
6.82887923
 20
3.45450837
  0
VERTEX
  8
0
 10
6.73606789
 20
3.46330335
  0
SEQEND
  0
POLYLINE
  8
Default_Layer
 66
   1
 39
0.000000
 70
    1
  0
VERTEX
  8
0
 10
9.48781691
 20
3.55651622
  0
VERTEX
  8
0
 10
9.41960949
 20
3.51105136
  0
VERTEX
  8
0
 10
9.33904115
 20
3.48151037
  0
VERTEX
  8
0
 10
9.15566400
 20
3.46330335
  0
VERTEX
  8
0
 10
9.04932255
 20
3.49021693
  0
VERTEX
  8
0
 10
8.82620155
 20
3.47668295
  0
VERTEX
  8
0
 10
8.58391462
 20
3.45017478
  0
VERTEX
  8
0
 10
8.29768665
 20
3.45383492
  0
VERTEX
  8
0
 10
8.05220739
 20
3.45017478
  0
VERTEX
  8
0
 10
8.10257728
 20
3.41255748
  0
VERTEX
  8
0
 10
8.16958324
 20
3.38622799
  0
VERTEX
  8
0
 10
8.33988351
 20
3.36067896
  0
VERTEX
  8
0
 10
8.53586842
 20
3.36002088
  0
VERTEX
  8
0
 10
8.73029821
 20
3.37074691
  0
VERTEX
  8
0
 10
9.06463967
 20
3.40157589
  0
VERTEX
  8
0
 10
9.38147546
 20
3.45017478
  0
VERTEX
  8
0
 10
9.48747804
 20
3.46897377
  0
VERTEX
  8
0
 10
9.53194908
 20
3.49050308
  0
VERTEX
  8
0
 10
9.55411621
 20
3.53025907
  0
VERTEX
  8
0
 10
9.55311402
 20
3.55223944
  0
VERTEX
  8
0
 10
9.53556697
 20
3.55780344
  0
VERTEX
  8
0
 10
9.48781691
 20
3.55651622
  0
SEQEND
  0
POLYLINE
  8
Default_Layer
 66
   1
 39
0.000000
 70
    1
  0
VERTEX
  8
0
 10
4.17074461
 20
6.85310105
  0
VERTEX
  8
0
 10
4.23786941
 20
6.85239862
  0
VERTEX
  8
0
 10
4.29021463
 20
6.86622962
  0
VERTEX
  8
0
 10
4.28586284
 20
6.91505230
  0
VERTEX
  8
0
 10
4.25660469
 20
6.93896446
  0
VERTEX
  8
0
 10
4.15761603
 20
6.94631392
  0
VERTEX
  8
0
 10
4.15963981
 20
6.89516698
  0
VERTEX
  8
0
 10
4.17074461
 20
6.85310105
  0
SEQEND
  0
POLYLINE
  8
Default_Layer
 66
   1
 39
0.000000
 70
    1
  0
VERTEX
  8
0
 10
5.75273772
 20
6.77367318
  0
VERTEX
  8
0
 10
5.75273772
 20
6.82684390
  0
VERTEX
  8
0
 10
5.70655816
 20
6.84033781
  0
VERTEX
  8
0
 10
5.64639628
 20
6.83997248
  0
VERTEX
  8
0
 10
5.64898543
 20
6.79422270
  0
VERTEX
  8
0
 10
5.67646087
 20
6.76793524
  0
VERTEX
  8
0
 10
5.71548938
 20
6.76109157
  0
VERTEX
  8
0
 10
5.75273772
 20
6.77367318
  0
SEQEND
  0
POLYLINE
  8
Default_Layer
 66
   1
 39
0.000000
 70
    1
  0
VERTEX
  8
0
 10
2.08395783
 20
6.41460669
  0
VERTEX
  8
0
 10
1.70373206
 20
6.35769918
  0
VERTEX
  8
0
 10
1.56472331
 20
6.31475741
  0
VERTEX
  8
0
 10
1.51205792
 20
6.28303934
  0
VERTEX
  8
0
 10
1.47216630
 20
6.24196595
  0
VERTEX
  8
0
 10
1.48488061
 20
5.45807922
  0
VERTEX
  8
0
 10
1.48595131
 20
4.67310141
  0
VERTEX
  8
0
 10
1.48133469
 20
4.56244316
  0
VERTEX
  8
0
 10
1.48813256
 20
4.50799310
  0
VERTEX
  8
0
 10
1.51220845
 20
4.46041851
  0
VERTEX
  8
0
 10
1.55691531
 20
4.48425737
  0
VERTEX
  8
0
 10
1.57059456
 20
4.53062589
  0
VERTEX
  8
0
 10
1.56537918
 20
4.63305926
  0
VERTEX
  8
0
 10
1.57087015
 20
5.03351314
  0
VERTEX
  8
0
 10
1.56491469
 20
5.44157663
  0
VERTEX
  8
0
 10
1.56247362
 20
5.84087971
  0
VERTEX
  8
0
 10
1.57850775
 20
6.21505237
  0
VERTEX
  8
0
 10
2.21282397
 20
6.30865402
  0
VERTEX
  8
0
 10
2.80143438
 20
6.41460669
  0
VERTEX
  8
0
 10
2.80143438
 20
4.59367354
  0
VERTEX
  8
0
 10
2.79299963
 20
4.47204061
  0
VERTEX
  8
0
 10
2.80675869
 20
4.41455838
  0
VERTEX
  8
0
 10
2.85460510
 20
4.38099064
  0
VERTEX
  8
0
 10
2.89714643
 20
4.40531184
  0
VERTEX
  8
0
 10
2.91127392
 20
4.45006923
  0
VERTEX
  8
0
 10
2.90777583
 20
4.55363139
  0
VERTEX
  8
0
 10
2.91087571
 20
5.43749568
  0
VERTEX
  8
0
 10
2.89464725
 20
6.33452239
  0
VERTEX
  8
0
 10
2.90130897
 20
6.43742563
  0
VERTEX
  8
0
 10
2.89121580
 20
6.48647417
  0
VERTEX
  8
0
 10
2.85460510
 20
6.52094814
  0
VERTEX
  8
0
 10
2.48694877
 20
6.48141425
  0
VERTEX
  8
0
 10
2.08395783
 20
6.41460669
  0
SEQEND
  0
POLYLINE
  8
Default_Layer
 66
   1
 39
0.000000
 70
    1
  0
VERTEX
  8
0
 10
0.93907724
 20
5.97749417
  0
VERTEX
  8
0
 10
0.91588021
 20
5.82528684
  0
VERTEX
  8
0
 10
0.91273254
 20
5.74588865
  0
VERTEX
  8
0
 10
0.92529224
 20
5.67225483
  0
VERTEX
  8
0
 10
1.37757160
 20
5.71164055
  0
VERTEX
  8
0
 10
1.37225724
 20
5.87278908
  0
VERTEX
  8
0
 10
1.35065802
 20
6.01753632
  0
VERTEX
  8
0
 10
1.24998613
 20
6.02597942
  0
VERTEX
  8
0
 10
1.14221601
 20
6.01661988
  0
VERTEX
  8
0
 10
0.93907724
 20
5.97749417
  0
SEQEND
  0
POLYLINE
  8
Default_Layer
 66
   1
 39
0.000000
 70
    1
  0
VERTEX
  8
0
 10
1.03367195
 20
5.61704585
  0
VERTEX
  8
0
 10
1.03367195
 20
5.24485079
  0
VERTEX
  8
0
 10
1.14663922
 20
5.22966976
  0
VERTEX
  8
0
 10
1.25948341
 20
5.24485079
  0
VERTEX
  8
0
 10
1.26196528
 20
5.42668873
  0
VERTEX
  8
0
 10
1.25948341
 20
5.64330299
  0
VERTEX
  8
0
 10
1.14242345
 20
5.63438687
  0
VERTEX
  8
0
 10
1.03367195
 20
5.61704585
  0
SEQEND
  0
POLYLINE
  8
Default_Layer
 66
   1
 39
0.000000
 70
    1
  0
VERTEX
  8
0
 10
0.40875184
 20
5.52383297
  0
VERTEX
  8
0
 10
0.37951309
 20
5.46428294
  0
VERTEX
  8
0
 10
0.36954644
 20
5.39640278
  0
VERTEX
  8
0
 10
0.37590035
 20
5.32905646
  0
VERTEX
  8
0
 10
0.39562327
 20
5.27110793
  0
VERTEX
  8
0
 10
0.58887749
 20
5.25477250
  0
VERTEX
  8
0
 10
0.68596054
 20
5.26547738
  0
VERTEX
  8
0
 10
0.75468976
 20
5.29802151
  0
VERTEX
  8
0
 10
0.77100830
 20
5.41782974
  0
VERTEX
  8
0
 10
0.76363600
 20
5.48169924
  0
VERTEX
  8
0
 10
0.74156118
 20
5.52383297
  0
VERTEX
  8
0
 10
0.57509497
 20
5.54016303
  0
VERTEX
  8
0
 10
0.40875184
 20
5.52383297
  0
SEQEND
  0
POLYLINE
  8
Default_Layer
 66
   1
 39
0.000000
 70
    1
  0
VERTEX
  8
0
 10
2.25659858
 20
4.03505273
  0
VERTEX
  8
0
 10
2.30976930
 20
4.03505273
  0
VERTEX
  8
0
 10
2.32279489
 20
4.06857868
  0
VERTEX
  8
0
 10
2.32289787
 20
4.11513703
  0
VERTEX
  8
0
 10
2.26972715
 20
4.14139418
  0
VERTEX
  8
0
 10
2.25033379
 20
4.12488998
  0
VERTEX
  8
0
 10
2.24210100
 20
4.09436334
  0
VERTEX
  8
0
 10
2.25659858
 20
4.03505273
  0
SEQEND
  0
POLYLINE
  8
Default_Layer
 66
   1
 39
0.000000
 70
    1
  0
VERTEX
  8
0
 10
2.80143438
 20
3.99501058
  0
VERTEX
  8
0
 10
2.80143438
 20
4.08822345
  0
VERTEX
  8
0
 10
2.76204866
 20
4.10135203
  0
VERTEX
  8
0
 10
2.73796965
 20
4.07376382
  0
VERTEX
  8
0
 10
2.73424040
 20
4.03075406
  0
VERTEX
  8
0
 10
2.75426171
 20
3.99645791
  0
VERTEX
  8
0
 10
2.80143438
 20
3.99501058
  0
SEQEND
  0
POLYLINE
  8
Default_Layer
 66
   1
 39
0.000000
 70
    1
  0
VERTEX
  8
0
 10
1.51220845
 20
6.18879523
  0
VERTEX
  8
0
 10
1.51220845
 20
4.70001498
  0
VERTEX
  8
0
 10
1.50689785
 20
4.60245329
  0
VERTEX
  8
0
 10
1.51354326
 20
4.55426964
  0
VERTEX
  8
0
 10
1.53912203
 20
4.51358924
  0
VERTEX
  8
0
 10
1.53912203
 20
6.21505237
  0
VERTEX
  8
0
 10
1.51220845
 20
6.22818095
  0
VERTEX
  8
0
 10
1.51220845
 20
6.18879523
  0
SEQEND
  0
POLYLINE
  8
Default_Layer
 66
   1
 39
0.000000
 70
    1
  0
VERTEX
  8
0
 10
1.92786576
 20
6.09558235
  0
VERTEX
  8
0
 10
1.95532867
 20
5.70081921
  0
VERTEX
  8
0
 10
1.95779218
 20
5.28116019
  0
VERTEX
  8
0
 10
1.95477933
 20
4.43416137
  0
VERTEX
  8
0
 10
1.78036253
 20
4.43238863
  0
VERTEX
  8
0
 10
1.69541614
 20
4.43377592
  0
VERTEX
  8
0
 10
1.62262642
 20
4.44728994
  0
VERTEX
  8
0
 10
1.62071744
 20
5.26626801
  0
VERTEX
  8
0
 10
1.62181502
 20
5.67386651
  0
VERTEX
  8
0
 10
1.63575500
 20
6.06866878
  0
VERTEX
  8
0
 10
1.69632386
 20
6.10141204
  0
VERTEX
  8
0
 10
1.77287637
 20
6.11901807
  0
VERTEX
  8
0
 10
1.85389588
 20
6.11817785
  0
VERTEX
  8
0
 10
1.92786576
 20
6.09558235
  0
SEQEND
  0
POLYLINE
  8
Default_Layer
 66
   1
 39
0.000000
 70
    1
  0
VERTEX
  8
0
 10
1.90160861
 20
6.05554020
  0
VERTEX
  8
0
 10
1.91536147
 20
5.67059997
  0
VERTEX
  8
0
 10
1.91640001
 20
5.27288719
  0
VERTEX
  8
0
 10
1.91473719
 20
4.47354709
  0
VERTEX
  8
0
 10
1.66201214
 20
4.47354709
  0
VERTEX
  8
0
 10
1.66357226
 20
4.87310271
  0
VERTEX
  8
0
 10
1.65156860
 20
5.27278475
  0
VERTEX
  8
0
 10
1.64823296
 20
5.66506409
  0
VERTEX
  8
0
 10
1.67579715
 20
6.04241163
  0
VERTEX
  8
0
 10
1.71959960
 20
6.06272418
  0
VERTEX
  8
0
 10
1.78234913
 20
6.07118361
  0
VERTEX
  8
0
 10
1.90160861
 20
6.05554020
  0
SEQEND
  0
POLYLINE
  8
Default_Layer
 66
   1
 39
0.000000
 70
    1
  0
VERTEX
  8
0
 10
6.57655572
 20
4.97899717
  0
VERTEX
  8
0
 10
6.49784097
 20
5.13647021
  0
VERTEX
  8
0
 10
6.44556300
 20
5.21032966
  0
VERTEX
  8
0
 10
6.37765783
 20
5.25797936
  0
VERTEX
  8
0
 10
6.28154287
 20
5.27799441
  0
VERTEX
  8
0
 10
6.17107962
 20
5.28055242
  0
VERTEX
  8
0
 10
5.93850704
 20
5.27110793
  0
VERTEX
  8
0
 10
5.71749641
 20
5.27022724
  0
VERTEX
  8
0
 10
5.51314126
 20
5.24485079
  0
VERTEX
  8
0
 10
5.43727909
 20
5.14072555
  0
VERTEX
  8
0
 10
5.37645132
 20
5.01276179
  0
VERTEX
  8
0
 10
5.34080833
 20
4.86791571
  0
VERTEX
  8
0
 10
5.34050051
 20
4.71314356
  0
VERTEX
  8
0
 10
5.97459842
 20
4.67439651
  0
VERTEX
  8
0
 10
6.59034072
 20
4.64684426
  0
VERTEX
  8
0
 10
6.66136544
 20
4.64102067
  0
VERTEX
  8
0
 10
6.69771302
 20
4.64793535
  0
VERTEX
  8
0
 10
6.72293931
 20
4.67310141
  0
VERTEX
  8
0
 10
6.70744571
 20
4.74829269
  0
VERTEX
  8
0
 10
6.67150072
 20
4.82313780
  0
VERTEX
  8
0
 10
6.57655572
 20
4.97899717
  0
SEQEND
  0
POLYLINE
  8
Default_Layer
 66
   1
 39
0.000000
 70
    1
  0
VERTEX
  8
0
 10
5.68643843
 20
4.46041851
  0
VERTEX
  8
0
 10
5.71305185
 20
4.44069730
  0
VERTEX
  8
0
 10
5.75243501
 20
4.43365352
  0
VERTEX
  8
0
 10
5.84595060
 20
4.43416137
  0
VERTEX
  8
0
 10
5.85507710
 20
4.48917620
  0
VERTEX
  8
0
 10
5.84595060
 20
4.54050281
  0
VERTEX
  8
0
 10
5.72899736
 20
4.54962086
  0
VERTEX
  8
0
 10
5.69056412
 20
4.52441519
  0
VERTEX
  8
0
 10
5.68643843
 20
4.46041851
  0
SEQEND
  0
POLYLINE
  8
Default_Layer
 66
   1
 39
0.000000
 70
    1
  0
VERTEX
  8
0
 10
5.19411692
 20
4.11513703
  0
VERTEX
  8
0
 10
5.19411692
 20
4.04818130
  0
VERTEX
  8
0
 10
5.27062732
 20
4.02534395
  0
VERTEX
  8
0
 10
5.35273633
 20
4.01586133
  0
VERTEX
  8
0
 10
5.52692626
 20
4.00879558
  0
VERTEX
  8
0
 10
6.61659787
 20
3.94183986
  0
VERTEX
  8
0
 10
6.78396278
 20
3.92369454
  0
VERTEX
  8
0
 10
6.85833064
 20
3.94163316
  0
VERTEX
  8
0
 10
6.88304400
 20
3.96759814
  0
VERTEX
  8
0
 10
6.89558005
 20
4.00879558
  0
VERTEX
  8
0
 10
6.05316252
 20
4.08651432
  0
VERTEX
  8
0
 10
5.61983272
 20
4.10977134
  0
VERTEX
  8
0
 10
5.19411692
 20
4.11513703
  0
SEQEND
  0
POLYLINE
  8
Default_Layer
 66
   1
 39
0.000000
 70
    1
  0
VERTEX
  8
0
 10
1.71518287
 20
5.39123438
  0
VERTEX
  8
0
 10
1.71518287
 20
5.28489293
  0
VERTEX
  8
0
 10
1.68260210
 20
5.29689920
  0
VERTEX
  8
0
 10
1.67174184
 20
5.33781750
  0
VERTEX
  8
0
 10
1.68260210
 20
5.37885888
  0
VERTEX
  8
0
 10
1.71518287
 20
5.39123438
  0
SEQEND
  0
POLYLINE
  8
Default_Layer
 66
   1
 39
0.000000
 70
    1
  0
VERTEX
  8
0
 10
9.26200544
 20
4.12826560
  0
VERTEX
  8
0
 10
9.35108917
 20
4.12144522
  0
VERTEX
  8
0
 10
9.45254137
 20
4.12703675
  0
VERTEX
  8
0
 10
9.54176383
 20
4.15309967
  0
VERTEX
  8
0
 10
9.57410197
 20
4.17632649
  0
VERTEX
  8
0
 10
9.59415836
 20
4.20769347
  0
VERTEX
  8
0
 10
9.56842912
 20
4.24449882
  0
VERTEX
  8
0
 10
9.51936409
 20
4.26644952
  0
VERTEX
  8
0
 10
9.38887541
 20
4.26879123
  0
VERTEX
  8
0
 10
9.32627618
 20
4.25068436
  0
VERTEX
  8
0
 10
9.27798998
 20
4.22072709
  0
VERTEX
  8
0
 10
9.25342900
 20
4.17967049
  0
VERTEX
  8
0
 10
9.26200544
 20
4.12826560
  0
SEQEND
  0
POLYLINE
  8
Default_Layer
 66
   1
 39
0.000000
 70
    1
  0
VERTEX
  8
0
 10
9.03619398
 20
4.20769347
  0
VERTEX
  8
0
 10
8.83039056
 20
4.20267561
  0
VERTEX
  8
0
 10
8.73812293
 20
4.18751054
  0
VERTEX
  8
0
 10
8.67712749
 20
4.15452275
  0
VERTEX
  8
0
 10
8.68013825
 20
4.11131683
  0
VERTEX
  8
0
 10
8.69025606
 20
4.07509488
  0
VERTEX
  8
0
 10
8.72742316
 20
4.06061033
  0
VERTEX
  8
0
 10
8.77053664
 20
4.06120523
  0
VERTEX
  8
0
 10
8.86289681
 20
4.07509488
  0
VERTEX
  8
0
 10
9.05758458
 20
4.08065650
  0
VERTEX
  8
0
 10
9.14066649
 20
4.09780040
  0
VERTEX
  8
0
 10
9.19570615
 20
4.14139418
  0
VERTEX
  8
0
 10
9.18851171
 20
4.19688257
  0
VERTEX
  8
0
 10
9.14819587
 20
4.21492472
  0
VERTEX
  8
0
 10
9.03619398
 20
4.20769347
  0
SEQEND
  0
POLYLINE
  8
Default_Layer
 66
   1
 39
0.000000
 70
    1
  0
VERTEX
  8
0
 10
9.40838904
 20
3.86241199
  0
VERTEX
  8
0
 10
9.39623623
 20
3.81431695
  0
VERTEX
  8
0
 10
9.39460404
 20
3.75607054
  0
VERTEX
  8
0
 10
9.45249373
 20
3.74160894
  0
VERTEX
  8
0
 10
9.51851769
 20
3.74230992
  0
VERTEX
  8
0
 10
9.63420051
 20
3.76919911
  0
VERTEX
  8
0
 10
9.64684381
 20
3.82956299
  0
VERTEX
  8
0
 10
9.64732908
 20
3.90245414
  0
VERTEX
  8
0
 10
9.52225142
 20
3.88773300
  0
VERTEX
  8
0
 10
9.40838904
 20
3.86241199
  0
SEQEND
  0
POLYLINE
  8
Default_Layer
 66
   1
 39
0.000000
 70
    1
  0
VERTEX
  8
0
 10
8.74342679
 20
3.76919911
  0
VERTEX
  8
0
 10
8.74656063
 20
3.72587011
  0
VERTEX
  8
0
 10
8.75655536
 20
3.68977124
  0
VERTEX
  8
0
 10
8.85662082
 20
3.67864562
  0
VERTEX
  8
0
 10
8.96617024
 20
3.68289496
  0
VERTEX
  8
0
 10
9.07068939
 20
3.70042888
  0
VERTEX
  8
0
 10
9.15566400
 20
3.72915696
  0
VERTEX
  8
0
 10
9.15566400
 20
3.82236984
  0
VERTEX
  8
0
 10
8.93407564
 20
3.82765966
  0
VERTEX
  8
0
 10
8.82372437
 20
3.80922379
  0
VERTEX
  8
0
 10
8.74342679
 20
3.76919911
  0
SEQEND
  0
POLYLINE
  8
Default_Layer
 66
   1
 39
0.000000
 70
    1
  0
VERTEX
  8
0
 10
2.84147653
 20
4.42062121
  0
VERTEX
  8
0
 10
2.84147653
 20
6.44086384
  0
VERTEX
  8
0
 10
2.86839011
 20
6.44103066
  0
VERTEX
  8
0
 10
2.86839011
 20
4.42037636
  0
VERTEX
  8
0
 10
2.84147653
 20
4.42062121
  0
SEQEND
  0
POLYLINE
  8
Default_Layer
 66
   1
 39
0.000000
 70
    1
  0
VERTEX
  8
0
 10
2.79171768
 20
6.45329836
  0
VERTEX
  8
0
 10
2.09443474
 20
6.32825356
  0
VERTEX
  8
0
 10
1.56994364
 20
6.25379171
  0
VERTEX
  8
0
 10
1.57105208
 20
6.27164655
  0
VERTEX
  8
0
 10
1.80258608
 20
6.30617910
  0
VERTEX
  8
0
 10
2.77862345
 20
6.47699282
  0
VERTEX
  8
0
 10
2.79171768
 20
6.45329836
  0
SEQEND
  0
POLYLINE
  8
Default_Layer
 66
   1
 39
0.000000
 70
    1
  0
VERTEX
  8
0
 10
0.91067073
 20
5.26985440
 42
0.41421356
  0
VERTEX
  8
0
 10
0.95237073
 20
5.22815440
  0
VERTEX
  8
0
 10
0.95487073
 20
5.22815440
 42
0.41421356
  0
VERTEX
  8
0
 10
0.99657073
 20
5.26985440
  0
VERTEX
  8
0
 10
0.99657073
 20
5.58520000
 42
0.41421356
  0
VERTEX
  8
0
 10
0.95487073
 20
5.62690000
  0
VERTEX
  8
0
 10
0.95237073
 20
5.62690000
 42
0.41421356
  0
VERTEX
  8
0
 10
0.91067073
 20
5.58520000
  0
VERTEX
  8
0
 10
0.91067073
 20
5.26985440
  0
SEQEND
  0
ENDSEC
  0
EOF
