  0
SECTION
  2
HEADER
  9
$ACADVER
  1
AC1009
  9
$DWGCODEPAGE
  3
ansi_1252
  9
$INSBASE
 10
0.0
 20
0.0
 30
0.0
  9
$EXTMIN
 10
0.1442992237835599
 20
0.0423265867113686
 30
0.0
  9
$EXTMAX
 10
23.58884423997118
 20
7.580322318227411
 30
0.0
  9
$LIMMIN
 10
0.0
 20
0.0
  9
$LIMMAX
 10
12.0
 20
9.0
  9
$ORTHOMODE
 70
     0
  9
$REGENMODE
 70
     1
  9
$FILLMODE
 70
     1
  9
$QTEXTMODE
 70
     0
  9
$MIRRTEXT
 70
     1
  9
$DRAGMODE
 70
     2
  9
$LTSCALE
 40
1.0
  9
$OSMODE
 70
    37
  9
$ATTMODE
 70
     1
  9
$TEXTSIZE
 40
0.2
  9
$TRACEWID
 40
0.05
  9
$TEXTSTYLE
  7
STANDARD
  9
$CLAYER
  8
0
  9
$CELTYPE
  6
BYBLOCK
  9
$CECOLOR
 62
   256
  9
$DIMSCALE
 40
1.0
  9
$DIMASZ
 40
0.18
  9
$DIMEXO
 40
0.0625
  9
$DIMDLI
 40
0.38
  9
$DIMRND
 40
0.0
  9
$DIMDLE
 40
0.0
  9
$DIMEXE
 40
0.18
  9
$DIMTP
 40
0.0
  9
$DIMTM
 40
0.0
  9
$DIMTXT
 40
0.18
  9
$DIMCEN
 40
0.09
  9
$DIMTSZ
 40
0.0
  9
$DIMTOL
 70
     0
  9
$DIMLIM
 70
     0
  9
$DIMTIH
 70
     1
  9
$DIMTOH
 70
     1
  9
$DIMSE1
 70
     0
  9
$DIMSE2
 70
     0
  9
$DIMTAD
 70
     0
  9
$DIMZIN
 70
     0
  9
$DIMBLK
  1

  9
$DIMASO
 70
     1
  9
$DIMSHO
 70
     1
  9
$DIMPOST
  1

  9
$DIMAPOST
  1

  9
$DIMALT
 70
     0
  9
$DIMALTD
 70
     2
  9
$DIMALTF
 40
25.4
  9
$DIMLFAC
 40
1.0
  9
$DIMTOFL
 70
     0
  9
$DIMTVP
 40
0.0
  9
$DIMTIX
 70
     0
  9
$DIMSOXD
 70
     0
  9
$DIMSAH
 70
     0
  9
$DIMBLK1
  1

  9
$DIMBLK2
  1

  9
$DIMSTYLE
  2
STANDARD
  9
$DIMCLRD
 70
     0
  9
$DIMCLRE
 70
     0
  9
$DIMCLRT
 70
     0
  9
$DIMTFAC
 40
1.0
  9
$DIMGAP
 40
0.09
  9
$LUNITS
 70
     2
  9
$LUPREC
 70
     4
  9
$SKETCHINC
 40
0.1
  9
$FILLETRAD
 40
0.5
  9
$AUNITS
 70
     0
  9
$AUPREC
 70
     0
  9
$MENU
  1
.
  9
$ELEVATION
 40
0.0
  9
$PELEVATION
 40
0.0
  9
$THICKNESS
 40
0.0
  9
$LIMCHECK
 70
     0
  9
$CHAMFERA
 40
0.5
  9
$CHAMFERB
 40
0.5
  9
$SKPOLY
 70
     0
  9
$TDCREATE
 40
2453353.550459155
  9
$TDUPDATE
 40
4881543.899318241
  9
$TDINDWG
 40
4881724.058228148
  9
$TDUSRTIMER
 40
4881724.058228148
  9
$USRTIMER
 70
     1
  9
$ANGBASE
 50
0.0
  9
$ANGDIR
 70
     0
  9
$PDMODE
 70
     0
  9
$PDSIZE
 40
0.0
  9
$PLINEWID
 40
0.0
  9
$COORDS
 70
     1
  9
$SPLFRAME
 70
     0
  9
$SPLINETYPE
 70
     6
  9
$SPLINESEGS
 70
     8
  9
$ATTDIA
 70
     0
  9
$ATTREQ
 70
     1
  9
$HANDLING
 70
     1
  9
$HANDSEED
  5
480D
  9
$SURFTAB1
 70
     6
  9
$SURFTAB2
 70
     6
  9
$SURFTYPE
 70
     6
  9
$SURFU
 70
     6
  9
$SURFV
 70
     6
  9
$UCSNAME
  2

  9
$UCSORG
 10
0.0
 20
0.0
 30
0.0
  9
$UCSXDIR
 10
1.0
 20
0.0
 30
0.0
  9
$UCSYDIR
 10
0.0
 20
1.0
 30
0.0
  9
$PUCSNAME
  2

  9
$PUCSORG
 10
0.0
 20
0.0
 30
0.0
  9
$PUCSXDIR
 10
1.0
 20
0.0
 30
0.0
  9
$PUCSYDIR
 10
0.0
 20
1.0
 30
0.0
  9
$USERI1
 70
     0
  9
$USERI2
 70
     0
  9
$USERI3
 70
     0
  9
$USERI4
 70
     0
  9
$USERI5
 70
     0
  9
$USERR1
 40
0.0
  9
$USERR2
 40
0.0
  9
$USERR3
 40
0.0
  9
$USERR4
 40
0.0
  9
$USERR5
 40
0.0
  9
$WORLDVIEW
 70
     1
  9
$SHADEDGE
 70
     3
  9
$SHADEDIF
 70
    70
  9
$TILEMODE
 70
     1
  9
$MAXACTVP
 70
    64
  9
$PLIMCHECK
 70
     0
  9
$PEXTMIN
 10
0.0
 20
0.0
 30
0.0
  9
$PEXTMAX
 10
0.0
 20
0.0
 30
0.0
  9
$PLIMMIN
 10
0.0
 20
0.0
  9
$PLIMMAX
 10
0.0
 20
0.0
  9
$UNITMODE
 70
     0
  9
$VISRETAIN
 70
     1
  9
$PLINEGEN
 70
     0
  9
$PSLTSCALE
 70
     1
  0
ENDSEC
  0
SECTION
  2
TABLES
  0
TABLE
  2
VPORT
 70
     1
  0
VPORT
  2
*ACTIVE
 70
     0
 10
0.0
 20
0.0
 11
1.0
 21
1.0
 12
10.87419100455298
 22
3.907250158411083
 13
0.0
 23
0.0
 14
0.5
 24
0.5
 15
0.5
 25
0.5
 16
0.0
 26
0.0
 36
1.0
 17
0.0
 27
0.0
 37
0.0
 40
16.23514566923531
 41
1.972972972850329
 42
50.0
 43
0.0
 44
0.0
 50
0.0
 51
0.0
 71
    16
 72
   100
 73
     1
 74
     1
 75
     0
 76
     0
 77
     0
 78
     0
  0
ENDTAB
  0
TABLE
  2
LTYPE
 70
     1
  0
LTYPE
  2
CONTINUOUS
 70
     0
  3
Solid line
 72
    65
 73
     0
 40
0.0
  0
ENDTAB
  0
TABLE
  2
LAYER
 70
     2
  0
LAYER
  2
0
 70
     0
 62
     7
  6
CONTINUOUS
  0
LAYER
  2
LAYER_1
 70
     0
 62
     7
  6
CONTINUOUS
  0
ENDTAB
  0
TABLE
  2
STYLE
 70
     1
  0
STYLE
  2
STANDARD
 70
     0
 40
0.0
 41
1.0
 50
0.0
 71
     0
 42
0.2
  3
txt
  4

  0
ENDTAB
  0
TABLE
  2
VIEW
 70
     0
  0
ENDTAB
  0
TABLE
  2
UCS
 70
     0
  0
ENDTAB
  0
TABLE
  2
APPID
 70
     1
  0
APPID
  2
ACAD
 70
     0
  0
ENDTAB
  0
TABLE
  2
DIMSTYLE
 70
     1
  0
DIMSTYLE
  2
STANDARD
 70
     0
  3

  4

  5

  6

  7

 40
1.0
 41
0.18
 42
0.0625
 43
0.38
 44
0.18
 45
0.0
 46
0.0
 47
0.0
 48
0.0
140
0.18
141
0.09
142
0.0
143
25.4
144
1.0
145
0.0
146
1.0
147
0.09
 71
     0
 72
     0
 73
     1
 74
     1
 75
     0
 76
     0
 77
     0
 78
     0
170
     0
171
     2
172
     0
173
     0
174
     0
175
     0
176
     0
177
     0
178
     0
  0
ENDTAB
  0
ENDSEC
  0
SECTION
  2
BLOCKS
  0
BLOCK
  8
0
  2
$MODEL_SPACE
 70
     0
 10
0.0
 20
0.0
 30
0.0
  3
$MODEL_SPACE
  1

  0
ENDBLK
  5
21
  8
0
  0
BLOCK
 67
     1
  8
0
  2
$PAPER_SPACE
 70
     0
 10
0.0
 20
0.0
 30
0.0
  3
$PAPER_SPACE
  1

  0
ENDBLK
  5
76
 67
     1
  8
0
  0
ENDSEC
  0
SECTION
  2
ENTITIES
  0
POLYLINE
  5
60B
  8
LAYER_1
 62
     0
 66
     1
 10
0.0
 20
0.0
 30
0.0
  0
VERTEX
  5
46D3
  8
LAYER_1
 62
     0
 10
11.20452105574684
 20
4.617956805403908
 30
0.0
  0
VERTEX
  5
46D4
  8
LAYER_1
 62
     0
 10
11.18215896047163
 20
4.614925059389604
 30
0.0
  0
VERTEX
  5
46D5
  8
LAYER_1
 62
     0
 10
10.93053496039015
 20
4.603008354418078
 30
0.0
 42
0.3158
  0
VERTEX
  5
46D6
  8
LAYER_1
 62
     0
 10
10.90151914757471
 20
4.563373788711678
 30
0.0
  0
VERTEX
  5
46D7
  8
LAYER_1
 62
     0
 10
10.89999546469753
 20
4.549124532175085
 30
0.0
 42
-0.2496
  0
VERTEX
  5
46D8
  8
LAYER_1
 62
     0
 10
10.86732093188689
 20
4.51553767072811
 30
0.0
 42
-0.0893
  0
VERTEX
  5
46D9
  8
LAYER_1
 62
     0
 10
10.7912496534262
 20
4.503404640409825
 30
0.0
 42
-0.362
  0
VERTEX
  5
46DA
  8
LAYER_1
 62
     0
 10
10.72349279264098
 20
4.551268974742969
 30
0.0
 42
0.0607
  0
VERTEX
  5
46DB
  8
LAYER_1
 62
     0
 10
10.69256767350414
 20
4.649038626028691
 30
0.0
 42
-0.2357
  0
VERTEX
  5
46DC
  8
LAYER_1
 62
     0
 10
10.69733623658272
 20
4.682710136524399
 30
0.0
 42
-0.1615
  0
VERTEX
  5
46DD
  8
LAYER_1
 62
     0
 10
10.72522190577157
 20
4.71694258532164
 30
0.0
 42
-0.0167798470421617
  0
VERTEX
  5
46DE
  8
LAYER_1
 62
     0
 10
10.74795438504138
 20
4.724087078806438
 30
0.0
  0
SEQEND
  5
46D2
  8
LAYER_1
 62
     0
  0
POLYLINE
  5
7FF
  8
LAYER_1
 62
     0
 66
     1
 10
0.0
 20
0.0
 30
0.0
  0
VERTEX
  5
46E0
  8
LAYER_1
 62
     0
 10
7.468551174975733
 20
3.689804545480889
 30
0.0
 42
-0.0641549999067794
  0
VERTEX
  5
46E1
  8
LAYER_1
 62
     0
 10
7.442139462242729
 20
3.69831481585187
 30
0.0
 42
-0.3265
  0
VERTEX
  5
46E2
  8
LAYER_1
 62
     0
 10
7.429150535987262
 20
3.734431743310955
 30
0.0
 42
-0.05
  0
VERTEX
  5
46E3
  8
LAYER_1
 62
     0
 10
7.465352112495077
 20
3.795999818088862
 30
0.0
 42
0.3018
  0
VERTEX
  5
46E4
  8
LAYER_1
 62
     0
 10
7.465239247096767
 20
3.820040147928815
 30
0.0
 42
-0.0257
  0
VERTEX
  5
46E5
  8
LAYER_1
 62
     0
 10
7.450030634674544
 20
3.837364986569343
 30
0.0
 42
-0.4479
  0
VERTEX
  5
46E6
  8
LAYER_1
 62
     0
 10
7.456360502429742
 20
3.863991815120559
 30
0.0
 42
-0.1445
  0
VERTEX
  5
46E7
  8
LAYER_1
 62
     0
 10
7.487972219406299
 20
3.868149023958297
 30
0.0
  0
VERTEX
  5
46E8
  8
LAYER_1
 62
     0
 10
7.557685413762219
 20
3.860126175228453
 30
0.0
 42
-0.1513
  0
VERTEX
  5
46E9
  8
LAYER_1
 62
     0
 10
7.599906478179882
 20
3.84741941246876
 30
0.0
 42
-0.3878
  0
VERTEX
  5
46EA
  8
LAYER_1
 62
     0
 10
7.610402960222678
 20
3.815986399039526
 30
0.0
 42
-0.3618088812847609
  0
VERTEX
  5
46EB
  8
LAYER_1
 62
     0
 10
7.56344267219254
 20
3.782693871961174
 30
0.0
 42
0.0594
  0
VERTEX
  5
46EC
  8
LAYER_1
 62
     0
 10
7.591529756922624
 20
3.754606787231088
 30
0.0
 42
-0.345194382557652
  0
VERTEX
  5
46ED
  8
LAYER_1
 62
     0
 10
7.559612615183893
 20
3.72013627415326
 30
0.0
 42
0.2141
  0
VERTEX
  5
46EE
  8
LAYER_1
 62
     0
 10
7.64849503215218
 20
3.737008836572358
 30
0.0
 42
0.0108
  0
VERTEX
  5
46EF
  8
LAYER_1
 62
     0
 10
7.686521265932668
 20
3.775486531946085
 30
0.0
 42
-0.2369
  0
VERTEX
  5
46F0
  8
LAYER_1
 62
     0
 10
7.727387945570615
 20
3.79308412863253
 30
0.0
 42
-0.2482
  0
VERTEX
  5
46F1
  8
LAYER_1
 62
     0
 10
7.758775579633578
 20
3.77120370093523
 30
0.0
 42
-0.0509
  0
VERTEX
  5
46F2
  8
LAYER_1
 62
     0
 10
7.705154781512508
 20
3.758436844239737
 30
0.0
  0
VERTEX
  5
46F3
  8
LAYER_1
 62
     0
 10
7.698771353164763
 20
3.727796388170554
 30
0.0
 42
0.2713
  0
VERTEX
  5
46F4
  8
LAYER_1
 62
     0
 10
7.765159007981324
 20
3.708646103127316
 30
0.0
 42
0.2589
  0
VERTEX
  5
46F5
  8
LAYER_1
 62
     0
 10
7.816890206430156
 20
3.742811999135446
 30
0.0
  0
VERTEX
  5
46F6
  8
LAYER_1
 62
     0
 10
7.907088470579274
 20
3.856965944075783
 30
0.0
  0
VERTEX
  5
46F7
  8
LAYER_1
 62
     0
 10
7.9198798823877
 20
3.864706629309853
 30
0.0
 42
-0.3001
  0
VERTEX
  5
46F8
  8
LAYER_1
 62
     0
 10
7.93577509264964
 20
3.859100981193808
 30
0.0
 42
-0.3001
  0
VERTEX
  5
46F9
  8
LAYER_1
 62
     0
 10
7.936875530283159
 20
3.842284036845673
 30
0.0
 42
-0.0056
  0
VERTEX
  5
46FA
  8
LAYER_1
 62
     0
 10
7.897871129717321
 20
3.772984682283554
 30
0.0
 42
0.28
  0
VERTEX
  5
46FB
  8
LAYER_1
 62
     0
 10
7.895576199951691
 20
3.737460298165596
 30
0.0
 42
0.2799
  0
VERTEX
  5
46FC
  8
LAYER_1
 62
     0
 10
7.926049857495294
 20
3.719044427341408
 30
0.0
 42
0.128
  0
VERTEX
  5
46FD
  8
LAYER_1
 62
     0
 10
8.019219456221629
 20
3.722689645492358
 30
0.0
 42
-0.0279
  0
VERTEX
  5
46FE
  8
LAYER_1
 62
     0
 10
8.141857904513177
 20
3.851548404956922
 30
0.0
 42
-0.3074
  0
VERTEX
  5
46FF
  8
LAYER_1
 62
     0
 10
8.215511982360075
 20
3.849469800538053
 30
0.0
 42
-0.2264
  0
VERTEX
  5
4700
  8
LAYER_1
 62
     0
 10
8.227701445377514
 20
3.825871526841479
 30
0.0
 42
-0.0979
  0
VERTEX
  5
4701
  8
LAYER_1
 62
     0
 10
8.222697746052456
 20
3.794560784260413
 30
0.0
 42
0.0568
  0
VERTEX
  5
4702
  8
LAYER_1
 62
     0
 10
8.218286590068519
 20
3.776568158679886
 30
0.0
 42
0.2806
  0
VERTEX
  5
4703
  8
LAYER_1
 62
     0
 10
8.224259050729071
 20
3.755885574439645
 30
0.0
  0
VERTEX
  5
4704
  8
LAYER_1
 62
     0
 10
8.23471791097243
 20
3.752198638094863
 30
0.0
 42
0.2006
  0
VERTEX
  5
4705
  8
LAYER_1
 62
     0
 10
8.272198628661089
 20
3.758387424102176
 30
0.0
 42
-0.013
  0
VERTEX
  5
4706
  8
LAYER_1
 62
     0
 10
8.298599726415686
 20
3.771714946552572
 30
0.0
  0
VERTEX
  5
4707
  8
LAYER_1
 62
     0
 10
8.329454073922101
 20
3.791630671648019
 30
0.0
 42
-3.700020815877682
  0
VERTEX
  5
4708
  8
LAYER_1
 62
     0
 10
8.343497616287142
 20
3.780140500622076
 30
0.0
 42
0.0842
  0
VERTEX
  5
4709
  8
LAYER_1
 62
     0
 10
8.321793959904804
 20
3.748223358883343
 30
0.0
 42
0.0305603323760533
  0
VERTEX
  5
470A
  8
LAYER_1
 62
     0
 10
8.417545385120999
 20
3.745669987544245
 30
0.0
 42
0.0087
  0
VERTEX
  5
470B
  8
LAYER_1
 62
     0
 10
8.426482184807844
 20
3.762266901248385
 30
0.0
 42
0.0301
  0
VERTEX
  5
470C
  8
LAYER_1
 62
     0
 10
8.437019731992594
 20
3.778232923304953
 30
0.0
 42
-0.277
  0
VERTEX
  5
470D
  8
LAYER_1
 62
     0
 10
8.495423210963503
 20
3.780140500622076
 30
0.0
 42
0.7017813686281579
  0
VERTEX
  5
470E
  8
LAYER_1
 62
     0
 10
8.468612811902968
 20
3.749500044552892
 30
0.0
 42
0.1049
  0
VERTEX
  5
470F
  8
LAYER_1
 62
     0
 10
8.553496823048139
 20
3.735569802743911
 30
0.0
 42
0.0126
  0
VERTEX
  5
4710
  8
LAYER_1
 62
     0
 10
8.629981941302635
 20
3.731675946502228
 30
0.0
 42
-0.4238
  0
VERTEX
  5
4711
  8
LAYER_1
 62
     0
 10
8.631458596930521
 20
3.729879505579134
 30
0.0
 42
-0.2493
  0
VERTEX
  5
4712
  8
LAYER_1
 62
     0
 10
8.629455236110525
 20
3.726963816122801
 30
0.0
 42
-0.1095255496470744
  0
VERTEX
  5
4713
  8
LAYER_1
 62
     0
 10
8.489039782615757
 20
3.695879246431824
 30
0.0
 42
-0.074953415987349
  0
VERTEX
  5
4714
  8
LAYER_1
 62
     0
 10
8.437972355833788
 20
3.694602560762273
 30
0.0
  0
VERTEX
  5
4715
  8
LAYER_1
 62
     0
 10
8.392011671730014
 20
3.694602560762273
 30
0.0
 42
0.0070419043069268
  0
VERTEX
  5
4716
  8
LAYER_1
 62
     0
 10
8.213275677993117
 20
3.693325875092724
 30
0.0
  0
SEQEND
  5
46DF
  8
LAYER_1
 62
     0
  0
POLYLINE
  5
9CC
  8
LAYER_1
 62
     0
 66
     1
 10
0.0
 20
0.0
 30
0.0
  0
VERTEX
  5
4718
  8
LAYER_1
 62
     0
 10
1.544328325466548
 20
2.509354323866254
 30
0.0
  0
VERTEX
  5
4719
  8
LAYER_1
 62
     0
 10
1.297053555635048
 20
2.509354323866254
 30
0.0
  0
VERTEX
  5
471A
  8
LAYER_1
 62
     0
 10
1.36195697889693
 20
2.880466050866268
 30
0.0
  0
VERTEX
  5
471B
  8
LAYER_1
 62
     0
 10
1.36195697889693
 20
2.880466050866268
 30
0.0
 42
-0.0084
  0
VERTEX
  5
471C
  8
LAYER_1
 62
     0
 10
1.412567704588943
 20
3.114793428656792
 30
0.0
 42
0.2313
  0
VERTEX
  5
471D
  8
LAYER_1
 62
     0
 10
1.403293931027835
 20
3.162272139545712
 30
0.0
  0
VERTEX
  5
471E
  8
LAYER_1
 62
     0
 10
1.36315147102904
 20
3.203072981034645
 30
0.0
 42
-0.3853
  0
VERTEX
  5
471F
  8
LAYER_1
 62
     0
 10
1.351770876699486
 20
3.283310873782938
 30
0.0
 42
-0.1011
  0
VERTEX
  5
4720
  8
LAYER_1
 62
     0
 10
1.381943559847595
 20
3.303071723936983
 30
0.0
 42
-0.0326981988058647
  0
VERTEX
  5
4721
  8
LAYER_1
 62
     0
 10
1.485156339410071
 20
3.321406835381092
 30
0.0
  0
SEQEND
  5
4717
  8
LAYER_1
 62
     0
  0
POLYLINE
  5
CDD
  8
LAYER_1
 62
     0
 66
     1
 10
0.0
 20
0.0
 30
0.0
  0
VERTEX
  5
4723
  8
LAYER_1
 62
     0
 10
1.899108527658241
 20
1.900473558809054
 30
0.0
 42
-0.0187442469530457
  0
VERTEX
  5
4724
  8
LAYER_1
 62
     0
 10
1.919919777268292
 20
1.983718557249261
 30
0.0
 42
0.0755
  0
VERTEX
  5
4725
  8
LAYER_1
 62
     0
 10
1.959870831892088
 20
2.28005034820858
 30
0.0
  0
VERTEX
  5
4726
  8
LAYER_1
 62
     0
 10
1.959870831892088
 20
2.28005034820858
 30
0.0
 42
0.3146
  0
VERTEX
  5
4727
  8
LAYER_1
 62
     0
 10
1.84408033867626
 20
2.364887505937991
 30
0.0
  0
VERTEX
  5
4728
  8
LAYER_1
 62
     0
 10
0.9320526767355256
 20
2.390404491405827
 30
0.0
 42
-0.0566191222974996
  0
VERTEX
  5
4729
  8
LAYER_1
 62
     0
 10
0.8909671683554454
 20
2.390186908447746
 30
0.0
  0
SEQEND
  5
4722
  8
LAYER_1
 62
     0
  0
POLYLINE
  5
29F3
  8
LAYER_1
 62
     0
 66
     1
 10
0.0
 20
0.0
 30
0.0
  0
VERTEX
  5
472B
  8
LAYER_1
 62
     0
 10
21.56117724256583
 20
3.070605080466087
 30
0.0
 42
0.0110787096229442
  0
VERTEX
  5
472C
  8
LAYER_1
 62
     0
 10
22.25488677964403
 20
3.077683749211782
 30
0.0
 42
0.2325
  0
VERTEX
  5
472D
  8
LAYER_1
 62
     0
 10
22.29835668903643
 20
3.103807863221321
 30
0.0
 42
0.0578725689884926
  0
VERTEX
  5
472E
  8
LAYER_1
 62
     0
 10
22.50460642494387
 20
3.334927693036179
 30
0.0
  0
VERTEX
  5
472F
  8
LAYER_1
 62
     0
 10
22.53141674948915
 20
3.439487958762781
 30
0.0
  0
VERTEX
  5
4730
  8
LAYER_1
 62
     0
 10
22.52873571703462
 20
3.533324094671269
 30
0.0
 42
-0.0129552533864202
  0
VERTEX
  5
4731
  8
LAYER_1
 62
     0
 10
22.53141674948915
 20
3.643246425306926
 30
0.0
  0
SEQEND
  5
472A
  8
LAYER_1
 62
     0
  0
POLYLINE
  5
29F5
  8
LAYER_1
 62
     0
 66
     1
 10
0.0
 20
0.0
 30
0.0
  0
VERTEX
  5
4733
  8
LAYER_1
 62
     0
 10
10.71450097529337
 20
1.787624769544316
 30
0.0
 42
0.1003062902733313
  0
VERTEX
  5
4734
  8
LAYER_1
 62
     0
 10
10.81964827429233
 20
1.747006923431742
 30
0.0
  0
VERTEX
  5
4735
  8
LAYER_1
 62
     0
 10
10.92694847632067
 20
1.741641913330325
 30
0.0
  0
VERTEX
  5
4736
  8
LAYER_1
 62
     0
 10
14.0594553704789
 20
1.743149648449641
 30
0.0
  0
VERTEX
  5
4737
  8
LAYER_1
 62
     0
 10
15.8334963219959
 20
1.743263677324071
 30
0.0
 42
0.065496613760405
  0
VERTEX
  5
4738
  8
LAYER_1
 62
     0
 10
15.99976470035884
 20
1.755936069753066
 30
0.0
 42
0.323982667150536
  0
VERTEX
  5
4739
  8
LAYER_1
 62
     0
 10
16.06177305496641
 20
1.822845401496096
 30
0.0
  0
SEQEND
  5
4732
  8
LAYER_1
 62
     0
  0
POLYLINE
  5
29F6
  8
LAYER_1
 62
     0
 66
     1
 10
0.0
 20
0.0
 30
0.0
  0
VERTEX
  5
473B
  8
LAYER_1
 62
     0
 10
1.878297278048189
 20
1.739533228491322
 30
0.0
 42
-0.0035502012938689
  0
VERTEX
  5
473C
  8
LAYER_1
 62
     0
 10
0.9839613545080991
 20
1.765553430014103
 30
0.0
 42
-0.032
  0
VERTEX
  5
473D
  8
LAYER_1
 62
     0
 10
0.2890773134652459
 20
1.852892437406044
 30
0.0
 42
-0.3579
  0
VERTEX
  5
473E
  8
LAYER_1
 62
     0
 10
0.1442992237835599
 20
2.011769296426575
 30
0.0
 42
-0.1681
  0
VERTEX
  5
473F
  8
LAYER_1
 62
     0
 10
0.2883530938260924
 20
2.346452824214083
 30
0.0
 42
0.1797
  0
VERTEX
  5
4740
  8
LAYER_1
 62
     0
 10
0.5443412226422066
 20
2.733440058668249
 30
0.0
 42
-0.0408
  0
VERTEX
  5
4741
  8
LAYER_1
 62
     0
 10
0.5205172181490143
 20
3.030708706916113
 30
0.0
 42
-0.1958
  0
VERTEX
  5
4742
  8
LAYER_1
 62
     0
 10
0.5359797777174344
 20
3.074547508709547
 30
0.0
 42
-0.1549
  0
VERTEX
  5
4743
  8
LAYER_1
 62
     0
 10
0.6984401131342967
 20
3.130651017119296
 30
0.0
 42
0.0885
  0
VERTEX
  5
4744
  8
LAYER_1
 62
     0
 10
0.7294216649702919
 20
3.1371407775221
 30
0.0
 42
0.3344
  0
VERTEX
  5
4745
  8
LAYER_1
 62
     0
 10
0.7429937291170257
 20
3.166598646480915
 30
0.0
 42
0.121748467442256
  0
VERTEX
  5
4746
  8
LAYER_1
 62
     0
 10
0.6144870676916456
 20
3.439431935994742
 30
0.0
 42
-0.2528
  0
VERTEX
  5
4747
  8
LAYER_1
 62
     0
 10
0.452007921375065
 20
3.789277048955177
 30
0.0
 42
0.0337
  0
VERTEX
  5
4748
  8
LAYER_1
 62
     0
 10
0.4760200348654401
 20
4.03788189963187
 30
0.0
 42
0.0879
  0
VERTEX
  5
4749
  8
LAYER_1
 62
     0
 10
0.4672729664964433
 20
4.619505513471005
 30
0.0
 42
-0.25
  0
VERTEX
  5
474A
  8
LAYER_1
 62
     0
 10
0.4842121816927479
 20
4.760559045008472
 30
0.0
 42
-0.1673
  0
VERTEX
  5
474B
  8
LAYER_1
 62
     0
 10
0.5279569289875912
 20
4.788154634895177
 30
0.0
 42
-0.0095893876834572
  0
VERTEX
  5
474C
  8
LAYER_1
 62
     0
 10
1.842953530909026
 20
4.890764498048107
 30
0.0
  0
SEQEND
  5
473A
  8
LAYER_1
 62
     0
  0
POLYLINE
  5
29F7
  8
LAYER_1
 62
     0
 66
     1
 10
0.0
 20
0.0
 30
0.0
  0
VERTEX
  5
474E
  8
LAYER_1
 62
     0
 10
0.7818094035658014
 20
3.694083096736171
 30
0.0
 42
-0.0219878598864566
  0
VERTEX
  5
474F
  8
LAYER_1
 62
     0
 10
0.7552396248336212
 20
3.687039808986366
 30
0.0
 42
-0.0242
  0
VERTEX
  5
4750
  8
LAYER_1
 62
     0
 10
0.557189067149787
 20
3.663714293335708
 30
0.0
 42
0.1393
  0
VERTEX
  5
4751
  8
LAYER_1
 62
     0
 10
0.5339576059977201
 20
3.653913814582487
 30
0.0
 42
0.2115
  0
VERTEX
  5
4752
  8
LAYER_1
 62
     0
 10
0.5265743278582981
 20
3.632234252657178
 30
0.0
 42
0.2371
  0
VERTEX
  5
4753
  8
LAYER_1
 62
     0
 10
0.5840586730060742
 20
3.533657582505955
 30
0.0
 42
-0.2446
  0
VERTEX
  5
4754
  8
LAYER_1
 62
     0
 10
0.792268880929041
 20
3.092812892335989
 30
0.0
 42
-0.1429
  0
VERTEX
  5
4755
  8
LAYER_1
 62
     0
 10
0.7054095514799168
 20
2.543807378608341
 30
0.0
 42
0.1120296270491932
  0
VERTEX
  5
4756
  8
LAYER_1
 62
     0
 10
0.6974823423784271
 20
2.50284852894857
 30
0.0
  0
SEQEND
  5
474D
  8
LAYER_1
 62
     0
  0
POLYLINE
  5
29FA
  8
LAYER_1
 62
     0
 66
     1
 10
0.0
 20
0.0
 30
0.0
  0
VERTEX
  5
4758
  8
LAYER_1
 62
     0
 10
7.694389760184175
 20
2.01343552503121
 30
0.0
  0
VERTEX
  5
4759
  8
LAYER_1
 62
     0
 10
7.760248742543985
 20
2.01343552503121
 30
0.0
  0
VERTEX
  5
475A
  8
LAYER_1
 62
     0
 10
7.76919975578946
 20
1.935874975252975
 30
0.0
 42
-0.0422
  0
VERTEX
  5
475B
  8
LAYER_1
 62
     0
 10
7.818390258552742
 20
1.515206824853242
 30
0.0
 42
0.396
  0
VERTEX
  5
475C
  8
LAYER_1
 62
     0
 10
7.913919701383542
 20
1.425095282616908
 30
0.0
  0
VERTEX
  5
475D
  8
LAYER_1
 62
     0
 10
7.908509649665051
 20
1.422279365474575
 30
0.0
  0
SEQEND
  5
4757
  8
LAYER_1
 62
     0
  0
POLYLINE
  5
29FF
  8
LAYER_1
 62
     0
 66
     1
 10
0.0
 20
0.0
 30
0.0
  0
VERTEX
  5
475F
  8
LAYER_1
 62
     0
 10
21.58941616808479
 20
2.272003436586626
 30
0.0
 42
0.1063660569612173
  0
VERTEX
  5
4760
  8
LAYER_1
 62
     0
 10
21.45510185099861
 20
2.715058020048037
 30
0.0
 42
0.1672567161237005
  0
VERTEX
  5
4761
  8
LAYER_1
 62
     0
 10
20.50018516316731
 20
3.623411940689308
 30
0.0
 42
0.1361395580919638
  0
VERTEX
  5
4762
  8
LAYER_1
 62
     0
 10
19.41851803459135
 20
3.766465112258288
 30
0.0
 42
0.1349
  0
VERTEX
  5
4763
  8
LAYER_1
 62
     0
 10
18.69427295206411
 20
3.516274461343886
 30
0.0
 42
0.1384834780662453
  0
VERTEX
  5
4764
  8
LAYER_1
 62
     0
 10
17.88351207512208
 20
2.670104944145434
 30
0.0
 42
-0.005505726604055
  0
VERTEX
  5
4765
  8
LAYER_1
 62
     0
 10
17.374185346159
 20
1.936005585804926
 30
0.0
  0
SEQEND
  5
475E
  8
LAYER_1
 62
     0
  0
POLYLINE
  5
3195
  8
LAYER_1
 62
     0
 66
     1
 10
0.0
 20
0.0
 30
0.0
  0
VERTEX
  5
4767
  8
LAYER_1
 62
     0
 10
1.878297278048189
 20
1.739533228491322
 30
0.0
 42
-0.0346816353952783
  0
VERTEX
  5
4768
  8
LAYER_1
 62
     0
 10
1.885628466839911
 20
1.811646486572303
 30
0.0
 42
-0.0183396007101052
  0
VERTEX
  5
4769
  8
LAYER_1
 62
     0
 10
2.257137710799602
 20
1.778769562328083
 30
0.0
  0
VERTEX
  5
476A
  8
LAYER_1
 62
     0
 10
3.786756806835451
 20
1.70170300852811
 30
0.0
  0
SEQEND
  5
4766
  8
LAYER_1
 62
     0
  0
POLYLINE
  5
3196
  8
LAYER_1
 62
     0
 66
     1
 10
0.0
 20
0.0
 30
0.0
  0
VERTEX
  5
476C
  8
LAYER_1
 62
     0
 10
1.64665268333895
 20
2.506238710567375
 30
0.0
 42
-0.0073197784358911
  0
VERTEX
  5
476D
  8
LAYER_1
 62
     0
 10
1.746287928245053
 20
3.036721716706748
 30
0.0
  0
SEQEND
  5
476B
  8
LAYER_1
 62
     0
  0
POLYLINE
  5
3197
  8
LAYER_1
 62
     0
 66
     1
 10
0.0
 20
0.0
 30
0.0
  0
VERTEX
  5
476F
  8
LAYER_1
 62
     0
 10
0.8402670767849275
 20
3.709613962523063
 30
0.0
 42
0.0688847648724847
  0
VERTEX
  5
4770
  8
LAYER_1
 62
     0
 10
0.8868422315067635
 20
3.735812487054095
 30
0.0
 42
0.1634188933506288
  0
VERTEX
  5
4771
  8
LAYER_1
 62
     0
 10
0.9144350051125836
 20
3.825982276020528
 30
0.0
 42
0.0273865323668639
  0
VERTEX
  5
4772
  8
LAYER_1
 62
     0
 10
0.9145303236479545
 20
3.861209929477853
 30
0.0
 42
0.1222
  0
VERTEX
  5
4773
  8
LAYER_1
 62
     0
 10
0.836408657117968
 20
4.168326083728232
 30
0.0
 42
0.0556424965233728
  0
VERTEX
  5
4774
  8
LAYER_1
 62
     0
 10
0.7562645460677911
 20
4.288358046289828
 30
0.0
 42
-0.0299
  0
VERTEX
  5
4775
  8
LAYER_1
 62
     0
 10
0.6243099978576995
 20
4.438639615084654
 30
0.0
 42
-0.0517351849165263
  0
VERTEX
  5
4776
  8
LAYER_1
 62
     0
 10
0.5627224209839259
 20
4.480059307674873
 30
0.0
  0
SEQEND
  5
476E
  8
LAYER_1
 62
     0
  0
POLYLINE
  5
3198
  8
LAYER_1
 62
     0
 66
     1
 10
0.0
 20
0.0
 30
0.0
  0
VERTEX
  5
4778
  8
LAYER_1
 62
     0
 10
6.645867435129405
 20
4.991902706417536
 30
0.0
 42
0.0076769581354429
  0
VERTEX
  5
4779
  8
LAYER_1
 62
     0
 10
2.453385163825113
 20
4.812741782655456
 30
0.0
  0
SEQEND
  5
4777
  8
LAYER_1
 62
     0
  0
POLYLINE
  5
319C
  8
LAYER_1
 62
     0
 66
     1
 10
0.0
 20
0.0
 30
0.0
  0
VERTEX
  5
477B
  8
LAYER_1
 62
     0
 10
7.047791430030677
 20
5.466860640894891
 30
0.0
  0
VERTEX
  5
477C
  8
LAYER_1
 62
     0
 10
7.479569299360152
 20
5.812211181337444
 30
0.0
 42
0.1287
  0
VERTEX
  5
477D
  8
LAYER_1
 62
     0
 10
7.530352605992899
 20
5.855376991975284
 30
0.0
 42
0.3284985658594435
  0
VERTEX
  5
477E
  8
LAYER_1
 62
     0
 10
7.497343456681613
 20
5.962021935904046
 30
0.0
 42
-0.0348
  0
VERTEX
  5
477F
  8
LAYER_1
 62
     0
 10
7.291773329787193
 20
6.258574449522978
 30
0.0
 42
-0.0119046501521817
  0
VERTEX
  5
4780
  8
LAYER_1
 62
     0
 10
7.126316870411814
 20
6.505150771024219
 30
0.0
  0
SEQEND
  5
477A
  8
LAYER_1
 62
     0
  0
POLYLINE
  5
31AA
  8
LAYER_1
 62
     0
 66
     1
 10
0.0
 20
0.0
 30
0.0
  0
VERTEX
  5
4782
  8
LAYER_1
 62
     0
 10
5.851057125684545
 20
5.332871095301284
 30
0.0
 42
0.0383654928368418
  0
VERTEX
  5
4783
  8
LAYER_1
 62
     0
 10
6.008794725402122
 20
5.328488323852703
 30
0.0
 42
0.0274722110256496
  0
VERTEX
  5
4784
  8
LAYER_1
 62
     0
 10
6.168578219433343
 20
5.33347507451348
 30
0.0
 42
-0.0653
  0
VERTEX
  5
4785
  8
LAYER_1
 62
     0
 10
6.214651806469038
 20
5.336181981837475
 30
0.0
 42
0.0175306682655063
  0
VERTEX
  5
4786
  8
LAYER_1
 62
     0
 10
6.369493364008735
 20
5.342985850588054
 30
0.0
 42
0.0297471421442585
  0
VERTEX
  5
4787
  8
LAYER_1
 62
     0
 10
6.947596721230931
 20
5.381651246665889
 30
0.0
  0
SEQEND
  5
4781
  8
LAYER_1
 62
     0
  0
POLYLINE
  5
36C0
  8
LAYER_1
 62
     0
 66
     1
 10
0.0
 20
0.0
 30
0.0
  0
VERTEX
  5
4789
  8
LAYER_1
 62
     0
 10
11.59671928433716
 20
4.653862831977367
 30
0.0
 42
0.0407820038856849
  0
VERTEX
  5
478A
  8
LAYER_1
 62
     0
 10
11.59590469977503
 20
4.656450120517691
 30
0.0
 42
0.0421
  0
VERTEX
  5
478B
  8
LAYER_1
 62
     0
 10
11.5705946342041
 20
4.676944595760748
 30
0.0
 42
0.1049
  0
VERTEX
  5
478C
  8
LAYER_1
 62
     0
 10
11.48869197683074
 20
4.722194215033055
 30
0.0
  0
VERTEX
  5
478D
  8
LAYER_1
 62
     0
 10
10.74795438504138
 20
4.724087078806438
 30
0.0
  0
SEQEND
  5
4788
  8
LAYER_1
 62
     0
  0
ARC
  5
36C5
  8
0
  6
BYBLOCK
 10
11.1172440419627
 20
-0.2921200158026096
 30
0.0
 40
7.112736173615143
 50
93.34633026119118
 51
118.5007314276101
  0
POLYLINE
  5
36C6
  8
LAYER_1
 62
     0
 66
     1
 10
0.0
 20
0.0
 30
0.0
  0
VERTEX
  5
478F
  8
LAYER_1
 62
     0
 10
4.373268808374668
 20
2.169481349320506
 30
0.0
 42
-0.240360377705123
  0
VERTEX
  5
4790
  8
LAYER_1
 62
     0
 10
4.968750774696809
 20
2.454988548652235
 30
0.0
  0
SEQEND
  5
478E
  8
LAYER_1
 62
     0
  0
POLYLINE
  5
36C8
  8
LAYER_1
 62
     0
 66
     1
 10
0.0
 20
0.0
 30
0.0
  0
VERTEX
  5
4792
  8
LAYER_1
 62
     0
 10
3.952461841271048
 20
1.694542135136981
 30
0.0
 42
0.1726606308287948
  0
VERTEX
  5
4793
  8
LAYER_1
 62
     0
 10
4.037233112695752
 20
1.742421171923262
 30
0.0
 42
0.0073173887248532
  0
VERTEX
  5
4794
  8
LAYER_1
 62
     0
 10
4.164348305698361
 20
1.925623548551464
 30
0.0
  0
SEQEND
  5
4791
  8
LAYER_1
 62
     0
  0
POLYLINE
  5
3B27
  8
LAYER_1
 62
     0
 66
     1
 10
0.0
 20
0.0
 30
0.0
  0
VERTEX
  5
4796
  8
LAYER_1
 62
     0
 10
11.33135704188164
 20
5.137095467781851
 30
0.0
 42
-0.0685699342605158
  0
VERTEX
  5
4797
  8
LAYER_1
 62
     0
 10
11.50869538921267
 20
5.396691087874126
 30
0.0
 42
-0.1156307416969883
  0
VERTEX
  5
4798
  8
LAYER_1
 62
     0
 10
11.65784747581544
 20
5.505686843468451
 30
0.0
 42
-0.1569
  0
VERTEX
  5
4799
  8
LAYER_1
 62
     0
 10
12.01734224865286
 20
5.499950224752961
 30
0.0
 42
-0.1521
  0
VERTEX
  5
479A
  8
LAYER_1
 62
     0
 10
12.2866879646793
 20
5.204430440210693
 30
0.0
 42
0.0892268514946954
  0
VERTEX
  5
479B
  8
LAYER_1
 62
     0
 10
12.30417318442741
 20
5.165314133015995
 30
0.0
  0
SEQEND
  5
4795
  8
LAYER_1
 62
     0
  0
POLYLINE
  5
3B28
  8
LAYER_1
 62
     0
 66
     1
 10
0.0
 20
0.0
 30
0.0
  0
VERTEX
  5
479D
  8
LAYER_1
 62
     0
 10
16.15874824498662
 20
4.132421481183918
 30
0.0
 42
0.0073948541554901
  0
VERTEX
  5
479E
  8
LAYER_1
 62
     0
 10
17.16869017401248
 20
4.13273586146126
 30
0.0
 42
0.0039502212811882
  0
VERTEX
  5
479F
  8
LAYER_1
 62
     0
 10
21.97778714639486
 20
4.132976579441547
 30
0.0
  0
SEQEND
  5
479C
  8
LAYER_1
 62
     0
  0
POLYLINE
  5
3B2C
  8
LAYER_1
 62
     0
 66
     1
 10
0.0
 20
0.0
 30
0.0
  0
VERTEX
  5
47A1
  8
LAYER_1
 62
     0
 10
16.8875646730478
 20
5.747252857130722
 30
0.0
 42
0.0894600236189883
  0
VERTEX
  5
47A2
  8
LAYER_1
 62
     0
 10
17.25151137171117
 20
5.626478955900868
 30
0.0
  0
SEQEND
  5
47A0
  8
LAYER_1
 62
     0
  0
ARC
  5
3B2E
  8
0
  6
BYBLOCK
 10
15.59773632228639
 20
8.023342954229561
 30
0.0
 40
2.630115451429627
 50
268.3338488554953
 51
297.0550096807469
  0
POLYLINE
  5
3B2F
  8
LAYER_1
 62
     0
 66
     1
 10
0.0
 20
0.0
 30
0.0
  0
VERTEX
  5
47A4
  8
LAYER_1
 62
     0
 10
15.3829781284162
 20
5.389838306452358
 30
0.0
 42
-0.2983683852466585
  0
VERTEX
  5
47A5
  8
LAYER_1
 62
     0
 10
15.02620393970009
 20
5.593421035484855
 30
0.0
  0
VERTEX
  5
47A6
  8
LAYER_1
 62
     0
 10
15.02620393970009
 20
5.593421035484855
 30
0.0
 42
-0.0215
  0
VERTEX
  5
47A7
  8
LAYER_1
 62
     0
 10
15.01026128087476
 20
6.2526146231724
 30
0.0
 42
-0.0208242989286266
  0
VERTEX
  5
47A8
  8
LAYER_1
 62
     0
 10
15.0019776301694
 20
6.772425761427733
 30
0.0
  0
SEQEND
  5
47A3
  8
LAYER_1
 62
     0
  0
ARC
  5
3B30
  8
0
  6
BYBLOCK
 10
15.52520864448454
 20
6.670654167173884
 30
0.0
 40
0.5451272303484724
 50
105.2551187030571
 51
150.4948485991389
  0
ARC
  5
3EBE
  8
0
  6
BYBLOCK
 10
21.90411606149155
 20
5.341168740893835
 30
0.0
 40
1.24814156904126
 50
286.865592282882
 51
314.2404837468977
  0
POLYLINE
  5
3EBF
  8
LAYER_1
 62
     0
 66
     1
 10
0.0
 20
0.0
 30
0.0
  0
VERTEX
  5
47AA
  8
LAYER_1
 62
     0
 10
16.0295315659136
 20
4.360356928688731
 30
0.0
 42
0.0543675880921736
  0
VERTEX
  5
47AB
  8
LAYER_1
 62
     0
 10
15.99331847262238
 20
4.903553328056821
 30
0.0
 42
0.2482288301172924
  0
VERTEX
  5
47AC
  8
LAYER_1
 62
     0
 10
15.53882568240105
 20
5.15787908271947
 30
0.0
 42
0.0129491516319188
  0
VERTEX
  5
47AD
  8
LAYER_1
 62
     0
 10
15.07350590302576
 20
5.157044981095265
 30
0.0
  0
SEQEND
  5
47A9
  8
LAYER_1
 62
     0
  0
POLYLINE
  5
3EC0
  8
LAYER_1
 62
     0
 66
     1
 10
0.0
 20
0.0
 30
0.0
  0
VERTEX
  5
47AF
  8
LAYER_1
 62
     0
 10
15.9208614216055
 20
4.12656249874839
 30
0.0
  0
VERTEX
  5
47B0
  8
LAYER_1
 62
     0
 10
13.23493200276063
 20
4.12656249874839
 30
0.0
  0
SEQEND
  5
47AE
  8
LAYER_1
 62
     0
  0
POLYLINE
  5
3EC2
  8
LAYER_1
 62
     0
 66
     1
 10
0.0
 20
0.0
 30
0.0
  0
VERTEX
  5
47B2
  8
LAYER_1
 62
     0
 10
22.84233697708172
 20
4.527891635403831
 30
0.0
 42
-0.0810744951710764
  0
VERTEX
  5
47B3
  8
LAYER_1
 62
     0
 10
22.7892409084929
 20
4.144876579621682
 30
0.0
 42
0.1541
  0
VERTEX
  5
47B4
  8
LAYER_1
 62
     0
 10
22.65061900261067
 20
3.538593593859616
 30
0.0
 42
0.0189
  0
VERTEX
  5
47B5
  8
LAYER_1
 62
     0
 10
22.69554644207869
 20
3.28606922030423
 30
0.0
 42
-0.0018486435990165
  0
VERTEX
  5
47B6
  8
LAYER_1
 62
     0
 10
22.7703206968656
 20
3.28606922030423
 30
0.0
  0
SEQEND
  5
47B1
  8
LAYER_1
 62
     0
  0
ARC
  5
3EC3
  8
0
  6
BYBLOCK
 10
21.94706776091335
 20
5.104350401441934
 30
0.0
 40
1.06480593460072
 50
327.2227448017538
 51
352.0197120162841
  0
ARC
  5
3EC6
  8
0
  6
BYBLOCK
 10
8.868469421456457
 20
4.148867714904403
 30
0.0
 40
1.016599853954327
 50
54.66283382994495
 51
93.03355538439078
  0
ARC
  5
3EC7
  8
0
  6
BYBLOCK
 10
9.731761981933941
 20
4.788800263478947
 30
0.0
 40
0.3341469237510991
 50
85.10176617134678
 51
145.477387373247
  0
LINE
  5
3EC8
  8
0
  6
BYBLOCK
 10
8.814670147404481
 20
5.164043020539564
 30
0.0
 11
7.260128171376628
 21
5.162665141566118
 31
0.0
  0
LINE
  5
3ECB
  8
0
  6
BYBLOCK
 10
9.760293521419644
 20
5.121726858852309
 30
0.0
 11
10.70202701011658
 21
5.121269866320926
 31
0.0
  0
ARC
  5
3ECD
  8
0
  6
BYBLOCK
 10
10.62861278602698
 20
1.378100722350923
 30
0.0
 40
5.212656797166447
 50
89.21987525906499
 51
131.0874710872941
  0
ARC
  5
3ECE
  8
0
  6
BYBLOCK
 10
7.259385275877537
 20
5.245887441811503
 30
0.0
 40
0.0832256159596052
 50
132.8357365942899
 51
270.5114452022571
  0
LINE
  5
3ED2
  8
0
  6
BYBLOCK
 10
10.69958480039574
 20
6.59027434361701
 30
0.0
 11
10.70202701011658
 21
5.121269866320926
 31
0.0
  0
LINE
  5
3ED7
  8
0
  6
BYBLOCK
 10
12.30417318442741
 20
5.165314133015995
 30
0.0
 11
14.09591781514939
 21
5.167927000569225
 31
0.0
  0
LINE
  5
3ED8
  8
0
  6
BYBLOCK
 10
14.82717641657848
 20
6.763898872959883
 30
0.0
 11
14.83587460204632
 21
5.178204178165016
 31
0.0
  0
LINE
  5
3ED9
  8
0
  6
BYBLOCK
 10
14.83587460204632
 20
5.178204178165016
 30
0.0
 11
14.25007547908625
 21
5.178204178165016
 31
0.0
  0
LINE
  5
3EDA
  8
0
  6
BYBLOCK
 10
14.25007547908625
 20
5.178204178165016
 30
0.0
 11
14.24845463521209
 21
6.737819018366007
 31
0.0
  0
LINE
  5
3EDB
  8
0
  6
BYBLOCK
 10
14.24845463521209
 20
6.737819018366007
 30
0.0
 11
14.82717641657848
 21
6.763898872959883
 31
0.0
  0
LINE
  5
3EDE
  8
0
  6
BYBLOCK
 10
10.94011635517889
 20
6.610111997619736
 30
0.0
 11
14.10096852382024
 21
6.737918711963113
 31
0.0
  0
LINE
  5
3EDF
  8
0
  6
BYBLOCK
 10
14.10096852382024
 20
6.737918711963113
 30
0.0
 11
14.09591781514939
 21
5.167927000569225
 31
0.0
  0
LINE
  5
3EE1
  8
0
  6
BYBLOCK
 10
11.33135704188164
 20
5.137095467781851
 30
0.0
 11
10.93941308679046
 21
5.14101060856542
 31
0.0
  0
ARC
  5
3EEB
  8
0
  6
BYBLOCK
 10
19.70550842521567
 20
1.825580725432306
 30
0.0
 40
1.776271691659623
 50
15.32151007486479
 51
164.8759926916895
  0
ARC
  5
3EEC
  8
0
  6
BYBLOCK
 10
19.70714787064168
 20
1.828571565348663
 30
0.0
 40
1.779177842953125
 50
177.8378211704095
 51
7.987168307397567
  0
POLYLINE
  5
3EED
  8
LAYER_1
 62
     0
 66
     1
 10
0.0
 20
0.0
 30
0.0
  0
VERTEX
  5
47B8
  8
LAYER_1
 62
     0
 10
17.29790420715614
 20
1.756542032649969
 30
0.0
 42
-0.0002589617987344
  0
VERTEX
  5
47B9
  8
LAYER_1
 62
     0
 10
17.27726668718635
 20
1.736349508201486
 30
0.0
 42
-0.2132
  0
VERTEX
  5
47BA
  8
LAYER_1
 62
     0
 10
16.71138855116693
 20
1.420295937580189
 30
0.0
  0
VERTEX
  5
47BB
  8
LAYER_1
 62
     0
 10
13.83730805025596
 20
1.426759720638152
 30
0.0
  0
VERTEX
  5
47BC
  8
LAYER_1
 62
     0
 10
7.913919701383542
 20
1.425095282616908
 30
0.0
  0
SEQEND
  5
47B7
  8
LAYER_1
 62
     0
  0
LINE
  5
3EEE
  8
0
  6
BYBLOCK
 10
17.29790420715614
 20
1.756542032649969
 30
0.0
 11
17.92923673355605
 21
1.895696713260975
 31
0.0
  0
LINE
  5
3EF0
  8
0
  6
BYBLOCK
 10
21.4690662873423
 20
2.075790678174638
 30
0.0
 11
21.69107790463538
 21
2.075790678174638
 31
0.0
  0
POLYLINE
  5
3EF4
  8
LAYER_1
 62
     0
 66
     1
 10
0.0
 20
0.0
 30
0.0
  0
VERTEX
  5
47BE
  8
LAYER_1
 62
     0
 10
22.7703206968656
 20
3.28606922030423
 30
0.0
 42
-0.0138674592864139
  0
VERTEX
  5
47BF
  8
LAYER_1
 62
     0
 10
22.81087846276049
 20
3.42028244008154
 30
0.0
 42
-0.2392
  0
VERTEX
  5
47C0
  8
LAYER_1
 62
     0
 10
22.86732056736517
 20
3.478718500056354
 30
0.0
 42
-0.1034
  0
VERTEX
  5
47C1
  8
LAYER_1
 62
     0
 10
23.19093388066847
 20
3.459982843936955
 30
0.0
 42
-0.3403
  0
VERTEX
  5
47C2
  8
LAYER_1
 62
     0
 10
23.26329941188467
 20
3.324591393214687
 30
0.0
 42
0.0128
  0
VERTEX
  5
47C3
  8
LAYER_1
 62
     0
 10
23.26332762823425
 20
3.28819230225983
 30
0.0
 42
0.2519
  0
VERTEX
  5
47C4
  8
LAYER_1
 62
     0
 10
23.29159100506095
 20
3.252385754646097
 30
0.0
 42
-0.0377
  0
VERTEX
  5
47C5
  8
LAYER_1
 62
     0
 10
23.40011108553567
 20
3.201662163555775
 30
0.0
 42
-0.2225
  0
VERTEX
  5
47C6
  8
LAYER_1
 62
     0
 10
23.42786656806998
 20
3.160682618519518
 30
0.0
 42
-0.0783
  0
VERTEX
  5
47C7
  8
LAYER_1
 62
     0
 10
23.40755079637425
 20
2.955615595240768
 30
0.0
 42
0.1088
  0
VERTEX
  5
47C8
  8
LAYER_1
 62
     0
 10
23.40705230753171
 20
2.899258139684823
 30
0.0
 42
0.0528
  0
VERTEX
  5
47C9
  8
LAYER_1
 62
     0
 10
23.47883470085664
 20
2.733665789464868
 30
0.0
 42
-0.2768
  0
VERTEX
  5
47CA
  8
LAYER_1
 62
     0
 10
23.54577328750411
 20
2.204787938435771
 30
0.0
 42
-0.0402
  0
VERTEX
  5
47CB
  8
LAYER_1
 62
     0
 10
23.48678230598761
 20
2.140379417800406
 30
0.0
 42
0.1731
  0
VERTEX
  5
47CC
  8
LAYER_1
 62
     0
 10
23.46167916031357
 20
2.086805975402766
 30
0.0
 42
-0.3634
  0
VERTEX
  5
47CD
  8
LAYER_1
 62
     0
 10
23.25356290463562
 20
1.960716671035542
 30
0.0
 42
0.0097434975062151
  0
VERTEX
  5
47CE
  8
LAYER_1
 62
     0
 10
22.0843189757043
 20
1.96453772962682
 30
0.0
 42
-0.1669315529244572
  0
VERTEX
  5
47CF
  8
LAYER_1
 62
     0
 10
21.69107790463538
 20
2.075790678174638
 30
0.0
  0
SEQEND
  5
47BD
  8
LAYER_1
 62
     0
  0
ARC
  5
3EF9
  8
0
  6
BYBLOCK
 10
10.92733065710713
 20
4.520397627532603
 30
0.0
 40
0.4717484880606895
 50
112.1626133803822
 51
181.3739644836594
  0
LINE
  5
3EFB
  8
0
  6
BYBLOCK
 10
10.46084122696603
 20
4.502974614528137
 30
0.0
 11
10.46084122696603
 21
3.465805887647279
 31
0.0
  0
ARC
  5
3EFC
  8
0
  6
BYBLOCK
 10
16.51672191994412
 20
3.269638140760182
 30
0.0
 40
6.056358501696602
 50
179.2802830463608
 51
192.9198368742826
  0
LINE
  5
4203
  8
0
  6
BYBLOCK
 10
13.25784513323483
 20
4.123357343825267
 30
0.0
 11
15.93123761349427
 21
4.225200866882769
 31
0.0
  0
LINE
  5
4204
  8
0
  6
BYBLOCK
 10
16.16038554037365
 20
4.237931307264958
 30
0.0
 11
21.9527359142691
 21
4.250661747647147
 31
0.0
  0
LINE
  5
4205
  8
0
  6
BYBLOCK
 10
22.02911855656222
 20
4.250661747647147
 30
0.0
 11
22.18188384114848
 21
4.212470426500584
 31
0.0
  0
LINE
  5
4206
  8
0
  6
BYBLOCK
 10
22.18188384114848
 20
4.212470426500584
 30
0.0
 11
22.02911855656222
 21
4.136087784207456
 31
0.0
  0
LINE
  5
4209
  8
0
  6
BYBLOCK
 10
9.482088343148366
 20
4.844988922458382
 30
0.0
 11
9.944378956636131
 21
3.609094697490426
 31
0.0
  0
LINE
  5
420A
  8
0
  6
BYBLOCK
 10
9.944378956636131
 20
3.609094697490426
 30
0.0
 11
10.29391453596635
 21
3.609094697490426
 31
0.0
  0
LINE
  5
420E
  8
0
  6
BYBLOCK
 10
9.30705014973713
 20
4.803803465185151
 30
0.0
 11
9.729201086787757
 21
3.640314297216352
 31
0.0
  0
LINE
  5
420F
  8
0
  6
BYBLOCK
 10
9.760872777487759
 20
3.582879529040659
 30
0.0
 11
1.562472379211928
 21
3.326140470471001
 31
0.0
  0
LINE
  5
4210
  8
0
  6
BYBLOCK
 10
10.65477433990492
 20
3.624204809031133
 30
0.0
 11
11.59680258700061
 21
3.618630677391512
 31
0.0
  0
LINE
  5
4211
  8
0
  6
BYBLOCK
 10
11.59680258700061
 20
3.618630677391512
 30
0.0
 11
11.97584353849474
 21
3.54059283443684
 31
0.0
  0
LINE
  5
4212
  8
0
  6
BYBLOCK
 10
11.97584353849474
 20
3.54059283443684
 30
0.0
 11
11.97584353849474
 21
3.490425649680264
 31
0.0
  0
LINE
  5
4213
  8
0
  6
BYBLOCK
 10
11.97584353849474
 20
3.490425649680264
 30
0.0
 11
11.65254390339681
 21
3.423536070004829
 31
0.0
  0
LINE
  5
4214
  8
0
  6
BYBLOCK
 10
11.65254390339681
 20
3.423536070004829
 30
0.0
 11
10.65477433990492
 21
3.423536070004829
 31
0.0
  0
ARC
  5
421A
  8
0
  6
BYBLOCK
 10
10.82757481014133
 20
4.109096847616502
 30
0.0
 40
0.0797538597497381
 50
305.4792287018801
 51
239.2926593588965
  0
POLYLINE
  5
421C
  8
LAYER_1
 62
     0
 66
     1
 10
0.0
 20
0.0
 30
0.0
  0
VERTEX
  5
47D1
  8
LAYER_1
 62
     0
 10
1.765155297277564
 20
3.167483296344838
 30
0.0
  0
VERTEX
  5
47D2
  8
LAYER_1
 62
     0
 10
10.31139131493286
 20
3.416850128858804
 30
0.0
  0
SEQEND
  5
47D0
  8
LAYER_1
 62
     0
  0
POLYLINE
  5
421E
  8
LAYER_1
 62
     0
 66
     1
 10
0.0
 20
0.0
 30
0.0
  0
VERTEX
  5
47D4
  8
LAYER_1
 62
     0
 10
21.40224762892718
 20
5.554198581516468
 30
0.0
 42
0.1837828232722267
  0
VERTEX
  5
47D5
  8
LAYER_1
 62
     0
 10
21.42645405805028
 20
5.581219711700388
 30
0.0
  0
VERTEX
  5
47D6
  8
LAYER_1
 62
     0
 10
21.41688407444347
 20
5.603737320186983
 30
0.0
 42
0.0382
  0
VERTEX
  5
47D7
  8
LAYER_1
 62
     0
 10
21.38001797024022
 20
5.673865848130049
 30
0.0
 42
-0.123
  0
VERTEX
  5
47D8
  8
LAYER_1
 62
     0
 10
21.36178080296335
 20
5.718090273367707
 30
0.0
 42
-0.2584
  0
VERTEX
  5
47D9
  8
LAYER_1
 62
     0
 10
21.36827996881602
 20
5.731718770213597
 30
0.0
 42
-0.1295
  0
VERTEX
  5
47DA
  8
LAYER_1
 62
     0
 10
21.39509490636442
 20
5.7419142778609
 30
0.0
 42
-0.0276
  0
VERTEX
  5
47DB
  8
LAYER_1
 62
     0
 10
21.47152359191976
 20
5.739102048353018
 30
0.0
 42
-0.1599
  0
VERTEX
  5
47DC
  8
LAYER_1
 62
     0
 10
21.66348882354473
 20
5.611714635460874
 30
0.0
  0
VERTEX
  5
47DD
  8
LAYER_1
 62
     0
 10
21.68111463658075
 20
5.594220498722882
 30
0.0
 42
0.1714
  0
VERTEX
  5
47DE
  8
LAYER_1
 62
     0
 10
21.7241445696863
 20
5.579482158793615
 30
0.0
 42
0.0169
  0
VERTEX
  5
47DF
  8
LAYER_1
 62
     0
 10
21.91583704326536
 20
5.581560763212483
 30
0.0
 42
-0.0701
  0
VERTEX
  5
47E0
  8
LAYER_1
 62
     0
 10
22.43541290438377
 20
5.547578872871425
 30
0.0
 42
-0.1097
  0
VERTEX
  5
47E1
  8
LAYER_1
 62
     0
 10
22.4648895842423
 20
5.531871771606665
 30
0.0
 42
-0.274
  0
VERTEX
  5
47E2
  8
LAYER_1
 62
     0
 10
22.47547071533383
 20
5.501981251954332
 30
0.0
 42
-0.274
  0
VERTEX
  5
47E3
  8
LAYER_1
 62
     0
 10
22.45434607495021
 20
5.478345356458322
 30
0.0
 42
-0.0906
  0
VERTEX
  5
47E4
  8
LAYER_1
 62
     0
 10
21.94812595263177
 20
5.435512937799816
 30
0.0
 42
0.3462
  0
VERTEX
  5
47E5
  8
LAYER_1
 62
     0
 10
21.93526870267434
 20
5.423210609384064
 30
0.0
 42
0.0764
  0
VERTEX
  5
47E6
  8
LAYER_1
 62
     0
 10
21.93554146072025
 20
5.397674813016508
 30
0.0
 42
0.1947
  0
VERTEX
  5
47E7
  8
LAYER_1
 62
     0
 10
21.9467621624022
 20
5.372524640093179
 30
0.0
 42
0.061831549103727
  0
VERTEX
  5
47E8
  8
LAYER_1
 62
     0
 10
22.14252338242532
 20
5.275259146824373
 30
0.0
  0
SEQEND
  5
47D3
  8
LAYER_1
 62
     0
  0
LINE
  5
421F
  8
0
  6
BYBLOCK
 10
17.25151137171117
 20
5.626478955900868
 30
0.0
 11
21.40224762892718
 21
5.554198581516468
 31
0.0
  0
ARC
  5
4223
  8
0
  6
BYBLOCK
 10
22.04651978418195
 20
3.69954167047974
 30
0.0
 40
1.578639368612595
 50
52.77273542919378
 51
86.51345500709925
  0
ARC
  5
4226
  8
0
  6
BYBLOCK
 10
22.06664197236158
 20
5.164989908235709
 30
0.0
 40
0.8806795199821982
 50
283.1440850787933
 51
340.3974423641652
  0
ARC
  5
4227
  8
0
  6
BYBLOCK
 10
21.60109706391777
 20
2.080230777003866
 30
0.0
 40
3.047248972704716
 50
68.81042466879697
 51
86.71735231237049
  0
LINE
  5
4228
  8
0
  6
BYBLOCK
 10
21.77558763366193
 20
5.122479836946251
 30
0.0
 11
16.29204874471493
 21
5.122479836946251
 31
0.0
  0
LINE
  5
422B
  8
0
  6
BYBLOCK
 10
8.885790663335554
 20
3.895962767997553
 30
0.0
 11
9.188872560755145
 21
3.895962767997553
 31
0.0
  0
LINE
  5
422C
  8
0
  6
BYBLOCK
 10
9.188872560755145
 20
3.895962767997553
 30
0.0
 11
9.214999836077752
 21
3.876518411016793
 31
0.0
  0
LINE
  5
422D
  8
0
  6
BYBLOCK
 10
9.220382246271193
 20
3.858218216359097
 30
0.0
 11
9.19153750428487
 21
3.74777364875173
 31
0.0
  0
LINE
  5
422E
  8
0
  6
BYBLOCK
 10
9.19153750428487
 20
3.74777364875173
 30
0.0
 11
9.061062904545365
 21
3.717199069290965
 31
0.0
  0
LINE
  5
422F
  8
0
  6
BYBLOCK
 10
9.031997889500788
 20
3.717199069290965
 30
0.0
 11
8.880043427860358
 21
3.74777364875173
 31
0.0
  0
LINE
  5
4230
  8
0
  6
BYBLOCK
 10
8.880043427860358
 20
3.74777364875173
 30
0.0
 11
8.848995942923823
 21
3.854988770243033
 31
0.0
  0
LINE
  5
4231
  8
0
  6
BYBLOCK
 10
8.854378353117262
 20
3.871136000823353
 30
0.0
 11
8.885790663335554
 21
3.895962767997553
 31
0.0
  0
POLYLINE
  5
423A
  8
LAYER_1
 62
     0
 66
     1
 10
0.0
 20
0.0
 30
0.0
  0
VERTEX
  5
47EA
  8
LAYER_1
 62
     0
 10
7.988579000152446
 20
3.676728961388585
 30
0.0
  0
VERTEX
  5
47EB
  8
LAYER_1
 62
     0
 10
7.943895001718221
 20
3.676728961388585
 30
0.0
 42
0.008621330312841
  0
VERTEX
  5
47EC
  8
LAYER_1
 62
     0
 10
7.647703926382791
 20
3.676728961388585
 30
0.0
  0
VERTEX
  5
47ED
  8
LAYER_1
 62
     0
 10
7.56344267219254
 20
3.676728961388585
 30
0.0
  0
SEQEND
  5
47E9
  8
LAYER_1
 62
     0
  0
ARC
  5
423F
  8
0
  6
BYBLOCK
 10
19.79106385466584
 20
1.862342031877518
 30
0.0
 40
0.4107502375935835
 50
187.1744286543843
 51
351.4225253482023
  0
ARC
  5
4240
  8
0
  6
BYBLOCK
 10
19.79106385466584
 20
1.862342031877518
 30
0.0
 40
0.411273800146397
 50
8.590749795259974
 51
171.4742907107014
  0
ARC
  5
4243
  8
0
  6
BYBLOCK
 10
19.74966987465757
 20
1.862342031877518
 30
0.0
 40
1.020681114180904
 50
90.56333001550652
 51
266.0310757234385
  0
ARC
  5
4244
  8
0
  6
BYBLOCK
 10
19.74966987465757
 20
1.862342031877518
 30
0.0
 40
1.02419164142163
 50
276.4563267111448
 51
80.18880467160044
  0
POLYLINE
  5
424E
  8
LAYER_1
 62
     0
 66
     1
 10
0.0
 20
0.0
 30
0.0
  0
VERTEX
  5
47EF
  8
LAYER_1
 62
     0
 10
5.172557332467374
 20
2.46068670701548
 30
0.0
 42
-0.0052337375899715
  0
VERTEX
  5
47F0
  8
LAYER_1
 62
     0
 10
6.697009113409324
 20
2.460155874516603
 30
0.0
  0
SEQEND
  5
47EE
  8
LAYER_1
 62
     0
  0
POLYLINE
  5
424F
  8
LAYER_1
 62
     0
 66
     1
 10
0.0
 20
0.0
 30
0.0
  0
VERTEX
  5
47F2
  8
LAYER_1
 62
     0
 10
10.94011635517889
 20
6.610111997619736
 30
0.0
 42
0.0088661858045172
  0
VERTEX
  5
47F3
  8
LAYER_1
 62
     0
 10
10.93941308679046
 20
5.14101060856542
 30
0.0
  0
SEQEND
  5
47F1
  8
LAYER_1
 62
     0
  0
LINE
  5
4253
  8
0
  6
BYBLOCK
 10
10.9354910107617
 20
6.815937416994345
 30
0.0
 11
14.8314398608124
 21
6.947226975018657
 31
0.0
  0
ARC
  5
4255
  8
0
  6
BYBLOCK
 10
6.521861989996547
 20
-20.15866665407958
 30
0.0
 40
25.48491581722409
 50
92.1925439239986
 51
100.5918461804585
  0
ARC
  5
4256
  8
0
  6
BYBLOCK
 10
5.426658461617822
 20
5.812995861621628
 30
0.0
 40
0.5195027909989842
 50
283.3788853959202
 51
318.7890628148209
  0
POLYLINE
  5
4257
  8
LAYER_1
 62
     0
 66
     1
 10
0.0
 20
0.0
 30
0.0
  0
VERTEX
  5
47F5
  8
LAYER_1
 62
     0
 10
5.81747477885154
 20
5.470730239568219
 30
0.0
 42
-0.0193394135841089
  0
VERTEX
  5
47F6
  8
LAYER_1
 62
     0
 10
6.328692886011067
 20
6.007025693040376
 30
0.0
  0
VERTEX
  5
47F7
  8
LAYER_1
 62
     0
 10
6.442235476710561
 20
6.100412404691742
 30
0.0
 42
-0.023
  0
VERTEX
  5
47F8
  8
LAYER_1
 62
     0
 10
6.810844462139974
 20
6.391849674026942
 30
0.0
 42
0.0538
  0
VERTEX
  5
47F9
  8
LAYER_1
 62
     0
 10
7.181701350085721
 20
6.699774696965205
 30
0.0
  0
VERTEX
  5
47FA
  8
LAYER_1
 62
     0
 10
7.202355717976384
 20
6.726928230708532
 30
0.0
 42
-0.0284
  0
VERTEX
  5
47FB
  8
LAYER_1
 62
     0
 10
7.338697119134425
 20
6.815348864834274
 30
0.0
 42
-0.0873
  0
VERTEX
  5
47FC
  8
LAYER_1
 62
     0
 10
8.977925947834006
 20
7.39985995178016
 30
0.0
 42
-0.0261
  0
VERTEX
  5
47FD
  8
LAYER_1
 62
     0
 10
10.39395404592642
 20
7.551880237853382
 30
0.0
  0
VERTEX
  5
47FE
  8
LAYER_1
 62
     0
 10
11.25175928942923
 20
7.580322318227411
 30
0.0
  0
VERTEX
  5
47FF
  8
LAYER_1
 62
     0
 10
12.44930819274377
 20
7.577359601521781
 30
0.0
 42
0.0094
  0
VERTEX
  5
4800
  8
LAYER_1
 62
     0
 10
13.67079396594981
 20
7.546716645880716
 30
0.0
 42
-0.0472
  0
VERTEX
  5
4801
  8
LAYER_1
 62
     0
 10
15.25398512438866
 20
7.394611710758763
 30
0.0
 42
-0.22
  0
VERTEX
  5
4802
  8
LAYER_1
 62
     0
 10
15.53139886798388
 20
7.258637122145228
 30
0.0
  0
VERTEX
  5
4803
  8
LAYER_1
 62
     0
 10
15.56232398712072
 20
7.201724745047596
 30
0.0
  0
VERTEX
  5
4804
  8
LAYER_1
 62
     0
 10
16.2780316941517
 20
6.428276981331376
 30
0.0
  0
VERTEX
  5
4805
  8
LAYER_1
 62
     0
 10
16.74797499636345
 20
5.896568089894679
 30
0.0
 42
-0.0159689428199764
  0
VERTEX
  5
4806
  8
LAYER_1
 62
     0
 10
16.8875646730478
 20
5.747252857130722
 30
0.0
  0
SEQEND
  5
47F4
  8
LAYER_1
 62
     0
  0
POLYLINE
  5
43CF
  8
LAYER_1
 62
     0
 66
     1
 10
0.0
 20
0.0
 30
0.0
  0
VERTEX
  5
4808
  8
LAYER_1
 62
     0
 10
16.06873777829588
 20
1.920027192715689
 30
0.0
 42
0.0133439166216157
  0
VERTEX
  5
4809
  8
LAYER_1
 62
     0
 10
16.03936586047378
 20
4.003948793916667
 30
0.0
  0
SEQEND
  5
4807
  8
LAYER_1
 62
     0
  0
ARC
  5
46AF
  8
0
  6
BYBLOCK
 10
8.897483657964441
 20
4.500747142082966
 30
0.0
 40
0.509497640971185
 50
36.49937277788301
 51
92.57393709837356
  0
ARC
  5
46B2
  8
0
  6
BYBLOCK
 10
7.040228641367853
 20
5.140730864712793
 30
0.0
 40
0.1321040238139356
 50
127.8100870300034
 51
274.931157508683
  0
LINE
  5
46B3
  8
0
  6
BYBLOCK
 10
8.637001169146613
 20
5.01045824727942
 30
0.0
 11
7.166986858476547
 21
5.01045824727942
 31
0.0
  0
ARC
  5
46B9
  8
0
  6
BYBLOCK
 10
5.928943693680195
 20
1.820715677900817
 30
0.0
 40
1.02419164142163
 50
276.4563267111448
 51
28.67314648943502
  0
ARC
  5
46BB
  8
0
  6
BYBLOCK
 10
5.928943693680195
 20
1.820715677900817
 30
0.0
 40
0.4107502375935834
 50
187.1744286543843
 51
351.4225253482023
  0
ARC
  5
46BC
  8
0
  6
BYBLOCK
 10
5.933233661429188
 20
1.814171471576924
 30
0.0
 40
1.772393005848566
 50
176.3947332775389
 51
6.455215267491967
  0
ARC
  5
46BD
  8
0
  6
BYBLOCK
 10
5.928943693680195
 20
1.820715677900817
 30
0.0
 40
0.411273800146397
 50
8.590749795259974
 51
171.4742907107014
  0
POLYLINE
  5
46C3
  8
LAYER_1
 62
     0
 66
     1
 10
0.0
 20
0.0
 30
0.0
  0
VERTEX
  5
480B
  8
LAYER_1
 62
     0
 10
3.786756806835451
 20
1.70170300852811
 30
0.0
  0
VERTEX
  5
480C
  8
LAYER_1
 62
     0
 10
3.952461841271048
 20
1.694542135136981
 30
0.0
  0
SEQEND
  5
480A
  8
LAYER_1
 62
     0
  0
ARC
  5
46C6
  8
0
  6
BYBLOCK
 10
5.928943693680195
 20
1.820715677900817
 30
0.0
 40
1.020681114180904
 50
152.6701200405695
 51
266.0310757234385
  0
ARC
  5
46C9
  8
0
  6
BYBLOCK
 10
7.02735431759365
 20
1.378718579813482
 30
0.0
 40
1.075553999234174
 50
49.24424270090774
 51
93.29417011468584
  0
ENDSEC
  0
EOF
