  0
SECTION
  2
HEADER
  9
$ACADVER
  1
AC1009
  9
$EXTMAX
 10
1726.40454101563
 20
2671.99633789063
 30
0.0
  9
$EXTMIN
 10
-414.783843994141
 20
-4.4938340187073
 30
0.0
  9
$INSUNITS
 70
     4
  9
$LUNITS
 70
     2
  9
$LUPREC
 70
     4
  9
$MEASUREMENT
 70
     1
  0
ENDSEC
  0
SECTION
  2
TABLES
  0
TABLE
  2
LAYER
 70
     1
  0
LAYER
  2
0
 70
     0
 62
     7
  6
Continuous
  0
LAYER
  2
Default
 70
     0
 62
    14
  6
Continuous
  0
ENDTAB
  0
TABLE
  2
APPID
 70
     1
  0
APPID
  2
ACAD
 70
     0
  0
ENDTAB
  0
ENDSEC
  0
SECTION
  2
ENTITIES
  0
POLYLINE
  8
Default
 66
     1
 10
0.0
 20
0.0
 30
0.0
 70
     1
  0
SEQEND
  0
POLYLINE
  8
Default
 66
     1
 10
0.0
 20
0.0
 30
0.0
 70
     1
  0
VERTEX
  8
Default
 10
31.735339
 20
3.936289
 42
0.0891955724179
  0
VERTEX
  8
Default
 10
31.7088117141204
 20
4.0237675898621
 42
0.0343092299584
  0
VERTEX
  8
Default
 10
31.5379032276305
 20
4.3182311284154
 42
0.0122974962312
  0
VERTEX
  8
Default
 10
31.2427155958291
 20
4.7347313076723
 42
0.0
  0
VERTEX
  8
Default
 10
31.0869181793567
 20
4.9369444176013
 42
0.0088337362344
  0
VERTEX
  8
Default
 10
30.92671
 20
5.135733
 42
-0.0087314717026
  0
VERTEX
  8
Default
 10
30.4704378709013
 20
5.710606980695
 42
0.0
  0
VERTEX
  8
Default
 10
30.4219523213533
 20
5.7748141988243
 42
-0.0330613395479
  0
VERTEX
  8
Default
 10
29.7221742124684
 20
6.8300089114008
 42
-0.0408138381603
  0
VERTEX
  8
Default
 10
29.3193544795374
 20
7.6910495513264
 42
-0.0584255179992
  0
VERTEX
  8
Default
 10
28.9892622815148
 20
9.0747568197329
 42
-0.01956827548
  0
VERTEX
  8
Default
 10
28.9292357494685
 20
9.7838143515881
 42
0.0
  0
VERTEX
  8
Default
 10
28.9271346341156
 20
9.8282862876082
 42
-0.010355159672
  0
VERTEX
  8
Default
 10
28.9163576384092
 20
10.1616850387271
 42
0.0
  0
VERTEX
  8
Default
 10
28.913116
 20
10.49528
 42
0.0
  0
VERTEX
  8
Default
 10
28.9161873707081
 20
10.8377903752878
 42
0.0
  0
VERTEX
  8
Default
 10
28.9244292242812
 20
11.1375446559596
 42
0.0
  0
VERTEX
  8
Default
 10
28.9365971869446
 20
11.3999173363914
 42
-0.0273755151512
  0
VERTEX
  8
Default
 10
29.0302059958773
 20
12.3145932657654
 42
-0.0290836328471
  0
VERTEX
  8
Default
 10
29.1276877198567
 20
12.766144222108
 42
0.0
  0
VERTEX
  8
Default
 10
29.1619224608046
 20
12.8768126623049
 42
-0.0249005279298
  0
VERTEX
  8
Default
 10
29.2251601563211
 20
13.0387218778705
 42
-0.0474084481333
  0
VERTEX
  8
Default
 10
29.309989
 20
13.190502
 42
-0.0473208512196
  0
VERTEX
  8
Default
 10
29.4669801835489
 20
13.35854988832
 42
0.0
  0
VERTEX
  8
Default
 10
29.5471741389487
 20
13.4301599567454
 42
-0.0214751644971
  0
VERTEX
  8
Default
 10
30.2064039834431
 20
13.9396192480434
 42
0.0
  0
VERTEX
  8
Default
 10
30.4615208731874
 20
14.119919552095
 42
-0.005636950782
  0
VERTEX
  8
Default
 10
30.9136812184734
 20
14.4270594198091
 42
0.0
  0
VERTEX
  8
Default
 10
31.2567386862024
 20
14.6516848637844
 42
0.0
  0
VERTEX
  8
Default
 10
31.5159082635946
 20
14.8172319982414
 42
0.0
  0
VERTEX
  8
Default
 10
31.9074622207007
 20
15.0610417692699
 42
0.0
  0
VERTEX
  8
Default
 10
32.302269
 20
15.299411
 42
0.0
  0
VERTEX
  8
Default
 10
32.446773615644
 20
15.3857175657788
 42
0.0
  0
VERTEX
  8
Default
 10
32.5864494029568
 20
15.4699995079363
 42
0.0
  0
VERTEX
  8
Default
 10
32.721450779889
 20
15.5523079745984
 42
0.0
  0
VERTEX
  8
Default
 10
32.8519290581897
 20
15.6326939069361
 42
0.0
  0
VERTEX
  8
Default
 10
32.9780207620774
 20
15.7112007211987
 42
0.0
  0
VERTEX
  8
Default
 10
33.0998606427322
 20
15.7878721432496
 42
0.0
  0
VERTEX
  8
Default
 10
33.2175923589918
 20
15.862759062444
 42
0.0
  0
VERTEX
  8
Default
 10
33.3313620763561
 20
15.9359157923154
 42
0.012863927945
  0
VERTEX
  8
Default
 10
34.1987041270015
 20
16.5247804487302
 42
0.0071686857393
  0
VERTEX
  8
Default
 10
34.3586051183662
 20
16.6408915795844
 42
0.008090787498
  0
VERTEX
  8
Default
 10
34.6547415664634
 20
16.8643194269571
 42
0.0125324709453
  0
VERTEX
  8
Default
 10
35.1574790472924
 20
17.2772070792345
 42
0.0
  0
VERTEX
  8
Default
 10
35.3394942693699
 20
17.44161614745
 42
0.0
  0
VERTEX
  8
Default
 10
35.4945115701058
 20
17.5907657744939
 42
0.0
  0
VERTEX
  8
Default
 10
35.560862268666
 20
17.6578359045378
 42
0.0117400356858
  0
VERTEX
  8
Default
 10
35.6821389077389
 20
17.7867499278841
 42
0.048819849474
  0
VERTEX
  8
Default
 10
36.057444346399
 20
18.2795740580189
 42
0.0490070772023
  0
VERTEX
  8
Default
 10
36.1930619566814
 20
18.5611043245188
 42
0.0870076337455
  0
VERTEX
  8
Default
 10
36.250894
 20
18.868147
 42
0.0966080111463
  0
VERTEX
  8
Default
 10
36.2340354241724
 20
18.9715800297533
 42
0.2430746032386
  0
VERTEX
  8
Default
 10
36.172503971745
 20
19.0268168099921
 42
0.1142071620178
  0
VERTEX
  8
Default
 10
36.1040822192666
 20
19.0263513590252
 42
0.0752534851512
  0
VERTEX
  8
Default
 10
35.9865006568114
 20
18.9823267513802
 42
0.029078950064
  0
VERTEX
  8
Default
 10
35.800205671578
 20
18.867701816815
 42
0.0269297046906
  0
VERTEX
  8
Default
 10
35.290466
 20
18.455795
 42
-0.0144501598398
  0
VERTEX
  8
Default
 10
35.1747273429823
 20
18.3605219257718
 42
-0.0174068249403
  0
VERTEX
  8
Default
 10
34.940830233042
 20
18.1884265945655
 42
-0.0167793365899
  0
VERTEX
  8
Default
 10
34.0254802038726
 20
17.5998547706617
 42
-0.0194533674827
  0
VERTEX
  8
Default
 10
31.164581
 20
16.029234
 42
0.0
  0
VERTEX
  8
Default
 10
27.999123
 20
14.44594
 42
0.0
  0
VERTEX
  8
Default
 10
26.503261
 20
15.507115
 42
0.0
  0
VERTEX
  8
Default
 10
26.4044912107943
 20
15.5787520144827
 42
-0.0269440027417
  0
VERTEX
  8
Default
 10
25.680380477317
 20
16.1856706978521
 42
0.0
  0
VERTEX
  8
Default
 10
25.5513602504387
 20
16.3070222121881
 42
0.0
  0
VERTEX
  8
Default
 10
25.4320077147584
 20
16.4225776807117
 42
0.0
  0
VERTEX
  8
Default
 10
25.3215163983938
 20
16.5323606353288
 42
-0.0201541108391
  0
VERTEX
  8
Default
 10
24.5352193888219
 20
17.395405659561
 42
0.0
  0
VERTEX
  8
Default
 10
24.4422927702333
 20
17.5080321711608
 42
-0.0103506883316
  0
VERTEX
  8
Default
 10
24.1276850890088
 20
17.9107464337425
 42
-0.0137940324526
  0
VERTEX
  8
Default
 10
23.832462
 20
18.327774
 42
0.0095628313058
  0
VERTEX
  8
Default
 10
23.510192994702
 20
18.7963320930338
 42
0.0
  0
VERTEX
  8
Default
 10
23.3857500089885
 20
18.9698542395845
 42
0.0
  0
VERTEX
  8
Default
 10
23.3582113188811
 20
19.0076866758077
 42
0.0156564582146
  0
VERTEX
  8
Default
 10
22.9172176054708
 20
19.5819277954004
 42
0.0118981443634
  0
VERTEX
  8
Default
 10
22.6798844175426
 20
19.8571799125142
 42
0.0
  0
VERTEX
  8
Default
 10
22.6168656402205
 20
19.9233829502636
 42
0.025401335124
  0
VERTEX
  8
Default
 10
22.5170425886256
 20
20.0177025444018
 42
0.0
  0
VERTEX
  8
Default
 10
22.4622603809359
 20
20.0599845669805
 42
0.1260041791806
  0
VERTEX
  8
Default
 10
22.398655
 20
20.087257
 42
0.0505266637039
  0
VERTEX
  8
Default
 10
22.2848795406962
 20
20.0796620735549
 42
0.1842579177537
  0
VERTEX
  8
Default
 10
22.1992397852858
 20
20.0347545578865
 42
0.1576005283754
  0
VERTEX
  8
Default
 10
22.1764170968049
 20
19.959596187008
 42
0.0761366536035
  0
VERTEX
  8
Default
 10
22.1987200517532
 20
19.8149058107825
 42
0.0312853001674
  0
VERTEX
  8
Default
 10
22.2907311076111
 20
19.5580259161293
 42
0.0
  0
VERTEX
  8
Default
 10
22.3374572553884
 20
19.4482865473078
 42
0.0
  0
VERTEX
  8
Default
 10
22.4296158265795
 20
19.2445859131686
 42
0.0
  0
VERTEX
  8
Default
 10
22.4503242976645
 20
19.2002199263817
 42
0.0
  0
VERTEX
  8
Default
 10
22.6143463227547
 20
18.8584990140247
 42
0.0
  0
VERTEX
  8
Default
 10
22.8666963835593
 20
18.3489565353037
 42
0.0
  0
VERTEX
  8
Default
 10
22.9303572793872
 20
18.2218011218151
 42
0.0
  0
VERTEX
  8
Default
 10
22.9781953885872
 20
18.1264518373293
 42
0.0
  0
VERTEX
  8
Default
 10
23.121891
 20
17.84074
 42
0.0
  0
VERTEX
  8
Default
 10
23.2453171928781
 20
17.598877577211
 42
0.0
  0
VERTEX
  8
Default
 10
23.3042533882229
 20
17.4859658265127
 42
0.0104514338792
  0
VERTEX
  8
Default
 10
23.5413815386909
 20
17.0530683018154
 42
0.0
  0
VERTEX
  8
Default
 10
23.6509569475498
 20
16.8667925071879
 42
0.033523037459
  0
VERTEX
  8
Default
 10
24.108353500009
 20
16.1985272498317
 42
0.0281994125232
  0
VERTEX
  8
Default
 10
24.510049722673
 20
15.7433997932725
 42
0.0296199774529
  0
VERTEX
  8
Default
 10
25.1906151717037
 20
15.1396562780217
 42
0.0
  0
VERTEX
  8
Default
 10
25.369929806724
 20
14.9997123262647
 42
0.0058531183808
  0
VERTEX
  8
Default
 10
25.919332
 20
14.595142
 42
0.0
  0
VERTEX
  8
Default
 10
27.734664
 20
13.299745
 42
0.0
  0
VERTEX
  8
Default
 10
27.830002
 20
10.260324
 42
0.0
  0
VERTEX
  8
Default
 10
27.925339
 20
7.220904
 42
0.0
  0
VERTEX
  8
Default
 10
29.44933
 20
5.469636
 42
0.0
  0
VERTEX
  8
Default
 10
29.6832995499698
 20
5.2053829297233
 42
0.0246335205937
  0
VERTEX
  8
Default
 10
30.553391434061
 20
4.3187171944812
 42
0.0329306438248
  0
VERTEX
  8
Default
 10
31.0702927293612
 20
3.8984850737217
 42
0.0231243578457
  0
VERTEX
  8
Default
 10
31.2364469846836
 20
3.7938031004714
 42
0.0437170672382
  0
VERTEX
  8
Default
 10
31.3811021627237
 20
3.7235449869782
 42
0.0514043451097
  0
VERTEX
  8
Default
 10
31.5058890545144
 20
3.6882903547007
 42
0.0949296796946
  0
VERTEX
  8
Default
 10
31.6063742910132
 20
3.6918441751255
 42
0.2493575611297
  0
VERTEX
  8
Default
 10
31.7126774908885
 20
3.7919749816115
 42
0.0895327000388
  0
SEQEND
  0
POLYLINE
  8
Default
 66
     1
 10
0.0
 20
0.0
 30
0.0
 70
     1
  0
VERTEX
  8
Default
 10
36.906855
 20
23.05059
 42
0.0314630955307
  0
VERTEX
  8
Default
 10
37.9696510884648
 20
25.5909256025892
 42
0.0506104552394
  0
VERTEX
  8
Default
 10
38.906966130897
 20
29.6082168121142
 42
0.0202488542777
  0
VERTEX
  8
Default
 10
39.0904852498514
 20
31.6639914503974
 42
0.016319703664
  0
VERTEX
  8
Default
 10
39.126518
 20
33.727616
 42
0.0052603564351
  0
VERTEX
  8
Default
 10
39.1019732245525
 20
34.8154062087079
 42
0.0358894708106
  0
VERTEX
  8
Default
 10
39.1010458195388
 20
34.8427108290449
 42
0.0123961406715
  0
VERTEX
  8
Default
 10
39.0033063265194
 20
36.5744799668925
 42
0.0
  0
VERTEX
  8
Default
 10
38.9873020336029
 20
36.7602217408617
 42
0.0078839210989
  0
VERTEX
  8
Default
 10
38.902153675241
 20
37.5520509860669
 42
0.0080013397807
  0
VERTEX
  8
Default
 10
38.8273054266785
 20
38.0666546412108
 42
0.0
  0
VERTEX
  8
Default
 10
38.7851941662567
 20
38.3048196621591
 42
0.0219799869979
  0
VERTEX
  8
Default
 10
38.652068568989
 20
38.8793660357166
 42
0.0065083531502
  0
VERTEX
  8
Default
 10
38.6117313612096
 20
39.0099679500737
 42
0.0365242604475
  0
VERTEX
  8
Default
 10
38.5076141186891
 20
39.2708751363497
 42
0.0918051322758
  0
VERTEX
  8
Default
 10
38.3683129265559
 20
39.4712113365963
 42
0.1149816272249
  0
VERTEX
  8
Default
 10
38.2849160398715
 20
39.5190086847833
 42
0.2478503479866
  0
VERTEX
  8
Default
 10
38.1319311914419
 20
39.4774075477778
 42
0.0654188465083
  0
VERTEX
  8
Default
 10
38.0397259787445
 20
39.374130193538
 42
0.0486694916703
  0
VERTEX
  8
Default
 10
37.9180437036391
 20
39.1478043043816
 42
0.0198352323066
  0
VERTEX
  8
Default
 10
37.8370082671931
 20
38.938694647446
 42
0.0
  0
VERTEX
  8
Default
 10
37.8211873443636
 20
38.8922389005025
 42
0.0255917153893
  0
VERTEX
  8
Default
 10
37.6262227444434
 20
38.1580006858857
 42
0.0107773991309
  0
VERTEX
  8
Default
 10
37.484205
 20
37.411652
 42
-0.0174353184003
  0
VERTEX
  8
Default
 10
37.2847784595537
 20
36.4560159612674
 42
-0.0145905353283
  0
VERTEX
  8
Default
 10
36.8951834199273
 20
35.0446838859961
 42
-0.0234109680619
  0
VERTEX
  8
Default
 10
36.405081
 20
33.664988
 42
0.0
  0
VERTEX
  8
Default
 10
36.2880619007789
 20
33.3768559259249
 42
0.0085152693445
  0
VERTEX
  8
Default
 10
36.1000907120962
 20
32.8660060862014
 42
0.0
  0
VERTEX
  8
Default
 10
36.0672264344711
 20
32.7692898245236
 42
0.0203847485948
  0
VERTEX
  8
Default
 10
35.8493642674488
 20
32.0349297363364
 42
0.0066801370937
  0
VERTEX
  8
Default
 10
35.8052751609084
 20
31.8480621409768
 42
0.0
  0
VERTEX
  8
Default
 10
35.7903577863883
 20
31.7775299393669
 42
0.0
  0
VERTEX
  8
Default
 10
35.7781972900329
 20
31.7155782343563
 42
0.024755644454
  0
VERTEX
  8
Default
 10
35.759393656307
 20
31.6067088199291
 42
0.0
  0
VERTEX
  8
Default
 10
35.7479484215114
 20
31.5246117329582
 42
0.0618958158219
  0
VERTEX
  8
Default
 10
35.741187
 20
31.276513
 42
0.0407190999673
  0
VERTEX
  8
Default
 10
35.7487602845819
 20
31.2297105682615
 42
0.0366932867485
  0
VERTEX
  8
Default
 10
35.771281846258
 20
31.1395494683876
 42
0.0931527128578
  0
VERTEX
  8
Default
 10
35.8090962266162
 20
31.0681003214944
 42
0.2246528183606
  0
VERTEX
  8
Default
 10
35.8668406461564
 20
31.0394359038975
 42
0.113872622511
  0
VERTEX
  8
Default
 10
35.919775140563
 20
31.0524526027878
 42
0.0685896961587
  0
VERTEX
  8
Default
 10
36.003961284949
 20
31.1113625647425
 42
0.0
  0
VERTEX
  8
Default
 10
36.0387553473785
 20
31.1441110086069
 42
0.0300312471763
  0
VERTEX
  8
Default
 10
36.1614275733351
 20
31.2827419416769
 42
0.0
  0
VERTEX
  8
Default
 10
36.2601067479104
 20
31.4110305532794
 42
0.0
  0
VERTEX
  8
Default
 10
36.3429085156397
 20
31.5258816246084
 42
0.0
  0
VERTEX
  8
Default
 10
36.3784502275903
 20
31.5766849268497
 42
0.0
  0
VERTEX
  8
Default
 10
36.508911671435
 20
31.7689604531291
 42
0.0
  0
VERTEX
  8
Default
 10
36.6992652186479
 20
32.0608523862012
 42
0.0
  0
VERTEX
  8
Default
 10
36.885894
 20
32.355093
 42
0.0
  0
VERTEX
  8
Default
 10
37.1395982722897
 20
32.7541093010806
 42
0.0
  0
VERTEX
  8
Default
 10
37.1877180032549
 20
32.8286640450105
 42
0.0
  0
VERTEX
  8
Default
 10
37.3697331305727
 20
33.1070345681451
 42
0.0
  0
VERTEX
  8
Default
 10
37.4387894825773
 20
33.210961398656
 42
-0.0047875884351
  0
VERTEX
  8
Default
 10
37.5609494965752
 20
33.3920305837734
 42
-0.009422095011
  0
VERTEX
  8
Default
 10
37.6073240013112
 20
33.4596580429417
 42
-0.011945639014
  0
VERTEX
  8
Default
 10
37.6893588293228
 20
33.5773717033083
 42
-0.0125699776708
  0
VERTEX
  8
Default
 10
37.7519307418176
 20
33.6650251780813
 42
0.0
  0
VERTEX
  8
Default
 10
37.8485881662876
 20
33.7946226449524
 42
-0.0101049907285
  0
VERTEX
  8
Default
 10
37.8998593989296
 20
33.8579378783924
 42
-0.0449721342826
  0
VERTEX
  8
Default
 10
37.9276807176651
 20
33.8886378649044
 42
-0.0703946653445
  0
VERTEX
  8
Default
 10
37.9434114404046
 20
33.9033819662724
 42
0.0
  0
VERTEX
  8
Default
 10
37.9531100675783
 20
33.9102877280044
 42
-0.6341142392653
  0
VERTEX
  8
Default
 10
37.964641
 20
33.907315
 42
0.0
  0
VERTEX
  8
Default
 10
37.9868925607595
 20
33.7521339393183
 42
-0.0348912587204
  0
VERTEX
  8
Default
 10
38.0599657543595
 20
32.5214071324106
 42
-0.020024297028
  0
VERTEX
  8
Default
 10
38.0066717451172
 20
31.446071848259
 42
-0.0252891562685
  0
VERTEX
  8
Default
 10
37.7370974887986
 20
29.5831613575687
 42
-0.012375348368
  0
VERTEX
  8
Default
 10
37.4347118175625
 20
28.2046765239059
 42
0.0
  0
VERTEX
  8
Default
 10
37.3709083613581
 20
27.9479188413998
 42
-0.0117374927627
  0
VERTEX
  8
Default
 10
36.8370393195557
 20
26.0367424943186
 42
0.0
  0
VERTEX
  8
Default
 10
36.6908658465844
 20
25.5626976059003
 42
0.0
  0
VERTEX
  8
Default
 10
36.5784456201129
 20
25.2080077206288
 42
0.0
  0
VERTEX
  8
Default
 10
36.5571041129918
 20
25.14154723444
 42
-0.0050013858055
  0
VERTEX
  8
Default
 10
36.4764331333195
 20
24.8926570042556
 42
0.0
  0
VERTEX
  8
Default
 10
36.3535148420376
 20
24.5199964633019
 42
0.0
  0
VERTEX
  8
Default
 10
36.2912192342478
 20
24.333910564481
 42
0.0
  0
VERTEX
  8
Default
 10
36.228401
 20
24.148017
 42
0.0
  0
VERTEX
  8
Default
 10
35.9308569722258
 20
23.2596995853275
 42
0.0030446781014
  0
VERTEX
  8
Default
 10
35.4998413838779
 20
21.9221610294983
 42
0.0
  0
VERTEX
  8
Default
 10
35.4476803661574
 20
21.7543710524991
 42
0.005681303891
  0
VERTEX
  8
Default
 10
35.2703942785927
 20
21.1654896705936
 42
0.0
  0
VERTEX
  8
Default
 10
35.2596981933528
 20
21.1285207024244
 42
0.0
  0
VERTEX
  8
Default
 10
35.2202925192129
 20
20.9897815445452
 42
0.0
  0
VERTEX
  8
Default
 10
35.1643140892901
 20
20.7808804315038
 42
0.0122406312264
  0
VERTEX
  8
Default
 10
35.1392122490407
 20
20.6756277677422
 42
0.0383203797271
  0
VERTEX
  8
Default
 10
35.122005
 20
20.568703
 42
0.0598838565614
  0
VERTEX
  8
Default
 10
35.1316354525284
 20
20.4712705357649
 42
0.1879737402692
  0
VERTEX
  8
Default
 10
35.1705011415277
 20
20.406155090565
 42
0.2096666497561
  0
VERTEX
  8
Default
 10
35.2255392020937
 20
20.4003338427703
 42
0.0894748877306
  0
VERTEX
  8
Default
 10
35.3137549000823
 20
20.4487642123549
 42
0.0528615389875
  0
VERTEX
  8
Default
 10
35.4516334550392
 20
20.5826121831116
 42
0.0138384664161
  0
VERTEX
  8
Default
 10
35.5656522369026
 20
20.7213732799899
 42
0.0
  0
VERTEX
  8
Default
 10
35.665705079753
 20
20.8566510271827
 42
0.0
  0
VERTEX
  8
Default
 10
35.7110334395026
 20
20.9212264245854
 42
0.0141054336681
  0
VERTEX
  8
Default
 10
35.8796615962457
 20
21.1760311996287
 42
0.0294199678828
  0
VERTEX
  8
Default
 10
35.8975852503868
 20
21.2043000760516
 42
0.0
  0
VERTEX
  8
Default
 10
36.0355162193592
 20
21.4284007942775
 42
0.0101254666284
  0
VERTEX
  8
Default
 10
36.2666431748043
 20
21.8267170322353
 42
0.0
  0
VERTEX
  8
Default
 10
36.4332422025594
 20
22.1291951923269
 42
0.0100678812841
  0
SEQEND
  0
POLYLINE
  8
Default
 66
     1
 10
0.0
 20
0.0
 30
0.0
 70
     1
  0
VERTEX
  8
Default
 10
26.398819
 20
30.056895
 42
0.0
  0
VERTEX
  8
Default
 10
26.6557407510525
 20
30.1312616216861
 42
-0.0238546844717
  0
VERTEX
  8
Default
 10
27.1122786955862
 20
30.2401344450703
 42
-0.0275424220059
  0
VERTEX
  8
Default
 10
27.4626078627861
 20
30.285203414478
 42
-0.0715150769202
  0
VERTEX
  8
Default
 10
27.9895244685493
 20
30.2410261148137
 42
-0.041840412076
  0
VERTEX
  8
Default
 10
28.489783
 20
30.069626
 42
0.0509697508601
  0
VERTEX
  8
Default
 10
29.3080740679385
 20
29.8196050165046
 42
0.060468385817
  0
VERTEX
  8
Default
 10
30.5882672371526
 20
29.7130995639522
 42
0.0452578455413
  0
VERTEX
  8
Default
 10
31.2312526460948
 20
29.7930394923455
 42
0.039103386248
  0
VERTEX
  8
Default
 10
31.5433138044142
 20
29.8859832723634
 42
0.062909911574
  0
VERTEX
  8
Default
 10
31.831136
 20
30.038113
 42
0.0774173650874
  0
VERTEX
  8
Default
 10
31.973051845704
 20
30.1953273539642
 42
0.0464080811959
  0
VERTEX
  8
Default
 10
32.1575912935658
 20
30.5424344626356
 42
0.0
  0
VERTEX
  8
Default
 10
32.2233922013427
 20
30.7009705092656
 42
0.0225380324478
  0
VERTEX
  8
Default
 10
32.4309580349555
 20
31.3098474540114
 42
0.014747803396
  0
VERTEX
  8
Default
 10
32.6794432883073
 20
32.2418104442289
 42
0.0
  0
VERTEX
  8
Default
 10
32.7343918723584
 20
32.4766860981475
 42
0.0118644304104
  0
VERTEX
  8
Default
 10
32.7544251924977
 20
32.5648923292469
 42
0.0
  0
VERTEX
  8
Default
 10
32.7887913151156
 20
32.7194129707178
 42
0.0
  0
VERTEX
  8
Default
 10
32.887079
 20
33.183807
 42
0.0
  0
VERTEX
  8
Default
 10
32.9698183668823
 20
33.5969346976624
 42
0.0
  0
VERTEX
  8
Default
 10
33.0331255310493
 20
33.9257767443643
 42
0.0033500741599
  0
VERTEX
  8
Default
 10
33.1336699656153
 20
34.4789207875267
 42
0.0
  0
VERTEX
  8
Default
 10
33.1692486659035
 20
34.6870705801662
 42
0.0
  0
VERTEX
  8
Default
 10
33.1998552459103
 20
34.8733252722403
 42
0.0037347683503
  0
VERTEX
  8
Default
 10
33.2697290499995
 20
35.3355286552616
 42
0.0
  0
VERTEX
  8
Default
 10
33.2958553691712
 20
35.5299094304489
 42
0.0227358581251
  0
VERTEX
  8
Default
 10
33.361142238757
 20
36.2408205417165
 42
0.0137560330965
  0
VERTEX
  8
Default
 10
33.3605160285796
 20
36.4081523496668
 42
0.0364977964729
  0
VERTEX
  8
Default
 10
33.352354355355
 20
36.4914136077299
 42
0.0519801456653
  0
VERTEX
  8
Default
 10
33.3459857886023
 20
36.5228478104672
 42
0.1433768517775
  0
VERTEX
  8
Default
 10
33.3207755732369
 20
36.5748073628698
 42
0.3519976247958
  0
VERTEX
  8
Default
 10
33.2847149238314
 20
36.5762383833899
 42
0.1108826475578
  0
VERTEX
  8
Default
 10
33.2414674947208
 20
36.5320413883944
 42
0.0386127626993
  0
VERTEX
  8
Default
 10
33.2098911947334
 20
36.4820442934002
 42
0.0245588976433
  0
VERTEX
  8
Default
 10
33.1830626749696
 20
36.4314354283504
 42
0.0228093586348
  0
VERTEX
  8
Default
 10
33.094787642395
 20
36.2281910354571
 42
0.0164963948818
  0
VERTEX
  8
Default
 10
32.9651924018935
 20
35.8629378521146
 42
0.0129994497068
  0
VERTEX
  8
Default
 10
32.639635
 20
34.747141
 42
-0.012268399829
  0
VERTEX
  8
Default
 10
32.3038222872751
 20
33.5943253105104
 42
-0.0127765831477
  0
VERTEX
  8
Default
 10
32.0089791006818
 20
32.7377759953492
 42
-0.0144804297581
  0
VERTEX
  8
Default
 10
31.7528777479625
 20
32.1035722538825
 42
-0.0142760465589
  0
VERTEX
  8
Default
 10
31.5318746179321
 20
31.6364729958922
 42
-0.0210865290506
  0
VERTEX
  8
Default
 10
31.3419715406588
 20
31.2950246779595
 42
-0.0227294389252
  0
VERTEX
  8
Default
 10
31.1795829526355
 20
31.0483431841198
 42
-0.0550823591297
  0
VERTEX
  8
Default
 10
30.884843446228
 20
30.7142295899144
 42
-0.0596355761882
  0
VERTEX
  8
Default
 10
30.698495182132
 20
30.585916291421
 42
-0.1167294685997
  0
VERTEX
  8
Default
 10
30.479351
 20
30.529479
 42
-0.0311809175209
  0
VERTEX
  8
Default
 10
30.3705601600126
 20
30.5381369213614
 42
-0.020577495323
  0
VERTEX
  8
Default
 10
30.1692255174213
 20
30.5728960400281
 42
-0.0370741771029
  0
VERTEX
  8
Default
 10
30.1254381750054
 20
30.5819820356375
 42
0.0
  0
VERTEX
  8
Default
 10
30.0408456592201
 20
30.6005522470239
 42
-0.0241663939792
  0
VERTEX
  8
Default
 10
28.793923
 20
30.95991
 42
0.019524736971
  0
VERTEX
  8
Default
 10
28.1787354186377
 20
31.1438671055959
 42
0.0364572000763
  0
VERTEX
  8
Default
 10
27.7039125962691
 20
31.2293117751465
 42
0.0619893242555
  0
VERTEX
  8
Default
 10
26.9819623121173
 20
31.2172509941334
 42
0.0298050517945
  0
VERTEX
  8
Default
 10
26.274015
 20
31.07506
 42
-0.0120253787499
  0
VERTEX
  8
Default
 10
26.0392444191123
 20
31.0206568795085
 42
-0.0270120742092
  0
VERTEX
  8
Default
 10
25.578315429372
 20
30.9462035141995
 42
-0.0115479716548
  0
VERTEX
  8
Default
 10
25.3607357471025
 20
30.9294447010788
 42
-0.0342815704345
  0
VERTEX
  8
Default
 10
24.939826582317
 20
30.9400563961571
 42
-0.0896496501912
  0
VERTEX
  8
Default
 10
24.1906080699974
 20
31.1521363739265
 42
-0.0708883182633
  0
VERTEX
  8
Default
 10
23.6416126997355
 20
31.533217362332
 42
-0.0440233097576
  0
VERTEX
  8
Default
 10
23.2508975059816
 20
31.9614452236742
 42
-0.0284078999886
  0
VERTEX
  8
Default
 10
22.9622021466245
 20
32.3767325610211
 42
0.0
  0
VERTEX
  8
Default
 10
22.8479721279398
 20
32.5659450898597
 42
-0.0221534774636
  0
VERTEX
  8
Default
 10
22.4671098036298
 20
33.3018283224561
 42
-0.0089422616853
  0
VERTEX
  8
Default
 10
22.2175093482149
 20
33.8707665201361
 42
-0.0123759953268
  0
VERTEX
  8
Default
 10
21.8807733464821
 20
34.7396239222135
 42
0.0
  0
VERTEX
  8
Default
 10
21.7244953096753
 20
35.1786018962861
 42
0.0
  0
VERTEX
  8
Default
 10
21.7053959464326
 20
35.2336686975082
 42
0.0
  0
VERTEX
  8
Default
 10
21.574241
 20
35.619628
 42
0.0
  0
VERTEX
  8
Default
 10
21.4106321844064
 20
36.1089086080124
 42
0.0
  0
VERTEX
  8
Default
 10
21.3948114263505
 20
36.1561323795094
 42
0.0
  0
VERTEX
  8
Default
 10
21.2715077368145
 20
36.5229970563663
 42
0.0
  0
VERTEX
  8
Default
 10
21.0731769330845
 20
37.103726071757
 42
0.0
  0
VERTEX
  8
Default
 10
20.9916289898857
 20
37.3354022883154
 42
0.0046450951454
  0
VERTEX
  8
Default
 10
20.9259394026836
 20
37.5163368254375
 42
0.0252591406995
  0
VERTEX
  8
Default
 10
20.9005773370148
 20
37.5842609930494
 42
0.0129072408412
  0
VERTEX
  8
Default
 10
20.7818698023824
 20
37.8783121120982
 42
0.0289315584364
  0
VERTEX
  8
Default
 10
20.7319657993749
 20
37.9819425553881
 42
0.0543531146309
  0
VERTEX
  8
Default
 10
20.6781900287239
 20
38.0673979992856
 42
0.0794726630383
  0
VERTEX
  8
Default
 10
20.6466770258326
 20
38.096119468343
 42
0.4746558594781
  0
VERTEX
  8
Default
 10
20.5929493731373
 20
38.0731807559746
 42
0.06125058858
  0
VERTEX
  8
Default
 10
20.562485593351
 20
37.9803808481934
 42
0.0294950105007
  0
VERTEX
  8
Default
 10
20.5194882302719
 20
37.6423979470368
 42
0.0
  0
VERTEX
  8
Default
 10
20.492718
 20
37.302813
 42
0.1818782811584
  0
VERTEX
  8
Default
 10
22.163558
 20
31.592105
 42
0.0
  0
VERTEX
  8
Default
 10
22.3520644907285
 20
31.3443579300163
 42
0.0
  0
VERTEX
  8
Default
 10
22.533141373968
 20
31.1137200608318
 42
0.0143947971051
  0
VERTEX
  8
Default
 10
22.8886152328318
 20
30.691551331738
 42
0.0112296326612
  0
VERTEX
  8
Default
 10
23.0543255025204
 20
30.5135445688903
 42
0.0
  0
VERTEX
  8
Default
 10
23.1347797003623
 20
30.4324573899355
 42
0.0345839475304
  0
VERTEX
  8
Default
 10
23.4676910731042
 20
30.1402610286869
 42
0.0258035373258
  0
VERTEX
  8
Default
 10
23.6260829583544
 20
30.0283713656561
 42
0.0974540206065
  0
VERTEX
  8
Default
 10
24.293964678385
 20
29.7542932073092
 42
0.0582190093927
  0
VERTEX
  8
Default
 10
24.830176354852
 20
29.7221509391487
 42
0.0249164224099
  0
VERTEX
  8
Default
 10
25.2296936796407
 20
29.7667903264677
 42
0.0237966425885
  0
VERTEX
  8
Default
 10
25.8187550221207
 20
29.893684605401
 42
0.0070530089563
  0
SEQEND
  0
POLYLINE
  8
Default
 66
     1
 10
0.0
 20
0.0
 30
0.0
 70
     1
  0
VERTEX
  8
Default
 10
44.57503
 20
33.339467
 42
0.0102614640468
  0
VERTEX
  8
Default
 10
44.6183205848387
 20
33.7473108664651
 42
0.0248726073276
  0
VERTEX
  8
Default
 10
44.6544253267802
 20
34.4650125324484
 42
0.0830776616333
  0
VERTEX
  8
Default
 10
44.4756057007649
 20
35.5250872817282
 42
0.0
  0
VERTEX
  8
Default
 10
44.431054198031
 20
35.6519118862311
 42
0.0154886238612
  0
VERTEX
  8
Default
 10
44.2529006627236
 20
36.0874437537937
 42
0.0078590720465
  0
VERTEX
  8
Default
 10
44.055064
 20
36.514467
 42
0.0150165145479
  0
VERTEX
  8
Default
 10
43.5185310058552
 20
37.5556879308526
 42
0.0
  0
VERTEX
  8
Default
 10
43.3750390984865
 20
37.8111281173798
 42
0.0
  0
VERTEX
  8
Default
 10
43.2643641175878
 20
38.0010642095902
 42
0.0
  0
VERTEX
  8
Default
 10
43.1792048680725
 20
38.1422755014912
 42
0.0155235577606
  0
VERTEX
  8
Default
 10
43.0466031455404
 20
38.3510392530612
 42
0.0280844853466
  0
VERTEX
  8
Default
 10
42.902801
 20
38.55221
 42
0.0263059732454
  0
VERTEX
  8
Default
 10
42.7772652881636
 20
38.6990031139245
 42
0.0
  0
VERTEX
  8
Default
 10
42.7609036691621
 20
38.7166382097835
 42
0.0
  0
VERTEX
  8
Default
 10
42.7274308265597
 20
38.7515157085549
 42
0.0458254731038
  0
VERTEX
  8
Default
 10
42.5820188809388
 20
38.8810802741399
 42
0.0955873865558
  0
VERTEX
  8
Default
 10
42.4336087161223
 20
38.9601474939003
 42
0.1075259791109
  0
VERTEX
  8
Default
 10
42.3677338848407
 20
38.96424457008
 42
0.2536406400093
  0
VERTEX
  8
Default
 10
42.2839953910854
 20
38.8944451527351
 42
0.0842144857343
  0
VERTEX
  8
Default
 10
42.260169269813
 20
38.8036945547567
 42
0.049675704392
  0
VERTEX
  8
Default
 10
42.2631414077249
 20
38.6301334966186
 42
0.0
  0
VERTEX
  8
Default
 10
42.2740388785404
 20
38.5551678619892
 42
0.0318094774681
  0
VERTEX
  8
Default
 10
42.3421765436596
 20
38.2799616005033
 42
0.0452997341121
  0
VERTEX
  8
Default
 10
42.675787
 20
37.499428
 42
-0.0295400458089
  0
VERTEX
  8
Default
 10
42.8215816957515
 20
37.1777871562999
 42
-0.0160002226296
  0
VERTEX
  8
Default
 10
42.8810767504692
 20
37.0234856239961
 42
0.0
  0
VERTEX
  8
Default
 10
42.9085053456465
 20
36.9482447141027
 42
-0.0117783870348
  0
VERTEX
  8
Default
 10
43.0096009550749
 20
36.6496689241292
 42
-0.0185175807472
  0
VERTEX
  8
Default
 10
43.3253265360714
 20
35.5108713301909
 42
-0.0190471310041
  0
VERTEX
  8
Default
 10
43.6784177644174
 20
33.7738219773031
 42
-0.0067904948435
  0
VERTEX
  8
Default
 10
43.696085286465
 20
33.6643385891665
 42
0.0
  0
VERTEX
  8
Default
 10
43.7276013470685
 20
33.4588795882232
 42
-0.006003384702
  0
VERTEX
  8
Default
 10
43.7772602314255
 20
33.0984708242012
 42
0.0
  0
VERTEX
  8
Default
 10
43.7938596433681
 20
32.9630284603754
 42
-0.0256316922571
  0
VERTEX
  8
Default
 10
43.865303
 20
32.011146
 42
0.1350873847743
  0
VERTEX
  8
Default
 10
43.928291160436
 20
31.7852468373761
 42
0.1011106649372
  0
VERTEX
  8
Default
 10
44.0103830936512
 20
31.6962705178332
 42
0.1568256166562
  0
VERTEX
  8
Default
 10
44.125405
 20
31.658368
 42
0.2078482569327
  0
VERTEX
  8
Default
 10
44.1757906769036
 20
31.687331682149
 42
0.0630644203861
  0
VERTEX
  8
Default
 10
44.2334864262196
 20
31.778299520822
 42
0.036100566538
  0
VERTEX
  8
Default
 10
44.3070636431151
 20
31.9649090215023
 42
0.0
  0
VERTEX
  8
Default
 10
44.3332680131769
 20
32.0485583366239
 42
0.0185744096238
  0
VERTEX
  8
Default
 10
44.4149429468564
 20
32.3670137946732
 42
0.0239033920841
  0
SEQEND
  0
POLYLINE
  8
Default
 66
     1
 10
0.0
 20
0.0
 30
0.0
 70
     1
  0
VERTEX
  8
Default
 10
33.969599
 20
41.150156
 42
0.639163879898
  0
VERTEX
  8
Default
 10
33.9658474389675
 20
41.1660466669695
 42
0.0633661673703
  0
VERTEX
  8
Default
 10
33.9140904823243
 20
41.1824611995716
 42
0.0265223304929
  0
VERTEX
  8
Default
 10
33.7062992957277
 20
41.2092073881735
 42
0.0
  0
VERTEX
  8
Default
 10
33.5235130617299
 20
41.2226511044314
 42
0.0119230041942
  0
VERTEX
  8
Default
 10
32.8827555555656
 20
41.2472678919452
 42
0.0051664934085
  0
VERTEX
  8
Default
 10
32.7224300920276
 20
41.2502647756519
 42
0.0
  0
VERTEX
  8
Default
 10
32.4819694757627
 20
41.2530333636515
 42
0.0
  0
VERTEX
  8
Default
 10
32.451872287562
 20
41.2532442758641
 42
0.0
  0
VERTEX
  8
Default
 10
32.241507
 20
41.253924
 42
-0.0214961043674
  0
VERTEX
  8
Default
 10
31.5309325677862
 20
41.2968650026565
 42
0.0
  0
VERTEX
  8
Default
 10
31.1990525165067
 20
41.3299458284565
 42
-0.0095981623251
  0
VERTEX
  8
Default
 10
31.0384515090786
 20
41.3474272217108
 42
0.0
  0
VERTEX
  8
Default
 10
30.8804154669461
 20
41.3653724960169
 42
0.0
  0
VERTEX
  8
Default
 10
30.2588623884863
 20
41.4415014244659
 42
0.0
  0
VERTEX
  8
Default
 10
29.6769354903301
 20
41.5187681124339
 42
-0.0036698780056
  0
VERTEX
  8
Default
 10
29.1319373405968
 20
41.5950512943416
 42
-0.0042541800898
  0
VERTEX
  8
Default
 10
27.0916331001884
 20
41.9052633779667
 42
0.0
  0
VERTEX
  8
Default
 10
26.996043849099
 20
41.9206048999531
 42
0.0
  0
VERTEX
  8
Default
 10
26.2441946686067
 20
42.043604173199
 42
-0.0027486513533
  0
VERTEX
  8
Default
 10
24.9299738609612
 20
42.26877941316
 42
-0.0047975585483
  0
VERTEX
  8
Default
 10
22.9638308888821
 20
42.635592712343
 42
-0.0065816198488
  0
VERTEX
  8
Default
 10
21.9848052599595
 20
42.8406605623155
 42
0.0
  0
VERTEX
  8
Default
 10
21.7409907176668
 20
42.8961924277864
 42
0.0
  0
VERTEX
  8
Default
 10
21.5585429272679
 20
42.9396358847518
 42
-0.0144315088754
  0
VERTEX
  8
Default
 10
21.015379
 20
43.086946
 42
-0.0786083167222
  0
VERTEX
  8
Default
 10
20.9106192920736
 20
43.1413688528736
 42
-0.0723537097897
  0
VERTEX
  8
Default
 10
20.7509081872377
 20
43.2985166294931
 42
-0.0508760893753
  0
VERTEX
  8
Default
 10
20.5294593978547
 20
43.6507023003085
 42
-0.0358025144435
  0
VERTEX
  8
Default
 10
20.2526732899547
 20
44.3216054553812
 42
-0.0203159180023
  0
VERTEX
  8
Default
 10
20.1000285800961
 20
44.8440339377502
 42
-0.0260570916416
  0
VERTEX
  8
Default
 10
19.9427781783721
 20
45.6449623553717
 42
-0.0352577514166
  0
VERTEX
  8
Default
 10
19.882006
 20
46.458897
 42
0.0622082530105
  0
VERTEX
  8
Default
 10
19.8349841867784
 20
46.8565426437495
 42
0.0547801416266
  0
VERTEX
  8
Default
 10
19.7610483650163
 20
47.0502878856895
 42
0.0761750895211
  0
VERTEX
  8
Default
 10
19.6970932059254
 20
47.136112627615
 42
0.1963922005261
  0
VERTEX
  8
Default
 10
19.599784
 20
47.18059
 42
0.2093985776505
  0
VERTEX
  8
Default
 10
19.4904648160848
 20
47.1307396650386
 42
0.0799627457106
  0
VERTEX
  8
Default
 10
19.4311646094437
 20
47.0417642060922
 42
0.0565076709731
  0
VERTEX
  8
Default
 10
19.369650808156
 20
46.8475951607389
 42
0.038393390127
  0
VERTEX
  8
Default
 10
19.3279814262632
 20
46.4706169553493
 42
0.0138608388387
  0
VERTEX
  8
Default
 10
19.3280512667946
 20
46.1393653376995
 42
0.0769587419091
  0
VERTEX
  8
Default
 10
19.779
 20
43.874532
 42
0.0147676914091
  0
VERTEX
  8
Default
 10
19.960790851949
 20
43.4292349086069
 42
0.0574293826089
  0
VERTEX
  8
Default
 10
20.1880278875812
 20
43.0455715284347
 42
0.0721210670514
  0
VERTEX
  8
Default
 10
20.485158976812
 20
42.7661949147604
 42
0.048453961344
  0
VERTEX
  8
Default
 10
20.813351533468
 20
42.5812128962234
 42
0.0
  0
VERTEX
  8
Default
 10
20.8938297657062
 20
42.5457018219278
 42
0.0180722868839
  0
VERTEX
  8
Default
 10
21.218039588637
 20
42.42509824829
 42
0.0
  0
VERTEX
  8
Default
 10
21.3725355261932
 20
42.3765013754046
 42
0.0143235637534
  0
VERTEX
  8
Default
 10
21.979359652628
 20
42.2168091683847
 42
0.0
  0
VERTEX
  8
Default
 10
22.2470642256117
 20
42.1562226465456
 42
0.0
  0
VERTEX
  8
Default
 10
22.3099658988957
 20
42.1425663583959
 42
0.0060004816216
  0
VERTEX
  8
Default
 10
22.5578352746131
 20
42.090478871583
 42
0.0071148161877
  0
VERTEX
  8
Default
 10
24.4255164342649
 20
41.7449479886303
 42
0.0
  0
VERTEX
  8
Default
 10
24.8934575531373
 20
41.664298155902
 42
0.0
  0
VERTEX
  8
Default
 10
26.297947
 20
41.426206
 42
0.0
  0
VERTEX
  8
Default
 10
26.6525396579401
 20
41.367418599067
 42
0.0
  0
VERTEX
  8
Default
 10
26.9853520230985
 20
41.3141455269717
 42
0.0073718343883
  0
VERTEX
  8
Default
 10
28.2360479302782
 20
41.1327200713266
 42
0.0
  0
VERTEX
  8
Default
 10
28.706457054495
 20
41.0734382502368
 42
0.0068983119321
  0
VERTEX
  8
Default
 10
29.531281990289
 20
40.9842549983855
 42
0.0038752047985
  0
VERTEX
  8
Default
 10
29.8412414219414
 20
40.9564856885148
 42
0.0075824850462
  0
VERTEX
  8
Default
 10
30.1126750289454
 20
40.9352058846016
 42
0.0142996816389
  0
VERTEX
  8
Default
 10
31.0646970049123
 20
40.8886648499475
 42
0.0
  0
VERTEX
  8
Default
 10
31.3029912738019
 20
40.8857743813945
 42
0.0190221351424
  0
VERTEX
  8
Default
 10
32.017561
 20
40.908743
 42
0.0
  0
VERTEX
  8
Default
 10
32.5079213953919
 20
40.9489426300819
 42
0.0
  0
VERTEX
  8
Default
 10
32.6917358914495
 20
40.9658442868073
 42
0.0484311512058
  0
VERTEX
  8
Default
 10
32.7119106913379
 20
40.9677649491661
 42
0.0
  0
VERTEX
  8
Default
 10
33.0282455704567
 20
40.9997574551354
 42
0.0
  0
VERTEX
  8
Default
 10
33.2652422327079
 20
41.0264537260552
 42
0.0
  0
VERTEX
  8
Default
 10
33.4427965239883
 20
41.0485160210412
 42
0.0
  0
VERTEX
  8
Default
 10
33.509375896527
 20
41.0573932378511
 42
0.0179448240857
  0
VERTEX
  8
Default
 10
33.5676205319362
 20
41.0655017557192
 42
0.0
  0
VERTEX
  8
Default
 10
33.6693556905864
 20
41.0806375045003
 42
0.0
  0
VERTEX
  8
Default
 10
33.7455755405621
 20
41.0930868582775
 42
0.0
  0
VERTEX
  8
Default
 10
33.8593737271047
 20
41.1147773349284
 42
0.0407800200847
  0
VERTEX
  8
Default
 10
33.8876851726172
 20
41.1212334453438
 42
0.08618121672
  0
SEQEND
  0
POLYLINE
  8
Default
 66
     1
 10
0.0
 20
0.0
 30
0.0
 70
     1
  0
VERTEX
  8
Default
 10
32.017561
 20
42.662419
 42
0.0116388612838
  0
VERTEX
  8
Default
 10
31.7253104059703
 20
42.7246657905367
 42
0.0077817478406
  0
VERTEX
  8
Default
 10
30.6969780260245
 20
42.9152008705711
 42
0.0
  0
VERTEX
  8
Default
 10
30.1810327766467
 20
43.0004900335457
 42
0.0
  0
VERTEX
  8
Default
 10
29.9226542907645
 20
43.0405720781098
 42
0.0
  0
VERTEX
  8
Default
 10
29.8579551772565
 20
43.0502842780916
 42
0.0
  0
VERTEX
  8
Default
 10
29.7609326149663
 20
43.0645716339093
 42
0.0029926596545
  0
VERTEX
  8
Default
 10
29.7124163300503
 20
43.0715811726447
 42
0.0274758836059
  0
VERTEX
  8
Default
 10
29.663923
 20
43.07849
 42
0.0
  0
VERTEX
  8
Default
 10
29.556981393412
 20
43.0937055393001
 42
0.0
  0
VERTEX
  8
Default
 10
29.5059600136131
 20
43.101051464602
 42
0.0
  0
VERTEX
  8
Default
 10
29.3067790729419
 20
43.1306739047238
 42
-0.0172902420488
  0
VERTEX
  8
Default
 10
28.9457401677773
 20
43.1936890758046
 42
-0.0401315984568
  0
VERTEX
  8
Default
 10
28.663637239435
 20
43.2708600831644
 42
-0.0589666341547
  0
VERTEX
  8
Default
 10
28.5610261662159
 20
43.3197325624271
 42
-0.1722102491986
  0
VERTEX
  8
Default
 10
28.4312142795238
 20
43.4658636246732
 42
-0.0942433728021
  0
VERTEX
  8
Default
 10
28.4105714874538
 20
43.6068303351371
 42
-0.0416246728565
  0
VERTEX
  8
Default
 10
28.4385061781918
 20
43.8174707747244
 42
0.0
  0
VERTEX
  8
Default
 10
28.4616837678401
 20
43.9211669046561
 42
0.0
  0
VERTEX
  8
Default
 10
28.4741847449206
 20
43.9728704098612
 42
0.0
  0
VERTEX
  8
Default
 10
28.487003
 20
44.024434
 42
-0.0385070531567
  0
VERTEX
  8
Default
 10
28.5456546520985
 20
44.1840876234217
 42
-0.0256681339204
  0
VERTEX
  8
Default
 10
28.6985805391161
 20
44.4624748761974
 42
0.0
  0
VERTEX
  8
Default
 10
28.7357663955309
 20
44.5211016576265
 42
-0.0228677977852
  0
VERTEX
  8
Default
 10
29.0486701508724
 20
44.9582551237882
 42
-0.036934617749
  0
VERTEX
  8
Default
 10
30.135082
 20
46.148021
 42
0.0
  0
VERTEX
  8
Default
 10
30.2898285762966
 20
46.2937649576249
 42
0.0064304718173
  0
VERTEX
  8
Default
 10
30.7020998062312
 20
46.6892913872194
 42
0.0
  0
VERTEX
  8
Default
 10
30.8653012266929
 20
46.8534094441581
 42
0.0
  0
VERTEX
  8
Default
 10
30.9427968517486
 20
46.9356444442898
 42
0.0205177422852
  0
VERTEX
  8
Default
 10
31.0184554539227
 20
47.0229547244206
 42
0.0562736056788
  0
VERTEX
  8
Default
 10
31.0702314227376
 20
47.0995680946187
 42
0.1859254500407
  0
VERTEX
  8
Default
 10
31.0755104156915
 20
47.1297260163903
 42
0.2823089152216
  0
VERTEX
  8
Default
 10
31.0596314682628
 20
47.1397302665852
 42
0.0857704848857
  0
VERTEX
  8
Default
 10
30.9934412836106
 20
47.1262682692747
 42
0.025362356016
  0
VERTEX
  8
Default
 10
30.8742319011822
 20
47.0749440973084
 42
0.0
  0
VERTEX
  8
Default
 10
30.7658021762934
 20
47.0200498189523
 42
0.0127061246099
  0
VERTEX
  8
Default
 10
29.9755175224892
 20
46.5657920652311
 42
0.0
  0
VERTEX
  8
Default
 10
29.195339
 20
46.094207
 42
0.0371549414939
  0
VERTEX
  8
Default
 10
28.5897871852665
 20
45.663092245942
 42
0.0
  0
VERTEX
  8
Default
 10
28.4836513548669
 20
45.5714949443125
 42
0.017744391143
  0
VERTEX
  8
Default
 10
28.2929301710969
 20
45.3900949574434
 42
0.0743069040325
  0
VERTEX
  8
Default
 10
27.7447176114575
 20
44.6520193496736
 42
0.0517740428425
  0
VERTEX
  8
Default
 10
27.5739638558267
 20
44.2217462901633
 42
0.0655412549751
  0
VERTEX
  8
Default
 10
27.508282
 20
43.763466
 42
0.0130387559468
  0
VERTEX
  8
Default
 10
27.5094438239442
 20
43.649940379321
 42
0.0431709729033
  0
VERTEX
  8
Default
 10
27.5310458411418
 20
43.4374052945555
 42
0.0745945439603
  0
VERTEX
  8
Default
 10
27.5906369121602
 20
43.2612907227984
 42
0.1395437952717
  0
VERTEX
  8
Default
 10
27.8132734697984
 20
43.0362500120519
 42
0.0492843371917
  0
VERTEX
  8
Default
 10
28.0252252933743
 20
42.9346518438367
 42
0.0254614129447
  0
VERTEX
  8
Default
 10
28.1914263669961
 20
42.8764523625416
 42
0.0191409448485
  0
VERTEX
  8
Default
 10
28.70145
 20
42.739025
 42
0.0205533567971
  0
VERTEX
  8
Default
 10
29.3826689326423
 20
42.612417913564
 42
0.0
  0
VERTEX
  8
Default
 10
29.6400172061998
 20
42.5766973445333
 42
0.0291780844617
  0
VERTEX
  8
Default
 10
31.453116
 20
42.445054
 42
0.0
  0
VERTEX
  8
Default
 10
31.5342489613609
 20
42.4447906692267
 42
0.0
  0
VERTEX
  8
Default
 10
31.6797115468416
 20
42.4444852723568
 42
0.0
  0
VERTEX
  8
Default
 10
31.9187473495513
 20
42.4447306170682
 42
0.0047692378447
  0
VERTEX
  8
Default
 10
32.2016446323193
 20
42.4475058875645
 42
0.0
  0
VERTEX
  8
Default
 10
32.277062437111
 20
42.4491586694933
 42
0.0
  0
VERTEX
  8
Default
 10
32.3527729245113
 20
42.4515374548774
 42
0.0165792123665
  0
VERTEX
  8
Default
 10
32.4684472328977
 20
42.4576586951474
 42
0.0
  0
VERTEX
  8
Default
 10
32.5364594907829
 20
42.46434475613
 42
0.0341178128053
  0
VERTEX
  8
Default
 10
32.5839281753331
 20
42.4732580444337
 42
0.0807528713712
  0
VERTEX
  8
Default
 10
32.6024448311729
 20
42.4805966591744
 42
0.7102277498756
  0
VERTEX
  8
Default
 10
32.5998026392589
 20
42.5035622411258
 42
0.0502758699745
  0
VERTEX
  8
Default
 10
32.5303928486345
 20
42.5337986223528
 42
0.0122818487974
  0
VERTEX
  8
Default
 10
32.2751393194113
 20
42.6027564626042
 42
0.0
  0
VERTEX
  8
Default
 10
32.1464304803967
 20
42.6330399040769
 42
0.0269844401739
  0
VERTEX
  8
Default
 10
32.0819739169362
 20
42.6478170761611
 42
0.0202739814709
  0
SEQEND
  0
POLYLINE
  8
Default
 66
     1
 10
0.0
 20
0.0
 30
0.0
 70
     1
  0
VERTEX
  8
Default
 10
32.440894
 20
45.205035
 42
-0.066346924056
  0
VERTEX
  8
Default
 10
32.7220858991205
 20
45.4374883610744
 42
-0.0617375600062
  0
VERTEX
  8
Default
 10
33.2149733234316
 20
45.6722633211203
 42
-0.0789241432444
  0
VERTEX
  8
Default
 10
33.752242
 20
45.769479
 42
-0.1076498030195
  0
VERTEX
  8
Default
 10
34.4003128309603
 20
45.6334044265502
 42
-0.0646910393384
  0
VERTEX
  8
Default
 10
34.6842436404235
 20
45.4562140115309
 42
-0.0771906213164
  0
VERTEX
  8
Default
 10
34.905278
 20
45.205035
 42
0.0
  0
VERTEX
  8
Default
 10
34.985879379859
 20
45.0823641787098
 42
0.0223608856417
  0
VERTEX
  8
Default
 10
35.0793151271091
 20
44.9562136563468
 42
0.0561313616653
  0
VERTEX
  8
Default
 10
35.2838831154022
 20
44.7448878835163
 42
0.0673995201748
  0
VERTEX
  8
Default
 10
35.3967434454423
 20
44.6759935184485
 42
0.1704011487808
  0
VERTEX
  8
Default
 10
35.5074611369785
 20
44.6645305791098
 42
0.1968315848003
  0
VERTEX
  8
Default
 10
35.5726176723363
 20
44.7200771475429
 42
0.1184293340296
  0
VERTEX
  8
Default
 10
35.6051458525952
 20
44.85863803386
 42
0.0588157171958
  0
VERTEX
  8
Default
 10
35.5863967770757
 20
45.0697105560367
 42
0.0262050898073
  0
VERTEX
  8
Default
 10
35.5638094818808
 20
45.1733493374856
 42
0.0
  0
VERTEX
  8
Default
 10
35.535859
 20
45.27559
 42
0.0671250252124
  0
VERTEX
  8
Default
 10
35.3209739607173
 20
45.7618949871307
 42
0.1310007787989
  0
VERTEX
  8
Default
 10
34.6547706916638
 20
46.3988863452769
 42
0.0948338161208
  0
VERTEX
  8
Default
 10
33.997251259104
 20
46.6075114928541
 42
0.1286016798127
  0
VERTEX
  8
Default
 10
32.9822862765234
 20
46.4614813585065
 42
0.1081475368509
  0
VERTEX
  8
Default
 10
32.145196
 20
45.86938
 42
0.0265994447144
  0
VERTEX
  8
Default
 10
31.7551737536647
 20
45.4063377148511
 42
0.0185046762762
  0
VERTEX
  8
Default
 10
31.5803407548418
 20
45.1577165111064
 42
0.0112306258551
  0
VERTEX
  8
Default
 10
31.5033900636334
 20
45.0257918962748
 42
0.0
  0
VERTEX
  8
Default
 10
31.4713162947298
 20
44.9560904010841
 42
0.087992620978
  0
VERTEX
  8
Default
 10
31.453116
 20
44.881602
 42
0.0756133118897
  0
VERTEX
  8
Default
 10
31.4650310612234
 20
44.7791069149308
 42
0.1147524817735
  0
VERTEX
  8
Default
 10
31.5058797619562
 20
44.6985081029128
 42
0.2373505387086
  0
VERTEX
  8
Default
 10
31.6469287999096
 20
44.647184858148
 42
0.0742827159708
  0
VERTEX
  8
Default
 10
31.7682595929349
 20
44.6747898824396
 42
0.0521056988153
  0
VERTEX
  8
Default
 10
31.9595696886122
 20
44.7751274053584
 42
0.0118219552517
  0
VERTEX
  8
Default
 10
32.0903317988736
 20
44.8703017341627
 42
0.0286287585887
  0
VERTEX
  8
Default
 10
32.2722721961702
 20
45.0306321224768
 42
0.0157055672569
  0
VERTEX
  8
Default
 10
32.3155844068459
 20
45.0731353328003
 42
0.0
  0
VERTEX
  8
Default
 10
32.3790276125232
 20
45.138269615297
 42
0.0221278099104
  0
SEQEND
  0
POLYLINE
  8
Default
 66
     1
 10
0.0
 20
0.0
 30
0.0
 70
     1
  0
VERTEX
  8
Default
 10
26.090895
 20
49.015035
 42
0.0
  0
VERTEX
  8
Default
 10
26.2701313962085
 20
49.1943344615954
 42
-0.0167512310406
  0
VERTEX
  8
Default
 10
26.9244666774601
 20
49.7939898480957
 42
-0.0152147523279
  0
VERTEX
  8
Default
 10
27.0964582732734
 20
49.9355579022586
 42
-0.0189737115061
  0
VERTEX
  8
Default
 10
27.3643744734807
 20
50.1358813384871
 42
0.0
  0
VERTEX
  8
Default
 10
27.4345169150616
 20
50.182186380583
 42
0.0
  0
VERTEX
  8
Default
 10
27.4884432824836
 20
50.2150278150896
 42
-0.0482858336826
  0
VERTEX
  8
Default
 10
27.5299137932561
 20
50.2380791990527
 42
-0.0353409214915
  0
VERTEX
  8
Default
 10
27.5945133104118
 20
50.2682819015733
 42
-0.0931317509095
  0
VERTEX
  8
Default
 10
27.663818
 20
50.285035
 42
-0.0664280658473
  0
VERTEX
  8
Default
 10
27.8109196733349
 20
50.2536206459889
 42
-0.0395091893275
  0
VERTEX
  8
Default
 10
28.0505436460783
 20
50.1480844326659
 42
-0.0477293903506
  0
VERTEX
  8
Default
 10
28.707904
 20
49.72059
 42
0.0193789843277
  0
VERTEX
  8
Default
 10
29.1267387777109
 20
49.4112273378353
 42
0.0
  0
VERTEX
  8
Default
 10
29.2349980461118
 20
49.3384004018164
 42
0.0
  0
VERTEX
  8
Default
 10
29.3175135728216
 20
49.2855582607245
 42
0.0216804661769
  0
VERTEX
  8
Default
 10
29.444250279938
 20
49.211050746393
 42
0.0
  0
VERTEX
  8
Default
 10
29.5101663395891
 20
49.1779843964642
 42
0.0857854528858
  0
VERTEX
  8
Default
 10
29.580583
 20
49.156146
 42
0.2952140637858
  0
VERTEX
  8
Default
 10
29.6303665863242
 20
49.1820232153433
 42
0.1562046311894
  0
VERTEX
  8
Default
 10
29.6361032970339
 20
49.2702195618145
 42
0.0520522974699
  0
VERTEX
  8
Default
 10
29.5855309045578
 20
49.4317280111812
 42
0.0269867402809
  0
VERTEX
  8
Default
 10
29.5179798844579
 20
49.5803660057695
 42
0.0117006627264
  0
VERTEX
  8
Default
 10
29.3679931539071
 20
49.8583547341915
 42
0.0147396498255
  0
VERTEX
  8
Default
 10
29.0563945730549
 20
50.3617173336264
 42
0.0153246220922
  0
VERTEX
  8
Default
 10
29.0208446070942
 20
50.4158761744666
 42
0.0118205693036
  0
VERTEX
  8
Default
 10
28.4370963096502
 20
51.2518473939485
 42
0.0173821849717
  0
VERTEX
  8
Default
 10
27.4935218501451
 20
52.4560548279772
 42
0.0132788857242
  0
VERTEX
  8
Default
 10
26.9856001783665
 20
53.029044032446
 42
0.0
  0
VERTEX
  8
Default
 10
26.8526618881938
 20
53.1669518456465
 42
0.0324192692451
  0
VERTEX
  8
Default
 10
26.427264
 20
53.553075
 42
0.0199330524837
  0
VERTEX
  8
Default
 10
25.7962060058087
 20
54.0043036608153
 42
0.0
  0
VERTEX
  8
Default
 10
25.6720888906746
 20
54.0813357247919
 42
0.0
  0
VERTEX
  8
Default
 10
25.5534024249947
 20
54.1495350569039
 42
0.0973062630881
  0
VERTEX
  8
Default
 10
24.5837991488999
 20
54.468359751121
 42
0.0236201978864
  0
VERTEX
  8
Default
 10
24.0748407186266
 20
54.5099002480263
 42
0.0079774449074
  0
VERTEX
  8
Default
 10
23.564252
 20
54.518368
 42
0.0361465240231
  0
VERTEX
  8
Default
 10
22.4670138968344
 20
54.4412134600915
 42
0.029545759329
  0
VERTEX
  8
Default
 10
21.9255725450096
 20
54.3295678503087
 42
0.0221590128462
  0
VERTEX
  8
Default
 10
21.6624331927287
 20
54.2418375988885
 42
0.0646969449367
  0
VERTEX
  8
Default
 10
21.417614
 20
54.111497
 42
0.002013264462
  0
VERTEX
  8
Default
 10
21.3211267363393
 20
54.0387851228428
 42
0.0231348089455
  0
VERTEX
  8
Default
 10
21.2140307604674
 20
53.9528471497223
 42
0.0318175119836
  0
VERTEX
  8
Default
 10
21.1589323268756
 20
53.9018218122158
 42
0.0901498442013
  0
VERTEX
  8
Default
 10
21.1238451407539
 20
53.8546652406716
 42
0.5177274037416
  0
VERTEX
  8
Default
 10
21.1383930027728
 20
53.8217154465105
 42
0.0875807608887
  0
VERTEX
  8
Default
 10
21.1951856273824
 20
53.8164761976343
 42
0.033822212807
  0
VERTEX
  8
Default
 10
21.405048919607
 20
53.8475507480669
 42
0.0
  0
VERTEX
  8
Default
 10
21.5605215806798
 20
53.8811024753933
 42
0.0
  0
VERTEX
  8
Default
 10
21.7926917042004
 20
53.9360461688367
 42
0.0
  0
VERTEX
  8
Default
 10
22.024397
 20
53.993336
 42
-0.0783905208211
  0
VERTEX
  8
Default
 10
23.4464712171755
 20
54.1171970275099
 42
-0.0584559773918
  0
VERTEX
  8
Default
 10
24.508237032719
 20
53.9228535819435
 42
-0.0468300970459
  0
VERTEX
  8
Default
 10
25.2625004717588
 20
53.6147115613162
 42
-0.0410759114075
  0
VERTEX
  8
Default
 10
25.7821364516823
 20
53.2880933600429
 42
-0.0747077191307
  0
VERTEX
  8
Default
 10
26.4333369809415
 20
52.6374940649096
 42
-0.0966562556062
  0
VERTEX
  8
Default
 10
26.829366
 20
51.806591
 42
-0.0548689020398
  0
VERTEX
  8
Default
 10
26.8740014788361
 20
51.507476006602
 42
-0.129702553409
  0
VERTEX
  8
Default
 10
26.7504496190684
 20
51.0038511009836
 42
-0.0415667738717
  0
VERTEX
  8
Default
 10
26.5429606789527
 20
50.6791249713438
 42
-0.0247240191911
  0
VERTEX
  8
Default
 10
26.1714440267733
 20
50.2371477998964
 42
0.0
  0
VERTEX
  8
Default
 10
26.0736091597313
 20
50.1309713467566
 42
-0.0078898018006
  0
VERTEX
  8
Default
 10
25.774447
 20
49.817878
 42
0.0
  0
VERTEX
  8
Default
 10
25.6855603364136
 20
49.7267653576255
 42
-0.0100717052047
  0
VERTEX
  8
Default
 10
25.3369662335301
 20
49.3764477962121
 42
-0.0165056630275
  0
VERTEX
  8
Default
 10
25.0142391650003
 20
49.0823490539122
 42
-0.0422061610849
  0
VERTEX
  8
Default
 10
24.7013648986155
 20
48.8612668961395
 42
-0.1266381662004
  0
VERTEX
  8
Default
 10
24.0657734592492
 20
48.6842124557101
 42
-0.0435884419174
  0
VERTEX
  8
Default
 10
23.5767037900676
 20
48.7156783732207
 42
0.0
  0
VERTEX
  8
Default
 10
23.3952534173508
 20
48.744185054459
 42
-0.0022890607151
  0
VERTEX
  8
Default
 10
23.0797129696105
 20
48.8047652712831
 42
0.0
  0
VERTEX
  8
Default
 10
22.8440811902292
 20
48.8555196640322
 42
0.0
  0
VERTEX
  8
Default
 10
22.6677156599314
 20
48.8952970135539
 42
-0.0038567715111
  0
VERTEX
  8
Default
 10
22.139784
 20
49.018625
 42
0.0440437528893
  0
VERTEX
  8
Default
 10
21.9816496708024
 20
49.0438068789402
 42
0.0
  0
VERTEX
  8
Default
 10
21.9516982914712
 20
49.0417977441548
 42
0.1474413685637
  0
VERTEX
  8
Default
 10
21.929497210568
 20
49.0327712786714
 42
0.3596257512679
  0
VERTEX
  8
Default
 10
21.9279833823202
 20
48.9992934996608
 42
0.0528192086157
  0
VERTEX
  8
Default
 10
21.96499203757
 20
48.9532167545339
 42
0.0438190517999
  0
VERTEX
  8
Default
 10
22.1388505055765
 20
48.8180835226751
 42
0.008564170484
  0
VERTEX
  8
Default
 10
22.2771140486147
 20
48.7280443232842
 42
0.0
  0
VERTEX
  8
Default
 10
22.4890879311821
 20
48.6003456959407
 42
0.01598486524
  0
VERTEX
  8
Default
 10
22.5963780511579
 20
48.5385970304005
 42
0.0
  0
VERTEX
  8
Default
 10
22.704228
 20
48.477918
 42
0.0106795422201
  0
VERTEX
  8
Default
 10
23.1140990907431
 20
48.2606995859565
 42
0.018358640504
  0
VERTEX
  8
Default
 10
23.7455655643834
 20
47.9676066104304
 42
0.0466600318562
  0
VERTEX
  8
Default
 10
23.7858642601039
 20
47.9508363785653
 42
0.0122274379049
  0
VERTEX
  8
Default
 10
24.0915427312799
 20
47.8346462524216
 42
0.0
  0
VERTEX
  8
Default
 10
24.1304163752019
 20
47.8217176377139
 42
0.0327802226471
  0
VERTEX
  8
Default
 10
24.1989010734745
 20
47.8004449223445
 42
0.0558611068901
  0
VERTEX
  8
Default
 10
24.409355
 20
47.757788
 42
0.0916203842573
  0
VERTEX
  8
Default
 10
24.5401048818144
 20
47.7878696239859
 42
0.0239796580222
  0
VERTEX
  8
Default
 10
24.6529776578126
 20
47.8403512383543
 42
0.0239084476271
  0
VERTEX
  8
Default
 10
24.8529808607807
 20
47.9598658598852
 42
0.0324843298329
  0
VERTEX
  8
Default
 10
25.4975887159759
 20
48.4573521388667
 42
0.0064294429445
  0
VERTEX
  8
Default
 10
25.7999117792658
 20
48.7302143095132
 42
0.0
  0
VERTEX
  8
Default
 10
25.9468403009124
 20
48.8711863782979
 42
0.0
  0
VERTEX
  8
Default
 10
25.9831594042372
 20
48.9069121796138
 42
0.0
  0
VERTEX
  8
Default
 10
26.0372462632752
 20
48.9607851143252
 42
0.0
  0
SEQEND
  0
POLYLINE
  8
Default
 66
     1
 10
0.0
 20
0.0
 30
0.0
 70
     1
  0
VERTEX
  8
Default
 10
24.538672
 20
51.548239
 42
0.1332442228474
  0
VERTEX
  8
Default
 10
24.4507093851629
 20
51.8567118802811
 42
0.0764043849375
  0
VERTEX
  8
Default
 10
24.2786501885915
 20
52.0702650976517
 42
0.078108631912
  0
VERTEX
  8
Default
 10
23.8831411916739
 20
52.3357429209544
 42
0.094537055033
  0
VERTEX
  8
Default
 10
23.1930063008283
 20
52.5190308772593
 42
0.0666502206138
  0
VERTEX
  8
Default
 10
22.8321468267793
 20
52.4993419219519
 42
0.0937513968063
  0
VERTEX
  8
Default
 10
22.494466
 20
52.370702
 42
0.0524310181411
  0
VERTEX
  8
Default
 10
22.1669719066461
 20
52.1186904273423
 42
0.0354830854041
  0
VERTEX
  8
Default
 10
22.0580930228913
 20
51.9952235570758
 42
0.1310149363324
  0
VERTEX
  8
Default
 10
21.9422915729262
 20
51.7302773210201
 42
0.1434236949806
  0
VERTEX
  8
Default
 10
21.9790662035354
 20
51.5198690980259
 42
0.0813071614747
  0
VERTEX
  8
Default
 10
22.0709676033909
 20
51.3913771436156
 42
0.0709344500454
  0
VERTEX
  8
Default
 10
22.2574356957558
 20
51.2472194157184
 42
0.0324000417755
  0
VERTEX
  8
Default
 10
22.468925
 20
51.143004
 42
0.0419682025107
  0
VERTEX
  8
Default
 10
23.0175048271583
 20
50.971144844562
 42
0.0384636256047
  0
VERTEX
  8
Default
 10
23.4569169823019
 20
50.9121818577189
 42
0.0443576093857
  0
VERTEX
  8
Default
 10
23.7979899374179
 20
50.9240960155907
 42
0.0488204965944
  0
VERTEX
  8
Default
 10
24.0535521926267
 20
50.9796243710697
 42
0.0589828605959
  0
VERTEX
  8
Default
 10
24.2361587093401
 20
51.0590796500836
 42
0.1180893468469
  0
VERTEX
  8
Default
 10
24.4567905484437
 20
51.2607609837631
 42
0.1463700361559
  0
SEQEND
  0
POLYLINE
  8
Default
 66
     1
 10
0.0
 20
0.0
 30
0.0
 70
     1
  0
VERTEX
  8
Default
 10
17.624228
 20
54.659479
 42
0.1300719291532
  0
VERTEX
  8
Default
 10
17.5758660707113
 20
54.8379773993861
 42
0.146918155652
  0
VERTEX
  8
Default
 10
17.3744704231677
 20
55.021813508609
 42
0.1165383046965
  0
VERTEX
  8
Default
 10
17.108704
 20
55.082813
 42
-0.1067744197652
  0
VERTEX
  8
Default
 10
16.9547696293789
 20
55.123851175602
 42
-0.0562661619325
  0
VERTEX
  8
Default
 10
16.7065830003708
 20
55.281150806775
 42
-0.0305910118104
  0
VERTEX
  8
Default
 10
16.3257673239387
 20
55.6240354399874
 42
-0.02300928653
  0
VERTEX
  8
Default
 10
15.8138235564527
 20
56.1966500079012
 42
-0.0156594122272
  0
VERTEX
  8
Default
 10
15.345334
 20
56.805294
 42
0.0303413331557
  0
VERTEX
  8
Default
 10
14.5355791970085
 20
57.783944020239
 42
0.0441583110322
  0
VERTEX
  8
Default
 10
13.1185881008225
 20
59.0627336238689
 42
0.0166553355178
  0
VERTEX
  8
Default
 10
13.0701258199257
 20
59.0985436959843
 42
0.0183268339819
  0
VERTEX
  8
Default
 10
13.0229332889702
 20
59.1329005785655
 42
0.0365861767516
  0
VERTEX
  8
Default
 10
12.2567275380884
 20
59.6119958964444
 42
0.0368695645447
  0
VERTEX
  8
Default
 10
11.8399736064931
 20
59.7933514331674
 42
0.0
  0
VERTEX
  8
Default
 10
11.7311128223295
 20
59.8274998906123
 42
0.0671821743219
  0
VERTEX
  8
Default
 10
11.393896
 20
59.88059
 42
0.0997329082303
  0
VERTEX
  8
Default
 10
11.3454994972044
 20
59.8724851402153
 42
0.4141402472092
  0
VERTEX
  8
Default
 10
11.3213745277504
 20
59.8068378268227
 42
0.0761028147428
  0
VERTEX
  8
Default
 10
11.3781318901728
 20
59.7053986709347
 42
0.0411480887752
  0
VERTEX
  8
Default
 10
11.5139918771509
 20
59.5558827374225
 42
0.0263167810679
  0
VERTEX
  8
Default
 10
11.7418561116601
 20
59.3565371444122
 42
0.008146784238
  0
VERTEX
  8
Default
 10
11.983136
 20
59.173539
 42
-0.0142685751649
  0
VERTEX
  8
Default
 10
12.1744566285588
 20
59.0233176878175
 42
-0.0214537699689
  0
VERTEX
  8
Default
 10
12.8401985582346
 20
58.4012909748845
 42
0.0
  0
VERTEX
  8
Default
 10
12.9603283462591
 20
58.2798011182495
 42
-0.0228018753237
  0
VERTEX
  8
Default
 10
14.660895
 20
56.364869
 42
0.0067969412368
  0
VERTEX
  8
Default
 10
14.911352108298
 20
56.05781005864
 42
0.0
  0
VERTEX
  8
Default
 10
15.1343828055654
 20
55.7916181163317
 42
0.0061704181562
  0
VERTEX
  8
Default
 10
15.5360085149756
 20
55.3343861050896
 42
0.0277401723101
  0
VERTEX
  8
Default
 10
16.1849787768743
 20
54.6879571282101
 42
0.008462447786
  0
VERTEX
  8
Default
 10
16.2289861757048
 20
54.6502438167474
 42
0.0406457427497
  0
VERTEX
  8
Default
 10
16.5793105604461
 20
54.3934145276659
 42
0.03598501116
  0
VERTEX
  8
Default
 10
16.7752981783524
 20
54.2959718959185
 42
0.0840616297244
  0
VERTEX
  8
Default
 10
16.989228
 20
54.249698
 42
0.043626672611
  0
VERTEX
  8
Default
 10
17.1945168576189
 20
54.2634186255951
 42
0.1224242779969
  0
VERTEX
  8
Default
 10
17.4842635754771
 20
54.3802133272327
 42
0.2389736153834
  0
SEQEND
  0
POLYLINE
  8
Default
 66
     1
 10
0.0
 20
0.0
 30
0.0
 70
     1
  0
VERTEX
  8
Default
 10
22.981904
 20
56.556473
 42
0.0
  0
VERTEX
  8
Default
 10
23.0736710590063
 20
56.5976011071479
 42
-0.0140316048183
  0
VERTEX
  8
Default
 10
23.1192165301297
 20
56.6170352826699
 42
-0.022584877398
  0
VERTEX
  8
Default
 10
23.4868200525274
 20
56.7550139174089
 42
0.0
  0
VERTEX
  8
Default
 10
23.5741576851562
 20
56.7837529679801
 42
-0.0198832928179
  0
VERTEX
  8
Default
 10
24.2724589312795
 20
56.9741718091083
 42
0.0
  0
VERTEX
  8
Default
 10
24.3496244038683
 20
56.9917179344047
 42
-0.0242737656377
  0
VERTEX
  8
Default
 10
25.5774282219316
 20
57.2031732271328
 42
-0.0285038483322
  0
VERTEX
  8
Default
 10
27.441463099073
 20
57.3317577061367
 42
-0.003493660596
  0
VERTEX
  8
Default
 10
27.5583498305014
 20
57.3325855358795
 42
0.0
  0
VERTEX
  8
Default
 10
27.6679889829759
 20
57.3325365166823
 42
0.0
  0
VERTEX
  8
Default
 10
27.7707233325997
 20
57.3317505387911
 42
0.0
  0
VERTEX
  8
Default
 10
27.867058728363
 20
57.3303492221718
 42
-0.0135367979169
  0
VERTEX
  8
Default
 10
28.588542382302
 20
57.2977243670843
 42
-0.0169934433549
  0
VERTEX
  8
Default
 10
29.306492
 20
57.218724
 42
-0.0234889812899
  0
VERTEX
  8
Default
 10
29.6625897976721
 20
57.1449778674016
 42
-0.0236011282535
  0
VERTEX
  8
Default
 10
30.269024662872
 20
56.9539988058135
 42
-0.0104869559202
  0
VERTEX
  8
Default
 10
30.3249331159607
 20
56.9332440678271
 42
-0.0137865904729
  0
VERTEX
  8
Default
 10
30.7528479347905
 20
56.7590853073484
 42
-0.0438998894251
  0
VERTEX
  8
Default
 10
31.971203
 20
56.101787
 42
0.0
  0
VERTEX
  8
Default
 10
33.342809
 20
55.178765
 42
0.0
  0
VERTEX
  8
Default
 10
33.334675
 20
55.906899
 42
-0.0435093295834
  0
VERTEX
  8
Default
 10
33.3952341586086
 20
56.5631491205711
 42
-0.021305857374
  0
VERTEX
  8
Default
 10
33.4642040580906
 20
56.8857739909074
 42
-0.039185266722
  0
VERTEX
  8
Default
 10
33.566571
 20
57.199479
 42
0.0
  0
VERTEX
  8
Default
 10
33.6386240746047
 20
57.3721581593348
 42
0.0142597856871
  0
VERTEX
  8
Default
 10
33.6821276053293
 20
57.4868414779736
 42
0.0309764746154
  0
VERTEX
  8
Default
 10
33.7017010397891
 20
57.5537443023157
 42
0.0
  0
VERTEX
  8
Default
 10
33.705999668182
 20
57.5859300242892
 42
0.2074733287742
  0
VERTEX
  8
Default
 10
33.6985647241111
 20
57.6106618096182
 42
0.2556049495301
  0
VERTEX
  8
Default
 10
33.6633975543539
 20
57.6096279714216
 42
0.0671877702419
  0
VERTEX
  8
Default
 10
33.5568519653687
 20
57.5409454752541
 42
0.0
  0
VERTEX
  8
Default
 10
33.4824695368253
 20
57.481881689046
 42
0.0050784947821
  0
VERTEX
  8
Default
 10
33.264862
 20
57.297698
 42
-0.0189637223564
  0
VERTEX
  8
Default
 10
33.1256605579998
 20
57.1841328804861
 42
-0.0249766815413
  0
VERTEX
  8
Default
 10
33.0573339349621
 20
57.1354027570884
 42
-0.0935211001619
  0
VERTEX
  8
Default
 10
32.7626103648434
 20
57.005838578332
 42
-0.0627707799315
  0
VERTEX
  8
Default
 10
32.4870505558455
 20
56.9838061081648
 42
-0.0372510082539
  0
VERTEX
  8
Default
 10
32.0095388879263
 20
57.0431461144671
 42
-0.0095637450351
  0
VERTEX
  8
Default
 10
31.6565967961082
 20
57.1169445240507
 42
0.0
  0
VERTEX
  8
Default
 10
31.5906354815823
 20
57.1320332287252
 42
0.0
  0
VERTEX
  8
Default
 10
31.5288909281928
 20
57.1464128878449
 42
0.0
  0
VERTEX
  8
Default
 10
31.0670587589148
 20
57.2592983754459
 42
0.0
  0
VERTEX
  8
Default
 10
30.83665513932
 20
57.3177294825644
 42
0.0
  0
VERTEX
  8
Default
 10
30.60645
 20
57.376805
 42
0.0064756466481
  0
VERTEX
  8
Default
 10
30.0303993903005
 20
57.5190677769005
 42
0.0105841236739
  0
VERTEX
  8
Default
 10
29.7771340487794
 20
57.5762120995909
 42
0.0
  0
VERTEX
  8
Default
 10
29.5386787080393
 20
57.6257113486442
 42
0.0094309964401
  0
VERTEX
  8
Default
 10
29.3142990750225
 20
57.6676173366549
 42
0.0520339235917
  0
VERTEX
  8
Default
 10
27.6099633627102
 20
57.7907709955044
 42
0.0
  0
VERTEX
  8
Default
 10
27.3963892794403
 20
57.7839323160995
 42
0.0
  0
VERTEX
  8
Default
 10
27.2096850147676
 20
57.7752668089207
 42
0.0
  0
VERTEX
  8
Default
 10
27.1279501679027
 20
57.7707868778559
 42
0.0089203596057
  0
VERTEX
  8
Default
 10
25.905255
 20
57.671586
 42
0.0031805243839
  0
VERTEX
  8
Default
 10
25.6425713389649
 20
57.6454226703951
 42
0.0117139198578
  0
VERTEX
  8
Default
 10
25.519394767246
 20
57.6326019605411
 42
0.0046201763141
  0
VERTEX
  8
Default
 10
25.4001197883591
 20
57.619786484688
 42
0.0081914146682
  0
VERTEX
  8
Default
 10
25.1691166383284
 20
57.5936401127425
 42
0.005447135649
  0
VERTEX
  8
Default
 10
24.7365579193074
 20
57.5384536722534
 42
0.0
  0
VERTEX
  8
Default
 10
24.5475578566938
 20
57.5109213287054
 42
0.0
  0
VERTEX
  8
Default
 10
24.3706995054323
 20
57.4826946936906
 42
0.0186289277052
  0
VERTEX
  8
Default
 10
23.7129000681799
 20
57.347993225798
 42
0.0460622106521
  0
VERTEX
  8
Default
 10
22.762423300695
 20
57.0168787390019
 42
0.0307260847082
  0
VERTEX
  8
Default
 10
21.879349
 20
56.534146
 42
-0.0095864735732
  0
VERTEX
  8
Default
 10
21.0688476276046
 20
56.0565259166201
 42
0.0
  0
VERTEX
  8
Default
 10
20.8627527309283
 20
55.9427443272861
 42
-0.0067796089013
  0
VERTEX
  8
Default
 10
20.5494721339352
 20
55.7792926045514
 42
-0.0188565954362
  0
VERTEX
  8
Default
 10
20.3893807765906
 20
55.7037919830225
 42
0.0
  0
VERTEX
  8
Default
 10
20.3073488207071
 20
55.6700248241512
 42
-0.065570300158
  0
VERTEX
  8
Default
 10
20.221708
 20
55.647257
 42
-0.1079760864948
  0
VERTEX
  8
Default
 10
20.18340037181
 20
55.6596028666119
 42
-0.0391902937515
  0
VERTEX
  8
Default
 10
20.0520880298944
 20
55.7454861035637
 42
0.0
  0
VERTEX
  8
Default
 10
19.9362708786402
 20
55.8357919114597
 42
-0.0179800282027
  0
VERTEX
  8
Default
 10
19.1160987750141
 20
56.5700737239494
 42
-0.0076828388179
  0
VERTEX
  8
Default
 10
18.329784
 20
57.34059
 42
0.0
  0
VERTEX
  8
Default
 10
18.1660273652608
 20
57.5053343144937
 42
0.0
  0
VERTEX
  8
Default
 10
17.8152466452847
 20
57.8526575438464
 42
0.0
  0
VERTEX
  8
Default
 10
17.6798569555426
 20
57.9843279399128
 42
0.0063460165443
  0
VERTEX
  8
Default
 10
17.2503686266919
 20
58.3902375624543
 42
0.0
  0
VERTEX
  8
Default
 10
17.0841652879464
 20
58.5407454222441
 42
0.0
  0
VERTEX
  8
Default
 10
16.8916934572178
 20
58.7078527677122
 42
0.0
  0
VERTEX
  8
Default
 10
16.7851523709522
 20
58.7954302392216
 42
0.026733186918
  0
VERTEX
  8
Default
 10
16.6375989746922
 20
58.9065346340288
 42
0.0
  0
VERTEX
  8
Default
 10
16.5903980100708
 20
58.9376679706416
 42
0.0
  0
VERTEX
  8
Default
 10
16.5387614141753
 20
58.9668002026966
 42
0.040408029432
  0
VERTEX
  8
Default
 10
16.4970537671058
 20
58.9824615588835
 42
0.2941857446559
  0
VERTEX
  8
Default
 10
16.465446612266
 20
58.9753703901698
 42
0.1792492609354
  0
VERTEX
  8
Default
 10
16.4663928906449
 20
58.9328518200022
 42
0.0516133873949
  0
VERTEX
  8
Default
 10
16.540269926416
 20
58.7886553894297
 42
0.0137205385751
  0
VERTEX
  8
Default
 10
16.7136016575254
 20
58.5401268870857
 42
0.0168145288791
  0
VERTEX
  8
Default
 10
17.3838435403653
 20
57.7191895214109
 42
0.001660051356
  0
VERTEX
  8
Default
 10
17.7326152475998
 20
57.3202440091166
 42
0.0
  0
VERTEX
  8
Default
 10
18.086375
 20
56.925594
 42
0.0
  0
VERTEX
  8
Default
 10
19.995882
 20
54.817264
 42
0.0
  0
VERTEX
  8
Default
 10
20.856166
 20
55.393514
 42
0.0
  0
VERTEX
  8
Default
 10
20.9194542826484
 20
55.4352699201554
 42
-0.0130566394709
  0
VERTEX
  8
Default
 10
21.0433086002566
 20
55.5140832554754
 42
-0.0157571554135
  0
VERTEX
  8
Default
 10
21.998634320781
 20
56.0612492944824
 42
0.0
  0
VERTEX
  8
Default
 10
22.120134591087
 20
56.1259980572822
 42
-0.0180154414691
  0
VERTEX
  8
Default
 10
22.173434952364
 20
56.1541126205792
 42
0.0
  0
VERTEX
  8
Default
 10
22.3738021220322
 20
56.258201922567
 42
-0.0125792877113
  0
SEQEND
  0
POLYLINE
  8
Default
 66
     1
 10
0.0
 20
0.0
 30
0.0
 70
     1
  0
VERTEX
  8
Default
 10
37.905628
 20
57.689547
 42
-0.0362986421432
  0
VERTEX
  8
Default
 10
38.9440277108209
 20
58.6176950098801
 42
-0.0235515596177
  0
VERTEX
  8
Default
 10
39.5139353784004
 20
59.0207498357172
 42
-0.0159971749527
  0
VERTEX
  8
Default
 10
39.5880560965584
 20
59.067128063146
 42
-0.0206228922885
  0
VERTEX
  8
Default
 10
39.7196226200755
 20
59.145194858419
 42
-0.0238067258182
  0
VERTEX
  8
Default
 10
39.9224464082501
 20
59.252571975259
 42
-0.0329947040232
  0
VERTEX
  8
Default
 10
40.13454
 20
59.340451
 42
0.0
  0
VERTEX
  8
Default
 10
40.2761256440502
 20
59.3882890335263
 42
0.0
  0
VERTEX
  8
Default
 10
40.3549117766507
 20
59.4159963117004
 42
0.0
  0
VERTEX
  8
Default
 10
40.4855802031883
 20
59.4640952779111
 42
0.0096763995748
  0
VERTEX
  8
Default
 10
40.693138570301
 20
59.5484499688027
 42
0.0
  0
VERTEX
  8
Default
 10
40.7560148275394
 20
59.5770593839813
 42
0.0
  0
VERTEX
  8
Default
 10
40.8178933313821
 20
59.6075863480181
 42
0.0106194025044
  0
VERTEX
  8
Default
 10
40.910003682318
 20
59.6612980111145
 42
0.0549156979558
  0
VERTEX
  8
Default
 10
40.9485702876526
 20
59.6915298887376
 42
0.1003833162315
  0
VERTEX
  8
Default
 10
40.971208090473
 20
59.721619392154
 42
0.4744941016154
  0
VERTEX
  8
Default
 10
40.9434338417873
 20
59.759769796286
 42
0.0563405873022
  0
VERTEX
  8
Default
 10
40.8629309681424
 20
59.7696473896518
 42
0.0411474265302
  0
VERTEX
  8
Default
 10
40.5624234153042
 20
59.738774625792
 42
0.0106595770678
  0
VERTEX
  8
Default
 10
40.4510072242713
 20
59.7183990982702
 42
0.0
  0
VERTEX
  8
Default
 10
40.2572174079213
 20
59.6769391637008
 42
0.0137888252722
  0
VERTEX
  8
Default
 10
39.9689671093676
 20
59.6050046930149
 42
0.0
  0
VERTEX
  8
Default
 10
39.8256629421201
 20
59.565667504499
 42
0.0
  0
VERTEX
  8
Default
 10
39.682905
 20
59.524479
 42
0.0236768771813
  0
VERTEX
  8
Default
 10
39.5879768990252
 20
59.4928514285968
 42
0.0313153487285
  0
VERTEX
  8
Default
 10
39.2295675202956
 20
59.3311920093346
 42
0.0179816567646
  0
VERTEX
  8
Default
 10
38.9072720693943
 20
59.1533002315881
 42
0.0
  0
VERTEX
  8
Default
 10
38.8329591113958
 20
59.1094190191014
 42
0.0206672023938
  0
VERTEX
  8
Default
 10
37.7019092543641
 20
58.3576855235788
 42
0.0090893228228
  0
VERTEX
  8
Default
 10
37.4956824923768
 20
58.2077444573189
 42
0.0185896055114
  0
VERTEX
  8
Default
 10
35.9986221811702
 20
57.0174543497006
 42
0.0184485559359
  0
VERTEX
  8
Default
 10
35.2900440365534
 20
56.3662628847329
 42
0.0
  0
VERTEX
  8
Default
 10
35.2045853523415
 20
56.2797747110881
 42
0.0264117841688
  0
VERTEX
  8
Default
 10
34.9198659258023
 20
55.9622230020379
 42
0.03769950863
  0
VERTEX
  8
Default
 10
34.7941882505274
 20
55.7850996828526
 42
0.0486690385416
  0
VERTEX
  8
Default
 10
34.7455368283296
 20
55.6850404455553
 42
0.0305690339378
  0
VERTEX
  8
Default
 10
34.7329168091197
 20
55.6295478170431
 42
0.1643563760666
  0
VERTEX
  8
Default
 10
34.744124
 20
55.573716
 42
0.230655092188
  0
VERTEX
  8
Default
 10
34.8614281128482
 20
55.5049510118736
 42
0.0678191468931
  0
VERTEX
  8
Default
 10
34.9825654088503
 20
55.5093513386901
 42
0.0509307518831
  0
VERTEX
  8
Default
 10
35.2043769593793
 20
55.5756418819486
 42
0.0345799835063
  0
VERTEX
  8
Default
 10
35.5903059908755
 20
55.7691896807116
 42
0.0264629587576
  0
VERTEX
  8
Default
 10
36.2177989147673
 20
56.1875991705587
 42
0.0215611771302
  0
VERTEX
  8
Default
 10
37.0929874446483
 20
56.9034732090493
 42
0.0197639646386
  0
SEQEND
  0
POLYLINE
  8
Default
 66
     1
 10
0.0
 20
0.0
 30
0.0
 70
     1
  0
SEQEND
  0
POLYLINE
  8
Default
 66
     1
 10
0.0
 20
0.0
 30
0.0
 70
     0
  0
VERTEX
  8
Default
 10
65.94079
 20
99.462258
 42
-0.0459993221726
  0
VERTEX
  8
Default
 10
66.0528815244647
 20
99.306198130577
 42
-0.036657163317
  0
VERTEX
  8
Default
 10
66.2231003062915
 20
98.968252064055
 42
-0.0269589990166
  0
VERTEX
  8
Default
 10
66.4665476486297
 20
98.2679137950719
 42
0.0
  0
VERTEX
  8
Default
 10
66.5154108513665
 20
98.0955179465514
 42
0.0
  0
VERTEX
  8
Default
 10
66.5212859451444
 20
98.0740526294412
 42
-0.0191307389648
  0
VERTEX
  8
Default
 10
66.834585273722
 20
96.6885931635973
 42
0.0
  0
VERTEX
  8
Default
 10
66.8953653387137
 20
96.3615359112181
 42
0.0
  0
VERTEX
  8
Default
 10
66.9240084387712
 20
96.2003030326232
 42
0.0
  0
VERTEX
  8
Default
 10
66.9516654056656
 20
96.0401791185203
 42
-0.0065074097604
  0
VERTEX
  8
Default
 10
67.1484146303253
 20
94.7657578360594
 42
0.0
  0
VERTEX
  8
Default
 10
67.2291629483737
 20
94.1667470571153
 42
0.0
  0
VERTEX
  8
Default
 10
67.2660740727303
 20
93.8763208839567
 42
0.0
  0
VERTEX
  8
Default
 10
67.3349365058647
 20
93.304087640469
 42
0.0
  0
VERTEX
  8
Default
 10
67.3972152213039
 20
92.7492393989534
 42
-0.0110828386433
  0
VERTEX
  8
Default
 10
67.7608757108693
 20
88.4374177735623
 42
-0.0075577695423
  0
VERTEX
  8
Default
 10
67.9164120085127
 20
85.1946736189515
 42
-0.0064533616231
  0
VERTEX
  8
Default
 10
67.9667038922694
 20
82.7594426127029
 42
-0.0040610906843
  0
VERTEX
  8
Default
 10
67.9686828896097
 20
81.8456890774564
 42
-0.0134832973593
  0
VERTEX
  8
Default
 10
67.8784626497729
 20
78.6488191014167
 42
0.0
  0
VERTEX
  8
Default
 10
67.8529083549238
 20
78.2495433180435
 42
0.0
  0
VERTEX
  8
Default
 10
67.8403745648329
 20
78.074926071169
 42
0.0
  0
VERTEX
  8
Default
 10
67.8278129980014
 20
77.9112525956483
 42
0.0
  0
VERTEX
  8
Default
 10
67.8019935153959
 20
77.6046360036703
 42
-0.0106074036318
  0
VERTEX
  8
Default
 10
67.6827531892771
 20
76.5342067889224
 42
0.0
  0
VERTEX
  8
Default
 10
67.6438828313493
 20
76.2676984027156
 42
-0.0040031454175
  0
VERTEX
  8
Default
 10
67.5762279025077
 20
75.8693551643588
 42
-0.0042512445691
  0
VERTEX
  8
Default
 10
67.557232491826
 20
75.7701379741918
 42
0.0
  0
VERTEX
  8
Default
 10
67.5269164834825
 20
75.6217369072316
 42
-0.0500926624919
  0
VERTEX
  8
Default
 10
67.5229419430029
 20
75.6031355166855
 42
0.0
  0
VERTEX
  8
Default
 10
67.494127
 20
75.47382
 42
-0.0061565605416
  0
VERTEX
  8
Default
 10
67.4476970044049
 20
75.2746896926791
 42
-0.0144760452233
  0
VERTEX
  8
Default
 10
67.0472246371599
 20
73.7418691131948
 42
0.0
  0
VERTEX
  8
Default
 10
66.9591434449046
 20
73.4578529543001
 42
-0.0237783940287
  0
VERTEX
  8
Default
 10
66.5688538783387
 20
72.4137413091907
 42
-0.0180151263578
  0
VERTEX
  8
Default
 10
66.2046906302875
 20
71.6616252433507
 42
-0.0213843235124
  0
VERTEX
  8
Default
 10
65.564168208225
 20
70.5847078479167
 42
0.0
  0
VERTEX
  8
Default
 10
65.4787087959941
 20
70.4534456875889
 42
-0.0022101041394
  0
VERTEX
  8
Default
 10
65.1736354752131
 20
69.9980110617926
 42
0.0
  0
VERTEX
  8
Default
 10
64.861753
 20
69.547178
 42
0.0
  0
VERTEX
  8
Default
 10
64.6531495636601
 20
69.250024774756
 42
0.0
  0
VERTEX
  8
Default
 10
64.2589248811521
 20
68.6948594969002
 42
0.0
  0
VERTEX
  8
Default
 10
64.1718884618767
 20
68.5738765060103
 42
0.0
  0
VERTEX
  8
Default
 10
64.0022233588767
 20
68.3402581412784
 42
0.0
  0
VERTEX
  8
Default
 10
63.9622100223762
 20
68.2856499591832
 42
-0.0097136572706
  0
VERTEX
  8
Default
 10
63.3147442565079
 20
67.4389316644577
 42
0.0
  0
VERTEX
  8
Default
 10
63.2832732029714
 20
67.4000340667378
 42
-0.0342574245596
  0
VERTEX
  8
Default
 10
62.215006418849
 20
66.2448381798141
 42
0.0
  0
VERTEX
  8
Default
 10
62.1429409685784
 20
66.1778008673694
 42
-0.0057706503879
  0
VERTEX
  8
Default
 10
61.8683970761161
 20
65.93152878294
 42
0.0
  0
VERTEX
  8
Default
 10
61.6585577680334
 20
65.7511973293311
 42
0.0
  0
VERTEX
  8
Default
 10
61.3393846444759
 20
65.4861683757107
 42
0.0
  0
VERTEX
  8
Default
 10
61.016484
 20
65.225546
 42
0.0
  0
VERTEX
  8
Default
 10
60.7180403150924
 20
64.9904224355834
 42
0.0
  0
VERTEX
  8
Default
 10
60.6451640456955
 20
64.9341826511758
 42
0.0
  0
VERTEX
  8
Default
 10
60.3532703098638
 20
64.7147396827257
 42
-0.0110823804662
  0
VERTEX
  8
Default
 10
60.0654619814298
 20
64.50935183078
 42
-0.0174719183047
  0
VERTEX
  8
Default
 10
59.4893593483632
 20
64.1397955506302
 42
-0.0460253980412
  0
VERTEX
  8
Default
 10
58.3336081813672
 20
63.5923274537211
 42
-0.0324898613802
  0
VERTEX
  8
Default
 10
57.2633094636537
 20
63.283689223567
 42
-0.0109431993007
  0
VERTEX
  8
Default
 10
57.0252570364112
 20
63.2334642413469
 42
-0.0174996069691
  0
VERTEX
  8
Default
 10
56.0953557510348
 20
63.0808139390351
 42
-0.0150662904151
  0
VERTEX
  8
Default
 10
54.4550668249752
 20
62.9175768321469
 42
0.0
  0
VERTEX
  8
Default
 10
53.8383493770589
 20
62.8764062332468
 42
-0.0046867673424
  0
VERTEX
  8
Default
 10
53.2983900069243
 20
62.8460019590911
 42
0.0
  0
VERTEX
  8
Default
 10
53.2392436501409
 20
62.8429352922816
 42
0.0
  0
VERTEX
  8
Default
 10
52.7739815205091
 20
62.8203540277387
 42
0.0
  0
VERTEX
  8
Default
 10
51.9595624645765
 20
62.7862356324972
 42
0.0
  0
VERTEX
  8
Default
 10
51.6540859781723
 20
62.7748351617837
 42
0.0
  0
VERTEX
  8
Default
 10
51.1194557883166
 20
62.7563085070702
 42
0.0
  0
VERTEX
  8
Default
 10
50.7183976375663
 20
62.743397985679
 42
0.0
  0
VERTEX
  8
Default
 10
50.1168749234384
 20
62.7252860819972
 42
0.0
  0
VERTEX
  8
Default
 10
49.515339
 20
62.708338
 42
0.0
  0
VERTEX
  8
Default
 10
48.4303395942494
 20
62.6782357945023
 42
0.0
  0
VERTEX
  8
Default
 10
47.4803213151278
 20
62.6506361764003
 42
0.0
  0
VERTEX
  8
Default
 10
47.2723018954724
 20
62.6443225359937
 42
0.0
  0
VERTEX
  8
Default
 10
46.4663009490348
 20
62.6183958349053
 42
0.0057231906503
  0
VERTEX
  8
Default
 10
46.1133465597465
 20
62.6060308803618
 42
0.0
  0
VERTEX
  8
Default
 10
46.0305656004085
 20
62.6030128395666
 42
0.0
  0
VERTEX
  8
Default
 10
45.3789166443531
 20
62.5772121694363
 42
0.0
  0
VERTEX
  8
Default
 10
44.808378929321
 20
62.5504654112291
 42
0.0083303109631
  0
VERTEX
  8
Default
 10
43.8100798148073
 20
62.4864943068847
 42
0.0
  0
VERTEX
  8
Default
 10
43.4358002286726
 20
62.4526430763455
 42
0.0
  0
VERTEX
  8
Default
 10
43.2722209665111
 20
62.4351831217252
 42
0.0132429309878
  0
VERTEX
  8
Default
 10
43.1191180136016
 20
62.4170015396629
 42
0.0180374577812
  0
VERTEX
  8
Default
 10
42.5477970026011
 20
62.3278276131172
 42
0.0112423430122
  0
VERTEX
  8
Default
 10
42.335527534617
 20
62.2831771324694
 42
0.0321256978377
  0
VERTEX
  8
Default
 10
41.6087597698538
 20
62.0655255675816
 42
0.0
  0
VERTEX
  8
Default
 10
41.4317116027089
 20
61.9975042693307
 42
0.0128540977157
  0
VERTEX
  8
Default
 10
41.1686632488306
 20
61.8889360788474
 42
0.0
  0
VERTEX
  8
Default
 10
41.0379435128395
 20
61.8327385089773
 42
0.0
  0
VERTEX
  8
Default
 10
40.9727134389286
 20
61.8043436149194
 42
0.0
  0
VERTEX
  8
Default
 10
40.9401152975496
 20
61.7900884231708
 42
0.0
  0
VERTEX
  8
Default
 10
40.907561
 20
61.775817
 42
0.0696921960632
  0
VERTEX
  8
Default
 10
40.8814437943442
 20
61.7643453913803
 42
0.0695887142065
  0
VERTEX
  8
Default
 10
40.8559119535378
 20
61.7531121134373
 42
0.0
  0
VERTEX
  8
Default
 10
40.4482090427684
 20
61.5704899006398
 42
0.0
  0
VERTEX
  8
Default
 10
40.2902976802016
 20
61.4974104672476
 42
0.0091969741488
  0
VERTEX
  8
Default
 10
40.1653327426069
 20
61.4381025115151
 42
0.0
  0
VERTEX
  8
Default
 10
40.0963655309735
 20
61.4046189211355
 42
0.0
  0
VERTEX
  8
Default
 10
39.9865802398255
 20
61.3498120162961
 42
0.0147637705809
  0
VERTEX
  8
Default
 10
39.7609365043428
 20
61.2265550993563
 42
0.0
  0
VERTEX
  8
Default
 10
39.7080803988017
 20
61.1932237752697
 42
0.0746504368673
  0
VERTEX
  8
Default
 10
39.6092290901378
 20
61.1103497470425
 42
0.276439931823
  0
VERTEX
  8
Default
 10
39.600727342635
 20
61.0717416821951
 42
0.1753344490669
  0
VERTEX
  8
Default
 10
39.6223125227448
 20
61.0547553951647
 42
0.072751211148
  0
VERTEX
  8
Default
 10
39.7247123615134
 20
61.0405041025921
 42
0.0341278503859
  0
VERTEX
  8
Default
 10
40.1085669970077
 20
61.0737440247132
 42
0.0128740749196
  0
VERTEX
  8
Default
 10
41.246448
 20
61.272598
 42
-0.0148968159903
  0
VERTEX
  8
Default
 10
43.3913891753822
 20
61.6302945288438
 42
0.0
  0
VERTEX
  8
Default
 10
43.6637426377364
 20
61.6642049307055
 42
-0.0193693239018
  0
VERTEX
  8
Default
 10
44.6226974050711
 20
61.7442877530786
 42
-0.0153648663965
  0
VERTEX
  8
Default
 10
44.6840919962776
 20
61.7462658684806
 42
-0.0053956182288
  0
VERTEX
  8
Default
 10
44.9145810701276
 20
61.7479660289675
 42
-0.0308272068314
  0
VERTEX
  8
Default
 10
45.2629593273757
 20
61.7223186977059
 42
-0.0551061499864
  0
VERTEX
  8
Default
 10
45.4394253328287
 20
61.6779563285479
 42
-0.0719840653059
  0
VERTEX
  8
Default
 10
45.5219175313674
 20
61.6306914423043
 42
-0.2270069685983
  0
VERTEX
  8
Default
 10
45.564227
 20
61.545532
 42
-0.0779202407195
  0
VERTEX
  8
Default
 10
45.5327210290134
 20
61.4271136498041
 42
-0.0267369316084
  0
VERTEX
  8
Default
 10
45.4271746356309
 20
61.2123615325067
 42
-0.0145699622983
  0
VERTEX
  8
Default
 10
45.3109928379682
 20
61.0122297354904
 42
-0.0134874794112
  0
VERTEX
  8
Default
 10
44.8198183010907
 20
60.262357155332
 42
-0.0084800594187
  0
VERTEX
  8
Default
 10
43.9021134281746
 20
58.9903830342193
 42
0.0
  0
VERTEX
  8
Default
 10
43.5474511766472
 20
58.521041903451
 42
-0.0090745382121
  0
VERTEX
  8
Default
 10
42.2683431955659
 20
56.9075103890231
 42
-0.009831934241
  0
VERTEX
  8
Default
 10
41.6000251577165
 20
56.1237654663582
 42
0.0
  0
VERTEX
  8
Default
 10
41.427823081907
 20
55.9321740054565
 42
-0.0276552767173
  0
VERTEX
  8
Default
 10
41.3951720715851
 20
55.896505926006
 42
0.0
  0
VERTEX
  8
Default
 10
41.2717604645193
 20
55.7639388122722
 42
-0.0243514699456
  0
VERTEX
  8
Default
 10
40.884664
 20
55.382789
 42
-0.0286061825726
  0
VERTEX
  8
Default
 10
39.9296446021342
 20
54.6278850425767
 42
-0.0355996784447
  0
VERTEX
  8
Default
 10
39.1460247044578
 20
54.1565883990295
 42
-0.0581131994734
  0
VERTEX
  8
Default
 10
37.8623737946576
 20
53.679818346904
 42
-0.0175801488045
  0
VERTEX
  8
Default
 10
37.779097924966
 20
53.6596076433849
 42
-0.0355920995264
  0
VERTEX
  8
Default
 10
36.510316
 20
53.462563
 42
0.0
  0
VERTEX
  8
Default
 10
36.0812059162941
 20
53.4225528310043
 42
0.0086085401249
  0
VERTEX
  8
Default
 10
35.9052368028514
 20
53.4046024497091
 42
0.0
  0
VERTEX
  8
Default
 10
35.8239200231334
 20
53.3956708847281
 42
0.0151178716319
  0
VERTEX
  8
Default
 10
35.6673069319729
 20
53.3766428544467
 42
0.0173029408675
  0
VERTEX
  8
Default
 10
35.3798273202539
 20
53.3288471253981
 42
0.0657805078594
  0
VERTEX
  8
Default
 10
35.1601151396996
 20
53.2557765377951
 42
0.0866354715823
  0
VERTEX
  8
Default
 10
35.0882964750114
 20
53.2012649276555
 42
0.2106657198472
  0
VERTEX
  8
Default
 10
35.0443042896251
 20
53.058551399823
 42
0.0731977686557
  0
VERTEX
  8
Default
 10
35.1025435615632
 20
52.8477897962152
 42
0.0099135951674
  0
VERTEX
  8
Default
 10
35.1451331697216
 20
52.7471198978774
 42
0.0
  0
VERTEX
  8
Default
 10
35.190007
 20
52.647384
 42
-0.0843484676488
  0
VERTEX
  8
Default
 10
35.3344889789936
 20
52.0963536696579
 42
-0.0335688913986
  0
VERTEX
  8
Default
 10
35.3422704166593
 20
51.6711079213893
 42
-0.0294790238846
  0
VERTEX
  8
Default
 10
35.2681950397994
 20
51.0381233186902
 42
0.0
  0
VERTEX
  8
Default
 10
35.2403955149435
 20
50.8812922551523
 42
0.0
  0
VERTEX
  8
Default
 10
35.2178890369454
 20
50.7638730791042
 42
0.0
  0
VERTEX
  8
Default
 10
35.1819384942329
 20
50.5882751372918
 42
0.0
  0
VERTEX
  8
Default
 10
35.143765
 20
50.413135
 42
0.0041991282659
  0
VERTEX
  8
Default
 10
35.0475667638463
 20
49.9687994436216
 42
0.0
  0
VERTEX
  8
Default
 10
35.0278997945026
 20
49.8705321860026
 42
0.0
  0
VERTEX
  8
Default
 10
34.9927925364434
 20
49.6792350914466
 42
0.0197317284089
  0
VERTEX
  8
Default
 10
34.9462531101322
 20
49.3166355310848
 42
0.0369128493374
  0
VERTEX
  8
Default
 10
34.9466713474989
 20
48.9963533648023
 42
0.107820629059
  0
VERTEX
  8
Default
 10
35.1119382043582
 20
48.4676665821815
 42
0.0470675543942
  0
VERTEX
  8
Default
 10
35.3471989973596
 20
48.1291772263207
 42
0.0
  0
VERTEX
  8
Default
 10
35.3966657141567
 20
48.0698313997148
 42
0.0172036004521
  0
VERTEX
  8
Default
 10
35.5901762324152
 20
47.8545323139508
 42
0.0
  0
VERTEX
  8
Default
 10
35.665037518193
 20
47.7758914900445
 42
0.0067863701285
  0
VERTEX
  8
Default
 10
35.9323960438632
 20
47.5058788237667
 42
0.0
  0
VERTEX
  8
Default
 10
36.000067265053
 20
47.4391541417077
 42
0.0
  0
VERTEX
  8
Default
 10
36.0509267714187
 20
47.3892572130441
 42
0.0
  0
VERTEX
  8
Default
 10
36.203882
 20
47.240071
 42
-0.0161600770655
  0
VERTEX
  8
Default
 10
36.2521543918742
 20
47.1925843522182
 42
-0.0152863526194
  0
VERTEX
  8
Default
 10
36.3437406909061
 20
47.0985583472539
 42
-0.0231726720322
  0
VERTEX
  8
Default
 10
36.5038257881269
 20
46.9114370362827
 42
-0.0870591087386
  0
VERTEX
  8
Default
 10
36.704980366298
 20
46.5326093991271
 42
-0.0600529330563
  0
VERTEX
  8
Default
 10
36.7630797764825
 20
46.2183864121819
 42
-0.0373317451185
  0
VERTEX
  8
Default
 10
36.759147231429
 20
45.7403812764369
 42
-0.0122500897443
  0
VERTEX
  8
Default
 10
36.7387053885885
 20
45.5021471472517
 42
-0.009957625502
  0
VERTEX
  8
Default
 10
36.712762
 20
45.264516
 42
0.0
  0
VERTEX
  8
Default
 10
36.5944743278573
 20
44.2702373517715
 42
0.005171361323
  0
VERTEX
  8
Default
 10
36.508247711365
 20
43.4749637397879
 42
0.0
  0
VERTEX
  8
Default
 10
36.4953126052828
 20
43.3185939093143
 42
0.017890854364
  0
VERTEX
  8
Default
 10
36.4857165809265
 20
43.1709621865697
 42
0.0173462092767
  0
VERTEX
  8
Default
 10
36.4790319605578
 20
42.8920786589131
 42
0.0
  0
VERTEX
  8
Default
 10
36.4839309972715
 20
42.7684707814089
 42
0.0491837266383
  0
VERTEX
  8
Default
 10
36.5177029480765
 20
42.5383319223452
 42
0.0693414100752
  0
VERTEX
  8
Default
 10
36.5923879171098
 20
42.3504794192501
 42
0.1349368732682
  0
VERTEX
  8
Default
 10
36.8440636201023
 20
42.1153264665018
 42
0.0394634198864
  0
VERTEX
  8
Default
 10
37.0765186694802
 20
42.007906348056
 42
0.0
  0
VERTEX
  8
Default
 10
37.1664166403271
 20
41.9742443229407
 42
0.0
  0
VERTEX
  8
Default
 10
37.3250540894983
 20
41.9192283908285
 42
0.0
  0
VERTEX
  8
Default
 10
37.803116
 20
41.760165
 42
0.0296391358759
  0
VERTEX
  8
Default
 10
38.5479559845526
 20
41.5573246949486
 42
0.0
  0
VERTEX
  8
Default
 10
38.7133740806685
 20
41.5246832955939
 42
0.0
  0
VERTEX
  8
Default
 10
38.733491451752
 20
41.5209709257957
 42
0.015402716949
  0
VERTEX
  8
Default
 10
39.3771059388721
 20
41.4265093587986
 42
0.0114791964125
  0
VERTEX
  8
Default
 10
39.9434364589842
 20
41.37233529334
 42
0.0107062909384
  0
VERTEX
  8
Default
 10
40.9373132560059
 20
41.3155420808076
 42
0.0056444988609
  0
VERTEX
  8
Default
 10
41.6834978051262
 20
41.291835078314
 42
0.0082381961052
  0
VERTEX
  8
Default
 10
41.8234706557173
 20
41.2885793148633
 42
0.0
  0
VERTEX
  8
Default
 10
42.3482682569096
 20
41.2789059069869
 42
0.0
  0
VERTEX
  8
Default
 10
43.1356911093859
 20
41.2701781508718
 42
0.0
  0
VERTEX
  8
Default
 10
43.5294265242459
 20
41.2677382089399
 42
0.0
  0
VERTEX
  8
Default
 10
43.7262625309837
 20
41.2668969158457
 42
0.0
  0
VERTEX
  8
Default
 10
43.7755216019764
 20
41.2667218320783
 42
0.0
  0
VERTEX
  8
Default
 10
43.923077
 20
41.266277
 42
-0.0096030722834
  0
VERTEX
  8
Default
 10
46.6802937490606
 20
41.2086618490354
 42
-0.0081240373557
  0
VERTEX
  8
Default
 10
48.0581663336212
 20
41.1329621728645
 42
-0.0026976696688
  0
VERTEX
  8
Default
 10
48.2303389923983
 20
41.1198442638069
 42
-0.0072892890884
  0
VERTEX
  8
Default
 10
48.8318710807261
 20
41.0623422904251
 42
0.0
  0
VERTEX
  8
Default
 10
48.9069655988752
 20
41.0532568196409
 42
-0.0045619310711
  0
VERTEX
  8
Default
 10
49.1688483350897
 20
41.0152887093818
 42
0.0
  0
VERTEX
  8
Default
 10
49.2988619565308
 20
40.990099318809
 42
-0.0352139183278
  0
VERTEX
  8
Default
 10
49.42641
 20
40.954365
 42
-0.0342550372148
  0
VERTEX
  8
Default
 10
49.7494464108468
 20
40.8007941125527
 42
-0.0179826262337
  0
VERTEX
  8
Default
 10
49.8180931017621
 20
40.7632555064564
 42
-0.0172717773893
  0
VERTEX
  8
Default
 10
50.3375938286625
 20
40.4516202697261
 42
0.0
  0
VERTEX
  8
Default
 10
50.5284490630858
 20
40.3283496503628
 42
0.0
  0
VERTEX
  8
Default
 10
50.6940256573387
 20
40.2183985257639
 42
-0.0183565397078
  0
VERTEX
  8
Default
 10
51.820191
 20
39.401866
 42
0.0147407248172
  0
VERTEX
  8
Default
 10
52.2703192916404
 20
39.0764997805678
 42
0.0
  0
VERTEX
  8
Default
 10
52.4878319729458
 20
38.9337762029672
 42
0.0164675963408
  0
VERTEX
  8
Default
 10
53.3557936822013
 20
38.4215141446502
 42
0.0
  0
VERTEX
  8
Default
 10
53.4525195704161
 20
38.3686980323606
 42
0.0
  0
VERTEX
  8
Default
 10
53.6438089730424
 20
38.2662649118936
 42
0.0158887987111
  0
VERTEX
  8
Default
 10
55.1567561398821
 20
37.5325875201548
 42
0.0100426152116
  0
VERTEX
  8
Default
 10
56.3196807793272
 20
37.0435455964212
 42
0.0243157333566
  0
VERTEX
  8
Default
 10
56.3747816531951
 20
37.0218463155616
 42
0.0
  0
VERTEX
  8
Default
 10
56.809821374249
 20
36.855241388808
 42
0.0085564347532
  0
VERTEX
  8
Default
 10
57.5782292031972
 20
36.582312389618
 42
0.0091329670991
  0
VERTEX
  8
Default
 10
58.1606918861236
 20
36.3955174268146
 42
0.0
  0
VERTEX
  8
Default
 10
58.3806435017942
 20
36.330109270013
 42
0.0
  0
VERTEX
  8
Default
 10
58.5737241055503
 20
36.2752763654955
 42
0.0
  0
VERTEX
  8
Default
 10
58.7432737010484
 20
36.2292767648393
 42
0.0
  0
VERTEX
  8
Default
 10
58.8921041043124
 20
36.1906846396637
 42
0.0290614614147
  0
VERTEX
  8
Default
 10
59.946862
 20
35.980105
 42
0.0
  0
VERTEX
  8
Default
 10
60.1781579897851
 20
35.9488947428785
 42
0.0
  0
VERTEX
  8
Default
 10
60.2867664125002
 20
35.9332656364705
 42
-0.0111815850793
  0
VERTEX
  8
Default
 10
60.7067654954009
 20
35.8631787822083
 42
-0.0186233165745
  0
VERTEX
  8
Default
 10
61.0720620540478
 20
35.7800001015749
 42
-0.0291564688435
  0
VERTEX
  8
Default
 10
61.1116897127298
 20
35.7689499155074
 42
-0.0235567110904
  0
VERTEX
  8
Default
 10
61.2662159980901
 20
35.7204737584346
 42
-0.0389092413266
  0
VERTEX
  8
Default
 10
61.5457403996613
 20
35.6024323086714
 42
-0.0863611551096
  0
VERTEX
  8
Default
 10
61.9684115809407
 20
35.2870130821057
 42
0.0
  0
VERTEX
  8
Default
 10
62.0343671650308
 20
35.2138308029231
 42
-0.0173890005085
  0
VERTEX
  8
Default
 10
62.1474274877953
 20
35.0680807166238
 42
-0.0064061695112
  0
VERTEX
  8
Default
 10
62.1929831922171
 20
35.0015663568158
 42
-0.0226992479317
  0
VERTEX
  8
Default
 10
62.3473410441167
 20
34.7416830691323
 42
-0.0136201295001
  0
VERTEX
  8
Default
 10
62.3999719733559
 20
34.6412403434835
 42
-0.0194906198241
  0
VERTEX
  8
Default
 10
62.725664
 20
33.918195
 42
0.0
  0
VERTEX
  8
Default
 10
63.322155
 20
32.482877
 42
0.0
  0
VERTEX
  8
Default
 10
62.698193
 20
32.227111
 42
-0.0242899967285
  0
VERTEX
  8
Default
 10
62.5536841728383
 20
32.177598690632
 42
0.0
  0
VERTEX
  8
Default
 10
62.4119017921226
 20
32.1357965277981
 42
-0.0091400290881
  0
VERTEX
  8
Default
 10
61.858064331148
 20
31.9891263055324
 42
0.0
  0
VERTEX
  8
Default
 10
61.6148757344222
 20
31.9284805449328
 42
-0.0079453739298
  0
VERTEX
  8
Default
 10
57.947526
 20
31.101834
 42
0.0083958971145
  0
VERTEX
  8
Default
 10
55.2391604419903
 20
30.4869136191655
 42
0.0146467982426
  0
VERTEX
  8
Default
 10
55.1126051185802
 20
30.4558692732678
 42
0.0076825404815
  0
VERTEX
  8
Default
 10
53.1276634804208
 20
29.9376150337474
 42
0.0
  0
VERTEX
  8
Default
 10
52.7571702414992
 20
29.833641233761
 42
0.0
  0
VERTEX
  8
Default
 10
52.4104508235196
 20
29.7339886131575
 42
0.0
  0
VERTEX
  8
Default
 10
52.0859452996053
 20
29.6385324958552
 42
0.0
  0
VERTEX
  8
Default
 10
51.78221584539
 20
29.547148667493
 42
0.0
  0
VERTEX
  8
Default
 10
51.2143557983967
 20
29.3705413858978
 42
0.0
  0
VERTEX
  8
Default
 10
50.9665461608957
 20
29.2909101567244
 42
0.0069889706283
  0
VERTEX
  8
Default
 10
50.0422539884973
 20
28.9778486910551
 42
0.0
  0
VERTEX
  8
Default
 10
49.8698993072996
 20
28.916258959051
 42
0.0
  0
VERTEX
  8
Default
 10
49.5477635932781
 20
28.7979598623302
 42
0.0134178597933
  0
VERTEX
  8
Default
 10
48.4340326140121
 20
28.3480700057173
 42
0.0
  0
VERTEX
  8
Default
 10
48.2968362554833
 20
28.2868667972381
 42
0.0140979118854
  0
VERTEX
  8
Default
 10
47.8222189261587
 20
28.0608662006089
 42
0.0121478141678
  0
VERTEX
  8
Default
 10
47.7635935838527
 20
28.0310916484367
 42
0.0078760429483
  0
VERTEX
  8
Default
 10
47.5601845558687
 20
27.9237606135738
 42
0.0
  0
VERTEX
  8
Default
 10
47.359835
 20
27.810689
 42
0.0237311377677
  0
VERTEX
  8
Default
 10
46.8622564182153
 20
27.4897342915368
 42
0.0636081332433
  0
VERTEX
  8
Default
 10
46.099931749152
 20
26.7915195437298
 42
0.0454773110261
  0
VERTEX
  8
Default
 10
45.6616918102357
 20
26.1547988384633
 42
0.0191898608556
  0
VERTEX
  8
Default
 10
45.5255486779852
 20
25.8991817791238
 42
0.0152411365053
  0
VERTEX
  8
Default
 10
45.3159187861784
 20
25.4381335003205
 42
0.0118956952805
  0
VERTEX
  8
Default
 10
45.2448927763903
 20
25.2619256232288
 42
0.0208568906109
  0
VERTEX
  8
Default
 10
44.821783
 20
24.002193
 42
-0.0281528623243
  0
VERTEX
  8
Default
 10
44.5613152241485
 20
23.2717956080038
 42
-0.0207472934629
  0
VERTEX
  8
Default
 10
44.5219886149594
 20
23.1821471648776
 42
-0.0246332256816
  0
VERTEX
  8
Default
 10
44.3662760778861
 20
22.8763131426063
 42
-0.0339966902961
  0
VERTEX
  8
Default
 10
44.2693505112359
 20
22.7318412349791
 42
-0.0277130809264
  0
VERTEX
  8
Default
 10
44.2093428150144
 20
22.6668109643629
 42
-0.169887355052
  0
VERTEX
  8
Default
 10
44.130228
 20
22.627257
 42
0.235868656068
  0
VERTEX
  8
Default
 10
44.0848472669619
 20
22.5979470593496
 42
0.0748522974405
  0
VERTEX
  8
Default
 10
44.0423276943667
 20
22.5075365417877
 42
0.0431067632944
  0
VERTEX
  8
Default
 10
43.9972903120485
 20
22.320858304006
 42
0.021201448636
  0
VERTEX
  8
Default
 10
43.9499672415706
 20
21.9646291761109
 42
0.0
  0
VERTEX
  8
Default
 10
43.9426489217774
 20
21.8863751546824
 42
0.0131074135071
  0
VERTEX
  8
Default
 10
43.9203209163871
 20
21.5827069575708
 42
0.0
  0
VERTEX
  8
Default
 10
43.9065302214768
 20
21.3166841100172
 42
0.0071484498616
  0
VERTEX
  8
Default
 10
43.8911750897789
 20
20.8507116375248
 42
0.0
  0
VERTEX
  8
Default
 10
43.8850878576259
 20
20.5010870064809
 42
0.0
  0
VERTEX
  8
Default
 10
43.8825297859018
 20
19.9766420367419
 42
0.0
  0
VERTEX
  8
Default
 10
43.886281
 20
19.452257
 42
0.0
  0
VERTEX
  8
Default
 10
43.8883576545953
 20
19.1875526534353
 42
0.0
  0
VERTEX
  8
Default
 10
43.8879968869159
 20
18.9308726688263
 42
-0.0325652440093
  0
VERTEX
  8
Default
 10
43.8877877500205
 20
18.899716271148
 42
-0.0234952854153
  0
VERTEX
  8
Default
 10
43.786862801195
 20
16.9194533427993
 42
-0.0107779911671
  0
VERTEX
  8
Default
 10
43.7667317506473
 20
16.7330716062742
 42
-0.0108711702241
  0
VERTEX
  8
Default
 10
43.6668392255942
 20
16.0131855069421
 42
0.0
  0
VERTEX
  8
Default
 10
43.6398349782887
 20
15.8560844937103
 42
-0.0313712109395
  0
VERTEX
  8
Default
 10
43.3549469373823
 20
14.6539705278027
 42
-0.0148606520302
  0
VERTEX
  8
Default
 10
43.2839473998027
 20
14.4323038242122
 42
-0.0332778653152
  0
VERTEX
  8
Default
 10
42.9572668859206
 20
13.6229783202458
 42
-0.0308146577991
  0
VERTEX
  8
Default
 10
42.6397284401118
 20
13.0491142758674
 42
-0.0530491169578
  0
VERTEX
  8
Default
 10
42.0298975460834
 20
12.2776856728518
 42
-0.0604609682708
  0
VERTEX
  8
Default
 10
41.261103
 20
11.664671
 42
0.0
  0
VERTEX
  8
Default
 10
41.1362455460276
 20
11.584906521143
 42
0.0214028013349
  0
VERTEX
  8
Default
 10
40.6632473305211
 20
11.2441135899361
 42
0.0
  0
VERTEX
  8
Default
 10
40.5557949451696
 20
11.1597996464178
 42
0.0
  0
VERTEX
  8
Default
 10
40.347241563363
 20
10.9901881465991
 42
0.0071520950679
  0
VERTEX
  8
Default
 10
40.1484658686497
 20
10.8219269124012
 42
0.0
  0
VERTEX
  8
Default
 10
39.958660881011
 20
10.655857286071
 42
0.0198252148192
  0
VERTEX
  8
Default
 10
39.9130182992973
 20
10.6151879555943
 42
0.0195592754882
  0
VERTEX
  8
Default
 10
38.5233690534589
 20
9.26259641193
 42
0.0237029392334
  0
VERTEX
  8
Default
 10
36.6088855012688
 20
7.0688862636697
 42
0.0
  0
VERTEX
  8
Default
 10
36.3845315488987
 20
6.7800124327268
 42
0.0
  0
VERTEX
  8
Default
 10
36.2878089236105
 20
6.6523824066279
 42
0.0072887236276
  0
VERTEX
  8
Default
 10
36.1091974207086
 20
6.4109099560069
 42
0.0213721592163
  0
VERTEX
  8
Default
 10
35.5238866626189
 20
5.5372475824202
 42
0.0270285514442
  0
VERTEX
  8
Default
 10
35.2732320867694
 20
5.0718798949017
 42
0.0358190167699
  0
VERTEX
  8
Default
 10
35.1740140235284
 20
4.8255771877061
 42
0.0
  0
VERTEX
  8
Default
 10
35.15465590657
 20
4.7619255774988
 42
0.0652882335798
  0
VERTEX
  8
Default
 10
35.12299
 20
4.565035
 42
-0.0458992806566
  0
VERTEX
  8
Default
 10
35.1074508068517
 20
4.4100428017812
 42
-0.0278098981198
  0
VERTEX
  8
Default
 10
35.0354278823596
 20
4.1183895346739
 42
-0.0230341954495
  0
VERTEX
  8
Default
 10
34.8447215182281
 20
3.5893973673761
 42
-0.0131193208632
  0
VERTEX
  8
Default
 10
34.6497128047084
 20
3.1377075189505
 42
-0.0071525316402
  0
VERTEX
  8
Default
 10
34.4655218409643
 20
2.7485010706581
 42
-0.021508365797
  0
VERTEX
  8
Default
 10
33.7443430258634
 20
1.4253352322277
 42
-0.0083353343766
  0
VERTEX
  8
Default
 10
33.6452178779875
 20
1.2644619086774
 42
0.0
  0
VERTEX
  8
Default
 10
33.5564941845186
 20
1.1250038209323
 42
-0.0191953911955
  0
VERTEX
  8
Default
 10
33.2261156303832
 20
0.6497061056698
 42
-0.0097307781451
  0
VERTEX
  8
Default
 10
33.1364899363862
 20
0.5356781818111
 42
-0.0131601607508
  0
VERTEX
  8
Default
 10
33.0664306633862
 20
0.4524134324724
 42
0.0
  0
VERTEX
  8
Default
 10
33.0118305887709
 20
0.3917455548942
 42
-0.0553982663716
  0
VERTEX
  8
Default
 10
32.830668
 20
0.227073
 42
0.0
  0
VERTEX
  8
Default
 10
32.5561053804284
 20
0.0340628276038
 42
0.0
  0
VERTEX
  8
Default
 10
32.4317160111384
 20
-0.0474500243656
 42
-0.0799306894386
  0
VERTEX
  8
Default
 10
32.178798298374
 20
-0.1615742062908
 42
-0.1014526510474
  0
VERTEX
  8
Default
 10
31.9429644506278
 20
-0.1679852242538
 42
-0.0180616103132
  0
VERTEX
  8
Default
 10
31.8434295817632
 20
-0.1462744641137
 42
-0.0279631398969
  0
VERTEX
  8
Default
 10
31.7523523790087
 20
-0.1182090599069
 42
-0.0211823792565
  0
VERTEX
  8
Default
 10
31.4226507307577
 20
0.0194778104039
 42
-0.0086915944527
  0
VERTEX
  8
Default
 10
30.9424580608697
 20
0.2569926914063
 42
0.0
  0
VERTEX
  8
Default
 10
30.8231005236743
 20
0.3178449586252
 42
-0.0098462178393
  0
VERTEX
  8
Default
 10
30.6442103617238
 20
0.4092572487231
 42
0.0
  0
VERTEX
  8
Default
 10
30.465339
 20
0.50053
 42
-0.0196405601956
  0
VERTEX
  8
Default
 10
29.7696644121358
 20
0.8877931348494
 42
-0.076874770185
  0
VERTEX
  8
Default
 10
27.6375382720454
 20
2.6669624358321
 42
-0.0371865036403
  0
VERTEX
  8
Default
 10
26.7980098566897
 20
3.7766466405451
 42
-0.0300055803035
  0
VERTEX
  8
Default
 10
26.112358
 20
4.987547
 42
0.0182336054658
  0
VERTEX
  8
Default
 10
25.734459450226
 20
5.6931040859192
 42
0.0451737050201
  0
VERTEX
  8
Default
 10
25.0434633649964
 20
6.675755020606
 42
0.0692978679962
  0
VERTEX
  8
Default
 10
24.146141
 20
7.474486
 42
-0.0288820532842
  0
VERTEX
  8
Default
 10
23.7726150019215
 20
7.7538054311391
 42
-0.0420716631963
  0
VERTEX
  8
Default
 10
23.1556236705601
 20
8.3685756383484
 42
-0.0261783742732
  0
VERTEX
  8
Default
 10
22.6921437140227
 20
8.970916982504
 42
-0.0184357501314
  0
VERTEX
  8
Default
 10
22.3324318947005
 20
9.5294523491153
 42
-0.0207107766957
  0
VERTEX
  8
Default
 10
21.7804752257726
 20
10.5515931567925
 42
-0.0107366622589
  0
VERTEX
  8
Default
 10
21.4151807538627
 20
11.3423778839834
 42
0.0
  0
VERTEX
  8
Default
 10
21.3503827274424
 20
11.492318091904
 42
0.0
  0
VERTEX
  8
Default
 10
21.2316689711871
 20
11.7745942621642
 42
0.0
  0
VERTEX
  8
Default
 10
21.1305552883301
 20
12.0227471759661
 42
0.0
  0
VERTEX
  8
Default
 10
21.0440324270449
 20
12.240723411963
 42
0.0
  0
VERTEX
  8
Default
 10
20.9697412985761
 20
12.4320174383579
 42
-0.0059855652856
  0
VERTEX
  8
Default
 10
20.7192589668004
 20
13.1049445489521
 42
-0.0216204145286
  0
VERTEX
  8
Default
 10
20.6888896632319
 20
13.1894411674285
 42
0.0
  0
VERTEX
  8
Default
 10
20.5841570086862
 20
13.4856153693994
 42
-0.0111943029536
  0
VERTEX
  8
Default
 10
20.5326469252029
 20
13.6339817939372
 42
0.0
  0
VERTEX
  8
Default
 10
20.5198506123539
 20
13.6711140586508
 42
0.0
  0
VERTEX
  8
Default
 10
20.481694
 20
13.782483
 42
-0.0053658629902
  0
VERTEX
  8
Default
 10
20.3182436880301
 20
14.2716837902492
 42
-0.0121342421481
  0
VERTEX
  8
Default
 10
20.0368657477361
 20
15.197374727222
 42
-0.0178814893189
  0
VERTEX
  8
Default
 10
19.8365397910587
 20
16.0201507348125
 42
-0.0402082867153
  0
VERTEX
  8
Default
 10
19.6495992209569
 20
17.4881047366134
 42
-0.023468559799
  0
VERTEX
  8
Default
 10
19.6507898803403
 20
18.5966953640972
 42
0.0
  0
VERTEX
  8
Default
 10
19.6612951293288
 20
18.8042634526065
 42
0.0
  0
VERTEX
  8
Default
 10
19.673442785783
 20
18.9987146184047
 42
0.0
  0
VERTEX
  8
Default
 10
19.7014323556338
 20
19.3628155092156
 42
-0.0100818388145
  0
VERTEX
  8
Default
 10
19.715551965166
 20
19.5220102911705
 42
-0.0094883174495
  0
VERTEX
  8
Default
 10
19.847592750136
 20
20.7131341960784
 42
0.0
  0
VERTEX
  8
Default
 10
19.925302045564
 20
21.3072565806906
 42
0.0
  0
VERTEX
  8
Default
 10
20.007609
 20
21.900783
 42
0.0
  0
VERTEX
  8
Default
 10
20.404461
 20
24.70209
 42
0.0
  0
VERTEX
  8
Default
 10
19.620518
 20
26.275228
 42
-0.0152545672422
  0
VERTEX
  8
Default
 10
19.4756723949452
 20
26.5927568979396
 42
0.0
  0
VERTEX
  8
Default
 10
19.4676611992479
 20
26.6116418748158
 42
-0.0074952991272
  0
VERTEX
  8
Default
 10
19.3452598841643
 20
26.9135573771288
 42
0.0
  0
VERTEX
  8
Default
 10
19.2367593140881
 20
27.1989831294918
 42
-0.0094156968707
  0
VERTEX
  8
Default
 10
18.8621194039197
 20
28.2810401985935
 42
-0.0093211656474
  0
VERTEX
  8
Default
 10
18.3600014902093
 20
29.9235095493653
 42
-0.0101495452852
  0
VERTEX
  8
Default
 10
17.916607
 20
31.582888
 42
0.0
  0
VERTEX
  8
Default
 10
17.6547452640041
 20
32.6557156439788
 42
0.0
  0
VERTEX
  8
Default
 10
17.5437781753385
 20
33.1262588905375
 42
0.0
  0
VERTEX
  8
Default
 10
17.4442786121201
 20
33.5684498299217
 42
0.0
  0
VERTEX
  8
Default
 10
17.3998546049388
 20
33.7762616882443
 42
0.0
  0
VERTEX
  8
Default
 10
17.3585938685993
 20
33.9778731185492
 42
0.0
  0
VERTEX
  8
Default
 10
17.3205702983722
 20
34.1735845325211
 42
-0.028551124088
  0
VERTEX
  8
Default
 10
17.1175455954564
 20
35.7044435155709
 42
0.0
  0
VERTEX
  8
Default
 10
17.0993237581125
 20
35.9933228884392
 42
-0.0111284760767
  0
VERTEX
  8
Default
 10
17.0715276896509
 20
37.0778779837961
 42
0.0
  0
VERTEX
  8
Default
 10
17.0721523211
 20
37.4847284001047
 42
0.0
  0
VERTEX
  8
Default
 10
17.0756572759283
 20
37.8406983132825
 42
0.0
  0
VERTEX
  8
Default
 10
17.0803808236958
 20
38.1521435049538
 42
0.0
  0
VERTEX
  8
Default
 10
17.0854681608399
 20
38.4246369806615
 42
-0.001649188956
  0
VERTEX
  8
Default
 10
17.1076556643996
 20
39.3782083779296
 42
0.0
  0
VERTEX
  8
Default
 10
17.133032
 20
40.331777
 42
0.0
  0
VERTEX
  8
Default
 10
17.1593047100121
 20
41.2199568651991
 42
-0.0077598331058
  0
VERTEX
  8
Default
 10
17.1657282467018
 20
41.4143565504223
 42
0.0
  0
VERTEX
  8
Default
 10
17.1936924197316
 20
42.1673952493309
 42
0.0
  0
VERTEX
  8
Default
 10
17.223454319383
 20
42.8262195859392
 42
0.0
  0
VERTEX
  8
Default
 10
17.2308213277665
 20
42.9703554409279
 42
0.0
  0
VERTEX
  8
Default
 10
17.2630446064152
 20
43.528676552168
 42
-0.0099457825923
  0
VERTEX
  8
Default
 10
17.2709985443581
 20
43.650796426746
 42
0.0
  0
VERTEX
  8
Default
 10
17.2874935033411
 20
43.8873183744059
 42
-0.0026134953853
  0
VERTEX
  8
Default
 10
17.3044024244484
 20
44.108964398343
 42
-0.0096255254998
  0
VERTEX
  8
Default
 10
17.3835699683537
 20
44.9387071144932
 42
-0.0210565382246
  0
VERTEX
  8
Default
 10
17.57094447637
 20
46.1747932733656
 42
0.0
  0
VERTEX
  8
Default
 10
17.6019739279524
 20
46.3280207163861
 42
-0.0214725868393
  0
VERTEX
  8
Default
 10
17.870159
 20
47.388684
 42
0.0160820223767
  0
VERTEX
  8
Default
 10
17.8988587837571
 20
47.4866418843294
 42
0.0
  0
VERTEX
  8
Default
 10
18.0097851923212
 20
47.8739712920788
 42
0.0
  0
VERTEX
  8
Default
 10
18.0606591528522
 20
48.0577782714721
 42
0.0116855553421
  0
VERTEX
  8
Default
 10
18.1088686975054
 20
48.2369337209039
 42
0.0
  0
VERTEX
  8
Default
 10
18.120378377593
 20
48.2805719032935
 42
0.0143589546042
  0
VERTEX
  8
Default
 10
18.2874851773541
 20
48.9771017055024
 42
0.0497268476496
  0
VERTEX
  8
Default
 10
18.2915987010992
 20
48.9966216507448
 42
0.0214457024188
  0
VERTEX
  8
Default
 10
18.3980365149534
 20
49.620895049861
 42
0.0361281924806
  0
VERTEX
  8
Default
 10
18.4298322114917
 20
50.1807071806554
 42
0.0554841459324
  0
VERTEX
  8
Default
 10
18.3671116825521
 20
50.6681608027007
 42
0.1451350287035
  0
VERTEX
  8
Default
 10
17.9402582543904
 20
51.3944379364465
 42
0.0647339662714
  0
VERTEX
  8
Default
 10
17.4334840961362
 20
51.7565114887628
 42
0.0233281916207
  0
VERTEX
  8
Default
 10
17.0142120184482
 20
51.9600706220963
 42
0.0184279012012
  0
VERTEX
  8
Default
 10
16.3607936641688
 20
52.2077484121906
 42
0.0108928717538
  0
VERTEX
  8
Default
 10
16.0287865646571
 20
52.3166779565824
 42
0.0
  0
VERTEX
  8
Default
 10
15.694929
 20
52.419707
 42
-0.0375209597481
  0
VERTEX
  8
Default
 10
14.6892901594888
 20
52.8112117472768
 42
-0.031173343335
  0
VERTEX
  8
Default
 10
13.8691971806686
 20
53.2733274327034
 42
-0.0243500368422
  0
VERTEX
  8
Default
 10
13.2004441220948
 20
53.7516109286588
 42
-0.0295092806633
  0
VERTEX
  8
Default
 10
12.1279269279365
 20
54.7077974319798
 42
-0.0167754678327
  0
VERTEX
  8
Default
 10
11.3897518397153
 20
55.4922896881527
 42
0.0
  0
VERTEX
  8
Default
 10
11.1245156762645
 20
55.7969842848954
 42
-0.0092285590991
  0
VERTEX
  8
Default
 10
11.0672268424416
 20
55.8642812686896
 42
-0.0085750473533
  0
VERTEX
  8
Default
 10
10.6315213435546
 20
56.3925081596323
 42
0.0
  0
VERTEX
  8
Default
 10
10.4715686499122
 20
56.5933690646546
 42
0.0
  0
VERTEX
  8
Default
 10
10.1956728181943
 20
56.9480236923703
 42
-0.0070718903673
  0
VERTEX
  8
Default
 10
9.7904166068245
 20
57.4865505959432
 42
0.0
  0
VERTEX
  8
Default
 10
9.5912227382168
 20
57.7583681665034
 42
0.0
  0
VERTEX
  8
Default
 10
9.394071
 20
58.031702
 42
0.0
  0
VERTEX
  8
Default
 10
9.3215791701139
 20
58.1330853172224
 42
0.0
  0
VERTEX
  8
Default
 10
9.0418545311001
 20
58.5265913549585
 42
0.0
  0
VERTEX
  8
Default
 10
8.7984872507574
 20
58.8720407931346
 42
0.0
  0
VERTEX
  8
Default
 10
8.3762371456143
 20
59.4790193300812
 42
0.0
  0
VERTEX
  8
Default
 10
8.0630447024692
 20
59.9368089154367
 42
0.0
  0
VERTEX
  8
Default
 10
7.9465687315137
 20
60.1091771145406
 42
-0.004994017279
  0
VERTEX
  8
Default
 10
7.7443878024304
 20
60.411995360318
 42
0.0
  0
VERTEX
  8
Default
 10
7.5946038851968
 20
60.6403518487388
 42
0.0
  0
VERTEX
  8
Default
 10
7.4837349493646
 20
60.812682842921
 42
0.0
  0
VERTEX
  8
Default
 10
7.4426173563975
 20
60.8776161328551
 42
0.0
  0
VERTEX
  8
Default
 10
7.406876069131
 20
60.9346586860847
 42
0.0
  0
VERTEX
  8
Default
 10
7.2849246145754
 20
61.136015104483
 42
-0.0171514329249
  0
VERTEX
  8
Default
 10
7.2273512840893
 20
61.2389505562182
 42
0.0
  0
VERTEX
  8
Default
 10
7.2009534406175
 20
61.2917915461104
 42
-0.0763364759369
  0
VERTEX
  8
Default
 10
7.1893735376356
 20
61.3190458266218
 42
-0.0715712220558
  0
VERTEX
  8
Default
 10
7.182005
 20
61.347813
 42
-0.2042273819724
  0
VERTEX
  8
Default
 10
7.2037511526116
 20
61.3888205403089
 42
-0.0866179096855
  0
VERTEX
  8
Default
 10
7.2764957362811
 20
61.4329670382949
 42
0.0
  0
VERTEX
  8
Default
 10
7.3131504164451
 20
61.4478190294636
 42
-0.0428190135017
  0
VERTEX
  8
Default
 10
7.609859901757
 20
61.5220319254486
 42
-0.0378219442428
  0
VERTEX
  8
Default
 10
8.522561
 20
61.602056
 42
0.0
  0
VERTEX
  8
Default
 10
8.7047781621028
 20
61.6063606005241
 42
0.0
  0
VERTEX
  8
Default
 10
8.9946272253565
 20
61.616301595429
 42
0.0128267670652
  0
VERTEX
  8
Default
 10
9.2315222472526
 20
61.6306260669837
 42
0.0278893452667
  0
VERTEX
  8
Default
 10
9.305722413188
 20
61.6377594395748
 42
0.039954223649
  0
VERTEX
  8
Default
 10
9.4078529509857
 20
61.6527962686109
 42
0.0608592372962
  0
VERTEX
  8
Default
 10
9.4572871427956
 20
61.6656042467481
 42
0.1213831592274
  0
VERTEX
  8
Default
 10
9.4939511423478
 20
61.687169614656
 42
0.3659412175298
  0
VERTEX
  8
Default
 10
9.4908600672508
 20
61.7140924233701
 42
0.0839813682019
  0
VERTEX
  8
Default
 10
9.4546119808562
 20
61.7419634468654
 42
0.0358270773102
  0
VERTEX
  8
Default
 10
9.3084469454434
 20
61.8051069596071
 42
0.0
  0
VERTEX
  8
Default
 10
9.2708695979975
 20
61.8184671756069
 42
0.0
  0
VERTEX
  8
Default
 10
9.157561
 20
61.856146
 42
0.0308593543383
  0
VERTEX
  8
Default
 10
9.0553291711544
 20
61.8791915194945
 42
0.0220325136865
  0
VERTEX
  8
Default
 10
8.8511254872583
 20
61.9070364462191
 42
0.0135634749631
  0
VERTEX
  8
Default
 10
8.055137666626
 20
61.9695583397006
 42
0.0
  0
VERTEX
  8
Default
 10
7.8807725907823
 20
61.9795147706431
 42
0.0052410357739
  0
VERTEX
  8
Default
 10
7.5429283723586
 20
61.9967557994525
 42
0.0
  0
VERTEX
  8
Default
 10
7.4636362879139
 20
62.0004744050347
 42
0.0
  0
VERTEX
  8
Default
 10
7.3856090741459
 20
62.0040269940549
 42
0.0
  0
VERTEX
  8
Default
 10
6.7714110059831
 20
62.0288451597731
 42
0.0
  0
VERTEX
  8
Default
 10
6.6369937883129
 20
62.0336372481899
 42
0.0046356747155
  0
VERTEX
  8
Default
 10
4.5534807552425
 20
62.0870060911738
 42
0.0
  0
VERTEX
  8
Default
 10
4.0324186064104
 20
62.0953689100754
 42
0.0
  0
VERTEX
  8
Default
 10
3.6416233721027
 20
62.10050266804
 42
0.0
  0
VERTEX
  8
Default
 10
3.3485536249263
 20
62.103728072764
 42
0.0
  0
VERTEX
  8
Default
 10
2.9089313088881
 20
62.107574976145
 42
0.0
  0
VERTEX
  8
Default
 10
2.6891041861429
 20
62.1090540712302
 42
0.0
  0
VERTEX
  8
Default
 10
2.469351
 20
62.110236
 42
0.0
  0
VERTEX
  8
Default
 10
1.4393192059826
 20
62.1158786350312
 42
0.0
  0
VERTEX
  8
Default
 10
0.5375223526627
 20
62.1230704138936
 42
0.0
  0
VERTEX
  8
Default
 10
-0.2519872274592
 20
62.1326786291483
 42
-0.0056989658659
  0
VERTEX
  8
Default
 10
-1.6341732238012
 20
62.1652786499402
 42
-0.0087333242006
  0
VERTEX
  8
Default
 10
-2.6709036360063
 20
62.2191565209728
 42
0.0
  0
VERTEX
  8
Default
 10
-2.8651266138311
 20
62.2344649240048
 42
-0.0052796615018
  0
VERTEX
  8
Default
 10
-3.0470078346464
 20
62.2508990280266
 42
-0.008077121097
  0
VERTEX
  8
Default
 10
-3.3873176550665
 20
62.2881206365267
 42
-0.0309435090465
  0
VERTEX
  8
Default
 10
-4.5652121120798
 20
62.5046477398432
 42
-0.0142649620037
  0
VERTEX
  8
Default
 10
-5.1428457537286
 20
62.6627780867092
 42
0.0
  0
VERTEX
  8
Default
 10
-5.2863214522972
 20
62.7057750237897
 42
0.0
  0
VERTEX
  8
Default
 10
-5.715093
 20
62.839541
 42
-0.0160218530818
  0
VERTEX
  8
Default
 10
-6.7101063074493
 20
63.1936660008402
 42
-0.0398551707095
  0
VERTEX
  8
Default
 10
-8.36850368483
 20
64.0068009118106
 42
-0.0312133174007
  0
VERTEX
  8
Default
 10
-9.5079154214231
 20
64.7932596668818
 42
-0.0109103331521
  0
VERTEX
  8
Default
 10
-9.9083091827099
 20
65.1235835371624
 42
-0.0305303919116
  0
VERTEX
  8
Default
 10
-11.2022127124733
 20
66.3966614269897
 42
-0.0190391493746
  0
VERTEX
  8
Default
 10
-12.363439
 20
67.791751
 42
-0.0027035684651
  0
VERTEX
  8
Default
 10
-12.6466746364256
 20
68.1619692606191
 42
-0.0078095150775
  0
VERTEX
  8
Default
 10
-13.1811842479735
 20
68.8903906739008
 42
-0.0029587232009
  0
VERTEX
  8
Default
 10
-13.4237045001516
 20
69.2377351021306
 42
-0.0088873005297
  0
VERTEX
  8
Default
 10
-13.8751824699446
 20
69.923440761063
 42
-0.0133174587238
  0
VERTEX
  8
Default
 10
-14.2712747419887
 20
70.5831155495078
 42
-0.0251918187494
  0
VERTEX
  8
Default
 10
-14.9238300885936
 20
71.8688425637692
 42
-0.0469548833404
  0
VERTEX
  8
Default
 10
-15.7237034098102
 20
74.2553347566264
 42
-0.0255730050024
  0
VERTEX
  8
Default
 10
-16.0568499769701
 20
76.1106942762361
 42
-0.005071094965
  0
VERTEX
  8
Default
 10
-16.1375107910181
 20
76.8126872481176
 42
0.0
  0
VERTEX
  8
Default
 10
-16.1667902644027
 20
77.120372193346
 42
0.0
  0
VERTEX
  8
Default
 10
-16.1912803397073
 20
77.4091508660446
 42
0.0
  0
VERTEX
  8
Default
 10
-16.2018338354413
 20
77.5445883306842
 42
-0.0062419180263
  0
VERTEX
  8
Default
 10
-16.2375990195574
 20
78.0697947671802
 42
0.0
  0
VERTEX
  8
Default
 10
-16.2508773566248
 20
78.2996851992343
 42
0.0
  0
VERTEX
  8
Default
 10
-16.272296069446
 20
78.7309976484739
 42
0.0
  0
VERTEX
  8
Default
 10
-16.2876503020474
 20
79.1085426681687
 42
-0.0085071860047
  0
VERTEX
  8
Default
 10
-16.330072
 20
81.752814
 42
-0.0173838033363
  0
VERTEX
  8
Default
 10
-16.0815949953701
 20
88.7620577898855
 42
-0.0246920305211
  0
VERTEX
  8
Default
 10
-16.0776660846189
 20
88.8167893168282
 42
-0.000720349438
  0
VERTEX
  8
Default
 10
-16.0108096479859
 20
89.6844944412198
 42
0.0
  0
VERTEX
  8
Default
 10
-15.94498973111
 20
90.4431393097329
 42
0.0
  0
VERTEX
  8
Default
 10
-15.9139122828144
 20
90.7749137493272
 42
0.0
  0
VERTEX
  8
Default
 10
-15.8516902437477
 20
91.3965352361663
 42
-0.0095787618503
  0
VERTEX
  8
Default
 10
-15.5871204162698
 20
93.5669006916687
 42
0.0
  0
VERTEX
  8
Default
 10
-15.5073078554884
 20
94.1077336586357
 42
0.0
  0
VERTEX
  8
Default
 10
-15.4430258831761
 20
94.5127287119101
 42
0.0
  0
VERTEX
  8
Default
 10
-15.4305127290934
 20
94.5886039786041
 42
-0.0125611758204
  0
VERTEX
  8
Default
 10
-15.4066356018108
 20
94.7308170466643
 42
0.0
  0
VERTEX
  8
Default
 10
-15.3185662262396
 20
95.2275436762239
 42
0.0
  0
VERTEX
  8
Default
 10
-15.2716280445701
 20
95.4753821095605
 42
0.0
  0
VERTEX
  8
Default
 10
-15.2473557665255
 20
95.5991706219129
 42
0.0
  0
VERTEX
  8
Default
 10
-15.1854668264314
 20
95.7124097028117
 42
0.0
  0
VERTEX
  8
Default
 10
-13.5804291372224
 20
100.819343296562
 42
0.0
  0
VERTEX
  8
Default
 10
-12.8508682851716
 20
102.570289341484
 42
0.0
  0
VERTEX
  8
Default
 10
-11.6835709218904
 20
103.445766178642
 42
0.0
  0
VERTEX
  8
Default
 10
-11.5376587514802
 20
102.424377171073
 42
0.0
  0
VERTEX
  8
Default
 10
-11.9753952627107
 20
95.4205853619913
 42
0.0
  0
VERTEX
  8
Default
 10
-12.4131317739412
 20
89.2922665753702
 42
0.0
  0
VERTEX
  8
Default
 10
-10.5162697439119
 20
93.9614636578898
 42
0.0
  0
VERTEX
  8
Default
 10
-8.9112358694001
 20
96.4419743695597
 42
0.0
  0
VERTEX
  8
Default
 10
-7.0143738393709
 20
99.3602177777628
 42
0.0
  0
VERTEX
  8
Default
 10
-6.4307251577302
 20
99.3602177777628
 42
0.0
  0
VERTEX
  8
Default
 10
-7.0143738393709
 20
96.2960621991495
 42
0.0
  0
VERTEX
  8
Default
 10
-7.4521103506013
 20
94.3992001691202
 42
0.0
  0
SEQEND
  0
POLYLINE
  8
Default
 66
     1
 10
0.0
 20
0.0
 30
0.0
 70
     0
  0
VERTEX
  8
Default
 10
-9.4948845510408
 20
88.5627057233195
 42
0.0
  0
VERTEX
  8
Default
 10
-7.4521103506013
 20
94.1073758282999
 42
0.0
  0
SEQEND
  0
POLYLINE
  8
Default
 66
     1
 10
0.0
 20
0.0
 30
0.0
 70
     0
  0
VERTEX
  8
Default
 10
-9.450578
 20
88.667258
 42
0.0
  0
VERTEX
  8
Default
 10
-9.6118582615346
 20
88.2041471473126
 42
0.0
  0
VERTEX
  8
Default
 10
-9.6505990551082
 20
88.091756482763
 42
0.0
  0
VERTEX
  8
Default
 10
-9.6888958655776
 20
87.9801927656168
 42
0.0
  0
VERTEX
  8
Default
 10
-9.7267525657692
 20
87.8694483865871
 42
0.0
  0
VERTEX
  8
Default
 10
-9.7641734839662
 20
87.7595143680401
 42
0.013688778193
  0
VERTEX
  8
Default
 10
-10.862563936036
 20
84.241533017962
 42
0.0170539288332
  0
VERTEX
  8
Default
 10
-11.5275994744691
 20
81.5471109746739
 42
0.0070955674101
  0
VERTEX
  8
Default
 10
-11.7236526816102
 20
80.5214155711595
 42
0.0
  0
VERTEX
  8
Default
 10
-11.7615824090497
 20
80.2958374437876
 42
0.020327255098
  0
VERTEX
  8
Default
 10
-11.9809762166261
 20
78.5373159556355
 42
0.0202639650942
  0
VERTEX
  8
Default
 10
-12.0370173018506
 20
77.2071130255327
 42
0.0179110007168
  0
VERTEX
  8
Default
 10
-12.0363720733253
 20
77.0820841096656
 42
0.0172634657347
  0
VERTEX
  8
Default
 10
-11.9912556259723
 20
76.1147887571714
 42
0.034268415275
  0
VERTEX
  8
Default
 10
-11.768687803178
 20
74.6795144291388
 42
0.0415548978827
  0
VERTEX
  8
Default
 10
-11.325945
 20
73.29621
 42
0.0
  0
VERTEX
  8
Default
 10
-11.272003890691
 20
73.1727403897071
 42
0.0190469020982
  0
VERTEX
  8
Default
 10
-11.2166415356976
 20
73.0545572814379
 42
0.0225135996065
  0
VERTEX
  8
Default
 10
-10.7310857807898
 20
72.1675273839304
 42
0.0
  0
VERTEX
  8
Default
 10
-10.533191184514
 20
71.8437494557428
 42
0.0084803103923
  0
VERTEX
  8
Default
 10
-10.3549114819896
 20
71.5635220303392
 42
0.0
  0
VERTEX
  8
Default
 10
-10.1951816793042
 20
71.3205385442208
 42
0.0149211059362
  0
VERTEX
  8
Default
 10
-9.6068039417593
 20
70.4894989387148
 42
0.0
  0
VERTEX
  8
Default
 10
-9.4497861234019
 20
70.2877597498455
 42
0.0
  0
VERTEX
  8
Default
 10
-9.3277663813667
 20
70.139276264682
 42
0.0
  0
VERTEX
  8
Default
 10
-9.2328972824395
 20
70.0304279280478
 42
0.0
  0
VERTEX
  8
Default
 10
-9.1962373116403
 20
69.9903325841399
 42
0.0241167095959
  0
VERTEX
  8
Default
 10
-9.0613302948266
 20
69.8562633245514
 42
0.0
  0
VERTEX
  8
Default
 10
-9.0246890705024
 20
69.8251120845181
 42
0.040709112839
  0
VERTEX
  8
Default
 10
-8.9659601861349
 20
69.7831497671513
 42
0.1244562850509
  0
VERTEX
  8
Default
 10
-8.898159
 20
69.758368
 42
0.2284910825206
  0
VERTEX
  8
Default
 10
-8.8834590904255
 20
69.7712168380172
 42
0.0692648583851
  0
VERTEX
  8
Default
 10
-8.859241601956
 20
69.8414651355969
 42
0.0246590602297
  0
VERTEX
  8
Default
 10
-8.8105617070618
 20
70.1286740532883
 42
0.0042645383036
  0
VERTEX
  8
Default
 10
-8.779023186247
 20
70.399741091962
 42
0.0044603237037
  0
VERTEX
  8
Default
 10
-8.7321620854006
 20
70.9092732087398
 42
0.0071785455742
  0
VERTEX
  8
Default
 10
-8.6171811025842
 20
72.6963978215351
 42
0.0
  0
VERTEX
  8
Default
 10
-8.5750656043855
 20
73.5908274055582
 42
0.0
  0
VERTEX
  8
Default
 10
-8.5703416206165
 20
73.7026718568282
 42
0.0
  0
VERTEX
  8
Default
 10
-8.5623462553151
 20
73.898438634355
 42
0.0
  0
VERTEX
  8
Default
 10
-8.540394
 20
74.48559
 42
0.0
  0
VERTEX
  8
Default
 10
-8.5209814169755
 20
74.991076786244
 42
0.0
  0
VERTEX
  8
Default
 10
-8.5107470842544
 20
75.2279934883838
 42
-0.0082836904684
  0
VERTEX
  8
Default
 10
-8.2836108049554
 20
78.8962202118855
 42
0.0
  0
VERTEX
  8
Default
 10
-8.2472005358756
 20
79.3542439112515
 42
0.0
  0
VERTEX
  8
Default
 10
-8.1788380865982
 20
80.1553746355148
 42
0.0
  0
VERTEX
  8
Default
 10
-8.1652993111884
 20
80.3055386339096
 42
-0.0026622041751
  0
VERTEX
  8
Default
 10
-8.0549201393807
 20
81.4308129040462
 42
-0.006813723065
  0
VERTEX
  8
Default
 10
-7.92136
 20
82.553549
 42
0.0
  0
VERTEX
  8
Default
 10
-7.9009153939126
 20
82.7013826673051
 42
-0.0081184018896
  0
VERTEX
  8
Default
 10
-7.7204298240483
 20
83.8624613474185
 42
-0.0088428862438
  0
VERTEX
  8
Default
 10
-7.3445033726958
 20
85.8841667989635
 42
0.0
  0
VERTEX
  8
Default
 10
-7.1880886316882
 20
86.6394714218415
 42
-0.004529564878
  0
VERTEX
  8
Default
 10
-6.8954383403386
 20
87.9573884728772
 42
0.0
  0
VERTEX
  8
Default
 10
-6.7791086454857
 20
88.4502204409283
 42
-0.0074956452031
  0
VERTEX
  8
Default
 10
-6.7269654783098
 20
88.6655689361702
 42
-0.0037018007869
  0
VERTEX
  8
Default
 10
-6.6269769699977
 20
89.068811586334
 42
0.0
  0
VERTEX
  8
Default
 10
-6.5368700825084
 20
89.4210221203211
 42
0.0
  0
VERTEX
  8
Default
 10
-6.4965773896168
 20
89.5749731757149
 42
-0.0059905492814
  0
VERTEX
  8
Default
 10
-6.419501975569
 20
89.8631005573203
 42
0.0
  0
VERTEX
  8
Default
 10
-6.3501650921222
 20
90.1148093784112
 42
0.0
  0
VERTEX
  8
Default
 10
-6.3192098868315
 20
90.2247688093731
 42
-0.0094858302637
  0
VERTEX
  8
Default
 10
-6.0709311954338
 20
91.0445200723476
 42
-0.0059604182918
  0
VERTEX
  8
Default
 10
-6.0023816410823
 20
91.247498479103
 42
-0.0469430985629
  0
VERTEX
  8
Default
 10
-5.9890791349437
 20
91.2854530964287
 42
0.0
  0
VERTEX
  8
Default
 10
-5.9377065970967
 20
91.4271665064203
 42
-0.0329675794535
  0
VERTEX
  8
Default
 10
-5.759348
 20
91.842258
 42
-0.0890637423925
  0
VERTEX
  8
Default
 10
-5.5987890613203
 20
92.0470811921927
 42
-0.1095853839961
  0
VERTEX
  8
Default
 10
-5.2042754383104
 20
92.2641422262275
 42
-0.1305409656193
  0
VERTEX
  8
Default
 10
-4.5282517576637
 20
92.2903820503304
 42
-0.0938621568688
  0
VERTEX
  8
Default
 10
-4.2085937465485
 20
92.1513103492771
 42
-0.1501890553713
  0
VERTEX
  8
Default
 10
-3.991618
 20
91.878404
 42
-0.0634792125267
  0
VERTEX
  8
Default
 10
-3.9702061704772
 20
91.7575828664169
 42
-0.0303285314221
  0
VERTEX
  8
Default
 10
-3.9718981366697
 20
91.284327938013
 42
-0.0118896882706
  0
VERTEX
  8
Default
 10
-4.0356632459694
 20
90.4591348590099
 42
0.0
  0
VERTEX
  8
Default
 10
-4.0433534472011
 20
90.3818660268737
 42
-0.013932592624
  0
VERTEX
  8
Default
 10
-4.358524
 20
87.997848
 42
0.0093072684413
  0
VERTEX
  8
Default
 10
-4.8993143640226
 20
84.1144869701378
 42
0.0064471717543
  0
VERTEX
  8
Default
 10
-5.106644128266
 20
82.1629509292377
 42
0.008624803071
  0
VERTEX
  8
Default
 10
-5.1801382139357
 20
81.1825843590025
 42
0.0125177408056
  0
VERTEX
  8
Default
 10
-5.1982059359373
 20
80.6896370181433
 42
0.0
  0
VERTEX
  8
Default
 10
-5.198556918978
 20
80.6275368727313
 42
0.015926660318
  0
VERTEX
  8
Default
 10
-5.198279728515
 20
80.5730534309581
 42
0.0167766366065
  0
VERTEX
  8
Default
 10
-5.1905747349924
 20
80.3824377700421
 42
0.0343773242364
  0
VERTEX
  8
Default
 10
-5.185724094331
 20
80.3342443104883
 42
0.0505063112734
  0
VERTEX
  8
Default
 10
-5.1731381851178
 20
80.262036231272
 42
0.0
  0
VERTEX
  8
Default
 10
-5.1610154221847
 20
80.2261944913949
 42
0.2761400907858
  0
VERTEX
  8
Default
 10
-5.133027
 20
80.200592
 42
0.1569330649417
  0
VERTEX
  8
Default
 10
-5.0991167719046
 20
80.2239091658665
 42
0.0445757413243
  0
VERTEX
  8
Default
 10
-5.001164012487
 20
80.3499290621289
 42
0.0179524321432
  0
VERTEX
  8
Default
 10
-4.8387412898797
 20
80.6009010125824
 42
0.01007671829
  0
VERTEX
  8
Default
 10
-4.5722232577277
 20
81.0510085232833
 42
0.0
  0
VERTEX
  8
Default
 10
-4.3793749666267
 20
81.392660979372
 42
0.0022152847783
  0
VERTEX
  8
Default
 10
-4.0973948595504
 20
81.9091852916802
 42
0.0
  0
VERTEX
  8
Default
 10
-3.9591116733007
 20
82.1689356809609
 42
0.0138276025792
  0
VERTEX
  8
Default
 10
-3.9247932937262
 20
82.2340290425995
 42
0.0
  0
VERTEX
  8
Default
 10
-3.8735385065382
 20
82.3317113300841
 42
0.0
  0
VERTEX
  8
Default
 10
-3.822522
 20
82.429494
 42
-0.0150410071832
  0
VERTEX
  8
Default
 10
-3.0524384155367
 20
83.812712625081
 42
0.0
  0
VERTEX
  8
Default
 10
-2.8466144317212
 20
84.1512953451483
 42
0.0
  0
VERTEX
  8
Default
 10
-2.6875433335094
 20
84.4024710624339
 42
-0.0127129673912
  0
VERTEX
  8
Default
 10
-2.4379286918305
 20
84.7720466802506
 42
0.0
  0
VERTEX
  8
Default
 10
-2.3721986373048
 20
84.8623188021338
 42
-0.0214971285539
  0
VERTEX
  8
Default
 10
-2.3215781040487
 20
84.9289350811625
 42
0.0
  0
VERTEX
  8
Default
 10
-2.2423325272859
 20
85.0263550822314
 42
0.0
  0
VERTEX
  8
Default
 10
-2.2003954839701
 20
85.0731452681165
 42
-0.027705597841
  0
VERTEX
  8
Default
 10
-2.155715
 20
85.11741
 42
-0.1021689181998
  0
VERTEX
  8
Default
 10
-1.7392028701649
 20
85.3716749661544
 42
-0.1095499387933
  0
VERTEX
  8
Default
 10
-1.3657359374985
 20
85.4195644911973
 42
-0.2140848541741
  0
VERTEX
  8
Default
 10
-0.8801775134244
 20
85.1484106199286
 42
-0.0921927015475
  0
VERTEX
  8
Default
 10
-0.7576004853973
 20
84.8947952652636
 42
-0.0697271144556
  0
VERTEX
  8
Default
 10
-0.721273
 20
84.615397
 42
-0.0313603074153
  0
VERTEX
  8
Default
 10
-0.7431771744575
 20
84.4323595541389
 42
-0.0152799096972
  0
VERTEX
  8
Default
 10
-0.8988569712667
 20
83.7243797052792
 42
0.0
  0
VERTEX
  8
Default
 10
-0.9809782606616
 20
83.394777948108
 42
0.0
  0
VERTEX
  8
Default
 10
-1.0630349480953
 20
83.0760945350023
 42
0.0
  0
VERTEX
  8
Default
 10
-1.0832004673072
 20
82.9989590559553
 42
0.0
  0
VERTEX
  8
Default
 10
-1.2462065111228
 20
82.3877534346871
 42
0.0
  0
VERTEX
  8
Default
 10
-1.4027513041709
 20
81.8157989852421
 42
0.0
  0
VERTEX
  8
Default
 10
-1.5519839005938
 20
81.2802547871236
 42
-0.002662390067
  0
VERTEX
  8
Default
 10
-1.8368380003887
 20
80.2775364595359
 42
0.0
  0
VERTEX
  8
Default
 10
-1.899918942335
 20
80.0583507040238
 42
0.0
  0
VERTEX
  8
Default
 10
-2.1465635443742
 20
79.2098107958949
 42
0.0
  0
VERTEX
  8
Default
 10
-2.2555275416874
 20
78.8388930671073
 42
0.0
  0
VERTEX
  8
Default
 10
-2.4614768584997
 20
78.1439342747021
 42
-0.0063964011332
  0
VERTEX
  8
Default
 10
-3.967308
 20
73.298693
 42
0.0
  0
VERTEX
  8
Default
 10
-4.0734121135723
 20
72.9666831207278
 42
0.0113198429817
  0
VERTEX
  8
Default
 10
-4.1215161829139
 20
72.8101874790443
 42
0.0259905007553
  0
VERTEX
  8
Default
 10
-4.4342904055422
 20
71.5802885616427
 42
0.0
  0
VERTEX
  8
Default
 10
-4.4557309926858
 20
71.4625543947222
 42
0.0
  0
VERTEX
  8
Default
 10
-4.4916108753766
 20
71.2334748035056
 42
0.0441300375036
  0
VERTEX
  8
Default
 10
-4.5401573654013
 20
70.3660711173753
 42
0.0785689481864
  0
VERTEX
  8
Default
 10
-4.2860302040558
 20
69.092633373156
 42
0.0142521810665
  0
VERTEX
  8
Default
 10
-4.1671382584911
 20
68.7901779758381
 42
0.0278133677332
  0
VERTEX
  8
Default
 10
-3.731522
 20
67.918463
 42
0.0116376126014
  0
VERTEX
  8
Default
 10
-3.4916267627401
 20
67.5163334399481
 42
0.0
  0
VERTEX
  8
Default
 10
-3.4616607428595
 20
67.4704044928455
 42
0.0268639509369
  0
VERTEX
  8
Default
 10
-3.203239896889
 20
67.1215642259453
 42
0.0891217289598
  0
VERTEX
  8
Default
 10
-2.5897084678174
 20
66.6015068038543
 42
0.0587168983379
  0
VERTEX
  8
Default
 10
-1.9506539564184
 20
66.3355195379555
 42
0.0309669563167
  0
VERTEX
  8
Default
 10
-1.3627679898316
 20
66.2030324552283
 42
0.0236645363122
  0
VERTEX
  8
Default
 10
-0.3167166678319
 20
66.0824867496582
 42
0.0
  0
VERTEX
  8
Default
 10
0.0772271995767
 20
66.0568200284269
 42
0.0
  0
VERTEX
  8
Default
 10
0.4221951401701
 20
66.03954202587
 42
0.0074790152607
  0
VERTEX
  8
Default
 10
0.7242006708746
 20
66.0274463632666
 42
0.0
  0
VERTEX
  8
Default
 10
1.2529029902304
 20
66.0113583671045
 42
0.0044535625821
  0
VERTEX
  8
Default
 10
2.839469
 20
65.985585
 42
0.0
  0
VERTEX
  8
Default
 10
7.183964
 20
65.942137
 42
0.0
  0
VERTEX
  8
Default
 10
7.00637
 20
68.071647
 42
0.0
  0
VERTEX
  8
Default
 10
6.9834278317323
 20
68.3900407530615
 42
-0.0181912275877
  0
VERTEX
  8
Default
 10
6.9584308475517
 20
69.5865375599197
 42
-0.0220665426539
  0
VERTEX
  8
Default
 10
7.0740123074238
 20
71.377257104446
 42
-0.0137966927164
  0
VERTEX
  8
Default
 10
7.320616
 20
73.154763
 42
0.0
  0
VERTEX
  8
Default
 10
7.3428915565842
 20
73.2881102706233
 42
0.0
  0
VERTEX
  8
Default
 10
7.3865319367927
 20
73.5466554505785
 42
0.0
  0
VERTEX
  8
Default
 10
7.4282064955412
 20
73.7896721635599
 42
0.0
  0
VERTEX
  8
Default
 10
7.5088338957
 20
74.246435341222
 42
0.0
  0
VERTEX
  8
Default
 10
7.5833656701029
 20
74.6488210314713
 42
0.0
  0
VERTEX
  8
Default
 10
7.653092634131
 20
75.0035241780835
 42
0.0
  0
VERTEX
  8
Default
 10
7.7191785334391
 20
75.3164785053588
 42
-0.0121686543788
  0
VERTEX
  8
Default
 10
7.8527222838302
 20
75.867171684577
 42
-0.018004004167
  0
VERTEX
  8
Default
 10
7.9826876537845
 20
76.286414861908
 42
-0.0349901488621
  0
VERTEX
  8
Default
 10
8.116017672991
 20
76.5984689808711
 42
-0.0454865183241
  0
VERTEX
  8
Default
 10
8.2564964873367
 20
76.8169354041763
 42
-0.0661762322918
  0
VERTEX
  8
Default
 10
8.3996225612145
 20
76.9512334302941
 42
-0.1257761151355
  0
VERTEX
  8
Default
 10
8.6734166688662
 20
77.0519908298207
 42
-0.0678254715157
  0
VERTEX
  8
Default
 10
8.964989
 20
77.042716
 42
-0.0352551540712
  0
VERTEX
  8
Default
 10
9.1111803561131
 20
77.0152958522733
 42
-0.0736026066221
  0
VERTEX
  8
Default
 10
9.2409321879005
 20
76.9640866828702
 42
-0.1494551176238
  0
VERTEX
  8
Default
 10
9.4100583999146
 20
76.7727719913889
 42
-0.0507320884534
  0
VERTEX
  8
Default
 10
9.4885322679875
 20
76.5541905109541
 42
-0.0289560904782
  0
VERTEX
  8
Default
 10
9.5667626207054
 20
76.1278401480511
 42
0.0
  0
VERTEX
  8
Default
 10
9.5892320282665
 20
75.9396826828136
 42
-0.0082315494898
  0
VERTEX
  8
Default
 10
9.6487320221251
 20
75.2316653062796
 42
-0.0057089955225
  0
VERTEX
  8
Default
 10
9.7097548504535
 20
74.1677790480433
 42
0.0
  0
VERTEX
  8
Default
 10
9.7359737506401
 20
73.6355192462923
 42
0.0
  0
VERTEX
  8
Default
 10
9.748648909142
 20
73.3694142763848
 42
0.0
  0
VERTEX
  8
Default
 10
9.761161
 20
73.103308
 42
0.0
  0
VERTEX
  8
Default
 10
9.7739845771063
 20
72.8394499905232
 42
0.010376283256
  0
VERTEX
  8
Default
 10
9.9163280947954
 20
70.795102522757
 42
0.0
  0
VERTEX
  8
Default
 10
9.9352107691332
 20
70.6012964951194
 42
0.0
  0
VERTEX
  8
Default
 10
9.9547240587146
 20
70.4134057268385
 42
0.0
  0
VERTEX
  8
Default
 10
9.9748685463943
 20
70.2312713492434
 42
0.0
  0
VERTEX
  8
Default
 10
9.9956404586978
 20
70.0547678898774
 42
0.0058532005188
  0
VERTEX
  8
Default
 10
10.0896366078971
 20
69.3718898055031
 42
0.0245991117629
  0
VERTEX
  8
Default
 10
10.3273622900615
 20
68.183203232493
 42
0.0316637273312
  0
VERTEX
  8
Default
 10
10.6061639360134
 20
67.3086818667434
 42
0.0387543110462
  0
VERTEX
  8
Default
 10
10.9069347484282
 20
66.6851854463002
 42
0.0821607178234
  0
VERTEX
  8
Default
 10
11.5645048324532
 20
65.8829382914912
 42
0.0798942389362
  0
VERTEX
  8
Default
 10
12.451738
 20
65.34542
 42
0.0
  0
VERTEX
  8
Default
 10
12.5296462475006
 20
65.3129213367049
 42
0.0
  0
VERTEX
  8
Default
 10
12.841553972697
 20
65.1851020398634
 42
0.0269272168498
  0
VERTEX
  8
Default
 10
12.879356023081
 20
65.1700415283267
 42
0.0
  0
VERTEX
  8
Default
 10
13.0298021570516
 20
65.1116457474296
 42
0.0
  0
VERTEX
  8
Default
 10
13.1765364050865
 20
65.0579824399435
 42
0.0212014046606
  0
VERTEX
  8
Default
 10
13.4665179072412
 20
64.9685116714966
 42
0.0257860860227
  0
VERTEX
  8
Default
 10
13.5355272890694
 20
64.952301535641
 42
0.0608903688267
  0
VERTEX
  8
Default
 10
13.8107059257137
 20
64.9234109473955
 42
0.1244265777755
  0
VERTEX
  8
Default
 10
14.0462801094916
 20
64.9875028931479
 42
0.107554493625
  0
VERTEX
  8
Default
 10
14.2005032136674
 20
65.1352321549351
 42
0.0580231610338
  0
VERTEX
  8
Default
 10
14.2906870938975
 20
65.3082128498635
 42
0.0433341488944
  0
VERTEX
  8
Default
 10
14.3886516000249
 20
65.6578086352694
 42
0.0243245934531
  0
VERTEX
  8
Default
 10
14.4723766124167
 20
66.2859184117493
 42
0.0
  0
VERTEX
  8
Default
 10
14.4916145165983
 20
66.522669887621
 42
0.0
  0
VERTEX
  8
Default
 10
14.5177545395639
 20
66.9375818114165
 42
0.0
  0
VERTEX
  8
Default
 10
14.54733561479
 20
67.5604710214334
 42
0.0
  0
VERTEX
  8
Default
 10
14.572124
 20
68.183613
 42
0.0
  0
VERTEX
  8
Default
 10
14.5836389848946
 20
68.4701881848335
 42
0.0
  0
VERTEX
  8
Default
 10
14.5956445714988
 20
68.7401436608447
 42
0.0
  0
VERTEX
  8
Default
 10
14.6017685296174
 20
68.8673678641093
 42
-0.0027640876876
  0
VERTEX
  8
Default
 10
14.6291676711234
 20
69.3614240508095
 42
-0.0025741768713
  0
VERTEX
  8
Default
 10
14.6599628045005
 20
69.7990236412924
 42
0.0
  0
VERTEX
  8
Default
 10
14.6763428255917
 20
69.9930360167096
 42
-0.0148669017791
  0
VERTEX
  8
Default
 10
14.762066264286
 20
70.7234124072214
 42
-0.0261351925967
  0
VERTEX
  8
Default
 10
14.8756879576698
 20
71.2828901775089
 42
-0.0473079337202
  0
VERTEX
  8
Default
 10
15.0238975546447
 20
71.6964161743904
 42
-0.0673204500074
  0
VERTEX
  8
Default
 10
15.2050125053398
 20
71.9761725529594
 42
-0.1436310843983
  0
VERTEX
  8
Default
 10
15.6240462386429
 20
72.239333620914
 42
-0.0405854652885
  0
VERTEX
  8
Default
 10
15.8676723508577
 20
72.2863028643279
 42
-0.0313615324713
  0
VERTEX
  8
Default
 10
16.11542
 20
72.298368
 42
0.0
  0
VERTEX
  8
Default
 10
16.2630576212355
 20
72.2969836751439
 42
-0.0257505760238
  0
VERTEX
  8
Default
 10
16.2984888346958
 20
72.2958254116244
 42
-0.0117375849792
  0
VERTEX
  8
Default
 10
16.4377886730705
 20
72.2840661833638
 42
-0.0529350146192
  0
VERTEX
  8
Default
 10
16.5662396114509
 20
72.2532448910403
 42
-0.1442424533121
  0
VERTEX
  8
Default
 10
16.7631315480623
 20
72.1089718060296
 42
-0.0685243137869
  0
VERTEX
  8
Default
 10
16.8687677821623
 20
71.9169176522025
 42
-0.0449145524651
  0
VERTEX
  8
Default
 10
16.9795039327871
 20
71.5248372304628
 42
0.0
  0
VERTEX
  8
Default
 10
17.012763208786
 20
71.3499938987759
 42
0.0
  0
VERTEX
  8
Default
 10
17.0397169845275
 20
71.1853199200064
 42
0.0
  0
VERTEX
  8
Default
 10
17.0426805104025
 20
71.1659306305925
 42
0.0
  0
VERTEX
  8
Default
 10
17.0854111779657
 20
70.8585166078651
 42
-0.0055519414132
  0
VERTEX
  8
Default
 10
17.2044467853172
 20
69.7790301834663
 42
0.0
  0
VERTEX
  8
Default
 10
17.309008
 20
68.698068
 42
0.0
  0
VERTEX
  8
Default
 10
17.3348170907371
 20
68.4386572329511
 42
0.0070136504525
  0
VERTEX
  8
Default
 10
17.362057581332
 20
68.1873834975781
 42
0.0363188125546
  0
VERTEX
  8
Default
 10
17.3655228444994
 20
68.156891761644
 42
0.0104161629938
  0
VERTEX
  8
Default
 10
17.4962401584173
 20
67.1897419609537
 42
0.0143092319847
  0
VERTEX
  8
Default
 10
17.6508857137815
 20
66.3484352823332
 42
0.0117989011518
  0
VERTEX
  8
Default
 10
17.6705894968782
 20
66.2568186700821
 42
0.0329393872439
  0
VERTEX
  8
Default
 10
18.071115729169
 20
64.8377654837333
 42
0.0318860604622
  0
VERTEX
  8
Default
 10
18.5066796370254
 20
63.8202467165778
 42
0.0498976364779
  0
VERTEX
  8
Default
 10
19.4005732560775
 20
62.4235161307091
 42
0.014158138273
  0
VERTEX
  8
Default
 10
19.6642843459789
 20
62.1030480808332
 42
0.0252488132189
  0
VERTEX
  8
Default
 10
20.527019
 20
61.206425
 42
0.0
  0
VERTEX
  8
Default
 10
21.998672
 20
59.821995
 42
0.0
  0
VERTEX
  8
Default
 10
24.25645
 20
60.022201
 42
0.0
  0
VERTEX
  8
Default
 10
24.7470563659285
 20
60.0647149937551
 42
-0.0051230011176
  0
VERTEX
  8
Default
 10
28.184236
 20
60.322564
 42
0.0295057065932
  0
VERTEX
  8
Default
 10
28.2327932785505
 20
60.3255168708344
 42
0.029698320997
  0
VERTEX
  8
Default
 10
28.2806154067471
 20
60.3285109523182
 42
0.0104531150941
  0
VERTEX
  8
Default
 10
28.6565017578913
 20
60.3563690916421
 42
0.0305200595538
  0
VERTEX
  8
Default
 10
29.3115243467707
 20
60.4463486804044
 42
0.0527433093698
  0
VERTEX
  8
Default
 10
29.7855514272867
 20
60.5945513936007
 42
0.0370568529837
  0
VERTEX
  8
Default
 10
30.1121766941275
 20
60.7719402043459
 42
0.0354255535571
  0
VERTEX
  8
Default
 10
30.551826959012
 20
61.1130184475849
 42
0.0134454380293
  0
VERTEX
  8
Default
 10
30.7576796033153
 20
61.3001843591138
 42
0.0
  0
VERTEX
  8
Default
 10
30.959075
 20
61.492212
 42
0.0
  0
VERTEX
  8
Default
 10
31.1732330442286
 20
61.7041103918792
 42
0.0247716203719
  0
VERTEX
  8
Default
 10
31.9517325810565
 20
62.5731227032887
 42
0.0539639692172
  0
VERTEX
  8
Default
 10
33.0530245333155
 20
64.2868611884605
 42
0.0378119685877
  0
VERTEX
  8
Default
 10
33.6265145482328
 20
65.7000632072167
 42
0.0219806027079
  0
VERTEX
  8
Default
 10
33.9312420230276
 20
66.801724359515
 42
0.0215847231639
  0
VERTEX
  8
Default
 10
34.2390372341515
 20
68.4875727110046
 42
0.0
  0
VERTEX
  8
Default
 10
34.2678338154929
 20
68.6998932247292
 42
0.0
  0
VERTEX
  8
Default
 10
34.3140479653379
 20
69.0720163948265
 42
0.0
  0
VERTEX
  8
Default
 10
34.3300898542466
 20
69.2116759087401
 42
0.0
  0
VERTEX
  8
Default
 10
34.3812160617835
 20
69.7010884626534
 42
0.0
  0
VERTEX
  8
Default
 10
34.425283
 20
70.19117
 42
0.0
  0
VERTEX
  8
Default
 10
34.4444642569972
 20
70.4105540737937
 42
-0.0121154210731
  0
VERTEX
  8
Default
 10
34.5395941994022
 20
71.2462949923457
 42
-0.0210791835167
  0
VERTEX
  8
Default
 10
34.6644592971755
 20
71.9389036427021
 42
-0.0420344008919
  0
VERTEX
  8
Default
 10
34.838453944575
 20
72.498894193876
 42
-0.0388152882394
  0
VERTEX
  8
Default
 10
34.9441326139929
 20
72.7054402951097
 42
-0.0516837404076
  0
VERTEX
  8
Default
 10
35.0699640269917
 20
72.867591500935
 42
-0.1777244407229
  0
VERTEX
  8
Default
 10
35.3844253069222
 20
73.0236849590048
 42
-0.099013579775
  0
VERTEX
  8
Default
 10
35.6391431556567
 20
72.9937623242012
 42
-0.0495965118896
  0
VERTEX
  8
Default
 10
35.8166357189551
 20
72.9222891291474
 42
0.0
  0
VERTEX
  8
Default
 10
35.8802884043079
 20
72.8890625307883
 42
-0.042975831507
  0
VERTEX
  8
Default
 10
36.292364
 20
72.603761
 42
-0.0230807371381
  0
VERTEX
  8
Default
 10
36.4867989358863
 20
72.4319415753098
 42
-0.104074988166
  0
VERTEX
  8
Default
 10
36.7542120775734
 20
72.0342224829136
 42
-0.0523728472283
  0
VERTEX
  8
Default
 10
36.8676536914331
 20
71.6375005722693
 42
-0.0281381255036
  0
VERTEX
  8
Default
 10
36.9572682273659
 20
70.9230705604771
 42
-0.0151441272277
  0
VERTEX
  8
Default
 10
36.9625731275249
 20
70.855749942659
 42
-0.0097607092529
  0
VERTEX
  8
Default
 10
37.0189941392016
 20
69.8113030772244
 42
0.0
  0
VERTEX
  8
Default
 10
37.0241376081306
 20
69.6806214771774
 42
0.0
  0
VERTEX
  8
Default
 10
37.055597
 20
68.766038
 42
0.0
  0
VERTEX
  8
Default
 10
37.160499
 20
65.461394
 42
0.0
  0
VERTEX
  8
Default
 10
38.14666
 20
65.621428
 42
0.0250029232074
  0
VERTEX
  8
Default
 10
38.7084341676597
 20
65.7418164471979
 42
0.0239799555934
  0
VERTEX
  8
Default
 10
38.7730467113955
 20
65.7599964681658
 42
0.0334511104082
  0
VERTEX
  8
Default
 10
39.2732258142372
 20
65.9405615965186
 42
0.0817124585737
  0
VERTEX
  8
Default
 10
40.1026554779664
 20
66.4744003100826
 42
0.0669538177965
  0
VERTEX
  8
Default
 10
40.6485315721823
 20
67.1252582061131
 42
0.0420630701971
  0
VERTEX
  8
Default
 10
40.9902619275011
 20
67.7787624558296
 42
0.0255791462807
  0
VERTEX
  8
Default
 10
41.2094136601481
 20
68.3836123539218
 42
0.029233671424
  0
VERTEX
  8
Default
 10
41.4708372058076
 20
69.4769389869819
 42
0.0129267566879
  0
VERTEX
  8
Default
 10
41.5987164135349
 20
70.3099521388801
 42
0.0139764353314
  0
VERTEX
  8
Default
 10
41.7216767392161
 20
71.5678117357506
 42
0.0
  0
VERTEX
  8
Default
 10
41.7430802140123
 20
71.8830744567039
 42
0.0129319512863
  0
VERTEX
  8
Default
 10
41.7503332783338
 20
72.0013770713772
 42
0.0048738058362
  0
VERTEX
  8
Default
 10
41.7620823548467
 20
72.208450526741
 42
0.0
  0
VERTEX
  8
Default
 10
41.777610879136
 20
72.5190923350436
 42
0.0215472135482
  0
VERTEX
  8
Default
 10
41.7811282397624
 20
72.5967998039297
 42
0.0
  0
VERTEX
  8
Default
 10
41.790854
 20
72.82979
 42
-0.0209394558544
  0
VERTEX
  8
Default
 10
41.793446694984
 20
72.8954930825047
 42
0.0
  0
VERTEX
  8
Default
 10
41.8150542801326
 20
73.4124759852561
 42
-0.0048731310138
  0
VERTEX
  8
Default
 10
41.908082790254
 20
75.221015230077
 42
0.0
  0
VERTEX
  8
Default
 10
41.9365151540196
 20
75.672877067662
 42
0.0
  0
VERTEX
  8
Default
 10
41.9598928866802
 20
76.0116574928776
 42
-0.0028614917282
  0
VERTEX
  8
Default
 10
42.0001789570252
 20
76.519542183025
 42
0.0
  0
VERTEX
  8
Default
 10
42.0247971907028
 20
76.7731964429979
 42
-0.0246279537754
  0
VERTEX
  8
Default
 10
42.059366
 20
77.02559
 42
-0.0700960588524
  0
VERTEX
  8
Default
 10
42.1446510675918
 20
77.2703790234429
 42
-0.3370708959303
  0
VERTEX
  8
Default
 10
42.9081421523035
 20
77.6417773860896
 42
-0.1260962594909
  0
VERTEX
  8
Default
 10
43.3024233648861
 20
77.4568870722362
 42
-0.1003587065092
  0
VERTEX
  8
Default
 10
43.576683
 20
77.118546
 42
-0.0339295383984
  0
VERTEX
  8
Default
 10
43.6827816007114
 20
76.8685288891234
 42
0.0
  0
VERTEX
  8
Default
 10
43.7243862570996
 20
76.7441513146668
 42
-0.009458598138
  0
VERTEX
  8
Default
 10
43.7965336980496
 20
76.4962395066066
 42
-0.0179179770588
  0
VERTEX
  8
Default
 10
44.0139765622218
 20
75.5202405195038
 42
-0.0037774943488
  0
VERTEX
  8
Default
 10
44.0917825753811
 20
75.0898880901108
 42
0.0
  0
VERTEX
  8
Default
 10
44.100437862204
 20
75.0393049456644
 42
-0.0068950313078
  0
VERTEX
  8
Default
 10
44.2266943539553
 20
74.2355765292386
 42
0.0
  0
VERTEX
  8
Default
 10
44.276276727771
 20
73.8830665304747
 42
0.0
  0
VERTEX
  8
Default
 10
44.2984645854298
 20
73.717669900937
 42
-0.0146707953947
  0
VERTEX
  8
Default
 10
44.5628049301513
 20
71.1448883032657
 42
0.0
  0
VERTEX
  8
Default
 10
44.5740792064937
 20
70.9834977284629
 42
-0.0124857801381
  0
VERTEX
  8
Default
 10
44.6315321807885
 20
69.7717682167759
 42
0.0
  0
VERTEX
  8
Default
 10
44.6360837601805
 20
69.4684386754071
 42
0.0
  0
VERTEX
  8
Default
 10
44.6363392479512
 20
69.4114709150927
 42
-0.0240761494729
  0
VERTEX
  8
Default
 10
44.605812
 20
68.558924
 42
0.0
  0
VERTEX
  8
Default
 10
44.431399
 20
66.653924
 42
0.0
  0
VERTEX
  8
Default
 10
49.027238
 20
66.653924
 42
0.002683113989
  0
VERTEX
  8
Default
 10
50.798405755966
 20
66.6617119909288
 42
0.0
  0
VERTEX
  8
Default
 10
51.1387883779625
 20
66.6669652959914
 42
0.0
  0
VERTEX
  8
Default
 10
51.2991726766183
 20
66.6702307525979
 42
0.0
  0
VERTEX
  8
Default
 10
51.6105763826406
 20
66.6784209468986
 42
0.0
  0
VERTEX
  8
Default
 10
51.9037625361462
 20
66.6889626872422
 42
0.0166722283054
  0
VERTEX
  8
Default
 10
51.9727878526146
 20
66.6919352747654
 42
0.0179273993393
  0
VERTEX
  8
Default
 10
52.0407947526279
 20
66.6950731987504
 42
0.0230612798095
  0
VERTEX
  8
Default
 10
53.1090302004917
 20
66.7867884764975
 42
0.0061129696409
  0
VERTEX
  8
Default
 10
53.3103797537041
 20
66.8186201973547
 42
0.0
  0
VERTEX
  8
Default
 10
53.4982159460824
 20
66.8553890594412
 42
0.0059721689155
  0
VERTEX
  8
Default
 10
53.6728599856871
 20
66.8974086386566
 42
0.0682960655197
  0
VERTEX
  8
Default
 10
54.296404248017
 20
67.1486335687573
 42
0.0667745606651
  0
VERTEX
  8
Default
 10
54.691132574876
 20
67.4590693556851
 42
0.0392855163245
  0
VERTEX
  8
Default
 10
54.9320284433228
 20
67.7470518792662
 42
0.0286424520735
  0
VERTEX
  8
Default
 10
55.2320105666053
 20
68.2229851369115
 42
0.0091677081085
  0
VERTEX
  8
Default
 10
55.3671669056194
 20
68.4697066861167
 42
0.0
  0
VERTEX
  8
Default
 10
55.49795
 20
68.718684
 42
0.0711955762988
  0
VERTEX
  8
Default
 10
55.9679365771458
 20
70.0801137523359
 42
0.0
  0
VERTEX
  8
Default
 10
55.980687282288
 20
70.1463831445121
 42
0.0438910535106
  0
VERTEX
  8
Default
 10
56.0838840517412
 20
71.2027928049664
 42
0.0510323296559
  0
VERTEX
  8
Default
 10
55.9384203463394
 20
72.7855389449836
 42
0.0415996850282
  0
VERTEX
  8
Default
 10
55.503877
 20
74.314451
 42
-0.0073384788833
  0
VERTEX
  8
Default
 10
55.3828217499194
 20
74.6478576120788
 42
-0.0066634300888
  0
VERTEX
  8
Default
 10
54.9454578915039
 20
75.9508343688703
 42
0.0
  0
VERTEX
  8
Default
 10
54.7623153460542
 20
76.5235764074793
 42
0.0
  0
VERTEX
  8
Default
 10
54.677571132832
 20
76.7923956214769
 42
0.0
  0
VERTEX
  8
Default
 10
54.5150544575582
 20
77.3137636838094
 42
-0.005600614091
  0
VERTEX
  8
Default
 10
53.3485960626065
 20
81.2398490217425
 42
0.0
  0
VERTEX
  8
Default
 10
53.0706430518841
 20
82.2256517383852
 42
0.0
  0
VERTEX
  8
Default
 10
52.9682286085686
 20
82.5959114759772
 42
-0.035202016467
  0
VERTEX
  8
Default
 10
52.9626491653555
 20
82.6162144574629
 42
0.0
  0
VERTEX
  8
Default
 10
52.788065477935
 20
83.2598551840603
 42
0.0
  0
VERTEX
  8
Default
 10
52.7558419866333
 20
83.3807602731807
 42
0.0
  0
VERTEX
  8
Default
 10
52.6370040933019
 20
83.8345234848004
 42
0.0
  0
VERTEX
  8
Default
 10
52.5505456063905
 20
84.175528907685
 42
-0.0091551734897
  0
VERTEX
  8
Default
 10
52.4282193031199
 20
84.6889456348292
 42
0.0
  0
VERTEX
  8
Default
 10
52.3738844479502
 20
84.9473335196876
 42
-0.020103840421
  0
VERTEX
  8
Default
 10
52.3510316671798
 20
85.0774162012396
 42
-0.0287728443656
  0
VERTEX
  8
Default
 10
52.337561
 20
85.208837
 42
-0.1281767871572
  0
VERTEX
  8
Default
 10
52.4578956111533
 20
85.6459528340995
 42
-0.0716802466099
  0
VERTEX
  8
Default
 10
52.5965788681536
 20
85.8292955867
 42
-0.1008055542057
  0
VERTEX
  8
Default
 10
52.787508
 20
85.957308
 42
-0.1494117473631
  0
VERTEX
  8
Default
 10
53.0789204764049
 20
85.969934046772
 42
-0.0681502646169
  0
VERTEX
  8
Default
 10
53.3219652940754
 20
85.8728549666487
 42
-0.0332453202836
  0
VERTEX
  8
Default
 10
53.525088979241
 20
85.7399487947727
 42
-0.0282536344961
  0
VERTEX
  8
Default
 10
53.699762364158
 20
85.5953067739556
 42
-0.0225870784496
  0
VERTEX
  8
Default
 10
53.9980908717921
 20
85.2934003364356
 42
-0.0280837434632
  0
VERTEX
  8
Default
 10
54.4580341534948
 20
84.7113607613824
 42
-0.0259508806556
  0
VERTEX
  8
Default
 10
55.0518148959297
 20
83.7711100740793
 42
0.0
  0
VERTEX
  8
Default
 10
55.1866972712238
 20
83.527969946959
 42
-0.0144136089719
  0
VERTEX
  8
Default
 10
55.564453
 20
82.784383
 42
0.0051303037963
  0
VERTEX
  8
Default
 10
55.7909675182721
 20
82.3196855989347
 42
0.0073005757
  0
VERTEX
  8
Default
 10
55.8780718427425
 20
82.1476840221303
 42
0.0089231177823
  0
VERTEX
  8
Default
 10
56.0939345342095
 20
81.7437137899161
 42
0.0
  0
VERTEX
  8
Default
 10
56.1517776158477
 20
81.6424198474637
 42
0.0
  0
VERTEX
  8
Default
 10
56.2082284028068
 20
81.547214119531
 42
0.0425671732768
  0
VERTEX
  8
Default
 10
56.4668850012681
 20
81.1784875499324
 42
0.0270133848699
  0
VERTEX
  8
Default
 10
56.5337975997418
 20
81.1115493437658
 42
0.0627554239357
  0
VERTEX
  8
Default
 10
56.603293297228
 20
81.0638996989574
 42
0.1505366202942
  0
VERTEX
  8
Default
 10
56.6715696625902
 20
81.0508249776224
 42
0.1586030168674
  0
VERTEX
  8
Default
 10
56.721721152408
 20
81.0776722226259
 42
0.1070648335828
  0
VERTEX
  8
Default
 10
56.7720361471431
 20
81.1685357529541
 42
0.0456625493139
  0
VERTEX
  8
Default
 10
56.8096196853018
 20
81.3622575966634
 42
0.0302500851171
  0
VERTEX
  8
Default
 10
56.8220757807667
 20
81.7305114530139
 42
0.0166472540711
  0
VERTEX
  8
Default
 10
56.787637136942
 20
82.3738181356107
 42
0.0090835856094
  0
VERTEX
  8
Default
 10
56.766386764279
 20
82.6143729936143
 42
0.010506612376
  0
VERTEX
  8
Default
 10
56.564318
 20
84.292814
 42
0.0
  0
VERTEX
  8
Default
 10
56.2837818683376
 20
86.3458387779324
 42
0.0
  0
VERTEX
  8
Default
 10
56.0765901438059
 20
87.8864016177351
 42
0.0
  0
VERTEX
  8
Default
 10
56.0382687223867
 20
88.1754470406026
 42
0.0
  0
VERTEX
  8
Default
 10
55.8971072029625
 20
89.2595882006525
 42
-0.0056091108689
  0
VERTEX
  8
Default
 10
55.70070821124
 20
90.8883240519563
 42
-0.0054654663678
  0
VERTEX
  8
Default
 10
55.6789299399172
 20
91.0926060035275
 42
0.0
  0
VERTEX
  8
Default
 10
55.6439814206646
 20
91.4505073319108
 42
0.0
  0
VERTEX
  8
Default
 10
55.6218209401195
 20
91.7195164946072
 42
0.0
  0
VERTEX
  8
Default
 10
55.6090016057645
 20
91.9218405907909
 42
0.0
  0
VERTEX
  8
Default
 10
55.6028868044629
 20
92.0738858474348
 42
-0.0240711133085
  0
VERTEX
  8
Default
 10
55.6042942819816
 20
92.3023456323287
 42
-0.0390200088318
  0
VERTEX
  8
Default
 10
55.608250534023
 20
92.3594866494166
 42
-0.0605121902429
  0
VERTEX
  8
Default
 10
55.641545
 20
92.527754
 42
-0.1413352823705
  0
VERTEX
  8
Default
 10
55.8024625618935
 20
92.735530615011
 42
-0.0760635330264
  0
VERTEX
  8
Default
 10
56.0014281503448
 20
92.837005081614
 42
-0.0859188789945
  0
VERTEX
  8
Default
 10
56.3848810552208
 20
92.8909482555797
 42
-0.0995364317983
  0
VERTEX
  8
Default
 10
56.9515777267202
 20
92.7663251556588
 42
-0.0697799123988
  0
VERTEX
  8
Default
 10
57.2021499267399
 20
92.6124675307685
 42
-0.0961972881991
  0
VERTEX
  8
Default
 10
57.390504
 20
92.386703
 42
-0.0239612500026
  0
VERTEX
  8
Default
 10
57.6185375185658
 20
91.8880235783213
 42
-0.0223600957391
  0
VERTEX
  8
Default
 10
57.9618903753456
 20
90.8851087712515
 42
-0.009002934707
  0
VERTEX
  8
Default
 10
58.0985748560555
 20
90.4078078728353
 42
0.0
  0
VERTEX
  8
Default
 10
58.1609920313435
 20
90.1755875031148
 42
-0.0132374872633
  0
VERTEX
  8
Default
 10
58.5914607154843
 20
88.3323092413236
 42
0.0
  0
VERTEX
  8
Default
 10
58.6746081366049
 20
87.9267058734991
 42
0.0
  0
VERTEX
  8
Default
 10
58.7521806446136
 20
87.5331722633098
 42
-0.0108389113097
  0
VERTEX
  8
Default
 10
59.2726162334504
 20
84.4690500088178
 42
0.0
  0
VERTEX
  8
Default
 10
59.2833373748943
 20
84.3969643339973
 42
0.0
  0
VERTEX
  8
Default
 10
59.2939141400935
 20
84.3254316641771
 42
0.0
  0
VERTEX
  8
Default
 10
59.3757137710798
 20
83.757586883492
 42
-0.0114768907062
  0
VERTEX
  8
Default
 10
59.8747651351467
 20
79.4842925672371
 42
-0.0037931968464
  0
VERTEX
  8
Default
 10
59.9675752790897
 20
78.4126290188511
 42
0.0
  0
VERTEX
  8
Default
 10
59.9988243018243
 20
78.0104032974021
 42
-0.0103584355664
  0
VERTEX
  8
Default
 10
60.155844
 20
75.191146
 42
0.0
  0
VERTEX
  8
Default
 10
60.1779487702192
 20
74.5813744549847
 42
0.0
  0
VERTEX
  8
Default
 10
60.1995604175945
 20
74.0478180189884
 42
0.0
  0
VERTEX
  8
Default
 10
60.242976468646
 20
73.1143045777915
 42
0.0049191697112
  0
VERTEX
  8
Default
 10
60.3257154036682
 20
71.7148583684708
 42
0.0
  0
VERTEX
  8
Default
 10
60.3515941687334
 20
71.3650726052436
 42
0.0
  0
VERTEX
  8
Default
 10
60.373384180149
 20
71.1027770224889
 42
0.0081312011095
  0
VERTEX
  8
Default
 10
60.4126618275452
 20
70.7096858792718
 42
0.0
  0
VERTEX
  8
Default
 10
60.4185341114708
 20
70.6605150038485
 42
0.0
  0
VERTEX
  8
Default
 10
60.4425614948019
 20
70.4888353895598
 42
0.0
  0
VERTEX
  8
Default
 10
60.4500601674957
 20
70.4458670598471
 42
0.0
  0
VERTEX
  8
Default
 10
60.463841190805
 20
70.3818254293369
 42
0.0
  0
VERTEX
  8
Default
 10
60.4733693339271
 20
70.3500675757822
 42
0.0570781768745
  0
VERTEX
  8
Default
 10
60.4801248219996
 20
70.3344846095125
 42
0.205850094232
  0
VERTEX
  8
Default
 10
60.492361
 20
70.322821
 42
0.0937469034022
  0
VERTEX
  8
Default
 10
60.5636213088896
 20
70.3403428101924
 42
0.0607057227833
  0
VERTEX
  8
Default
 10
60.6830535569949
 20
70.4152772237789
 42
0.0259019996462
  0
VERTEX
  8
Default
 10
60.7855924833155
 20
70.503959587086
 42
0.0326390912372
  0
VERTEX
  8
Default
 10
61.1359842898759
 20
70.8938065215444
 42
0.0046087375702
  0
VERTEX
  8
Default
 10
61.276771022124
 20
71.0746103470079
 42
0.017122693286
  0
VERTEX
  8
Default
 10
61.768319725831
 20
71.7790144270977
 42
0.0
  0
VERTEX
  8
Default
 10
61.8555124961524
 20
71.9144292783351
 42
0.0119955870565
  0
VERTEX
  8
Default
 10
62.1705749465912
 20
72.4297890686443
 42
0.0091311570828
  0
VERTEX
  8
Default
 10
62.39451774337
 20
72.8235484508741
 42
0.0
  0
VERTEX
  8
Default
 10
62.4756310767867
 20
72.9728381350373
 42
0.0
  0
VERTEX
  8
Default
 10
62.6134745713331
 20
73.2363507379788
 42
0.0089727083535
  0
VERTEX
  8
Default
 10
62.7130322149381
 20
73.4358814333346
 42
0.0185660466084
  0
VERTEX
  8
Default
 10
62.986909
 20
74.046145
 42
0.0364521301195
  0
VERTEX
  8
Default
 10
63.3837865753722
 20
75.3039880084948
 42
0.0220980185547
  0
VERTEX
  8
Default
 10
63.6075925266633
 20
76.4340221573092
 42
0.0
  0
VERTEX
  8
Default
 10
63.6266851639055
 20
76.5585382936553
 42
0.015240686204
  0
VERTEX
  8
Default
 10
63.7459882929734
 20
77.5428260511978
 42
0.0
  0
VERTEX
  8
Default
 10
63.7653849429736
 20
77.7588416211777
 42
0.0038469077259
  0
VERTEX
  8
Default
 10
63.796780451546
 20
78.1778206899536
 42
0.0
  0
VERTEX
  8
Default
 10
63.8192169035886
 20
78.5710361195733
 42
0.0255357301795
  0
VERTEX
  8
Default
 10
63.8049304586467
 20
81.5235593654939
 42
0.0091943886602
  0
VERTEX
  8
Default
 10
63.6955646126724
 20
82.9961007772475
 42
0.0
  0
VERTEX
  8
Default
 10
63.6588474806239
 20
83.3634480448055
 42
0.0061795675289
  0
VERTEX
  8
Default
 10
63.527345
 20
84.463133
 42
0.0077030588752
  0
VERTEX
  8
Default
 10
63.3534976210151
 20
85.6230516682451
 42
0.0184497183654
  0
VERTEX
  8
Default
 10
62.9426607019334
 20
87.6342041481877
 42
0.0371545986974
  0
VERTEX
  8
Default
 10
61.9951072963415
 20
90.5625025118126
 42
0.0176164756379
  0
VERTEX
  8
Default
 10
61.364936607679
 20
91.9672613979721
 42
0.0051754646751
  0
VERTEX
  8
Default
 10
61.1931547795026
 20
92.3118207366583
 42
0.0
  0
VERTEX
  8
Default
 10
61.1603578517874
 20
92.3761696605211
 42
0.0108886066156
  0
VERTEX
  8
Default
 10
60.649076
 20
93.330296
 42
0.0
  0
VERTEX
  8
Default
 10
59.62676
 20
95.158369
 42
0.0
  0
SEQEND
  0
POLYLINE
  8
Default
 66
     1
 10
0.0
 20
0.0
 30
0.0
 70
     0
  0
VERTEX
  8
Default
 10
66.0876960153655
 20
99.2143056073527
 42
0.0
  0
VERTEX
  8
Default
 10
64.7744864816741
 20
103.299854008232
 42
0.0
  0
VERTEX
  8
Default
 10
63.1694487924651
 20
105.196712223564
 42
0.0
  0
VERTEX
  8
Default
 10
62.7317122812346
 20
104.175327030693
 42
0.0
  0
VERTEX
  8
Default
 10
63.753101288803
 20
99.7979581036906
 42
0.0
  0
VERTEX
  8
Default
 10
64.1908378000334
 20
96.2960621991495
 42
0.0
  0
VERTEX
  8
Default
 10
64.1908378000334
 20
93.8155514874796
 42
0.0
  0
VERTEX
  8
Default
 10
63.753101288803
 20
93.8155514874796
 42
0.0
  0
VERTEX
  8
Default
 10
61.4185027475432
 20
97.0256230512003
 42
0.0
  0
VERTEX
  8
Default
 10
59.0839042062834
 20
99.6520459332804
 42
0.0
  0
VERTEX
  8
Default
 10
58.646167695053
 20
98.4847447553019
 42
0.0
  0
VERTEX
  8
Default
 10
58.9379920358733
 20
96.5878865399699
 42
0.0
  0
VERTEX
  8
Default
 10
59.6675528879241
 20
94.8369366803507
 42
0.0
  0
SEQEND
  0
ENDSEC
  0
EOF
