   0
SECTION
   2
HEADER
 999
Original drawing name : 360 wheel
 999
Exported from PartMaster CAD : Saturday, March 20, 2010 12:16:46
 999
Description	: 
 999
Part number	: 
 999
Drawn by	: wayne
 999
Company		: jkb
 999
UNITS::INCH
   9
$EXTMIN
  10
-3.2500
  20
-3.2500
   9
$EXTMAX
  10
3.2500
  20
3.2500
   9
$LIMMIN
  10
-3.5970
  20
-3.5970
   9
$LIMMAX
  10
3.5970
  20
3.5970
   0
ENDSEC
   0
SECTION
   2
TABLES
   0
TABLE
   2
VPORT
 100
AcDbSymbolTable
  70
2
   0
VPORT
 100
AcDbSymbolTableRecord
 100
AcDbViewportTableRecord
   2
*Active
  70
0
  10
0.0
  20
0.0
  11
1.0000
  21
1.0000
  12
0.0
  22
0.0
  13
0.0
  23
0.0
  14
0.0394
  24
0.0394
  15
0.1969
  25
0.1969
  16
0.0
  26
0.0
  36
1.0000
  17
0.0
  27
0.0
  37
0.0
  40
7.1940
  41
1.0000
  42
1.9685
  43
0.0
  44
0.0
  50
0.0
  51
0.0
  71
0
  72
100
  73
1
  74
1
  75
0
  76
0
  77
0
  78
0
   0
ENDTAB
   0
TABLE
   2
LTYPE
  70
7
   0
LTYPE
   2
DefaultLinetype
  70
64
   3
Continuous
  72
65
  73
0
  40
0.0
   0
LTYPE
   2
LineType_0
  70
64
   3
DXF ltype 0
  72
65
  73
0
  40
0.0
   0
LTYPE
   2
LineType_1
  70
64
   3
DXF ltype 1
  72
65
  73
0
  40
0.0
   0
LTYPE
   2
LineType_2
  70
64
   3
DXF ltype 2
  72
65
  73
2
  40
0.2756
  49
0.1969
  49
-0.0787
   0
LTYPE
   2
LineType_3
  70
64
   3
DXF ltype 3
  72
65
  73
4
  40
0.2362
  49
0.0394
  49
-0.0787
  49
0.0394
  49
-0.0787
   0
LTYPE
   2
LineType_4
  70
64
   3
DXF ltype 4
  72
65
  73
4
  40
0.3937
  49
0.1969
  49
-0.0787
  49
0.0394
  49
-0.0787
   0
LTYPE
   2
LineType_5
  70
64
   3
DXF ltype 5
  72
65
  73
6
  40
0.5118
  49
0.1969
  49
-0.0787
  49
0.0394
  49
-0.0787
  49
0.0394
  49
-0.0787
   0
ENDTAB
   0
TABLE
   2
LAYER
  70
6
   0
LAYER
   2
DXFimport
  62
251
  70
0
   6
DefaultLinetype
   0
LAYER
   2
DXFimport
  62
255
  70
0
   6
DefaultLinetype
   0
LAYER
   2
Layer0
  62
7
  70
0
   6
DefaultLinetype
   0
LAYER
   2
Layer1
  62
1
  70
0
   6
DefaultLinetype
   0
LAYER
   2
Layer3
  62
24
  70
0
   6
DefaultLinetype
   0
ENDTAB
   0
TABLE
   2
STYLE
  70
3
   0
STYLE
   2
STANDARD
  70
0
  40
0.1969
  41
1.0000
  50
0.0
  71
0
  42
0.1969
   3
TXT
   0
STYLE
   2
STANDARD
  70
0
  40
0.1969
  41
1.0000
  50
0.0
  71
0
  42
0.1969
   3
TXT
   0
STYLE
   2
NormalText
  70
0
  40
0.1969
  41
1.0000
  50
0.0
  71
0
  42
0.1969
   3
TXT
   0
ENDTAB
   0
TABLE
   2
VIEW
  70
0
   0
ENDTAB
   0
ENDSEC
   0
SECTION
   2
BLOCKS
   0
ENDSEC
   0
SECTION
   2
ENTITIES
   0
CIRCLE
   8
Layer1
   6
SOLID
  39
0.0
  10
0.0
  20
0.0
  30
0.0
  40
3.2500
   0
POINT
   8
Layer1
  10
-2.2961E-016
  20
-1.2500
  30
0.0
   0
POINT
   8
Layer1
  10
1.2500
  20
0.0
  30
0.0
   0
POINT
   8
Layer1
  10
7.6538E-017
  20
1.2500
  30
0.0
   0
POINT
   8
Layer1
  10
-1.2500
  20
1.5308E-016
  30
0.0
   0
POINT
   8
Layer1
  10
0.0
  20
0.0
  30
0.0
   0
POLYLINE
   8
Layer1
   6
SOLID
  66
1
  40
0.0
  41
0.0
   0
VERTEX
   8
Layer1
   6
SOLID
  10
-0.0524
  20
2.9995
  30
0.0
  42
0.0
   0
VERTEX
   8
Layer1
   6
SOLID
  42
0.0
  10
-0.0567
  20
3.2495
  30
0.0
   0
VERTEX
   8
Layer1
   6
SOLID
  42
0.0
  10
-0.0567
  20
3.2495
  30
0.0
   0
VERTEX
   8
Layer1
   6
SOLID
  42
0.0
  10
-0.0567
  20
3.2495
  30
0.0
   0
VERTEX
   8
Layer1
   6
SOLID
  10
-0.0567
  20
3.2495
  30
0.0
  42
0.0
   0
SEQEND
   0
POLYLINE
   8
Layer1
   6
SOLID
  66
1
  40
0.0
  41
0.0
   0
VERTEX
   8
Layer1
   6
SOLID
  10
-0.1047
  20
2.9982
  30
0.0
  42
0.0
   0
VERTEX
   8
Layer1
   6
SOLID
  42
0.0
  10
-0.1134
  20
3.2480
  30
0.0
   0
VERTEX
   8
Layer1
   6
SOLID
  42
0.0
  10
-0.1134
  20
3.2480
  30
0.0
   0
VERTEX
   8
Layer1
   6
SOLID
  42
0.0
  10
-0.1134
  20
3.2480
  30
0.0
   0
VERTEX
   8
Layer1
   6
SOLID
  10
-0.1134
  20
3.2480
  30
0.0
  42
0.0
   0
SEQEND
   0
POLYLINE
   8
Layer1
   6
SOLID
  66
1
  40
0.0
  41
0.0
   0
VERTEX
   8
Layer1
   6
SOLID
  10
-0.1570
  20
2.9959
  30
0.0
  42
0.0
   0
VERTEX
   8
Layer1
   6
SOLID
  42
0.0
  10
-0.1701
  20
3.2455
  30
0.0
   0
VERTEX
   8
Layer1
   6
SOLID
  42
0.0
  10
-0.1701
  20
3.2455
  30
0.0
   0
VERTEX
   8
Layer1
   6
SOLID
  42
0.0
  10
-0.1701
  20
3.2455
  30
0.0
   0
VERTEX
   8
Layer1
   6
SOLID
  10
-0.1701
  20
3.2455
  30
0.0
  42
0.0
   0
SEQEND
   0
POLYLINE
   8
Layer1
   6
SOLID
  66
1
  40
0.0
  41
0.0
   0
VERTEX
   8
Layer1
   6
SOLID
  10
-0.2093
  20
2.9927
  30
0.0
  42
0.0
   0
VERTEX
   8
Layer1
   6
SOLID
  42
0.0
  10
-0.2267
  20
3.2421
  30
0.0
   0
VERTEX
   8
Layer1
   6
SOLID
  42
0.0
  10
-0.2267
  20
3.2421
  30
0.0
   0
VERTEX
   8
Layer1
   6
SOLID
  42
0.0
  10
-0.2267
  20
3.2421
  30
0.0
   0
VERTEX
   8
Layer1
   6
SOLID
  10
-0.2267
  20
3.2421
  30
0.0
  42
0.0
   0
SEQEND
   0
POLYLINE
   8
Layer1
   6
SOLID
  66
1
  40
0.0
  41
0.0
   0
VERTEX
   8
Layer1
   6
SOLID
  10
-0.2397
  20
2.7395
  30
0.0
  42
0.0
   0
VERTEX
   8
Layer1
   6
SOLID
  42
0.0
  10
-0.2833
  20
3.2376
  30
0.0
   0
VERTEX
   8
Layer1
   6
SOLID
  42
0.0
  10
-0.2833
  20
3.2376
  30
0.0
   0
VERTEX
   8
Layer1
   6
SOLID
  42
0.0
  10
-0.2833
  20
3.2376
  30
0.0
   0
VERTEX
   8
Layer1
   6
SOLID
  10
-0.2833
  20
3.2376
  30
0.0
  42
0.0
   0
SEQEND
   0
POLYLINE
   8
Layer1
   6
SOLID
  66
1
  40
0.0
  41
0.0
   0
VERTEX
   8
Layer1
   6
SOLID
  10
-0.3136
  20
2.9836
  30
0.0
  42
0.0
   0
VERTEX
   8
Layer1
   6
SOLID
  42
0.0
  10
-0.3397
  20
3.2322
  30
0.0
   0
VERTEX
   8
Layer1
   6
SOLID
  42
0.0
  10
-0.3397
  20
3.2322
  30
0.0
   0
VERTEX
   8
Layer1
   6
SOLID
  42
0.0
  10
-0.3397
  20
3.2322
  30
0.0
   0
VERTEX
   8
Layer1
   6
SOLID
  10
-0.3397
  20
3.2322
  30
0.0
  42
0.0
   0
SEQEND
   0
POLYLINE
   8
Layer1
   6
SOLID
  66
1
  40
0.0
  41
0.0
   0
VERTEX
   8
Layer1
   6
SOLID
  10
-0.3656
  20
2.9776
  30
0.0
  42
0.0
   0
VERTEX
   8
Layer1
   6
SOLID
  42
0.0
  10
-0.3961
  20
3.2258
  30
0.0
   0
VERTEX
   8
Layer1
   6
SOLID
  42
0.0
  10
-0.3961
  20
3.2258
  30
0.0
   0
VERTEX
   8
Layer1
   6
SOLID
  42
0.0
  10
-0.3961
  20
3.2258
  30
0.0
   0
VERTEX
   8
Layer1
   6
SOLID
  10
-0.3961
  20
3.2258
  30
0.0
  42
0.0
   0
SEQEND
   0
POLYLINE
   8
Layer1
   6
SOLID
  66
1
  40
0.0
  41
0.0
   0
VERTEX
   8
Layer1
   6
SOLID
  10
-0.4175
  20
2.9708
  30
0.0
  42
0.0
   0
VERTEX
   8
Layer1
   6
SOLID
  42
0.0
  10
-0.4523
  20
3.2184
  30
0.0
   0
VERTEX
   8
Layer1
   6
SOLID
  42
0.0
  10
-0.4523
  20
3.2184
  30
0.0
   0
VERTEX
   8
Layer1
   6
SOLID
  42
0.0
  10
-0.4523
  20
3.2184
  30
0.0
   0
VERTEX
   8
Layer1
   6
SOLID
  10
-0.4523
  20
3.2184
  30
0.0
  42
0.0
   0
SEQEND
   0
POLYLINE
   8
Layer1
   6
SOLID
  66
1
  40
0.0
  41
0.0
   0
VERTEX
   8
Layer1
   6
SOLID
  10
-0.4693
  20
2.9631
  30
0.0
  42
0.0
   0
VERTEX
   8
Layer1
   6
SOLID
  42
0.0
  10
-0.5084
  20
3.2100
  30
0.0
   0
VERTEX
   8
Layer1
   6
SOLID
  42
0.0
  10
-0.5084
  20
3.2100
  30
0.0
   0
VERTEX
   8
Layer1
   6
SOLID
  42
0.0
  10
-0.5084
  20
3.2100
  30
0.0
   0
VERTEX
   8
Layer1
   6
SOLID
  10
-0.5084
  20
3.2100
  30
0.0
  42
0.0
   0
SEQEND
   0
POLYLINE
   8
Layer1
   6
SOLID
  66
1
  40
0.0
  41
0.0
   0
VERTEX
   8
Layer1
   6
SOLID
  10
-0.4341
  20
2.4620
  30
0.0
  42
0.0
   0
VERTEX
   8
Layer1
   6
SOLID
  42
0.0
  10
-0.5644
  20
3.2006
  30
0.0
   0
VERTEX
   8
Layer1
   6
SOLID
  42
0.0
  10
-0.5644
  20
3.2006
  30
0.0
   0
VERTEX
   8
Layer1
   6
SOLID
  42
0.0
  10
-0.5644
  20
3.2006
  30
0.0
   0
VERTEX
   8
Layer1
   6
SOLID
  10
-0.5644
  20
3.2006
  30
0.0
  42
0.0
   0
SEQEND
   0
POLYLINE
   8
Layer1
   6
SOLID
  66
1
  40
0.0
  41
0.0
   0
VERTEX
   8
Layer1
   6
SOLID
  10
-0.5724
  20
2.9449
  30
0.0
  42
0.0
   0
VERTEX
   8
Layer1
   6
SOLID
  42
0.0
  10
-0.6201
  20
3.1903
  30
0.0
   0
VERTEX
   8
Layer1
   6
SOLID
  42
0.0
  10
-0.6201
  20
3.1903
  30
0.0
   0
VERTEX
   8
Layer1
   6
SOLID
  42
0.0
  10
-0.6201
  20
3.1903
  30
0.0
   0
VERTEX
   8
Layer1
   6
SOLID
  10
-0.6201
  20
3.1903
  30
0.0
  42
0.0
   0
SEQEND
   0
POLYLINE
   8
Layer1
   6
SOLID
  66
1
  40
0.0
  41
0.0
   0
VERTEX
   8
Layer1
   6
SOLID
  10
-0.6237
  20
2.9344
  30
0.0
  42
0.0
   0
VERTEX
   8
Layer1
   6
SOLID
  42
0.0
  10
-0.6757
  20
3.1790
  30
0.0
   0
VERTEX
   8
Layer1
   6
SOLID
  42
0.0
  10
-0.6757
  20
3.1790
  30
0.0
   0
VERTEX
   8
Layer1
   6
SOLID
  42
0.0
  10
-0.6757
  20
3.1790
  30
0.0
   0
VERTEX
   8
Layer1
   6
SOLID
  10
-0.6757
  20
3.1790
  30
0.0
  42
0.0
   0
SEQEND
   0
POLYLINE
   8
Layer1
   6
SOLID
  66
1
  40
0.0
  41
0.0
   0
VERTEX
   8
Layer1
   6
SOLID
  10
-0.6749
  20
2.9231
  30
0.0
  42
0.0
   0
VERTEX
   8
Layer1
   6
SOLID
  42
0.0
  10
-0.7311
  20
3.1667
  30
0.0
   0
VERTEX
   8
Layer1
   6
SOLID
  42
0.0
  10
-0.7311
  20
3.1667
  30
0.0
   0
VERTEX
   8
Layer1
   6
SOLID
  42
0.0
  10
-0.7311
  20
3.1667
  30
0.0
   0
VERTEX
   8
Layer1
   6
SOLID
  10
-0.7311
  20
3.1667
  30
0.0
  42
0.0
   0
SEQEND
   0
POLYLINE
   8
Layer1
   6
SOLID
  66
1
  40
0.0
  41
0.0
   0
VERTEX
   8
Layer1
   6
SOLID
  10
-0.7258
  20
2.9109
  30
0.0
  42
0.0
   0
VERTEX
   8
Layer1
   6
SOLID
  42
0.0
  10
-0.7862
  20
3.1535
  30
0.0
   0
VERTEX
   8
Layer1
   6
SOLID
  42
0.0
  10
-0.7862
  20
3.1535
  30
0.0
   0
VERTEX
   8
Layer1
   6
SOLID
  42
0.0
  10
-0.7862
  20
3.1535
  30
0.0
   0
VERTEX
   8
Layer1
   6
SOLID
  10
-0.7862
  20
3.1535
  30
0.0
  42
0.0
   0
SEQEND
   0
POLYLINE
   8
Layer1
   6
SOLID
  66
1
  40
0.0
  41
0.0
   0
VERTEX
   8
Layer1
   6
SOLID
  10
-0.7118
  20
2.6563
  30
0.0
  42
0.0
   0
VERTEX
   8
Layer1
   6
SOLID
  42
0.0
  10
-0.8412
  20
3.1393
  30
0.0
   0
VERTEX
   8
Layer1
   6
SOLID
  42
0.0
  10
-0.8412
  20
3.1393
  30
0.0
   0
VERTEX
   8
Layer1
   6
SOLID
  42
0.0
  10
-0.8412
  20
3.1393
  30
0.0
   0
VERTEX
   8
Layer1
   6
SOLID
  10
-0.8412
  20
3.1393
  30
0.0
  42
0.0
   0
SEQEND
   0
POLYLINE
   8
Layer1
   6
SOLID
  66
1
  40
0.0
  41
0.0
   0
VERTEX
   8
Layer1
   6
SOLID
  10
-0.8269
  20
2.8838
  30
0.0
  42
0.0
   0
VERTEX
   8
Layer1
   6
SOLID
  42
0.0
  10
-0.8958
  20
3.1241
  30
0.0
   0
VERTEX
   8
Layer1
   6
SOLID
  42
0.0
  10
-0.8958
  20
3.1241
  30
0.0
   0
VERTEX
   8
Layer1
   6
SOLID
  42
0.0
  10
-0.8958
  20
3.1241
  30
0.0
   0
VERTEX
   8
Layer1
   6
SOLID
  10
-0.8958
  20
3.1241
  30
0.0
  42
0.0
   0
SEQEND
   0
POLYLINE
   8
Layer1
   6
SOLID
  66
1
  40
0.0
  41
0.0
   0
VERTEX
   8
Layer1
   6
SOLID
  10
-0.8771
  20
2.8689
  30
0.0
  42
0.0
   0
VERTEX
   8
Layer1
   6
SOLID
  42
0.0
  10
-0.9502
  20
3.1080
  30
0.0
   0
VERTEX
   8
Layer1
   6
SOLID
  42
0.0
  10
-0.9502
  20
3.1080
  30
0.0
   0
VERTEX
   8
Layer1
   6
SOLID
  42
0.0
  10
-0.9502
  20
3.1080
  30
0.0
   0
VERTEX
   8
Layer1
   6
SOLID
  10
-0.9502
  20
3.1080
  30
0.0
  42
0.0
   0
SEQEND
   0
POLYLINE
   8
Layer1
   6
SOLID
  66
1
  40
0.0
  41
0.0
   0
VERTEX
   8
Layer1
   6
SOLID
  10
-0.9271
  20
2.8532
  30
0.0
  42
0.0
   0
VERTEX
   8
Layer1
   6
SOLID
  42
0.0
  10
-1.0043
  20
3.0909
  30
0.0
   0
VERTEX
   8
Layer1
   6
SOLID
  42
0.0
  10
-1.0043
  20
3.0909
  30
0.0
   0
VERTEX
   8
Layer1
   6
SOLID
  42
0.0
  10
-1.0043
  20
3.0909
  30
0.0
   0
VERTEX
   8
Layer1
   6
SOLID
  10
-1.0043
  20
3.0909
  30
0.0
  42
0.0
   0
SEQEND
   0
POLYLINE
   8
Layer1
   6
SOLID
  66
1
  40
0.0
  41
0.0
   0
VERTEX
   8
Layer1
   6
SOLID
  10
-0.9767
  20
2.8366
  30
0.0
  42
0.0
   0
VERTEX
   8
Layer1
   6
SOLID
  42
0.0
  10
-1.0581
  20
3.0729
  30
0.0
   0
VERTEX
   8
Layer1
   6
SOLID
  42
0.0
  10
-1.0581
  20
3.0729
  30
0.0
   0
VERTEX
   8
Layer1
   6
SOLID
  42
0.0
  10
-1.0581
  20
3.0729
  30
0.0
   0
VERTEX
   8
Layer1
   6
SOLID
  10
-1.0581
  20
3.0729
  30
0.0
  42
0.0
   0
SEQEND
   0
POLYLINE
   8
Layer1
   6
SOLID
  66
1
  40
0.0
  41
0.0
   0
VERTEX
   8
Layer1
   6
SOLID
  10
-0.8551
  20
2.3492
  30
0.0
  42
0.0
   0
VERTEX
   8
Layer1
   6
SOLID
  42
0.0
  10
-1.1116
  20
3.0540
  30
0.0
   0
VERTEX
   8
Layer1
   6
SOLID
  42
0.0
  10
-1.1116
  20
3.0540
  30
0.0
   0
VERTEX
   8
Layer1
   6
SOLID
  42
0.0
  10
-1.1116
  20
3.0540
  30
0.0
   0
VERTEX
   8
Layer1
   6
SOLID
  10
-1.1116
  20
3.0540
  30
0.0
  42
0.0
   0
SEQEND
   0
POLYLINE
   8
Layer1
   6
SOLID
  66
1
  40
0.0
  41
0.0
   0
VERTEX
   8
Layer1
   6
SOLID
  10
-1.0751
  20
2.8007
  30
0.0
  42
0.0
   0
VERTEX
   8
Layer1
   6
SOLID
  42
0.0
  10
-1.1647
  20
3.0341
  30
0.0
   0
VERTEX
   8
Layer1
   6
SOLID
  42
0.0
  10
-1.1647
  20
3.0341
  30
0.0
   0
VERTEX
   8
Layer1
   6
SOLID
  42
0.0
  10
-1.1647
  20
3.0341
  30
0.0
   0
VERTEX
   8
Layer1
   6
SOLID
  10
-1.1647
  20
3.0341
  30
0.0
  42
0.0
   0
SEQEND
   0
POLYLINE
   8
Layer1
   6
SOLID
  66
1
  40
0.0
  41
0.0
   0
VERTEX
   8
Layer1
   6
SOLID
  10
-1.1238
  20
2.7816
  30
0.0
  42
0.0
   0
VERTEX
   8
Layer1
   6
SOLID
  42
0.0
  10
-1.2175
  20
3.0133
  30
0.0
   0
VERTEX
   8
Layer1
   6
SOLID
  42
0.0
  10
-1.2175
  20
3.0133
  30
0.0
   0
VERTEX
   8
Layer1
   6
SOLID
  42
0.0
  10
-1.2175
  20
3.0133
  30
0.0
   0
VERTEX
   8
Layer1
   6
SOLID
  10
-1.2175
  20
3.0133
  30
0.0
  42
0.0
   0
SEQEND
   0
POLYLINE
   8
Layer1
   6
SOLID
  66
1
  40
0.0
  41
0.0
   0
VERTEX
   8
Layer1
   6
SOLID
  10
-1.1722
  20
2.7615
  30
0.0
  42
0.0
   0
VERTEX
   8
Layer1
   6
SOLID
  42
0.0
  10
-1.2699
  20
2.9916
  30
0.0
   0
VERTEX
   8
Layer1
   6
SOLID
  42
0.0
  10
-1.2699
  20
2.9916
  30
0.0
   0
VERTEX
   8
Layer1
   6
SOLID
  42
0.0
  10
-1.2699
  20
2.9916
  30
0.0
   0
VERTEX
   8
Layer1
   6
SOLID
  10
-1.2699
  20
2.9916
  30
0.0
  42
0.0
   0
SEQEND
   0
POLYLINE
   8
Layer1
   6
SOLID
  66
1
  40
0.0
  41
0.0
   0
VERTEX
   8
Layer1
   6
SOLID
  10
-1.2202
  20
2.7406
  30
0.0
  42
0.0
   0
VERTEX
   8
Layer1
   6
SOLID
  42
0.0
  10
-1.3219
  20
2.9690
  30
0.0
   0
VERTEX
   8
Layer1
   6
SOLID
  42
0.0
  10
-1.3219
  20
2.9690
  30
0.0
   0
VERTEX
   8
Layer1
   6
SOLID
  42
0.0
  10
-1.3219
  20
2.9690
  30
0.0
   0
VERTEX
   8
Layer1
   6
SOLID
  10
-1.3219
  20
2.9690
  30
0.0
  42
0.0
   0
SEQEND
   0
POLYLINE
   8
Layer1
   6
SOLID
  66
1
  40
0.0
  41
0.0
   0
VERTEX
   8
Layer1
   6
SOLID
  10
-1.1622
  20
2.4923
  30
0.0
  42
0.0
   0
VERTEX
   8
Layer1
   6
SOLID
  42
0.0
  10
-1.3735
  20
2.9455
  30
0.0
   0
VERTEX
   8
Layer1
   6
SOLID
  42
0.0
  10
-1.3735
  20
2.9455
  30
0.0
   0
VERTEX
   8
Layer1
   6
SOLID
  42
0.0
  10
-1.3735
  20
2.9455
  30
0.0
   0
VERTEX
   8
Layer1
   6
SOLID
  10
-1.3735
  20
2.9455
  30
0.0
  42
0.0
   0
SEQEND
   0
POLYLINE
   8
Layer1
   6
SOLID
  66
1
  40
0.0
  41
0.0
   0
VERTEX
   8
Layer1
   6
SOLID
  10
-1.3151
  20
2.6964
  30
0.0
  42
0.0
   0
VERTEX
   8
Layer1
   6
SOLID
  42
0.0
  10
-1.4247
  20
2.9211
  30
0.0
   0
VERTEX
   8
Layer1
   6
SOLID
  42
0.0
  10
-1.4247
  20
2.9211
  30
0.0
   0
VERTEX
   8
Layer1
   6
SOLID
  42
0.0
  10
-1.4247
  20
2.9211
  30
0.0
   0
VERTEX
   8
Layer1
   6
SOLID
  10
-1.4247
  20
2.9211
  30
0.0
  42
0.0
   0
SEQEND
   0
POLYLINE
   8
Layer1
   6
SOLID
  66
1
  40
0.0
  41
0.0
   0
VERTEX
   8
Layer1
   6
SOLID
  10
-1.3620
  20
2.6730
  30
0.0
  42
0.0
   0
VERTEX
   8
Layer1
   6
SOLID
  42
0.0
  10
-1.4755
  20
2.8958
  30
0.0
   0
VERTEX
   8
Layer1
   6
SOLID
  42
0.0
  10
-1.4755
  20
2.8958
  30
0.0
   0
VERTEX
   8
Layer1
   6
SOLID
  42
0.0
  10
-1.4755
  20
2.8958
  30
0.0
   0
VERTEX
   8
Layer1
   6
SOLID
  10
-1.4755
  20
2.8958
  30
0.0
  42
0.0
   0
SEQEND
   0
POLYLINE
   8
Layer1
   6
SOLID
  66
1
  40
0.0
  41
0.0
   0
VERTEX
   8
Layer1
   6
SOLID
  10
-1.4084
  20
2.6488
  30
0.0
  42
0.0
   0
VERTEX
   8
Layer1
   6
SOLID
  42
0.0
  10
-1.5258
  20
2.8696
  30
0.0
   0
VERTEX
   8
Layer1
   6
SOLID
  42
0.0
  10
-1.5258
  20
2.8696
  30
0.0
   0
VERTEX
   8
Layer1
   6
SOLID
  42
0.0
  10
-1.5258
  20
2.8696
  30
0.0
   0
VERTEX
   8
Layer1
   6
SOLID
  10
-1.5258
  20
2.8696
  30
0.0
  42
0.0
   0
SEQEND
   0
POLYLINE
   8
Layer1
   6
SOLID
  66
1
  40
0.0
  41
0.0
   0
VERTEX
   8
Layer1
   6
SOLID
  10
-1.4544
  20
2.6239
  30
0.0
  42
0.0
   0
VERTEX
   8
Layer1
   6
SOLID
  42
0.0
  10
-1.5756
  20
2.8425
  30
0.0
   0
VERTEX
   8
Layer1
   6
SOLID
  42
0.0
  10
-1.5756
  20
2.8425
  30
0.0
   0
VERTEX
   8
Layer1
   6
SOLID
  42
0.0
  10
-1.5756
  20
2.8425
  30
0.0
   0
VERTEX
   8
Layer1
   6
SOLID
  10
-1.5756
  20
2.8425
  30
0.0
  42
0.0
   0
SEQEND
   0
POLYLINE
   8
Layer1
   6
SOLID
  66
1
  40
0.0
  41
0.0
   0
VERTEX
   8
Layer1
   6
SOLID
  10
-1.2500
  20
2.1651
  30
0.0
  42
0.0
   0
VERTEX
   8
Layer1
   6
SOLID
  42
0.0
  10
-1.6250
  20
2.8146
  30
0.0
   0
VERTEX
   8
Layer1
   6
SOLID
  42
0.0
  10
-1.6250
  20
2.8146
  30
0.0
   0
VERTEX
   8
Layer1
   6
SOLID
  42
0.0
  10
-1.6250
  20
2.8146
  30
0.0
   0
VERTEX
   8
Layer1
   6
SOLID
  10
-1.6250
  20
2.8146
  30
0.0
  42
0.0
   0
SEQEND
   0
POLYLINE
   8
Layer1
   6
SOLID
  66
1
  40
0.0
  41
0.0
   0
VERTEX
   8
Layer1
   6
SOLID
  10
-1.5451
  20
2.5715
  30
0.0
  42
0.0
   0
VERTEX
   8
Layer1
   6
SOLID
  42
0.0
  10
-1.6739
  20
2.7858
  30
0.0
   0
VERTEX
   8
Layer1
   6
SOLID
  42
0.0
  10
-1.6739
  20
2.7858
  30
0.0
   0
VERTEX
   8
Layer1
   6
SOLID
  42
0.0
  10
-1.6739
  20
2.7858
  30
0.0
   0
VERTEX
   8
Layer1
   6
SOLID
  10
-1.6739
  20
2.7858
  30
0.0
  42
0.0
   0
SEQEND
   0
POLYLINE
   8
Layer1
   6
SOLID
  66
1
  40
0.0
  41
0.0
   0
VERTEX
   8
Layer1
   6
SOLID
  10
-1.5898
  20
2.5441
  30
0.0
  42
0.0
   0
VERTEX
   8
Layer1
   6
SOLID
  42
0.0
  10
-1.7222
  20
2.7562
  30
0.0
   0
VERTEX
   8
Layer1
   6
SOLID
  42
0.0
  10
-1.7222
  20
2.7562
  30
0.0
   0
VERTEX
   8
Layer1
   6
SOLID
  42
0.0
  10
-1.7222
  20
2.7562
  30
0.0
   0
VERTEX
   8
Layer1
   6
SOLID
  10
-1.7222
  20
2.7562
  30
0.0
  42
0.0
   0
SEQEND
   0
POLYLINE
   8
Layer1
   6
SOLID
  66
1
  40
0.0
  41
0.0
   0
VERTEX
   8
Layer1
   6
SOLID
  10
-1.6339
  20
2.5160
  30
0.0
  42
0.0
   0
VERTEX
   8
Layer1
   6
SOLID
  42
0.0
  10
-1.7701
  20
2.7257
  30
0.0
   0
VERTEX
   8
Layer1
   6
SOLID
  42
0.0
  10
-1.7701
  20
2.7257
  30
0.0
   0
VERTEX
   8
Layer1
   6
SOLID
  42
0.0
  10
-1.7701
  20
2.7257
  30
0.0
   0
VERTEX
   8
Layer1
   6
SOLID
  10
-1.7701
  20
2.7257
  30
0.0
  42
0.0
   0
SEQEND
   0
POLYLINE
   8
Layer1
   6
SOLID
  66
1
  40
0.0
  41
0.0
   0
VERTEX
   8
Layer1
   6
SOLID
  10
-1.6776
  20
2.4871
  30
0.0
  42
0.0
   0
VERTEX
   8
Layer1
   6
SOLID
  42
0.0
  10
-1.8174
  20
2.6944
  30
0.0
   0
VERTEX
   8
Layer1
   6
SOLID
  42
0.0
  10
-1.8174
  20
2.6944
  30
0.0
   0
VERTEX
   8
Layer1
   6
SOLID
  42
0.0
  10
-1.8174
  20
2.6944
  30
0.0
   0
VERTEX
   8
Layer1
   6
SOLID
  10
-1.8174
  20
2.6944
  30
0.0
  42
0.0
   0
SEQEND
   0
POLYLINE
   8
Layer1
   6
SOLID
  66
1
  40
0.0
  41
0.0
   0
VERTEX
   8
Layer1
   6
SOLID
  10
-1.5773
  20
2.2527
  30
0.0
  42
0.0
   0
VERTEX
   8
Layer1
   6
SOLID
  42
0.0
  10
-1.8641
  20
2.6622
  30
0.0
   0
VERTEX
   8
Layer1
   6
SOLID
  42
0.0
  10
-1.8641
  20
2.6622
  30
0.0
   0
VERTEX
   8
Layer1
   6
SOLID
  42
0.0
  10
-1.8641
  20
2.6622
  30
0.0
   0
VERTEX
   8
Layer1
   6
SOLID
  10
-1.8641
  20
2.6622
  30
0.0
  42
0.0
   0
SEQEND
   0
POLYLINE
   8
Layer1
   6
SOLID
  66
1
  40
0.0
  41
0.0
   0
VERTEX
   8
Layer1
   6
SOLID
  10
-1.7634
  20
2.4271
  30
0.0
  42
0.0
   0
VERTEX
   8
Layer1
   6
SOLID
  42
0.0
  10
-1.9103
  20
2.6293
  30
0.0
   0
VERTEX
   8
Layer1
   6
SOLID
  42
0.0
  10
-1.9103
  20
2.6293
  30
0.0
   0
VERTEX
   8
Layer1
   6
SOLID
  42
0.0
  10
-1.9103
  20
2.6293
  30
0.0
   0
VERTEX
   8
Layer1
   6
SOLID
  10
-1.9103
  20
2.6293
  30
0.0
  42
0.0
   0
SEQEND
   0
POLYLINE
   8
Layer1
   6
SOLID
  66
1
  40
0.0
  41
0.0
   0
VERTEX
   8
Layer1
   6
SOLID
  10
-1.8054
  20
2.3959
  30
0.0
  42
0.0
   0
VERTEX
   8
Layer1
   6
SOLID
  42
0.0
  10
-1.9559
  20
2.5956
  30
0.0
   0
VERTEX
   8
Layer1
   6
SOLID
  42
0.0
  10
-1.9559
  20
2.5956
  30
0.0
   0
VERTEX
   8
Layer1
   6
SOLID
  42
0.0
  10
-1.9559
  20
2.5956
  30
0.0
   0
VERTEX
   8
Layer1
   6
SOLID
  10
-1.9559
  20
2.5956
  30
0.0
  42
0.0
   0
SEQEND
   0
POLYLINE
   8
Layer1
   6
SOLID
  66
1
  40
0.0
  41
0.0
   0
VERTEX
   8
Layer1
   6
SOLID
  10
-1.8470
  20
2.3640
  30
0.0
  42
0.0
   0
VERTEX
   8
Layer1
   6
SOLID
  42
0.0
  10
-2.0009
  20
2.5610
  30
0.0
   0
VERTEX
   8
Layer1
   6
SOLID
  42
0.0
  10
-2.0009
  20
2.5610
  30
0.0
   0
VERTEX
   8
Layer1
   6
SOLID
  42
0.0
  10
-2.0009
  20
2.5610
  30
0.0
   0
VERTEX
   8
Layer1
   6
SOLID
  10
-2.0009
  20
2.5610
  30
0.0
  42
0.0
   0
SEQEND
   0
POLYLINE
   8
Layer1
   6
SOLID
  66
1
  40
0.0
  41
0.0
   0
VERTEX
   8
Layer1
   6
SOLID
  10
-1.8880
  20
2.3314
  30
0.0
  42
0.0
   0
VERTEX
   8
Layer1
   6
SOLID
  42
0.0
  10
-2.0453
  20
2.5257
  30
0.0
   0
VERTEX
   8
Layer1
   6
SOLID
  42
0.0
  10
-2.0453
  20
2.5257
  30
0.0
   0
VERTEX
   8
Layer1
   6
SOLID
  42
0.0
  10
-2.0453
  20
2.5257
  30
0.0
   0
VERTEX
   8
Layer1
   6
SOLID
  10
-2.0453
  20
2.5257
  30
0.0
  42
0.0
   0
SEQEND
   0
POLYLINE
   8
Layer1
   6
SOLID
  66
1
  40
0.0
  41
0.0
   0
VERTEX
   8
Layer1
   6
SOLID
  10
-1.6070
  20
1.9151
  30
0.0
  42
0.0
   0
VERTEX
   8
Layer1
   6
SOLID
  42
0.0
  10
-2.0891
  20
2.4896
  30
0.0
   0
VERTEX
   8
Layer1
   6
SOLID
  42
0.0
  10
-2.0891
  20
2.4896
  30
0.0
   0
VERTEX
   8
Layer1
   6
SOLID
  42
0.0
  10
-2.0891
  20
2.4896
  30
0.0
   0
VERTEX
   8
Layer1
   6
SOLID
  10
-2.0891
  20
2.4896
  30
0.0
  42
0.0
   0
SEQEND
   0
POLYLINE
   8
Layer1
   6
SOLID
  66
1
  40
0.0
  41
0.0
   0
VERTEX
   8
Layer1
   6
SOLID
  10
-1.9682
  20
2.2641
  30
0.0
  42
0.0
   0
VERTEX
   8
Layer1
   6
SOLID
  42
0.0
  10
-2.1322
  20
2.4528
  30
0.0
   0
VERTEX
   8
Layer1
   6
SOLID
  42
0.0
  10
-2.1322
  20
2.4528
  30
0.0
   0
VERTEX
   8
Layer1
   6
SOLID
  42
0.0
  10
-2.1322
  20
2.4528
  30
0.0
   0
VERTEX
   8
Layer1
   6
SOLID
  10
-2.1322
  20
2.4528
  30
0.0
  42
0.0
   0
SEQEND
   0
POLYLINE
   8
Layer1
   6
SOLID
  66
1
  40
0.0
  41
0.0
   0
VERTEX
   8
Layer1
   6
SOLID
  10
-2.0074
  20
2.2294
  30
0.0
  42
0.0
   0
VERTEX
   8
Layer1
   6
SOLID
  42
0.0
  10
-2.1747
  20
2.4152
  30
0.0
   0
VERTEX
   8
Layer1
   6
SOLID
  42
0.0
  10
-2.1747
  20
2.4152
  30
0.0
   0
VERTEX
   8
Layer1
   6
SOLID
  42
0.0
  10
-2.1747
  20
2.4152
  30
0.0
   0
VERTEX
   8
Layer1
   6
SOLID
  10
-2.1747
  20
2.4152
  30
0.0
  42
0.0
   0
SEQEND
   0
POLYLINE
   8
Layer1
   6
SOLID
  66
1
  40
0.0
  41
0.0
   0
VERTEX
   8
Layer1
   6
SOLID
  10
-2.0460
  20
2.1941
  30
0.0
  42
0.0
   0
VERTEX
   8
Layer1
   6
SOLID
  42
0.0
  10
-2.2165
  20
2.3769
  30
0.0
   0
VERTEX
   8
Layer1
   6
SOLID
  42
0.0
  10
-2.2165
  20
2.3769
  30
0.0
   0
VERTEX
   8
Layer1
   6
SOLID
  42
0.0
  10
-2.2165
  20
2.3769
  30
0.0
   0
VERTEX
   8
Layer1
   6
SOLID
  10
-2.2165
  20
2.3769
  30
0.0
  42
0.0
   0
SEQEND
   0
POLYLINE
   8
Layer1
   6
SOLID
  66
1
  40
0.0
  41
0.0
   0
VERTEX
   8
Layer1
   6
SOLID
  10
-2.0840
  20
2.1580
  30
0.0
  42
0.0
   0
VERTEX
   8
Layer1
   6
SOLID
  42
0.0
  10
-2.2576
  20
2.3379
  30
0.0
   0
VERTEX
   8
Layer1
   6
SOLID
  42
0.0
  10
-2.2576
  20
2.3379
  30
0.0
   0
VERTEX
   8
Layer1
   6
SOLID
  42
0.0
  10
-2.2576
  20
2.3379
  30
0.0
   0
VERTEX
   8
Layer1
   6
SOLID
  10
-2.2576
  20
2.3379
  30
0.0
  42
0.0
   0
SEQEND
   0
POLYLINE
   8
Layer1
   6
SOLID
  66
1
  40
0.0
  41
0.0
   0
VERTEX
   8
Layer1
   6
SOLID
  10
-1.9445
  20
1.9445
  30
0.0
  42
0.0
   0
VERTEX
   8
Layer1
   6
SOLID
  42
0.0
  10
-2.2981
  20
2.2981
  30
0.0
   0
VERTEX
   8
Layer1
   6
SOLID
  42
0.0
  10
-2.2981
  20
2.2981
  30
0.0
   0
VERTEX
   8
Layer1
   6
SOLID
  42
0.0
  10
-2.2981
  20
2.2981
  30
0.0
   0
VERTEX
   8
Layer1
   6
SOLID
  10
-2.2981
  20
2.2981
  30
0.0
  42
0.0
   0
SEQEND
   0
POLYLINE
   8
Layer1
   6
SOLID
  66
1
  40
0.0
  41
0.0
   0
VERTEX
   8
Layer1
   6
SOLID
  10
-2.1580
  20
2.0840
  30
0.0
  42
0.0
   0
VERTEX
   8
Layer1
   6
SOLID
  42
0.0
  10
-2.3379
  20
2.2576
  30
0.0
   0
VERTEX
   8
Layer1
   6
SOLID
  42
0.0
  10
-2.3379
  20
2.2576
  30
0.0
   0
VERTEX
   8
Layer1
   6
SOLID
  42
0.0
  10
-2.3379
  20
2.2576
  30
0.0
   0
VERTEX
   8
Layer1
   6
SOLID
  10
-2.3379
  20
2.2576
  30
0.0
  42
0.0
   0
SEQEND
   0
POLYLINE
   8
Layer1
   6
SOLID
  66
1
  40
0.0
  41
0.0
   0
VERTEX
   8
Layer1
   6
SOLID
  10
-2.1941
  20
2.0460
  30
0.0
  42
0.0
   0
VERTEX
   8
Layer1
   6
SOLID
  42
0.0
  10
-2.3769
  20
2.2165
  30
0.0
   0
VERTEX
   8
Layer1
   6
SOLID
  42
0.0
  10
-2.3769
  20
2.2165
  30
0.0
   0
VERTEX
   8
Layer1
   6
SOLID
  42
0.0
  10
-2.3769
  20
2.2165
  30
0.0
   0
VERTEX
   8
Layer1
   6
SOLID
  10
-2.3769
  20
2.2165
  30
0.0
  42
0.0
   0
SEQEND
   0
POLYLINE
   8
Layer1
   6
SOLID
  66
1
  40
0.0
  41
0.0
   0
VERTEX
   8
Layer1
   6
SOLID
  10
-2.2294
  20
2.0074
  30
0.0
  42
0.0
   0
VERTEX
   8
Layer1
   6
SOLID
  42
0.0
  10
-2.4152
  20
2.1747
  30
0.0
   0
VERTEX
   8
Layer1
   6
SOLID
  42
0.0
  10
-2.4152
  20
2.1747
  30
0.0
   0
VERTEX
   8
Layer1
   6
SOLID
  42
0.0
  10
-2.4152
  20
2.1747
  30
0.0
   0
VERTEX
   8
Layer1
   6
SOLID
  10
-2.4152
  20
2.1747
  30
0.0
  42
0.0
   0
SEQEND
   0
POLYLINE
   8
Layer1
   6
SOLID
  66
1
  40
0.0
  41
0.0
   0
VERTEX
   8
Layer1
   6
SOLID
  10
-2.2641
  20
1.9682
  30
0.0
  42
0.0
   0
VERTEX
   8
Layer1
   6
SOLID
  42
0.0
  10
-2.4528
  20
2.1322
  30
0.0
   0
VERTEX
   8
Layer1
   6
SOLID
  42
0.0
  10
-2.4528
  20
2.1322
  30
0.0
   0
VERTEX
   8
Layer1
   6
SOLID
  42
0.0
  10
-2.4528
  20
2.1322
  30
0.0
   0
VERTEX
   8
Layer1
   6
SOLID
  10
-2.4528
  20
2.1322
  30
0.0
  42
0.0
   0
SEQEND
   0
POLYLINE
   8
Layer1
   6
SOLID
  66
1
  40
0.0
  41
0.0
   0
VERTEX
   8
Layer1
   6
SOLID
  10
-1.9151
  20
1.6070
  30
0.0
  42
0.0
   0
VERTEX
   8
Layer1
   6
SOLID
  42
0.0
  10
-2.4896
  20
2.0891
  30
0.0
   0
VERTEX
   8
Layer1
   6
SOLID
  42
0.0
  10
-2.4896
  20
2.0891
  30
0.0
   0
VERTEX
   8
Layer1
   6
SOLID
  42
0.0
  10
-2.4896
  20
2.0891
  30
0.0
   0
VERTEX
   8
Layer1
   6
SOLID
  10
-2.4896
  20
2.0891
  30
0.0
  42
0.0
   0
SEQEND
   0
POLYLINE
   8
Layer1
   6
SOLID
  66
1
  40
0.0
  41
0.0
   0
VERTEX
   8
Layer1
   6
SOLID
  10
-2.3314
  20
1.8880
  30
0.0
  42
0.0
   0
VERTEX
   8
Layer1
   6
SOLID
  42
0.0
  10
-2.5257
  20
2.0453
  30
0.0
   0
VERTEX
   8
Layer1
   6
SOLID
  42
0.0
  10
-2.5257
  20
2.0453
  30
0.0
   0
VERTEX
   8
Layer1
   6
SOLID
  42
0.0
  10
-2.5257
  20
2.0453
  30
0.0
   0
VERTEX
   8
Layer1
   6
SOLID
  10
-2.5257
  20
2.0453
  30
0.0
  42
0.0
   0
SEQEND
   0
POLYLINE
   8
Layer1
   6
SOLID
  66
1
  40
0.0
  41
0.0
   0
VERTEX
   8
Layer1
   6
SOLID
  10
-2.3640
  20
1.8470
  30
0.0
  42
0.0
   0
VERTEX
   8
Layer1
   6
SOLID
  42
0.0
  10
-2.5610
  20
2.0009
  30
0.0
   0
VERTEX
   8
Layer1
   6
SOLID
  42
0.0
  10
-2.5610
  20
2.0009
  30
0.0
   0
VERTEX
   8
Layer1
   6
SOLID
  42
0.0
  10
-2.5610
  20
2.0009
  30
0.0
   0
VERTEX
   8
Layer1
   6
SOLID
  10
-2.5610
  20
2.0009
  30
0.0
  42
0.0
   0
SEQEND
   0
POLYLINE
   8
Layer1
   6
SOLID
  66
1
  40
0.0
  41
0.0
   0
VERTEX
   8
Layer1
   6
SOLID
  10
-2.3959
  20
1.8054
  30
0.0
  42
0.0
   0
VERTEX
   8
Layer1
   6
SOLID
  42
0.0
  10
-2.5956
  20
1.9559
  30
0.0
   0
VERTEX
   8
Layer1
   6
SOLID
  42
0.0
  10
-2.5956
  20
1.9559
  30
0.0
   0
VERTEX
   8
Layer1
   6
SOLID
  42
0.0
  10
-2.5956
  20
1.9559
  30
0.0
   0
VERTEX
   8
Layer1
   6
SOLID
  10
-2.5956
  20
1.9559
  30
0.0
  42
0.0
   0
SEQEND
   0
POLYLINE
   8
Layer1
   6
SOLID
  66
1
  40
0.0
  41
0.0
   0
VERTEX
   8
Layer1
   6
SOLID
  10
-2.4271
  20
1.7634
  30
0.0
  42
0.0
   0
VERTEX
   8
Layer1
   6
SOLID
  42
0.0
  10
-2.6293
  20
1.9103
  30
0.0
   0
VERTEX
   8
Layer1
   6
SOLID
  42
0.0
  10
-2.6293
  20
1.9103
  30
0.0
   0
VERTEX
   8
Layer1
   6
SOLID
  42
0.0
  10
-2.6293
  20
1.9103
  30
0.0
   0
VERTEX
   8
Layer1
   6
SOLID
  10
-2.6293
  20
1.9103
  30
0.0
  42
0.0
   0
SEQEND
   0
POLYLINE
   8
Layer1
   6
SOLID
  66
1
  40
0.0
  41
0.0
   0
VERTEX
   8
Layer1
   6
SOLID
  10
-2.2527
  20
1.5773
  30
0.0
  42
0.0
   0
VERTEX
   8
Layer1
   6
SOLID
  42
0.0
  10
-2.6622
  20
1.8641
  30
0.0
   0
VERTEX
   8
Layer1
   6
SOLID
  42
0.0
  10
-2.6622
  20
1.8641
  30
0.0
   0
VERTEX
   8
Layer1
   6
SOLID
  42
0.0
  10
-2.6622
  20
1.8641
  30
0.0
   0
VERTEX
   8
Layer1
   6
SOLID
  10
-2.6622
  20
1.8641
  30
0.0
  42
0.0
   0
SEQEND
   0
POLYLINE
   8
Layer1
   6
SOLID
  66
1
  40
0.0
  41
0.0
   0
VERTEX
   8
Layer1
   6
SOLID
  10
-2.4871
  20
1.6776
  30
0.0
  42
0.0
   0
VERTEX
   8
Layer1
   6
SOLID
  42
0.0
  10
-2.6944
  20
1.8174
  30
0.0
   0
VERTEX
   8
Layer1
   6
SOLID
  42
0.0
  10
-2.6944
  20
1.8174
  30
0.0
   0
VERTEX
   8
Layer1
   6
SOLID
  42
0.0
  10
-2.6944
  20
1.8174
  30
0.0
   0
VERTEX
   8
Layer1
   6
SOLID
  10
-2.6944
  20
1.8174
  30
0.0
  42
0.0
   0
SEQEND
   0
POLYLINE
   8
Layer1
   6
SOLID
  66
1
  40
0.0
  41
0.0
   0
VERTEX
   8
Layer1
   6
SOLID
  10
-2.5160
  20
1.6339
  30
0.0
  42
0.0
   0
VERTEX
   8
Layer1
   6
SOLID
  42
0.0
  10
-2.7257
  20
1.7701
  30
0.0
   0
VERTEX
   8
Layer1
   6
SOLID
  42
0.0
  10
-2.7257
  20
1.7701
  30
0.0
   0
VERTEX
   8
Layer1
   6
SOLID
  42
0.0
  10
-2.7257
  20
1.7701
  30
0.0
   0
VERTEX
   8
Layer1
   6
SOLID
  10
-2.7257
  20
1.7701
  30
0.0
  42
0.0
   0
SEQEND
   0
POLYLINE
   8
Layer1
   6
SOLID
  66
1
  40
0.0
  41
0.0
   0
VERTEX
   8
Layer1
   6
SOLID
  10
-2.5441
  20
1.5898
  30
0.0
  42
0.0
   0
VERTEX
   8
Layer1
   6
SOLID
  42
0.0
  10
-2.7562
  20
1.7222
  30
0.0
   0
VERTEX
   8
Layer1
   6
SOLID
  42
0.0
  10
-2.7562
  20
1.7222
  30
0.0
   0
VERTEX
   8
Layer1
   6
SOLID
  42
0.0
  10
-2.7562
  20
1.7222
  30
0.0
   0
VERTEX
   8
Layer1
   6
SOLID
  10
-2.7562
  20
1.7222
  30
0.0
  42
0.0
   0
SEQEND
   0
POLYLINE
   8
Layer1
   6
SOLID
  66
1
  40
0.0
  41
0.0
   0
VERTEX
   8
Layer1
   6
SOLID
  10
-2.5715
  20
1.5451
  30
0.0
  42
0.0
   0
VERTEX
   8
Layer1
   6
SOLID
  42
0.0
  10
-2.7858
  20
1.6739
  30
0.0
   0
VERTEX
   8
Layer1
   6
SOLID
  42
0.0
  10
-2.7858
  20
1.6739
  30
0.0
   0
VERTEX
   8
Layer1
   6
SOLID
  42
0.0
  10
-2.7858
  20
1.6739
  30
0.0
   0
VERTEX
   8
Layer1
   6
SOLID
  10
-2.7858
  20
1.6739
  30
0.0
  42
0.0
   0
SEQEND
   0
POLYLINE
   8
Layer1
   6
SOLID
  66
1
  40
0.0
  41
0.0
   0
VERTEX
   8
Layer1
   6
SOLID
  10
-2.1651
  20
1.2500
  30
0.0
  42
0.0
   0
VERTEX
   8
Layer1
   6
SOLID
  42
0.0
  10
-2.8146
  20
1.6250
  30
0.0
   0
VERTEX
   8
Layer1
   6
SOLID
  42
0.0
  10
-2.8146
  20
1.6250
  30
0.0
   0
VERTEX
   8
Layer1
   6
SOLID
  42
0.0
  10
-2.8146
  20
1.6250
  30
0.0
   0
VERTEX
   8
Layer1
   6
SOLID
  10
-2.8146
  20
1.6250
  30
0.0
  42
0.0
   0
SEQEND
   0
POLYLINE
   8
Layer1
   6
SOLID
  66
1
  40
0.0
  41
0.0
   0
VERTEX
   8
Layer1
   6
SOLID
  10
-2.6239
  20
1.4544
  30
0.0
  42
0.0
   0
VERTEX
   8
Layer1
   6
SOLID
  42
0.0
  10
-2.8425
  20
1.5756
  30
0.0
   0
VERTEX
   8
Layer1
   6
SOLID
  42
0.0
  10
-2.8425
  20
1.5756
  30
0.0
   0
VERTEX
   8
Layer1
   6
SOLID
  42
0.0
  10
-2.8425
  20
1.5756
  30
0.0
   0
VERTEX
   8
Layer1
   6
SOLID
  10
-2.8425
  20
1.5756
  30
0.0
  42
0.0
   0
SEQEND
   0
POLYLINE
   8
Layer1
   6
SOLID
  66
1
  40
0.0
  41
0.0
   0
VERTEX
   8
Layer1
   6
SOLID
  10
-2.6488
  20
1.4084
  30
0.0
  42
0.0
   0
VERTEX
   8
Layer1
   6
SOLID
  42
0.0
  10
-2.8696
  20
1.5258
  30
0.0
   0
VERTEX
   8
Layer1
   6
SOLID
  42
0.0
  10
-2.8696
  20
1.5258
  30
0.0
   0
VERTEX
   8
Layer1
   6
SOLID
  42
0.0
  10
-2.8696
  20
1.5258
  30
0.0
   0
VERTEX
   8
Layer1
   6
SOLID
  10
-2.8696
  20
1.5258
  30
0.0
  42
0.0
   0
SEQEND
   0
POLYLINE
   8
Layer1
   6
SOLID
  66
1
  40
0.0
  41
0.0
   0
VERTEX
   8
Layer1
   6
SOLID
  10
-2.6730
  20
1.3620
  30
0.0
  42
0.0
   0
VERTEX
   8
Layer1
   6
SOLID
  42
0.0
  10
-2.8958
  20
1.4755
  30
0.0
   0
VERTEX
   8
Layer1
   6
SOLID
  42
0.0
  10
-2.8958
  20
1.4755
  30
0.0
   0
VERTEX
   8
Layer1
   6
SOLID
  42
0.0
  10
-2.8958
  20
1.4755
  30
0.0
   0
VERTEX
   8
Layer1
   6
SOLID
  10
-2.8958
  20
1.4755
  30
0.0
  42
0.0
   0
SEQEND
   0
POLYLINE
   8
Layer1
   6
SOLID
  66
1
  40
0.0
  41
0.0
   0
VERTEX
   8
Layer1
   6
SOLID
  10
-2.6964
  20
1.3151
  30
0.0
  42
0.0
   0
VERTEX
   8
Layer1
   6
SOLID
  42
0.0
  10
-2.9211
  20
1.4247
  30
0.0
   0
VERTEX
   8
Layer1
   6
SOLID
  42
0.0
  10
-2.9211
  20
1.4247
  30
0.0
   0
VERTEX
   8
Layer1
   6
SOLID
  42
0.0
  10
-2.9211
  20
1.4247
  30
0.0
   0
VERTEX
   8
Layer1
   6
SOLID
  10
-2.9211
  20
1.4247
  30
0.0
  42
0.0
   0
SEQEND
   0
POLYLINE
   8
Layer1
   6
SOLID
  66
1
  40
0.0
  41
0.0
   0
VERTEX
   8
Layer1
   6
SOLID
  10
-2.4923
  20
1.1622
  30
0.0
  42
0.0
   0
VERTEX
   8
Layer1
   6
SOLID
  42
0.0
  10
-2.9455
  20
1.3735
  30
0.0
   0
VERTEX
   8
Layer1
   6
SOLID
  42
0.0
  10
-2.9455
  20
1.3735
  30
0.0
   0
VERTEX
   8
Layer1
   6
SOLID
  42
0.0
  10
-2.9455
  20
1.3735
  30
0.0
   0
VERTEX
   8
Layer1
   6
SOLID
  10
-2.9455
  20
1.3735
  30
0.0
  42
0.0
   0
SEQEND
   0
POLYLINE
   8
Layer1
   6
SOLID
  66
1
  40
0.0
  41
0.0
   0
VERTEX
   8
Layer1
   6
SOLID
  10
-2.7406
  20
1.2202
  30
0.0
  42
0.0
   0
VERTEX
   8
Layer1
   6
SOLID
  42
0.0
  10
-2.9690
  20
1.3219
  30
0.0
   0
VERTEX
   8
Layer1
   6
SOLID
  42
0.0
  10
-2.9690
  20
1.3219
  30
0.0
   0
VERTEX
   8
Layer1
   6
SOLID
  42
0.0
  10
-2.9690
  20
1.3219
  30
0.0
   0
VERTEX
   8
Layer1
   6
SOLID
  10
-2.9690
  20
1.3219
  30
0.0
  42
0.0
   0
SEQEND
   0
POLYLINE
   8
Layer1
   6
SOLID
  66
1
  40
0.0
  41
0.0
   0
VERTEX
   8
Layer1
   6
SOLID
  10
-2.7615
  20
1.1722
  30
0.0
  42
0.0
   0
VERTEX
   8
Layer1
   6
SOLID
  42
0.0
  10
-2.9916
  20
1.2699
  30
0.0
   0
VERTEX
   8
Layer1
   6
SOLID
  42
0.0
  10
-2.9916
  20
1.2699
  30
0.0
   0
VERTEX
   8
Layer1
   6
SOLID
  42
0.0
  10
-2.9916
  20
1.2699
  30
0.0
   0
VERTEX
   8
Layer1
   6
SOLID
  10
-2.9916
  20
1.2699
  30
0.0
  42
0.0
   0
SEQEND
   0
POLYLINE
   8
Layer1
   6
SOLID
  66
1
  40
0.0
  41
0.0
   0
VERTEX
   8
Layer1
   6
SOLID
  10
-2.7816
  20
1.1238
  30
0.0
  42
0.0
   0
VERTEX
   8
Layer1
   6
SOLID
  42
0.0
  10
-3.0133
  20
1.2175
  30
0.0
   0
VERTEX
   8
Layer1
   6
SOLID
  42
0.0
  10
-3.0133
  20
1.2175
  30
0.0
   0
VERTEX
   8
Layer1
   6
SOLID
  42
0.0
  10
-3.0133
  20
1.2175
  30
0.0
   0
VERTEX
   8
Layer1
   6
SOLID
  10
-3.0133
  20
1.2175
  30
0.0
  42
0.0
   0
SEQEND
   0
POLYLINE
   8
Layer1
   6
SOLID
  66
1
  40
0.0
  41
0.0
   0
VERTEX
   8
Layer1
   6
SOLID
  10
-2.8007
  20
1.0751
  30
0.0
  42
0.0
   0
VERTEX
   8
Layer1
   6
SOLID
  42
0.0
  10
-3.0341
  20
1.1647
  30
0.0
   0
VERTEX
   8
Layer1
   6
SOLID
  42
0.0
  10
-3.0341
  20
1.1647
  30
0.0
   0
VERTEX
   8
Layer1
   6
SOLID
  42
0.0
  10
-3.0341
  20
1.1647
  30
0.0
   0
VERTEX
   8
Layer1
   6
SOLID
  10
-3.0341
  20
1.1647
  30
0.0
  42
0.0
   0
SEQEND
   0
POLYLINE
   8
Layer1
   6
SOLID
  66
1
  40
0.0
  41
0.0
   0
VERTEX
   8
Layer1
   6
SOLID
  10
-2.3492
  20
0.8551
  30
0.0
  42
0.0
   0
VERTEX
   8
Layer1
   6
SOLID
  42
0.0
  10
-3.0540
  20
1.1116
  30
0.0
   0
VERTEX
   8
Layer1
   6
SOLID
  42
0.0
  10
-3.0540
  20
1.1116
  30
0.0
   0
VERTEX
   8
Layer1
   6
SOLID
  42
0.0
  10
-3.0540
  20
1.1116
  30
0.0
   0
VERTEX
   8
Layer1
   6
SOLID
  10
-3.0540
  20
1.1116
  30
0.0
  42
0.0
   0
SEQEND
   0
POLYLINE
   8
Layer1
   6
SOLID
  66
1
  40
0.0
  41
0.0
   0
VERTEX
   8
Layer1
   6
SOLID
  10
-2.8366
  20
0.9767
  30
0.0
  42
0.0
   0
VERTEX
   8
Layer1
   6
SOLID
  42
0.0
  10
-3.0729
  20
1.0581
  30
0.0
   0
VERTEX
   8
Layer1
   6
SOLID
  42
0.0
  10
-3.0729
  20
1.0581
  30
0.0
   0
VERTEX
   8
Layer1
   6
SOLID
  42
0.0
  10
-3.0729
  20
1.0581
  30
0.0
   0
VERTEX
   8
Layer1
   6
SOLID
  10
-3.0729
  20
1.0581
  30
0.0
  42
0.0
   0
SEQEND
   0
POLYLINE
   8
Layer1
   6
SOLID
  66
1
  40
0.0
  41
0.0
   0
VERTEX
   8
Layer1
   6
SOLID
  10
-2.8532
  20
0.9271
  30
0.0
  42
0.0
   0
VERTEX
   8
Layer1
   6
SOLID
  42
0.0
  10
-3.0909
  20
1.0043
  30
0.0
   0
VERTEX
   8
Layer1
   6
SOLID
  42
0.0
  10
-3.0909
  20
1.0043
  30
0.0
   0
VERTEX
   8
Layer1
   6
SOLID
  42
0.0
  10
-3.0909
  20
1.0043
  30
0.0
   0
VERTEX
   8
Layer1
   6
SOLID
  10
-3.0909
  20
1.0043
  30
0.0
  42
0.0
   0
SEQEND
   0
POLYLINE
   8
Layer1
   6
SOLID
  66
1
  40
0.0
  41
0.0
   0
VERTEX
   8
Layer1
   6
SOLID
  10
-2.8689
  20
0.8771
  30
0.0
  42
0.0
   0
VERTEX
   8
Layer1
   6
SOLID
  42
0.0
  10
-3.1080
  20
0.9502
  30
0.0
   0
VERTEX
   8
Layer1
   6
SOLID
  42
0.0
  10
-3.1080
  20
0.9502
  30
0.0
   0
VERTEX
   8
Layer1
   6
SOLID
  42
0.0
  10
-3.1080
  20
0.9502
  30
0.0
   0
VERTEX
   8
Layer1
   6
SOLID
  10
-3.1080
  20
0.9502
  30
0.0
  42
0.0
   0
SEQEND
   0
POLYLINE
   8
Layer1
   6
SOLID
  66
1
  40
0.0
  41
0.0
   0
VERTEX
   8
Layer1
   6
SOLID
  10
-2.8838
  20
0.8269
  30
0.0
  42
0.0
   0
VERTEX
   8
Layer1
   6
SOLID
  42
0.0
  10
-3.1241
  20
0.8958
  30
0.0
   0
VERTEX
   8
Layer1
   6
SOLID
  42
0.0
  10
-3.1241
  20
0.8958
  30
0.0
   0
VERTEX
   8
Layer1
   6
SOLID
  42
0.0
  10
-3.1241
  20
0.8958
  30
0.0
   0
VERTEX
   8
Layer1
   6
SOLID
  10
-3.1241
  20
0.8958
  30
0.0
  42
0.0
   0
SEQEND
   0
POLYLINE
   8
Layer1
   6
SOLID
  66
1
  40
0.0
  41
0.0
   0
VERTEX
   8
Layer1
   6
SOLID
  10
-2.6563
  20
0.7118
  30
0.0
  42
0.0
   0
VERTEX
   8
Layer1
   6
SOLID
  42
0.0
  10
-3.1393
  20
0.8412
  30
0.0
   0
VERTEX
   8
Layer1
   6
SOLID
  42
0.0
  10
-3.1393
  20
0.8412
  30
0.0
   0
VERTEX
   8
Layer1
   6
SOLID
  42
0.0
  10
-3.1393
  20
0.8412
  30
0.0
   0
VERTEX
   8
Layer1
   6
SOLID
  10
-3.1393
  20
0.8412
  30
0.0
  42
0.0
   0
SEQEND
   0
POLYLINE
   8
Layer1
   6
SOLID
  66
1
  40
0.0
  41
0.0
   0
VERTEX
   8
Layer1
   6
SOLID
  10
-2.9109
  20
0.7258
  30
0.0
  42
0.0
   0
VERTEX
   8
Layer1
   6
SOLID
  42
0.0
  10
-3.1535
  20
0.7862
  30
0.0
   0
VERTEX
   8
Layer1
   6
SOLID
  42
0.0
  10
-3.1535
  20
0.7862
  30
0.0
   0
VERTEX
   8
Layer1
   6
SOLID
  42
0.0
  10
-3.1535
  20
0.7862
  30
0.0
   0
VERTEX
   8
Layer1
   6
SOLID
  10
-3.1535
  20
0.7862
  30
0.0
  42
0.0
   0
SEQEND
   0
POLYLINE
   8
Layer1
   6
SOLID
  66
1
  40
0.0
  41
0.0
   0
VERTEX
   8
Layer1
   6
SOLID
  10
-2.9231
  20
0.6749
  30
0.0
  42
0.0
   0
VERTEX
   8
Layer1
   6
SOLID
  42
0.0
  10
-3.1667
  20
0.7311
  30
0.0
   0
VERTEX
   8
Layer1
   6
SOLID
  42
0.0
  10
-3.1667
  20
0.7311
  30
0.0
   0
VERTEX
   8
Layer1
   6
SOLID
  42
0.0
  10
-3.1667
  20
0.7311
  30
0.0
   0
VERTEX
   8
Layer1
   6
SOLID
  10
-3.1667
  20
0.7311
  30
0.0
  42
0.0
   0
SEQEND
   0
POLYLINE
   8
Layer1
   6
SOLID
  66
1
  40
0.0
  41
0.0
   0
VERTEX
   8
Layer1
   6
SOLID
  10
-2.9344
  20
0.6237
  30
0.0
  42
0.0
   0
VERTEX
   8
Layer1
   6
SOLID
  42
0.0
  10
-3.1790
  20
0.6757
  30
0.0
   0
VERTEX
   8
Layer1
   6
SOLID
  42
0.0
  10
-3.1790
  20
0.6757
  30
0.0
   0
VERTEX
   8
Layer1
   6
SOLID
  42
0.0
  10
-3.1790
  20
0.6757
  30
0.0
   0
VERTEX
   8
Layer1
   6
SOLID
  10
-3.1790
  20
0.6757
  30
0.0
  42
0.0
   0
SEQEND
   0
POLYLINE
   8
Layer1
   6
SOLID
  66
1
  40
0.0
  41
0.0
   0
VERTEX
   8
Layer1
   6
SOLID
  10
-2.9449
  20
0.5724
  30
0.0
  42
0.0
   0
VERTEX
   8
Layer1
   6
SOLID
  42
0.0
  10
-3.1903
  20
0.6201
  30
0.0
   0
VERTEX
   8
Layer1
   6
SOLID
  42
0.0
  10
-3.1903
  20
0.6201
  30
0.0
   0
VERTEX
   8
Layer1
   6
SOLID
  42
0.0
  10
-3.1903
  20
0.6201
  30
0.0
   0
VERTEX
   8
Layer1
   6
SOLID
  10
-3.1903
  20
0.6201
  30
0.0
  42
0.0
   0
SEQEND
   0
POLYLINE
   8
Layer1
   6
SOLID
  66
1
  40
0.0
  41
0.0
   0
VERTEX
   8
Layer1
   6
SOLID
  10
-2.4620
  20
0.4341
  30
0.0
  42
0.0
   0
VERTEX
   8
Layer1
   6
SOLID
  42
0.0
  10
-3.2006
  20
0.5644
  30
0.0
   0
VERTEX
   8
Layer1
   6
SOLID
  42
0.0
  10
-3.2006
  20
0.5644
  30
0.0
   0
VERTEX
   8
Layer1
   6
SOLID
  42
0.0
  10
-3.2006
  20
0.5644
  30
0.0
   0
VERTEX
   8
Layer1
   6
SOLID
  10
-3.2006
  20
0.5644
  30
0.0
  42
0.0
   0
SEQEND
   0
POLYLINE
   8
Layer1
   6
SOLID
  66
1
  40
0.0
  41
0.0
   0
VERTEX
   8
Layer1
   6
SOLID
  10
-2.9631
  20
0.4693
  30
0.0
  42
0.0
   0
VERTEX
   8
Layer1
   6
SOLID
  42
0.0
  10
-3.2100
  20
0.5084
  30
0.0
   0
VERTEX
   8
Layer1
   6
SOLID
  42
0.0
  10
-3.2100
  20
0.5084
  30
0.0
   0
VERTEX
   8
Layer1
   6
SOLID
  42
0.0
  10
-3.2100
  20
0.5084
  30
0.0
   0
VERTEX
   8
Layer1
   6
SOLID
  10
-3.2100
  20
0.5084
  30
0.0
  42
0.0
   0
SEQEND
   0
POLYLINE
   8
Layer1
   6
SOLID
  66
1
  40
0.0
  41
0.0
   0
VERTEX
   8
Layer1
   6
SOLID
  10
-2.9708
  20
0.4175
  30
0.0
  42
0.0
   0
VERTEX
   8
Layer1
   6
SOLID
  42
0.0
  10
-3.2184
  20
0.4523
  30
0.0
   0
VERTEX
   8
Layer1
   6
SOLID
  42
0.0
  10
-3.2184
  20
0.4523
  30
0.0
   0
VERTEX
   8
Layer1
   6
SOLID
  42
0.0
  10
-3.2184
  20
0.4523
  30
0.0
   0
VERTEX
   8
Layer1
   6
SOLID
  10
-3.2184
  20
0.4523
  30
0.0
  42
0.0
   0
SEQEND
   0
POLYLINE
   8
Layer1
   6
SOLID
  66
1
  40
0.0
  41
0.0
   0
VERTEX
   8
Layer1
   6
SOLID
  10
-2.9776
  20
0.3656
  30
0.0
  42
0.0
   0
VERTEX
   8
Layer1
   6
SOLID
  42
0.0
  10
-3.2258
  20
0.3961
  30
0.0
   0
VERTEX
   8
Layer1
   6
SOLID
  42
0.0
  10
-3.2258
  20
0.3961
  30
0.0
   0
VERTEX
   8
Layer1
   6
SOLID
  42
0.0
  10
-3.2258
  20
0.3961
  30
0.0
   0
VERTEX
   8
Layer1
   6
SOLID
  10
-3.2258
  20
0.3961
  30
0.0
  42
0.0
   0
SEQEND
   0
POLYLINE
   8
Layer1
   6
SOLID
  66
1
  40
0.0
  41
0.0
   0
VERTEX
   8
Layer1
   6
SOLID
  10
-2.9836
  20
0.3136
  30
0.0
  42
0.0
   0
VERTEX
   8
Layer1
   6
SOLID
  42
0.0
  10
-3.2322
  20
0.3397
  30
0.0
   0
VERTEX
   8
Layer1
   6
SOLID
  42
0.0
  10
-3.2322
  20
0.3397
  30
0.0
   0
VERTEX
   8
Layer1
   6
SOLID
  42
0.0
  10
-3.2322
  20
0.3397
  30
0.0
   0
VERTEX
   8
Layer1
   6
SOLID
  10
-3.2322
  20
0.3397
  30
0.0
  42
0.0
   0
SEQEND
   0
POLYLINE
   8
Layer1
   6
SOLID
  66
1
  40
0.0
  41
0.0
   0
VERTEX
   8
Layer1
   6
SOLID
  10
-2.7395
  20
0.2397
  30
0.0
  42
0.0
   0
VERTEX
   8
Layer1
   6
SOLID
  42
0.0
  10
-3.2376
  20
0.2833
  30
0.0
   0
VERTEX
   8
Layer1
   6
SOLID
  42
0.0
  10
-3.2376
  20
0.2833
  30
0.0
   0
VERTEX
   8
Layer1
   6
SOLID
  42
0.0
  10
-3.2376
  20
0.2833
  30
0.0
   0
VERTEX
   8
Layer1
   6
SOLID
  10
-3.2376
  20
0.2833
  30
0.0
  42
0.0
   0
SEQEND
   0
POLYLINE
   8
Layer1
   6
SOLID
  66
1
  40
0.0
  41
0.0
   0
VERTEX
   8
Layer1
   6
SOLID
  10
-2.9927
  20
0.2093
  30
0.0
  42
0.0
   0
VERTEX
   8
Layer1
   6
SOLID
  42
0.0
  10
-3.2421
  20
0.2267
  30
0.0
   0
VERTEX
   8
Layer1
   6
SOLID
  42
0.0
  10
-3.2421
  20
0.2267
  30
0.0
   0
VERTEX
   8
Layer1
   6
SOLID
  42
0.0
  10
-3.2421
  20
0.2267
  30
0.0
   0
VERTEX
   8
Layer1
   6
SOLID
  10
-3.2421
  20
0.2267
  30
0.0
  42
0.0
   0
SEQEND
   0
POLYLINE
   8
Layer1
   6
SOLID
  66
1
  40
0.0
  41
0.0
   0
VERTEX
   8
Layer1
   6
SOLID
  10
-2.9959
  20
0.1570
  30
0.0
  42
0.0
   0
VERTEX
   8
Layer1
   6
SOLID
  42
0.0
  10
-3.2455
  20
0.1701
  30
0.0
   0
VERTEX
   8
Layer1
   6
SOLID
  42
0.0
  10
-3.2455
  20
0.1701
  30
0.0
   0
VERTEX
   8
Layer1
   6
SOLID
  42
0.0
  10
-3.2455
  20
0.1701
  30
0.0
   0
VERTEX
   8
Layer1
   6
SOLID
  10
-3.2455
  20
0.1701
  30
0.0
  42
0.0
   0
SEQEND
   0
POLYLINE
   8
Layer1
   6
SOLID
  66
1
  40
0.0
  41
0.0
   0
VERTEX
   8
Layer1
   6
SOLID
  10
-2.9982
  20
0.1047
  30
0.0
  42
0.0
   0
VERTEX
   8
Layer1
   6
SOLID
  42
0.0
  10
-3.2480
  20
0.1134
  30
0.0
   0
VERTEX
   8
Layer1
   6
SOLID
  42
0.0
  10
-3.2480
  20
0.1134
  30
0.0
   0
VERTEX
   8
Layer1
   6
SOLID
  42
0.0
  10
-3.2480
  20
0.1134
  30
0.0
   0
VERTEX
   8
Layer1
   6
SOLID
  10
-3.2480
  20
0.1134
  30
0.0
  42
0.0
   0
SEQEND
   0
POLYLINE
   8
Layer1
   6
SOLID
  66
1
  40
0.0
  41
0.0
   0
VERTEX
   8
Layer1
   6
SOLID
  10
-2.9995
  20
0.0524
  30
0.0
  42
0.0
   0
VERTEX
   8
Layer1
   6
SOLID
  42
0.0
  10
-3.2495
  20
0.0567
  30
0.0
   0
VERTEX
   8
Layer1
   6
SOLID
  42
0.0
  10
-3.2495
  20
0.0567
  30
0.0
   0
VERTEX
   8
Layer1
   6
SOLID
  42
0.0
  10
-3.2495
  20
0.0567
  30
0.0
   0
VERTEX
   8
Layer1
   6
SOLID
  10
-3.2495
  20
0.0567
  30
0.0
  42
0.0
   0
SEQEND
   0
POLYLINE
   8
Layer1
   6
SOLID
  66
1
  40
0.0
  41
0.0
   0
VERTEX
   8
Layer1
   6
SOLID
  10
-2.5000
  20
2.7974E-016
  30
0.0
  42
0.0
   0
VERTEX
   8
Layer1
   6
SOLID
  42
0.0
  10
-3.2500
  20
3.4968E-016
  30
0.0
   0
VERTEX
   8
Layer1
   6
SOLID
  42
0.0
  10
-3.2500
  20
3.4968E-016
  30
0.0
   0
VERTEX
   8
Layer1
   6
SOLID
  42
0.0
  10
-3.2500
  20
3.4968E-016
  30
0.0
   0
VERTEX
   8
Layer1
   6
SOLID
  10
-3.2500
  20
3.4968E-016
  30
0.0
  42
0.0
   0
SEQEND
   0
POLYLINE
   8
Layer1
   6
SOLID
  66
1
  40
0.0
  41
0.0
   0
VERTEX
   8
Layer1
   6
SOLID
  10
-2.9995
  20
-0.0524
  30
0.0
  42
0.0
   0
VERTEX
   8
Layer1
   6
SOLID
  42
0.0
  10
-3.2495
  20
-0.0567
  30
0.0
   0
VERTEX
   8
Layer1
   6
SOLID
  42
0.0
  10
-3.2495
  20
-0.0567
  30
0.0
   0
VERTEX
   8
Layer1
   6
SOLID
  42
0.0
  10
-3.2495
  20
-0.0567
  30
0.0
   0
VERTEX
   8
Layer1
   6
SOLID
  10
-3.2495
  20
-0.0567
  30
0.0
  42
0.0
   0
SEQEND
   0
POLYLINE
   8
Layer1
   6
SOLID
  66
1
  40
0.0
  41
0.0
   0
VERTEX
   8
Layer1
   6
SOLID
  10
-2.9982
  20
-0.1047
  30
0.0
  42
0.0
   0
VERTEX
   8
Layer1
   6
SOLID
  42
0.0
  10
-3.2480
  20
-0.1134
  30
0.0
   0
VERTEX
   8
Layer1
   6
SOLID
  42
0.0
  10
-3.2480
  20
-0.1134
  30
0.0
   0
VERTEX
   8
Layer1
   6
SOLID
  42
0.0
  10
-3.2480
  20
-0.1134
  30
0.0
   0
VERTEX
   8
Layer1
   6
SOLID
  10
-3.2480
  20
-0.1134
  30
0.0
  42
0.0
   0
SEQEND
   0
POLYLINE
   8
Layer1
   6
SOLID
  66
1
  40
0.0
  41
0.0
   0
VERTEX
   8
Layer1
   6
SOLID
  10
-2.9959
  20
-0.1570
  30
0.0
  42
0.0
   0
VERTEX
   8
Layer1
   6
SOLID
  42
0.0
  10
-3.2455
  20
-0.1701
  30
0.0
   0
VERTEX
   8
Layer1
   6
SOLID
  42
0.0
  10
-3.2455
  20
-0.1701
  30
0.0
   0
VERTEX
   8
Layer1
   6
SOLID
  42
0.0
  10
-3.2455
  20
-0.1701
  30
0.0
   0
VERTEX
   8
Layer1
   6
SOLID
  10
-3.2455
  20
-0.1701
  30
0.0
  42
0.0
   0
SEQEND
   0
POLYLINE
   8
Layer1
   6
SOLID
  66
1
  40
0.0
  41
0.0
   0
VERTEX
   8
Layer1
   6
SOLID
  10
-2.9927
  20
-0.2093
  30
0.0
  42
0.0
   0
VERTEX
   8
Layer1
   6
SOLID
  42
0.0
  10
-3.2421
  20
-0.2267
  30
0.0
   0
VERTEX
   8
Layer1
   6
SOLID
  42
0.0
  10
-3.2421
  20
-0.2267
  30
0.0
   0
VERTEX
   8
Layer1
   6
SOLID
  42
0.0
  10
-3.2421
  20
-0.2267
  30
0.0
   0
VERTEX
   8
Layer1
   6
SOLID
  10
-3.2421
  20
-0.2267
  30
0.0
  42
0.0
   0
SEQEND
   0
POLYLINE
   8
Layer1
   6
SOLID
  66
1
  40
0.0
  41
0.0
   0
VERTEX
   8
Layer1
   6
SOLID
  10
-2.7395
  20
-0.2397
  30
0.0
  42
0.0
   0
VERTEX
   8
Layer1
   6
SOLID
  42
0.0
  10
-3.2376
  20
-0.2833
  30
0.0
   0
VERTEX
   8
Layer1
   6
SOLID
  42
0.0
  10
-3.2376
  20
-0.2833
  30
0.0
   0
VERTEX
   8
Layer1
   6
SOLID
  42
0.0
  10
-3.2376
  20
-0.2833
  30
0.0
   0
VERTEX
   8
Layer1
   6
SOLID
  10
-3.2376
  20
-0.2833
  30
0.0
  42
0.0
   0
SEQEND
   0
POLYLINE
   8
Layer1
   6
SOLID
  66
1
  40
0.0
  41
0.0
   0
VERTEX
   8
Layer1
   6
SOLID
  10
-2.9836
  20
-0.3136
  30
0.0
  42
0.0
   0
VERTEX
   8
Layer1
   6
SOLID
  42
0.0
  10
-3.2322
  20
-0.3397
  30
0.0
   0
VERTEX
   8
Layer1
   6
SOLID
  42
0.0
  10
-3.2322
  20
-0.3397
  30
0.0
   0
VERTEX
   8
Layer1
   6
SOLID
  42
0.0
  10
-3.2322
  20
-0.3397
  30
0.0
   0
VERTEX
   8
Layer1
   6
SOLID
  10
-3.2322
  20
-0.3397
  30
0.0
  42
0.0
   0
SEQEND
   0
POLYLINE
   8
Layer1
   6
SOLID
  66
1
  40
0.0
  41
0.0
   0
VERTEX
   8
Layer1
   6
SOLID
  10
-2.9776
  20
-0.3656
  30
0.0
  42
0.0
   0
VERTEX
   8
Layer1
   6
SOLID
  42
0.0
  10
-3.2258
  20
-0.3961
  30
0.0
   0
VERTEX
   8
Layer1
   6
SOLID
  42
0.0
  10
-3.2258
  20
-0.3961
  30
0.0
   0
VERTEX
   8
Layer1
   6
SOLID
  42
0.0
  10
-3.2258
  20
-0.3961
  30
0.0
   0
VERTEX
   8
Layer1
   6
SOLID
  10
-3.2258
  20
-0.3961
  30
0.0
  42
0.0
   0
SEQEND
   0
POLYLINE
   8
Layer1
   6
SOLID
  66
1
  40
0.0
  41
0.0
   0
VERTEX
   8
Layer1
   6
SOLID
  10
-2.9708
  20
-0.4175
  30
0.0
  42
0.0
   0
VERTEX
   8
Layer1
   6
SOLID
  42
0.0
  10
-3.2184
  20
-0.4523
  30
0.0
   0
VERTEX
   8
Layer1
   6
SOLID
  42
0.0
  10
-3.2184
  20
-0.4523
  30
0.0
   0
VERTEX
   8
Layer1
   6
SOLID
  42
0.0
  10
-3.2184
  20
-0.4523
  30
0.0
   0
VERTEX
   8
Layer1
   6
SOLID
  10
-3.2184
  20
-0.4523
  30
0.0
  42
0.0
   0
SEQEND
   0
POLYLINE
   8
Layer1
   6
SOLID
  66
1
  40
0.0
  41
0.0
   0
VERTEX
   8
Layer1
   6
SOLID
  10
-2.9631
  20
-0.4693
  30
0.0
  42
0.0
   0
VERTEX
   8
Layer1
   6
SOLID
  42
0.0
  10
-3.2100
  20
-0.5084
  30
0.0
   0
VERTEX
   8
Layer1
   6
SOLID
  42
0.0
  10
-3.2100
  20
-0.5084
  30
0.0
   0
VERTEX
   8
Layer1
   6
SOLID
  42
0.0
  10
-3.2100
  20
-0.5084
  30
0.0
   0
VERTEX
   8
Layer1
   6
SOLID
  10
-3.2100
  20
-0.5084
  30
0.0
  42
0.0
   0
SEQEND
   0
POLYLINE
   8
Layer1
   6
SOLID
  66
1
  40
0.0
  41
0.0
   0
VERTEX
   8
Layer1
   6
SOLID
  10
-2.4620
  20
-0.4341
  30
0.0
  42
0.0
   0
VERTEX
   8
Layer1
   6
SOLID
  42
0.0
  10
-3.2006
  20
-0.5644
  30
0.0
   0
VERTEX
   8
Layer1
   6
SOLID
  42
0.0
  10
-3.2006
  20
-0.5644
  30
0.0
   0
VERTEX
   8
Layer1
   6
SOLID
  42
0.0
  10
-3.2006
  20
-0.5644
  30
0.0
   0
VERTEX
   8
Layer1
   6
SOLID
  10
-3.2006
  20
-0.5644
  30
0.0
  42
0.0
   0
SEQEND
   0
POLYLINE
   8
Layer1
   6
SOLID
  66
1
  40
0.0
  41
0.0
   0
VERTEX
   8
Layer1
   6
SOLID
  10
-2.9449
  20
-0.5724
  30
0.0
  42
0.0
   0
VERTEX
   8
Layer1
   6
SOLID
  42
0.0
  10
-3.1903
  20
-0.6201
  30
0.0
   0
VERTEX
   8
Layer1
   6
SOLID
  42
0.0
  10
-3.1903
  20
-0.6201
  30
0.0
   0
VERTEX
   8
Layer1
   6
SOLID
  42
0.0
  10
-3.1903
  20
-0.6201
  30
0.0
   0
VERTEX
   8
Layer1
   6
SOLID
  10
-3.1903
  20
-0.6201
  30
0.0
  42
0.0
   0
SEQEND
   0
POLYLINE
   8
Layer1
   6
SOLID
  66
1
  40
0.0
  41
0.0
   0
VERTEX
   8
Layer1
   6
SOLID
  10
-2.9344
  20
-0.6237
  30
0.0
  42
0.0
   0
VERTEX
   8
Layer1
   6
SOLID
  42
0.0
  10
-3.1790
  20
-0.6757
  30
0.0
   0
VERTEX
   8
Layer1
   6
SOLID
  42
0.0
  10
-3.1790
  20
-0.6757
  30
0.0
   0
VERTEX
   8
Layer1
   6
SOLID
  42
0.0
  10
-3.1790
  20
-0.6757
  30
0.0
   0
VERTEX
   8
Layer1
   6
SOLID
  10
-3.1790
  20
-0.6757
  30
0.0
  42
0.0
   0
SEQEND
   0
POLYLINE
   8
Layer1
   6
SOLID
  66
1
  40
0.0
  41
0.0
   0
VERTEX
   8
Layer1
   6
SOLID
  10
-2.9231
  20
-0.6749
  30
0.0
  42
0.0
   0
VERTEX
   8
Layer1
   6
SOLID
  42
0.0
  10
-3.1667
  20
-0.7311
  30
0.0
   0
VERTEX
   8
Layer1
   6
SOLID
  42
0.0
  10
-3.1667
  20
-0.7311
  30
0.0
   0
VERTEX
   8
Layer1
   6
SOLID
  42
0.0
  10
-3.1667
  20
-0.7311
  30
0.0
   0
VERTEX
   8
Layer1
   6
SOLID
  10
-3.1667
  20
-0.7311
  30
0.0
  42
0.0
   0
SEQEND
   0
POLYLINE
   8
Layer1
   6
SOLID
  66
1
  40
0.0
  41
0.0
   0
VERTEX
   8
Layer1
   6
SOLID
  10
-2.9109
  20
-0.7258
  30
0.0
  42
0.0
   0
VERTEX
   8
Layer1
   6
SOLID
  42
0.0
  10
-3.1535
  20
-0.7862
  30
0.0
   0
VERTEX
   8
Layer1
   6
SOLID
  42
0.0
  10
-3.1535
  20
-0.7862
  30
0.0
   0
VERTEX
   8
Layer1
   6
SOLID
  42
0.0
  10
-3.1535
  20
-0.7862
  30
0.0
   0
VERTEX
   8
Layer1
   6
SOLID
  10
-3.1535
  20
-0.7862
  30
0.0
  42
0.0
   0
SEQEND
   0
POLYLINE
   8
Layer1
   6
SOLID
  66
1
  40
0.0
  41
0.0
   0
VERTEX
   8
Layer1
   6
SOLID
  10
-2.6563
  20
-0.7118
  30
0.0
  42
0.0
   0
VERTEX
   8
Layer1
   6
SOLID
  42
0.0
  10
-3.1393
  20
-0.8412
  30
0.0
   0
VERTEX
   8
Layer1
   6
SOLID
  42
0.0
  10
-3.1393
  20
-0.8412
  30
0.0
   0
VERTEX
   8
Layer1
   6
SOLID
  42
0.0
  10
-3.1393
  20
-0.8412
  30
0.0
   0
VERTEX
   8
Layer1
   6
SOLID
  10
-3.1393
  20
-0.8412
  30
0.0
  42
0.0
   0
SEQEND
   0
POLYLINE
   8
Layer1
   6
SOLID
  66
1
  40
0.0
  41
0.0
   0
VERTEX
   8
Layer1
   6
SOLID
  10
-2.8838
  20
-0.8269
  30
0.0
  42
0.0
   0
VERTEX
   8
Layer1
   6
SOLID
  42
0.0
  10
-3.1241
  20
-0.8958
  30
0.0
   0
VERTEX
   8
Layer1
   6
SOLID
  42
0.0
  10
-3.1241
  20
-0.8958
  30
0.0
   0
VERTEX
   8
Layer1
   6
SOLID
  42
0.0
  10
-3.1241
  20
-0.8958
  30
0.0
   0
VERTEX
   8
Layer1
   6
SOLID
  10
-3.1241
  20
-0.8958
  30
0.0
  42
0.0
   0
SEQEND
   0
POLYLINE
   8
Layer1
   6
SOLID
  66
1
  40
0.0
  41
0.0
   0
VERTEX
   8
Layer1
   6
SOLID
  10
-2.8689
  20
-0.8771
  30
0.0
  42
0.0
   0
VERTEX
   8
Layer1
   6
SOLID
  42
0.0
  10
-3.1080
  20
-0.9502
  30
0.0
   0
VERTEX
   8
Layer1
   6
SOLID
  42
0.0
  10
-3.1080
  20
-0.9502
  30
0.0
   0
VERTEX
   8
Layer1
   6
SOLID
  42
0.0
  10
-3.1080
  20
-0.9502
  30
0.0
   0
VERTEX
   8
Layer1
   6
SOLID
  10
-3.1080
  20
-0.9502
  30
0.0
  42
0.0
   0
SEQEND
   0
POLYLINE
   8
Layer1
   6
SOLID
  66
1
  40
0.0
  41
0.0
   0
VERTEX
   8
Layer1
   6
SOLID
  10
-2.8532
  20
-0.9271
  30
0.0
  42
0.0
   0
VERTEX
   8
Layer1
   6
SOLID
  42
0.0
  10
-3.0909
  20
-1.0043
  30
0.0
   0
VERTEX
   8
Layer1
   6
SOLID
  42
0.0
  10
-3.0909
  20
-1.0043
  30
0.0
   0
VERTEX
   8
Layer1
   6
SOLID
  42
0.0
  10
-3.0909
  20
-1.0043
  30
0.0
   0
VERTEX
   8
Layer1
   6
SOLID
  10
-3.0909
  20
-1.0043
  30
0.0
  42
0.0
   0
SEQEND
   0
POLYLINE
   8
Layer1
   6
SOLID
  66
1
  40
0.0
  41
0.0
   0
VERTEX
   8
Layer1
   6
SOLID
  10
-2.8366
  20
-0.9767
  30
0.0
  42
0.0
   0
VERTEX
   8
Layer1
   6
SOLID
  42
0.0
  10
-3.0729
  20
-1.0581
  30
0.0
   0
VERTEX
   8
Layer1
   6
SOLID
  42
0.0
  10
-3.0729
  20
-1.0581
  30
0.0
   0
VERTEX
   8
Layer1
   6
SOLID
  42
0.0
  10
-3.0729
  20
-1.0581
  30
0.0
   0
VERTEX
   8
Layer1
   6
SOLID
  10
-3.0729
  20
-1.0581
  30
0.0
  42
0.0
   0
SEQEND
   0
POLYLINE
   8
Layer1
   6
SOLID
  66
1
  40
0.0
  41
0.0
   0
VERTEX
   8
Layer1
   6
SOLID
  10
-2.3492
  20
-0.8551
  30
0.0
  42
0.0
   0
VERTEX
   8
Layer1
   6
SOLID
  42
0.0
  10
-3.0540
  20
-1.1116
  30
0.0
   0
VERTEX
   8
Layer1
   6
SOLID
  42
0.0
  10
-3.0540
  20
-1.1116
  30
0.0
   0
VERTEX
   8
Layer1
   6
SOLID
  42
0.0
  10
-3.0540
  20
-1.1116
  30
0.0
   0
VERTEX
   8
Layer1
   6
SOLID
  10
-3.0540
  20
-1.1116
  30
0.0
  42
0.0
   0
SEQEND
   0
POLYLINE
   8
Layer1
   6
SOLID
  66
1
  40
0.0
  41
0.0
   0
VERTEX
   8
Layer1
   6
SOLID
  10
-2.8007
  20
-1.0751
  30
0.0
  42
0.0
   0
VERTEX
   8
Layer1
   6
SOLID
  42
0.0
  10
-3.0341
  20
-1.1647
  30
0.0
   0
VERTEX
   8
Layer1
   6
SOLID
  42
0.0
  10
-3.0341
  20
-1.1647
  30
0.0
   0
VERTEX
   8
Layer1
   6
SOLID
  42
0.0
  10
-3.0341
  20
-1.1647
  30
0.0
   0
VERTEX
   8
Layer1
   6
SOLID
  10
-3.0341
  20
-1.1647
  30
0.0
  42
0.0
   0
SEQEND
   0
POLYLINE
   8
Layer1
   6
SOLID
  66
1
  40
0.0
  41
0.0
   0
VERTEX
   8
Layer1
   6
SOLID
  10
-2.7816
  20
-1.1238
  30
0.0
  42
0.0
   0
VERTEX
   8
Layer1
   6
SOLID
  42
0.0
  10
-3.0133
  20
-1.2175
  30
0.0
   0
VERTEX
   8
Layer1
   6
SOLID
  42
0.0
  10
-3.0133
  20
-1.2175
  30
0.0
   0
VERTEX
   8
Layer1
   6
SOLID
  42
0.0
  10
-3.0133
  20
-1.2175
  30
0.0
   0
VERTEX
   8
Layer1
   6
SOLID
  10
-3.0133
  20
-1.2175
  30
0.0
  42
0.0
   0
SEQEND
   0
POLYLINE
   8
Layer1
   6
SOLID
  66
1
  40
0.0
  41
0.0
   0
VERTEX
   8
Layer1
   6
SOLID
  10
-2.7615
  20
-1.1722
  30
0.0
  42
0.0
   0
VERTEX
   8
Layer1
   6
SOLID
  42
0.0
  10
-2.9916
  20
-1.2699
  30
0.0
   0
VERTEX
   8
Layer1
   6
SOLID
  42
0.0
  10
-2.9916
  20
-1.2699
  30
0.0
   0
VERTEX
   8
Layer1
   6
SOLID
  42
0.0
  10
-2.9916
  20
-1.2699
  30
0.0
   0
VERTEX
   8
Layer1
   6
SOLID
  10
-2.9916
  20
-1.2699
  30
0.0
  42
0.0
   0
SEQEND
   0
POLYLINE
   8
Layer1
   6
SOLID
  66
1
  40
0.0
  41
0.0
   0
VERTEX
   8
Layer1
   6
SOLID
  10
-2.7406
  20
-1.2202
  30
0.0
  42
0.0
   0
VERTEX
   8
Layer1
   6
SOLID
  42
0.0
  10
-2.9690
  20
-1.3219
  30
0.0
   0
VERTEX
   8
Layer1
   6
SOLID
  42
0.0
  10
-2.9690
  20
-1.3219
  30
0.0
   0
VERTEX
   8
Layer1
   6
SOLID
  42
0.0
  10
-2.9690
  20
-1.3219
  30
0.0
   0
VERTEX
   8
Layer1
   6
SOLID
  10
-2.9690
  20
-1.3219
  30
0.0
  42
0.0
   0
SEQEND
   0
POLYLINE
   8
Layer1
   6
SOLID
  66
1
  40
0.0
  41
0.0
   0
VERTEX
   8
Layer1
   6
SOLID
  10
-2.4923
  20
-1.1622
  30
0.0
  42
0.0
   0
VERTEX
   8
Layer1
   6
SOLID
  42
0.0
  10
-2.9455
  20
-1.3735
  30
0.0
   0
VERTEX
   8
Layer1
   6
SOLID
  42
0.0
  10
-2.9455
  20
-1.3735
  30
0.0
   0
VERTEX
   8
Layer1
   6
SOLID
  42
0.0
  10
-2.9455
  20
-1.3735
  30
0.0
   0
VERTEX
   8
Layer1
   6
SOLID
  10
-2.9455
  20
-1.3735
  30
0.0
  42
0.0
   0
SEQEND
   0
POLYLINE
   8
Layer1
   6
SOLID
  66
1
  40
0.0
  41
0.0
   0
VERTEX
   8
Layer1
   6
SOLID
  10
-2.6964
  20
-1.3151
  30
0.0
  42
0.0
   0
VERTEX
   8
Layer1
   6
SOLID
  42
0.0
  10
-2.9211
  20
-1.4247
  30
0.0
   0
VERTEX
   8
Layer1
   6
SOLID
  42
0.0
  10
-2.9211
  20
-1.4247
  30
0.0
   0
VERTEX
   8
Layer1
   6
SOLID
  42
0.0
  10
-2.9211
  20
-1.4247
  30
0.0
   0
VERTEX
   8
Layer1
   6
SOLID
  10
-2.9211
  20
-1.4247
  30
0.0
  42
0.0
   0
SEQEND
   0
POLYLINE
   8
Layer1
   6
SOLID
  66
1
  40
0.0
  41
0.0
   0
VERTEX
   8
Layer1
   6
SOLID
  10
-2.6730
  20
-1.3620
  30
0.0
  42
0.0
   0
VERTEX
   8
Layer1
   6
SOLID
  42
0.0
  10
-2.8958
  20
-1.4755
  30
0.0
   0
VERTEX
   8
Layer1
   6
SOLID
  42
0.0
  10
-2.8958
  20
-1.4755
  30
0.0
   0
VERTEX
   8
Layer1
   6
SOLID
  42
0.0
  10
-2.8958
  20
-1.4755
  30
0.0
   0
VERTEX
   8
Layer1
   6
SOLID
  10
-2.8958
  20
-1.4755
  30
0.0
  42
0.0
   0
SEQEND
   0
POLYLINE
   8
Layer1
   6
SOLID
  66
1
  40
0.0
  41
0.0
   0
VERTEX
   8
Layer1
   6
SOLID
  10
-2.6488
  20
-1.4084
  30
0.0
  42
0.0
   0
VERTEX
   8
Layer1
   6
SOLID
  42
0.0
  10
-2.8696
  20
-1.5258
  30
0.0
   0
VERTEX
   8
Layer1
   6
SOLID
  42
0.0
  10
-2.8696
  20
-1.5258
  30
0.0
   0
VERTEX
   8
Layer1
   6
SOLID
  42
0.0
  10
-2.8696
  20
-1.5258
  30
0.0
   0
VERTEX
   8
Layer1
   6
SOLID
  10
-2.8696
  20
-1.5258
  30
0.0
  42
0.0
   0
SEQEND
   0
POLYLINE
   8
Layer1
   6
SOLID
  66
1
  40
0.0
  41
0.0
   0
VERTEX
   8
Layer1
   6
SOLID
  10
-2.6239
  20
-1.4544
  30
0.0
  42
0.0
   0
VERTEX
   8
Layer1
   6
SOLID
  42
0.0
  10
-2.8425
  20
-1.5756
  30
0.0
   0
VERTEX
   8
Layer1
   6
SOLID
  42
0.0
  10
-2.8425
  20
-1.5756
  30
0.0
   0
VERTEX
   8
Layer1
   6
SOLID
  42
0.0
  10
-2.8425
  20
-1.5756
  30
0.0
   0
VERTEX
   8
Layer1
   6
SOLID
  10
-2.8425
  20
-1.5756
  30
0.0
  42
0.0
   0
SEQEND
   0
POLYLINE
   8
Layer1
   6
SOLID
  66
1
  40
0.0
  41
0.0
   0
VERTEX
   8
Layer1
   6
SOLID
  10
-2.1651
  20
-1.2500
  30
0.0
  42
0.0
   0
VERTEX
   8
Layer1
   6
SOLID
  42
0.0
  10
-2.8146
  20
-1.6250
  30
0.0
   0
VERTEX
   8
Layer1
   6
SOLID
  42
0.0
  10
-2.8146
  20
-1.6250
  30
0.0
   0
VERTEX
   8
Layer1
   6
SOLID
  42
0.0
  10
-2.8146
  20
-1.6250
  30
0.0
   0
VERTEX
   8
Layer1
   6
SOLID
  10
-2.8146
  20
-1.6250
  30
0.0
  42
0.0
   0
SEQEND
   0
POLYLINE
   8
Layer1
   6
SOLID
  66
1
  40
0.0
  41
0.0
   0
VERTEX
   8
Layer1
   6
SOLID
  10
-2.5715
  20
-1.5451
  30
0.0
  42
0.0
   0
VERTEX
   8
Layer1
   6
SOLID
  42
0.0
  10
-2.7858
  20
-1.6739
  30
0.0
   0
VERTEX
   8
Layer1
   6
SOLID
  42
0.0
  10
-2.7858
  20
-1.6739
  30
0.0
   0
VERTEX
   8
Layer1
   6
SOLID
  42
0.0
  10
-2.7858
  20
-1.6739
  30
0.0
   0
VERTEX
   8
Layer1
   6
SOLID
  10
-2.7858
  20
-1.6739
  30
0.0
  42
0.0
   0
SEQEND
   0
POLYLINE
   8
Layer1
   6
SOLID
  66
1
  40
0.0
  41
0.0
   0
VERTEX
   8
Layer1
   6
SOLID
  10
-2.5441
  20
-1.5898
  30
0.0
  42
0.0
   0
VERTEX
   8
Layer1
   6
SOLID
  42
0.0
  10
-2.7562
  20
-1.7222
  30
0.0
   0
VERTEX
   8
Layer1
   6
SOLID
  42
0.0
  10
-2.7562
  20
-1.7222
  30
0.0
   0
VERTEX
   8
Layer1
   6
SOLID
  42
0.0
  10
-2.7562
  20
-1.7222
  30
0.0
   0
VERTEX
   8
Layer1
   6
SOLID
  10
-2.7562
  20
-1.7222
  30
0.0
  42
0.0
   0
SEQEND
   0
POLYLINE
   8
Layer1
   6
SOLID
  66
1
  40
0.0
  41
0.0
   0
VERTEX
   8
Layer1
   6
SOLID
  10
-2.5160
  20
-1.6339
  30
0.0
  42
0.0
   0
VERTEX
   8
Layer1
   6
SOLID
  42
0.0
  10
-2.7257
  20
-1.7701
  30
0.0
   0
VERTEX
   8
Layer1
   6
SOLID
  42
0.0
  10
-2.7257
  20
-1.7701
  30
0.0
   0
VERTEX
   8
Layer1
   6
SOLID
  42
0.0
  10
-2.7257
  20
-1.7701
  30
0.0
   0
VERTEX
   8
Layer1
   6
SOLID
  10
-2.7257
  20
-1.7701
  30
0.0
  42
0.0
   0
SEQEND
   0
POLYLINE
   8
Layer1
   6
SOLID
  66
1
  40
0.0
  41
0.0
   0
VERTEX
   8
Layer1
   6
SOLID
  10
-2.4871
  20
-1.6776
  30
0.0
  42
0.0
   0
VERTEX
   8
Layer1
   6
SOLID
  42
0.0
  10
-2.6944
  20
-1.8174
  30
0.0
   0
VERTEX
   8
Layer1
   6
SOLID
  42
0.0
  10
-2.6944
  20
-1.8174
  30
0.0
   0
VERTEX
   8
Layer1
   6
SOLID
  42
0.0
  10
-2.6944
  20
-1.8174
  30
0.0
   0
VERTEX
   8
Layer1
   6
SOLID
  10
-2.6944
  20
-1.8174
  30
0.0
  42
0.0
   0
SEQEND
   0
POLYLINE
   8
Layer1
   6
SOLID
  66
1
  40
0.0
  41
0.0
   0
VERTEX
   8
Layer1
   6
SOLID
  10
-2.2527
  20
-1.5773
  30
0.0
  42
0.0
   0
VERTEX
   8
Layer1
   6
SOLID
  42
0.0
  10
-2.6622
  20
-1.8641
  30
0.0
   0
VERTEX
   8
Layer1
   6
SOLID
  42
0.0
  10
-2.6622
  20
-1.8641
  30
0.0
   0
VERTEX
   8
Layer1
   6
SOLID
  42
0.0
  10
-2.6622
  20
-1.8641
  30
0.0
   0
VERTEX
   8
Layer1
   6
SOLID
  10
-2.6622
  20
-1.8641
  30
0.0
  42
0.0
   0
SEQEND
   0
POLYLINE
   8
Layer1
   6
SOLID
  66
1
  40
0.0
  41
0.0
   0
VERTEX
   8
Layer1
   6
SOLID
  10
-2.4271
  20
-1.7634
  30
0.0
  42
0.0
   0
VERTEX
   8
Layer1
   6
SOLID
  42
0.0
  10
-2.6293
  20
-1.9103
  30
0.0
   0
VERTEX
   8
Layer1
   6
SOLID
  42
0.0
  10
-2.6293
  20
-1.9103
  30
0.0
   0
VERTEX
   8
Layer1
   6
SOLID
  42
0.0
  10
-2.6293
  20
-1.9103
  30
0.0
   0
VERTEX
   8
Layer1
   6
SOLID
  10
-2.6293
  20
-1.9103
  30
0.0
  42
0.0
   0
SEQEND
   0
POLYLINE
   8
Layer1
   6
SOLID
  66
1
  40
0.0
  41
0.0
   0
VERTEX
   8
Layer1
   6
SOLID
  10
-2.3959
  20
-1.8054
  30
0.0
  42
0.0
   0
VERTEX
   8
Layer1
   6
SOLID
  42
0.0
  10
-2.5956
  20
-1.9559
  30
0.0
   0
VERTEX
   8
Layer1
   6
SOLID
  42
0.0
  10
-2.5956
  20
-1.9559
  30
0.0
   0
VERTEX
   8
Layer1
   6
SOLID
  42
0.0
  10
-2.5956
  20
-1.9559
  30
0.0
   0
VERTEX
   8
Layer1
   6
SOLID
  10
-2.5956
  20
-1.9559
  30
0.0
  42
0.0
   0
SEQEND
   0
POLYLINE
   8
Layer1
   6
SOLID
  66
1
  40
0.0
  41
0.0
   0
VERTEX
   8
Layer1
   6
SOLID
  10
-2.3640
  20
-1.8470
  30
0.0
  42
0.0
   0
VERTEX
   8
Layer1
   6
SOLID
  42
0.0
  10
-2.5610
  20
-2.0009
  30
0.0
   0
VERTEX
   8
Layer1
   6
SOLID
  42
0.0
  10
-2.5610
  20
-2.0009
  30
0.0
   0
VERTEX
   8
Layer1
   6
SOLID
  42
0.0
  10
-2.5610
  20
-2.0009
  30
0.0
   0
VERTEX
   8
Layer1
   6
SOLID
  10
-2.5610
  20
-2.0009
  30
0.0
  42
0.0
   0
SEQEND
   0
POLYLINE
   8
Layer1
   6
SOLID
  66
1
  40
0.0
  41
0.0
   0
VERTEX
   8
Layer1
   6
SOLID
  10
-2.3314
  20
-1.8880
  30
0.0
  42
0.0
   0
VERTEX
   8
Layer1
   6
SOLID
  42
0.0
  10
-2.5257
  20
-2.0453
  30
0.0
   0
VERTEX
   8
Layer1
   6
SOLID
  42
0.0
  10
-2.5257
  20
-2.0453
  30
0.0
   0
VERTEX
   8
Layer1
   6
SOLID
  42
0.0
  10
-2.5257
  20
-2.0453
  30
0.0
   0
VERTEX
   8
Layer1
   6
SOLID
  10
-2.5257
  20
-2.0453
  30
0.0
  42
0.0
   0
SEQEND
   0
POLYLINE
   8
Layer1
   6
SOLID
  66
1
  40
0.0
  41
0.0
   0
VERTEX
   8
Layer1
   6
SOLID
  10
-1.9151
  20
-1.6070
  30
0.0
  42
0.0
   0
VERTEX
   8
Layer1
   6
SOLID
  42
0.0
  10
-2.4896
  20
-2.0891
  30
0.0
   0
VERTEX
   8
Layer1
   6
SOLID
  42
0.0
  10
-2.4896
  20
-2.0891
  30
0.0
   0
VERTEX
   8
Layer1
   6
SOLID
  42
0.0
  10
-2.4896
  20
-2.0891
  30
0.0
   0
VERTEX
   8
Layer1
   6
SOLID
  10
-2.4896
  20
-2.0891
  30
0.0
  42
0.0
   0
SEQEND
   0
POLYLINE
   8
Layer1
   6
SOLID
  66
1
  40
0.0
  41
0.0
   0
VERTEX
   8
Layer1
   6
SOLID
  10
-2.2641
  20
-1.9682
  30
0.0
  42
0.0
   0
VERTEX
   8
Layer1
   6
SOLID
  42
0.0
  10
-2.4528
  20
-2.1322
  30
0.0
   0
VERTEX
   8
Layer1
   6
SOLID
  42
0.0
  10
-2.4528
  20
-2.1322
  30
0.0
   0
VERTEX
   8
Layer1
   6
SOLID
  42
0.0
  10
-2.4528
  20
-2.1322
  30
0.0
   0
VERTEX
   8
Layer1
   6
SOLID
  10
-2.4528
  20
-2.1322
  30
0.0
  42
0.0
   0
SEQEND
   0
POLYLINE
   8
Layer1
   6
SOLID
  66
1
  40
0.0
  41
0.0
   0
VERTEX
   8
Layer1
   6
SOLID
  10
-2.2294
  20
-2.0074
  30
0.0
  42
0.0
   0
VERTEX
   8
Layer1
   6
SOLID
  42
0.0
  10
-2.4152
  20
-2.1747
  30
0.0
   0
VERTEX
   8
Layer1
   6
SOLID
  42
0.0
  10
-2.4152
  20
-2.1747
  30
0.0
   0
VERTEX
   8
Layer1
   6
SOLID
  42
0.0
  10
-2.4152
  20
-2.1747
  30
0.0
   0
VERTEX
   8
Layer1
   6
SOLID
  10
-2.4152
  20
-2.1747
  30
0.0
  42
0.0
   0
SEQEND
   0
POLYLINE
   8
Layer1
   6
SOLID
  66
1
  40
0.0
  41
0.0
   0
VERTEX
   8
Layer1
   6
SOLID
  10
-2.1941
  20
-2.0460
  30
0.0
  42
0.0
   0
VERTEX
   8
Layer1
   6
SOLID
  42
0.0
  10
-2.3769
  20
-2.2165
  30
0.0
   0
VERTEX
   8
Layer1
   6
SOLID
  42
0.0
  10
-2.3769
  20
-2.2165
  30
0.0
   0
VERTEX
   8
Layer1
   6
SOLID
  42
0.0
  10
-2.3769
  20
-2.2165
  30
0.0
   0
VERTEX
   8
Layer1
   6
SOLID
  10
-2.3769
  20
-2.2165
  30
0.0
  42
0.0
   0
SEQEND
   0
POLYLINE
   8
Layer1
   6
SOLID
  66
1
  40
0.0
  41
0.0
   0
VERTEX
   8
Layer1
   6
SOLID
  10
-2.1580
  20
-2.0840
  30
0.0
  42
0.0
   0
VERTEX
   8
Layer1
   6
SOLID
  42
0.0
  10
-2.3379
  20
-2.2576
  30
0.0
   0
VERTEX
   8
Layer1
   6
SOLID
  42
0.0
  10
-2.3379
  20
-2.2576
  30
0.0
   0
VERTEX
   8
Layer1
   6
SOLID
  42
0.0
  10
-2.3379
  20
-2.2576
  30
0.0
   0
VERTEX
   8
Layer1
   6
SOLID
  10
-2.3379
  20
-2.2576
  30
0.0
  42
0.0
   0
SEQEND
   0
POLYLINE
   8
Layer1
   6
SOLID
  66
1
  40
0.0
  41
0.0
   0
VERTEX
   8
Layer1
   6
SOLID
  10
-1.9445
  20
-1.9445
  30
0.0
  42
0.0
   0
VERTEX
   8
Layer1
   6
SOLID
  42
0.0
  10
-2.2981
  20
-2.2981
  30
0.0
   0
VERTEX
   8
Layer1
   6
SOLID
  42
0.0
  10
-2.2981
  20
-2.2981
  30
0.0
   0
VERTEX
   8
Layer1
   6
SOLID
  42
0.0
  10
-2.2981
  20
-2.2981
  30
0.0
   0
VERTEX
   8
Layer1
   6
SOLID
  10
-2.2981
  20
-2.2981
  30
0.0
  42
0.0
   0
SEQEND
   0
POLYLINE
   8
Layer1
   6
SOLID
  66
1
  40
0.0
  41
0.0
   0
VERTEX
   8
Layer1
   6
SOLID
  10
-2.0840
  20
-2.1580
  30
0.0
  42
0.0
   0
VERTEX
   8
Layer1
   6
SOLID
  42
0.0
  10
-2.2576
  20
-2.3379
  30
0.0
   0
VERTEX
   8
Layer1
   6
SOLID
  42
0.0
  10
-2.2576
  20
-2.3379
  30
0.0
   0
VERTEX
   8
Layer1
   6
SOLID
  42
0.0
  10
-2.2576
  20
-2.3379
  30
0.0
   0
VERTEX
   8
Layer1
   6
SOLID
  10
-2.2576
  20
-2.3379
  30
0.0
  42
0.0
   0
SEQEND
   0
POLYLINE
   8
Layer1
   6
SOLID
  66
1
  40
0.0
  41
0.0
   0
VERTEX
   8
Layer1
   6
SOLID
  10
-2.0460
  20
-2.1941
  30
0.0
  42
0.0
   0
VERTEX
   8
Layer1
   6
SOLID
  42
0.0
  10
-2.2165
  20
-2.3769
  30
0.0
   0
VERTEX
   8
Layer1
   6
SOLID
  42
0.0
  10
-2.2165
  20
-2.3769
  30
0.0
   0
VERTEX
   8
Layer1
   6
SOLID
  42
0.0
  10
-2.2165
  20
-2.3769
  30
0.0
   0
VERTEX
   8
Layer1
   6
SOLID
  10
-2.2165
  20
-2.3769
  30
0.0
  42
0.0
   0
SEQEND
   0
POLYLINE
   8
Layer1
   6
SOLID
  66
1
  40
0.0
  41
0.0
   0
VERTEX
   8
Layer1
   6
SOLID
  10
-2.0074
  20
-2.2294
  30
0.0
  42
0.0
   0
VERTEX
   8
Layer1
   6
SOLID
  42
0.0
  10
-2.1747
  20
-2.4152
  30
0.0
   0
VERTEX
   8
Layer1
   6
SOLID
  42
0.0
  10
-2.1747
  20
-2.4152
  30
0.0
   0
VERTEX
   8
Layer1
   6
SOLID
  42
0.0
  10
-2.1747
  20
-2.4152
  30
0.0
   0
VERTEX
   8
Layer1
   6
SOLID
  10
-2.1747
  20
-2.4152
  30
0.0
  42
0.0
   0
SEQEND
   0
POLYLINE
   8
Layer1
   6
SOLID
  66
1
  40
0.0
  41
0.0
   0
VERTEX
   8
Layer1
   6
SOLID
  10
-1.9682
  20
-2.2641
  30
0.0
  42
0.0
   0
VERTEX
   8
Layer1
   6
SOLID
  42
0.0
  10
-2.1322
  20
-2.4528
  30
0.0
   0
VERTEX
   8
Layer1
   6
SOLID
  42
0.0
  10
-2.1322
  20
-2.4528
  30
0.0
   0
VERTEX
   8
Layer1
   6
SOLID
  42
0.0
  10
-2.1322
  20
-2.4528
  30
0.0
   0
VERTEX
   8
Layer1
   6
SOLID
  10
-2.1322
  20
-2.4528
  30
0.0
  42
0.0
   0
SEQEND
   0
POLYLINE
   8
Layer1
   6
SOLID
  66
1
  40
0.0
  41
0.0
   0
VERTEX
   8
Layer1
   6
SOLID
  10
-1.6070
  20
-1.9151
  30
0.0
  42
0.0
   0
VERTEX
   8
Layer1
   6
SOLID
  42
0.0
  10
-2.0891
  20
-2.4896
  30
0.0
   0
VERTEX
   8
Layer1
   6
SOLID
  42
0.0
  10
-2.0891
  20
-2.4896
  30
0.0
   0
VERTEX
   8
Layer1
   6
SOLID
  42
0.0
  10
-2.0891
  20
-2.4896
  30
0.0
   0
VERTEX
   8
Layer1
   6
SOLID
  10
-2.0891
  20
-2.4896
  30
0.0
  42
0.0
   0
SEQEND
   0
POLYLINE
   8
Layer1
   6
SOLID
  66
1
  40
0.0
  41
0.0
   0
VERTEX
   8
Layer1
   6
SOLID
  10
-1.8880
  20
-2.3314
  30
0.0
  42
0.0
   0
VERTEX
   8
Layer1
   6
SOLID
  42
0.0
  10
-2.0453
  20
-2.5257
  30
0.0
   0
VERTEX
   8
Layer1
   6
SOLID
  42
0.0
  10
-2.0453
  20
-2.5257
  30
0.0
   0
VERTEX
   8
Layer1
   6
SOLID
  42
0.0
  10
-2.0453
  20
-2.5257
  30
0.0
   0
VERTEX
   8
Layer1
   6
SOLID
  10
-2.0453
  20
-2.5257
  30
0.0
  42
0.0
   0
SEQEND
   0
POLYLINE
   8
Layer1
   6
SOLID
  66
1
  40
0.0
  41
0.0
   0
VERTEX
   8
Layer1
   6
SOLID
  10
-1.8470
  20
-2.3640
  30
0.0
  42
0.0
   0
VERTEX
   8
Layer1
   6
SOLID
  42
0.0
  10
-2.0009
  20
-2.5610
  30
0.0
   0
VERTEX
   8
Layer1
   6
SOLID
  42
0.0
  10
-2.0009
  20
-2.5610
  30
0.0
   0
VERTEX
   8
Layer1
   6
SOLID
  42
0.0
  10
-2.0009
  20
-2.5610
  30
0.0
   0
VERTEX
   8
Layer1
   6
SOLID
  10
-2.0009
  20
-2.5610
  30
0.0
  42
0.0
   0
SEQEND
   0
POLYLINE
   8
Layer1
   6
SOLID
  66
1
  40
0.0
  41
0.0
   0
VERTEX
   8
Layer1
   6
SOLID
  10
-1.8054
  20
-2.3959
  30
0.0
  42
0.0
   0
VERTEX
   8
Layer1
   6
SOLID
  42
0.0
  10
-1.9559
  20
-2.5956
  30
0.0
   0
VERTEX
   8
Layer1
   6
SOLID
  42
0.0
  10
-1.9559
  20
-2.5956
  30
0.0
   0
VERTEX
   8
Layer1
   6
SOLID
  42
0.0
  10
-1.9559
  20
-2.5956
  30
0.0
   0
VERTEX
   8
Layer1
   6
SOLID
  10
-1.9559
  20
-2.5956
  30
0.0
  42
0.0
   0
SEQEND
   0
POLYLINE
   8
Layer1
   6
SOLID
  66
1
  40
0.0
  41
0.0
   0
VERTEX
   8
Layer1
   6
SOLID
  10
-1.7634
  20
-2.4271
  30
0.0
  42
0.0
   0
VERTEX
   8
Layer1
   6
SOLID
  42
0.0
  10
-1.9103
  20
-2.6293
  30
0.0
   0
VERTEX
   8
Layer1
   6
SOLID
  42
0.0
  10
-1.9103
  20
-2.6293
  30
0.0
   0
VERTEX
   8
Layer1
   6
SOLID
  42
0.0
  10
-1.9103
  20
-2.6293
  30
0.0
   0
VERTEX
   8
Layer1
   6
SOLID
  10
-1.9103
  20
-2.6293
  30
0.0
  42
0.0
   0
SEQEND
   0
POLYLINE
   8
Layer1
   6
SOLID
  66
1
  40
0.0
  41
0.0
   0
VERTEX
   8
Layer1
   6
SOLID
  10
-1.5773
  20
-2.2527
  30
0.0
  42
0.0
   0
VERTEX
   8
Layer1
   6
SOLID
  42
0.0
  10
-1.8641
  20
-2.6622
  30
0.0
   0
VERTEX
   8
Layer1
   6
SOLID
  42
0.0
  10
-1.8641
  20
-2.6622
  30
0.0
   0
VERTEX
   8
Layer1
   6
SOLID
  42
0.0
  10
-1.8641
  20
-2.6622
  30
0.0
   0
VERTEX
   8
Layer1
   6
SOLID
  10
-1.8641
  20
-2.6622
  30
0.0
  42
0.0
   0
SEQEND
   0
POLYLINE
   8
Layer1
   6
SOLID
  66
1
  40
0.0
  41
0.0
   0
VERTEX
   8
Layer1
   6
SOLID
  10
-1.6776
  20
-2.4871
  30
0.0
  42
0.0
   0
VERTEX
   8
Layer1
   6
SOLID
  42
0.0
  10
-1.8174
  20
-2.6944
  30
0.0
   0
VERTEX
   8
Layer1
   6
SOLID
  42
0.0
  10
-1.8174
  20
-2.6944
  30
0.0
   0
VERTEX
   8
Layer1
   6
SOLID
  42
0.0
  10
-1.8174
  20
-2.6944
  30
0.0
   0
VERTEX
   8
Layer1
   6
SOLID
  10
-1.8174
  20
-2.6944
  30
0.0
  42
0.0
   0
SEQEND
   0
POLYLINE
   8
Layer1
   6
SOLID
  66
1
  40
0.0
  41
0.0
   0
VERTEX
   8
Layer1
   6
SOLID
  10
-1.6339
  20
-2.5160
  30
0.0
  42
0.0
   0
VERTEX
   8
Layer1
   6
SOLID
  42
0.0
  10
-1.7701
  20
-2.7257
  30
0.0
   0
VERTEX
   8
Layer1
   6
SOLID
  42
0.0
  10
-1.7701
  20
-2.7257
  30
0.0
   0
VERTEX
   8
Layer1
   6
SOLID
  42
0.0
  10
-1.7701
  20
-2.7257
  30
0.0
   0
VERTEX
   8
Layer1
   6
SOLID
  10
-1.7701
  20
-2.7257
  30
0.0
  42
0.0
   0
SEQEND
   0
POLYLINE
   8
Layer1
   6
SOLID
  66
1
  40
0.0
  41
0.0
   0
VERTEX
   8
Layer1
   6
SOLID
  10
-1.5898
  20
-2.5441
  30
0.0
  42
0.0
   0
VERTEX
   8
Layer1
   6
SOLID
  42
0.0
  10
-1.7222
  20
-2.7562
  30
0.0
   0
VERTEX
   8
Layer1
   6
SOLID
  42
0.0
  10
-1.7222
  20
-2.7562
  30
0.0
   0
VERTEX
   8
Layer1
   6
SOLID
  42
0.0
  10
-1.7222
  20
-2.7562
  30
0.0
   0
VERTEX
   8
Layer1
   6
SOLID
  10
-1.7222
  20
-2.7562
  30
0.0
  42
0.0
   0
SEQEND
   0
POLYLINE
   8
Layer1
   6
SOLID
  66
1
  40
0.0
  41
0.0
   0
VERTEX
   8
Layer1
   6
SOLID
  10
-1.5451
  20
-2.5715
  30
0.0
  42
0.0
   0
VERTEX
   8
Layer1
   6
SOLID
  42
0.0
  10
-1.6739
  20
-2.7858
  30
0.0
   0
VERTEX
   8
Layer1
   6
SOLID
  42
0.0
  10
-1.6739
  20
-2.7858
  30
0.0
   0
VERTEX
   8
Layer1
   6
SOLID
  42
0.0
  10
-1.6739
  20
-2.7858
  30
0.0
   0
VERTEX
   8
Layer1
   6
SOLID
  10
-1.6739
  20
-2.7858
  30
0.0
  42
0.0
   0
SEQEND
   0
POLYLINE
   8
Layer1
   6
SOLID
  66
1
  40
0.0
  41
0.0
   0
VERTEX
   8
Layer1
   6
SOLID
  10
-1.2500
  20
-2.1651
  30
0.0
  42
0.0
   0
VERTEX
   8
Layer1
   6
SOLID
  42
0.0
  10
-1.6250
  20
-2.8146
  30
0.0
   0
VERTEX
   8
Layer1
   6
SOLID
  42
0.0
  10
-1.6250
  20
-2.8146
  30
0.0
   0
VERTEX
   8
Layer1
   6
SOLID
  42
0.0
  10
-1.6250
  20
-2.8146
  30
0.0
   0
VERTEX
   8
Layer1
   6
SOLID
  10
-1.6250
  20
-2.8146
  30
0.0
  42
0.0
   0
SEQEND
   0
POLYLINE
   8
Layer1
   6
SOLID
  66
1
  40
0.0
  41
0.0
   0
VERTEX
   8
Layer1
   6
SOLID
  10
-1.4544
  20
-2.6239
  30
0.0
  42
0.0
   0
VERTEX
   8
Layer1
   6
SOLID
  42
0.0
  10
-1.5756
  20
-2.8425
  30
0.0
   0
VERTEX
   8
Layer1
   6
SOLID
  42
0.0
  10
-1.5756
  20
-2.8425
  30
0.0
   0
VERTEX
   8
Layer1
   6
SOLID
  42
0.0
  10
-1.5756
  20
-2.8425
  30
0.0
   0
VERTEX
   8
Layer1
   6
SOLID
  10
-1.5756
  20
-2.8425
  30
0.0
  42
0.0
   0
SEQEND
   0
POLYLINE
   8
Layer1
   6
SOLID
  66
1
  40
0.0
  41
0.0
   0
VERTEX
   8
Layer1
   6
SOLID
  10
-1.4084
  20
-2.6488
  30
0.0
  42
0.0
   0
VERTEX
   8
Layer1
   6
SOLID
  42
0.0
  10
-1.5258
  20
-2.8696
  30
0.0
   0
VERTEX
   8
Layer1
   6
SOLID
  42
0.0
  10
-1.5258
  20
-2.8696
  30
0.0
   0
VERTEX
   8
Layer1
   6
SOLID
  42
0.0
  10
-1.5258
  20
-2.8696
  30
0.0
   0
VERTEX
   8
Layer1
   6
SOLID
  10
-1.5258
  20
-2.8696
  30
0.0
  42
0.0
   0
SEQEND
   0
POLYLINE
   8
Layer1
   6
SOLID
  66
1
  40
0.0
  41
0.0
   0
VERTEX
   8
Layer1
   6
SOLID
  10
-1.3620
  20
-2.6730
  30
0.0
  42
0.0
   0
VERTEX
   8
Layer1
   6
SOLID
  42
0.0
  10
-1.4755
  20
-2.8958
  30
0.0
   0
VERTEX
   8
Layer1
   6
SOLID
  42
0.0
  10
-1.4755
  20
-2.8958
  30
0.0
   0
VERTEX
   8
Layer1
   6
SOLID
  42
0.0
  10
-1.4755
  20
-2.8958
  30
0.0
   0
VERTEX
   8
Layer1
   6
SOLID
  10
-1.4755
  20
-2.8958
  30
0.0
  42
0.0
   0
SEQEND
   0
POLYLINE
   8
Layer1
   6
SOLID
  66
1
  40
0.0
  41
0.0
   0
VERTEX
   8
Layer1
   6
SOLID
  10
-1.3151
  20
-2.6964
  30
0.0
  42
0.0
   0
VERTEX
   8
Layer1
   6
SOLID
  42
0.0
  10
-1.4247
  20
-2.9211
  30
0.0
   0
VERTEX
   8
Layer1
   6
SOLID
  42
0.0
  10
-1.4247
  20
-2.9211
  30
0.0
   0
VERTEX
   8
Layer1
   6
SOLID
  42
0.0
  10
-1.4247
  20
-2.9211
  30
0.0
   0
VERTEX
   8
Layer1
   6
SOLID
  10
-1.4247
  20
-2.9211
  30
0.0
  42
0.0
   0
SEQEND
   0
POLYLINE
   8
Layer1
   6
SOLID
  66
1
  40
0.0
  41
0.0
   0
VERTEX
   8
Layer1
   6
SOLID
  10
-1.1622
  20
-2.4923
  30
0.0
  42
0.0
   0
VERTEX
   8
Layer1
   6
SOLID
  42
0.0
  10
-1.3735
  20
-2.9455
  30
0.0
   0
VERTEX
   8
Layer1
   6
SOLID
  42
0.0
  10
-1.3735
  20
-2.9455
  30
0.0
   0
VERTEX
   8
Layer1
   6
SOLID
  42
0.0
  10
-1.3735
  20
-2.9455
  30
0.0
   0
VERTEX
   8
Layer1
   6
SOLID
  10
-1.3735
  20
-2.9455
  30
0.0
  42
0.0
   0
SEQEND
   0
POLYLINE
   8
Layer1
   6
SOLID
  66
1
  40
0.0
  41
0.0
   0
VERTEX
   8
Layer1
   6
SOLID
  10
-1.2202
  20
-2.7406
  30
0.0
  42
0.0
   0
VERTEX
   8
Layer1
   6
SOLID
  42
0.0
  10
-1.3219
  20
-2.9690
  30
0.0
   0
VERTEX
   8
Layer1
   6
SOLID
  42
0.0
  10
-1.3219
  20
-2.9690
  30
0.0
   0
VERTEX
   8
Layer1
   6
SOLID
  42
0.0
  10
-1.3219
  20
-2.9690
  30
0.0
   0
VERTEX
   8
Layer1
   6
SOLID
  10
-1.3219
  20
-2.9690
  30
0.0
  42
0.0
   0
SEQEND
   0
POLYLINE
   8
Layer1
   6
SOLID
  66
1
  40
0.0
  41
0.0
   0
VERTEX
   8
Layer1
   6
SOLID
  10
-1.1722
  20
-2.7615
  30
0.0
  42
0.0
   0
VERTEX
   8
Layer1
   6
SOLID
  42
0.0
  10
-1.2699
  20
-2.9916
  30
0.0
   0
VERTEX
   8
Layer1
   6
SOLID
  42
0.0
  10
-1.2699
  20
-2.9916
  30
0.0
   0
VERTEX
   8
Layer1
   6
SOLID
  42
0.0
  10
-1.2699
  20
-2.9916
  30
0.0
   0
VERTEX
   8
Layer1
   6
SOLID
  10
-1.2699
  20
-2.9916
  30
0.0
  42
0.0
   0
SEQEND
   0
POLYLINE
   8
Layer1
   6
SOLID
  66
1
  40
0.0
  41
0.0
   0
VERTEX
   8
Layer1
   6
SOLID
  10
-1.1238
  20
-2.7816
  30
0.0
  42
0.0
   0
VERTEX
   8
Layer1
   6
SOLID
  42
0.0
  10
-1.2175
  20
-3.0133
  30
0.0
   0
VERTEX
   8
Layer1
   6
SOLID
  42
0.0
  10
-1.2175
  20
-3.0133
  30
0.0
   0
VERTEX
   8
Layer1
   6
SOLID
  42
0.0
  10
-1.2175
  20
-3.0133
  30
0.0
   0
VERTEX
   8
Layer1
   6
SOLID
  10
-1.2175
  20
-3.0133
  30
0.0
  42
0.0
   0
SEQEND
   0
POLYLINE
   8
Layer1
   6
SOLID
  66
1
  40
0.0
  41
0.0
   0
VERTEX
   8
Layer1
   6
SOLID
  10
-1.0751
  20
-2.8007
  30
0.0
  42
0.0
   0
VERTEX
   8
Layer1
   6
SOLID
  42
0.0
  10
-1.1647
  20
-3.0341
  30
0.0
   0
VERTEX
   8
Layer1
   6
SOLID
  42
0.0
  10
-1.1647
  20
-3.0341
  30
0.0
   0
VERTEX
   8
Layer1
   6
SOLID
  42
0.0
  10
-1.1647
  20
-3.0341
  30
0.0
   0
VERTEX
   8
Layer1
   6
SOLID
  10
-1.1647
  20
-3.0341
  30
0.0
  42
0.0
   0
SEQEND
   0
POLYLINE
   8
Layer1
   6
SOLID
  66
1
  40
0.0
  41
0.0
   0
VERTEX
   8
Layer1
   6
SOLID
  10
-0.8551
  20
-2.3492
  30
0.0
  42
0.0
   0
VERTEX
   8
Layer1
   6
SOLID
  42
0.0
  10
-1.1116
  20
-3.0540
  30
0.0
   0
VERTEX
   8
Layer1
   6
SOLID
  42
0.0
  10
-0.8551
  20
-2.3492
  30
0.0
   0
VERTEX
   8
Layer1
   6
SOLID
  42
0.0
  10
-0.8551
  20
-2.3492
  30
0.0
   0
VERTEX
   8
Layer1
   6
SOLID
  42
0.0
  10
-0.8551
  20
-2.3492
  30
0.0
   0
VERTEX
   8
Layer1
   6
SOLID
  10
-0.8551
  20
-2.3492
  30
0.0
  42
0.0
   0
SEQEND
   0
POLYLINE
   8
Layer1
   6
SOLID
  66
1
  40
0.0
  41
0.0
   0
VERTEX
   8
Layer1
   6
SOLID
  10
-0.9767
  20
-2.8366
  30
0.0
  42
0.0
   0
VERTEX
   8
Layer1
   6
SOLID
  42
0.0
  10
-1.0581
  20
-3.0729
  30
0.0
   0
VERTEX
   8
Layer1
   6
SOLID
  42
0.0
  10
-1.0581
  20
-3.0729
  30
0.0
   0
VERTEX
   8
Layer1
   6
SOLID
  42
0.0
  10
-1.0581
  20
-3.0729
  30
0.0
   0
VERTEX
   8
Layer1
   6
SOLID
  10
-1.0581
  20
-3.0729
  30
0.0
  42
0.0
   0
SEQEND
   0
POLYLINE
   8
Layer1
   6
SOLID
  66
1
  40
0.0
  41
0.0
   0
VERTEX
   8
Layer1
   6
SOLID
  10
-0.9271
  20
-2.8532
  30
0.0
  42
0.0
   0
VERTEX
   8
Layer1
   6
SOLID
  42
0.0
  10
-1.0043
  20
-3.0909
  30
0.0
   0
VERTEX
   8
Layer1
   6
SOLID
  42
0.0
  10
-1.0043
  20
-3.0909
  30
0.0
   0
VERTEX
   8
Layer1
   6
SOLID
  42
0.0
  10
-1.0043
  20
-3.0909
  30
0.0
   0
VERTEX
   8
Layer1
   6
SOLID
  10
-1.0043
  20
-3.0909
  30
0.0
  42
0.0
   0
SEQEND
   0
POLYLINE
   8
Layer1
   6
SOLID
  66
1
  40
0.0
  41
0.0
   0
VERTEX
   8
Layer1
   6
SOLID
  10
-0.8771
  20
-2.8689
  30
0.0
  42
0.0
   0
VERTEX
   8
Layer1
   6
SOLID
  42
0.0
  10
-0.9502
  20
-3.1080
  30
0.0
   0
VERTEX
   8
Layer1
   6
SOLID
  42
0.0
  10
-0.9502
  20
-3.1080
  30
0.0
   0
VERTEX
   8
Layer1
   6
SOLID
  42
0.0
  10
-0.9502
  20
-3.1080
  30
0.0
   0
VERTEX
   8
Layer1
   6
SOLID
  10
-0.9502
  20
-3.1080
  30
0.0
  42
0.0
   0
SEQEND
   0
POLYLINE
   8
Layer1
   6
SOLID
  66
1
  40
0.0
  41
0.0
   0
VERTEX
   8
Layer1
   6
SOLID
  10
-0.8269
  20
-2.8838
  30
0.0
  42
0.0
   0
VERTEX
   8
Layer1
   6
SOLID
  42
0.0
  10
-0.8958
  20
-3.1241
  30
0.0
   0
VERTEX
   8
Layer1
   6
SOLID
  42
0.0
  10
-0.8958
  20
-3.1241
  30
0.0
   0
VERTEX
   8
Layer1
   6
SOLID
  42
0.0
  10
-0.8958
  20
-3.1241
  30
0.0
   0
VERTEX
   8
Layer1
   6
SOLID
  10
-0.8958
  20
-3.1241
  30
0.0
  42
0.0
   0
SEQEND
   0
POLYLINE
   8
Layer1
   6
SOLID
  66
1
  40
0.0
  41
0.0
   0
VERTEX
   8
Layer1
   6
SOLID
  10
-0.7118
  20
-2.6563
  30
0.0
  42
0.0
   0
VERTEX
   8
Layer1
   6
SOLID
  42
0.0
  10
-0.8412
  20
-3.1393
  30
0.0
   0
VERTEX
   8
Layer1
   6
SOLID
  42
0.0
  10
-0.8412
  20
-3.1393
  30
0.0
   0
VERTEX
   8
Layer1
   6
SOLID
  42
0.0
  10
-0.8412
  20
-3.1393
  30
0.0
   0
VERTEX
   8
Layer1
   6
SOLID
  10
-0.8412
  20
-3.1393
  30
0.0
  42
0.0
   0
SEQEND
   0
POLYLINE
   8
Layer1
   6
SOLID
  66
1
  40
0.0
  41
0.0
   0
VERTEX
   8
Layer1
   6
SOLID
  10
-0.7258
  20
-2.9109
  30
0.0
  42
0.0
   0
VERTEX
   8
Layer1
   6
SOLID
  42
0.0
  10
-0.7862
  20
-3.1535
  30
0.0
   0
VERTEX
   8
Layer1
   6
SOLID
  42
0.0
  10
-0.7862
  20
-3.1535
  30
0.0
   0
VERTEX
   8
Layer1
   6
SOLID
  42
0.0
  10
-0.7862
  20
-3.1535
  30
0.0
   0
VERTEX
   8
Layer1
   6
SOLID
  10
-0.7862
  20
-3.1535
  30
0.0
  42
0.0
   0
SEQEND
   0
POLYLINE
   8
Layer1
   6
SOLID
  66
1
  40
0.0
  41
0.0
   0
VERTEX
   8
Layer1
   6
SOLID
  10
-0.6749
  20
-2.9231
  30
0.0
  42
0.0
   0
VERTEX
   8
Layer1
   6
SOLID
  42
0.0
  10
-0.7311
  20
-3.1667
  30
0.0
   0
VERTEX
   8
Layer1
   6
SOLID
  42
0.0
  10
-0.7311
  20
-3.1667
  30
0.0
   0
VERTEX
   8
Layer1
   6
SOLID
  42
0.0
  10
-0.7311
  20
-3.1667
  30
0.0
   0
VERTEX
   8
Layer1
   6
SOLID
  10
-0.7311
  20
-3.1667
  30
0.0
  42
0.0
   0
SEQEND
   0
POLYLINE
   8
Layer1
   6
SOLID
  66
1
  40
0.0
  41
0.0
   0
VERTEX
   8
Layer1
   6
SOLID
  10
-0.6237
  20
-2.9344
  30
0.0
  42
0.0
   0
VERTEX
   8
Layer1
   6
SOLID
  42
0.0
  10
-0.6757
  20
-3.1790
  30
0.0
   0
VERTEX
   8
Layer1
   6
SOLID
  42
0.0
  10
-0.6757
  20
-3.1790
  30
0.0
   0
VERTEX
   8
Layer1
   6
SOLID
  42
0.0
  10
-0.6757
  20
-3.1790
  30
0.0
   0
VERTEX
   8
Layer1
   6
SOLID
  10
-0.6757
  20
-3.1790
  30
0.0
  42
0.0
   0
SEQEND
   0
POLYLINE
   8
Layer1
   6
SOLID
  66
1
  40
0.0
  41
0.0
   0
VERTEX
   8
Layer1
   6
SOLID
  10
-0.5724
  20
-2.9449
  30
0.0
  42
0.0
   0
VERTEX
   8
Layer1
   6
SOLID
  42
0.0
  10
-0.6201
  20
-3.1903
  30
0.0
   0
VERTEX
   8
Layer1
   6
SOLID
  42
0.0
  10
-0.6201
  20
-3.1903
  30
0.0
   0
VERTEX
   8
Layer1
   6
SOLID
  42
0.0
  10
-0.6201
  20
-3.1903
  30
0.0
   0
VERTEX
   8
Layer1
   6
SOLID
  10
-0.6201
  20
-3.1903
  30
0.0
  42
0.0
   0
SEQEND
   0
POLYLINE
   8
Layer1
   6
SOLID
  66
1
  40
0.0
  41
0.0
   0
VERTEX
   8
Layer1
   6
SOLID
  10
-0.4341
  20
-2.4620
  30
0.0
  42
0.0
   0
VERTEX
   8
Layer1
   6
SOLID
  42
0.0
  10
-0.5644
  20
-3.2006
  30
0.0
   0
VERTEX
   8
Layer1
   6
SOLID
  42
0.0
  10
-0.5644
  20
-3.2006
  30
0.0
   0
VERTEX
   8
Layer1
   6
SOLID
  42
0.0
  10
-0.5644
  20
-3.2006
  30
0.0
   0
VERTEX
   8
Layer1
   6
SOLID
  10
-0.5644
  20
-3.2006
  30
0.0
  42
0.0
   0
SEQEND
   0
POLYLINE
   8
Layer1
   6
SOLID
  66
1
  40
0.0
  41
0.0
   0
VERTEX
   8
Layer1
   6
SOLID
  10
-0.4693
  20
-2.9631
  30
0.0
  42
0.0
   0
VERTEX
   8
Layer1
   6
SOLID
  42
0.0
  10
-0.5084
  20
-3.2100
  30
0.0
   0
VERTEX
   8
Layer1
   6
SOLID
  42
0.0
  10
-0.5084
  20
-3.2100
  30
0.0
   0
VERTEX
   8
Layer1
   6
SOLID
  42
0.0
  10
-0.5084
  20
-3.2100
  30
0.0
   0
VERTEX
   8
Layer1
   6
SOLID
  10
-0.5084
  20
-3.2100
  30
0.0
  42
0.0
   0
SEQEND
   0
POLYLINE
   8
Layer1
   6
SOLID
  66
1
  40
0.0
  41
0.0
   0
VERTEX
   8
Layer1
   6
SOLID
  10
-0.4175
  20
-2.9708
  30
0.0
  42
0.0
   0
VERTEX
   8
Layer1
   6
SOLID
  42
0.0
  10
-0.4523
  20
-3.2184
  30
0.0
   0
VERTEX
   8
Layer1
   6
SOLID
  42
0.0
  10
-0.4523
  20
-3.2184
  30
0.0
   0
VERTEX
   8
Layer1
   6
SOLID
  42
0.0
  10
-0.4523
  20
-3.2184
  30
0.0
   0
VERTEX
   8
Layer1
   6
SOLID
  10
-0.4523
  20
-3.2184
  30
0.0
  42
0.0
   0
SEQEND
   0
POLYLINE
   8
Layer1
   6
SOLID
  66
1
  40
0.0
  41
0.0
   0
VERTEX
   8
Layer1
   6
SOLID
  10
-0.3656
  20
-2.9776
  30
0.0
  42
0.0
   0
VERTEX
   8
Layer1
   6
SOLID
  42
0.0
  10
-0.3961
  20
-3.2258
  30
0.0
   0
VERTEX
   8
Layer1
   6
SOLID
  42
0.0
  10
-0.3961
  20
-3.2258
  30
0.0
   0
VERTEX
   8
Layer1
   6
SOLID
  42
0.0
  10
-0.3961
  20
-3.2258
  30
0.0
   0
VERTEX
   8
Layer1
   6
SOLID
  10
-0.3961
  20
-3.2258
  30
0.0
  42
0.0
   0
SEQEND
   0
POLYLINE
   8
Layer1
   6
SOLID
  66
1
  40
0.0
  41
0.0
   0
VERTEX
   8
Layer1
   6
SOLID
  10
-0.3136
  20
-2.9836
  30
0.0
  42
0.0
   0
VERTEX
   8
Layer1
   6
SOLID
  42
0.0
  10
-0.3397
  20
-3.2322
  30
0.0
   0
VERTEX
   8
Layer1
   6
SOLID
  42
0.0
  10
-0.3397
  20
-3.2322
  30
0.0
   0
VERTEX
   8
Layer1
   6
SOLID
  42
0.0
  10
-0.3397
  20
-3.2322
  30
0.0
   0
VERTEX
   8
Layer1
   6
SOLID
  10
-0.3397
  20
-3.2322
  30
0.0
  42
0.0
   0
SEQEND
   0
POLYLINE
   8
Layer1
   6
SOLID
  66
1
  40
0.0
  41
0.0
   0
VERTEX
   8
Layer1
   6
SOLID
  10
-0.2397
  20
-2.7395
  30
0.0
  42
0.0
   0
VERTEX
   8
Layer1
   6
SOLID
  42
0.0
  10
-0.2833
  20
-3.2376
  30
0.0
   0
VERTEX
   8
Layer1
   6
SOLID
  42
0.0
  10
-0.2833
  20
-3.2376
  30
0.0
   0
VERTEX
   8
Layer1
   6
SOLID
  42
0.0
  10
-0.2833
  20
-3.2376
  30
0.0
   0
VERTEX
   8
Layer1
   6
SOLID
  10
-0.2833
  20
-3.2376
  30
0.0
  42
0.0
   0
SEQEND
   0
POLYLINE
   8
Layer1
   6
SOLID
  66
1
  40
0.0
  41
0.0
   0
VERTEX
   8
Layer1
   6
SOLID
  10
-0.2093
  20
-2.9927
  30
0.0
  42
0.0
   0
VERTEX
   8
Layer1
   6
SOLID
  42
0.0
  10
-0.2267
  20
-3.2421
  30
0.0
   0
VERTEX
   8
Layer1
   6
SOLID
  42
0.0
  10
-0.2267
  20
-3.2421
  30
0.0
   0
VERTEX
   8
Layer1
   6
SOLID
  42
0.0
  10
-0.2267
  20
-3.2421
  30
0.0
   0
VERTEX
   8
Layer1
   6
SOLID
  10
-0.2267
  20
-3.2421
  30
0.0
  42
0.0
   0
SEQEND
   0
POLYLINE
   8
Layer1
   6
SOLID
  66
1
  40
0.0
  41
0.0
   0
VERTEX
   8
Layer1
   6
SOLID
  10
-0.1570
  20
-2.9959
  30
0.0
  42
0.0
   0
VERTEX
   8
Layer1
   6
SOLID
  42
0.0
  10
-0.1701
  20
-3.2455
  30
0.0
   0
VERTEX
   8
Layer1
   6
SOLID
  42
0.0
  10
-0.1701
  20
-3.2455
  30
0.0
   0
VERTEX
   8
Layer1
   6
SOLID
  42
0.0
  10
-0.1701
  20
-3.2455
  30
0.0
   0
VERTEX
   8
Layer1
   6
SOLID
  10
-0.1701
  20
-3.2455
  30
0.0
  42
0.0
   0
SEQEND
   0
POLYLINE
   8
Layer1
   6
SOLID
  66
1
  40
0.0
  41
0.0
   0
VERTEX
   8
Layer1
   6
SOLID
  10
-0.1047
  20
-2.9982
  30
0.0
  42
0.0
   0
VERTEX
   8
Layer1
   6
SOLID
  42
0.0
  10
-0.1134
  20
-3.2480
  30
0.0
   0
VERTEX
   8
Layer1
   6
SOLID
  42
0.0
  10
-0.1134
  20
-3.2480
  30
0.0
   0
VERTEX
   8
Layer1
   6
SOLID
  42
0.0
  10
-0.1134
  20
-3.2480
  30
0.0
   0
VERTEX
   8
Layer1
   6
SOLID
  10
-0.1134
  20
-3.2480
  30
0.0
  42
0.0
   0
SEQEND
   0
POLYLINE
   8
Layer1
   6
SOLID
  66
1
  40
0.0
  41
0.0
   0
VERTEX
   8
Layer1
   6
SOLID
  10
-0.0524
  20
-2.9995
  30
0.0
  42
0.0
   0
VERTEX
   8
Layer1
   6
SOLID
  42
0.0
  10
-0.0567
  20
-3.2495
  30
0.0
   0
VERTEX
   8
Layer1
   6
SOLID
  42
0.0
  10
-0.0567
  20
-3.2495
  30
0.0
   0
VERTEX
   8
Layer1
   6
SOLID
  42
0.0
  10
-0.0567
  20
-3.2495
  30
0.0
   0
VERTEX
   8
Layer1
   6
SOLID
  10
-0.0567
  20
-3.2495
  30
0.0
  42
0.0
   0
SEQEND
   0
POLYLINE
   8
Layer1
   6
SOLID
  66
1
  40
0.0
  41
0.0
   0
VERTEX
   8
Layer1
   6
SOLID
  10
-4.5923E-016
  20
-2.5000
  30
0.0
  42
0.0
   0
VERTEX
   8
Layer1
   6
SOLID
  42
0.0
  10
-5.9700E-016
  20
-3.2500
  30
0.0
   0
VERTEX
   8
Layer1
   6
SOLID
  42
0.0
  10
-5.9700E-016
  20
-3.2500
  30
0.0
   0
VERTEX
   8
Layer1
   6
SOLID
  42
0.0
  10
-5.9700E-016
  20
-3.2500
  30
0.0
   0
VERTEX
   8
Layer1
   6
SOLID
  10
-5.9700E-016
  20
-3.2500
  30
0.0
  42
0.0
   0
SEQEND
   0
POLYLINE
   8
Layer1
   6
SOLID
  66
1
  40
0.0
  41
0.0
   0
VERTEX
   8
Layer1
   6
SOLID
  10
0.0524
  20
-2.9995
  30
0.0
  42
0.0
   0
VERTEX
   8
Layer1
   6
SOLID
  42
0.0
  10
0.0567
  20
-3.2495
  30
0.0
   0
VERTEX
   8
Layer1
   6
SOLID
  42
0.0
  10
0.0567
  20
-3.2495
  30
0.0
   0
VERTEX
   8
Layer1
   6
SOLID
  42
0.0
  10
0.0567
  20
-3.2495
  30
0.0
   0
VERTEX
   8
Layer1
   6
SOLID
  10
0.0567
  20
-3.2495
  30
0.0
  42
0.0
   0
SEQEND
   0
POLYLINE
   8
Layer1
   6
SOLID
  66
1
  40
0.0
  41
0.0
   0
VERTEX
   8
Layer1
   6
SOLID
  10
0.1047
  20
-2.9982
  30
0.0
  42
0.0
   0
VERTEX
   8
Layer1
   6
SOLID
  42
0.0
  10
0.1134
  20
-3.2480
  30
0.0
   0
VERTEX
   8
Layer1
   6
SOLID
  42
0.0
  10
0.1134
  20
-3.2480
  30
0.0
   0
VERTEX
   8
Layer1
   6
SOLID
  42
0.0
  10
0.1134
  20
-3.2480
  30
0.0
   0
VERTEX
   8
Layer1
   6
SOLID
  10
0.1134
  20
-3.2480
  30
0.0
  42
0.0
   0
SEQEND
   0
POLYLINE
   8
Layer1
   6
SOLID
  66
1
  40
0.0
  41
0.0
   0
VERTEX
   8
Layer1
   6
SOLID
  10
0.1570
  20
-2.9959
  30
0.0
  42
0.0
   0
VERTEX
   8
Layer1
   6
SOLID
  42
0.0
  10
0.1701
  20
-3.2455
  30
0.0
   0
VERTEX
   8
Layer1
   6
SOLID
  42
0.0
  10
0.1701
  20
-3.2455
  30
0.0
   0
VERTEX
   8
Layer1
   6
SOLID
  42
0.0
  10
0.1701
  20
-3.2455
  30
0.0
   0
VERTEX
   8
Layer1
   6
SOLID
  10
0.1701
  20
-3.2455
  30
0.0
  42
0.0
   0
SEQEND
   0
POLYLINE
   8
Layer1
   6
SOLID
  66
1
  40
0.0
  41
0.0
   0
VERTEX
   8
Layer1
   6
SOLID
  10
0.2093
  20
-2.9927
  30
0.0
  42
0.0
   0
VERTEX
   8
Layer1
   6
SOLID
  42
0.0
  10
0.2267
  20
-3.2421
  30
0.0
   0
VERTEX
   8
Layer1
   6
SOLID
  42
0.0
  10
0.2267
  20
-3.2421
  30
0.0
   0
VERTEX
   8
Layer1
   6
SOLID
  42
0.0
  10
0.2267
  20
-3.2421
  30
0.0
   0
VERTEX
   8
Layer1
   6
SOLID
  10
0.2267
  20
-3.2421
  30
0.0
  42
0.0
   0
SEQEND
   0
POLYLINE
   8
Layer1
   6
SOLID
  66
1
  40
0.0
  41
0.0
   0
VERTEX
   8
Layer1
   6
SOLID
  10
0.2397
  20
-2.7395
  30
0.0
  42
0.0
   0
VERTEX
   8
Layer1
   6
SOLID
  42
0.0
  10
0.2833
  20
-3.2376
  30
0.0
   0
VERTEX
   8
Layer1
   6
SOLID
  42
0.0
  10
0.2833
  20
-3.2376
  30
0.0
   0
VERTEX
   8
Layer1
   6
SOLID
  42
0.0
  10
0.2833
  20
-3.2376
  30
0.0
   0
VERTEX
   8
Layer1
   6
SOLID
  10
0.2833
  20
-3.2376
  30
0.0
  42
0.0
   0
SEQEND
   0
POLYLINE
   8
Layer1
   6
SOLID
  66
1
  40
0.0
  41
0.0
   0
VERTEX
   8
Layer1
   6
SOLID
  10
0.3136
  20
-2.9836
  30
0.0
  42
0.0
   0
VERTEX
   8
Layer1
   6
SOLID
  42
0.0
  10
0.3397
  20
-3.2322
  30
0.0
   0
VERTEX
   8
Layer1
   6
SOLID
  42
0.0
  10
0.3397
  20
-3.2322
  30
0.0
   0
VERTEX
   8
Layer1
   6
SOLID
  42
0.0
  10
0.3397
  20
-3.2322
  30
0.0
   0
VERTEX
   8
Layer1
   6
SOLID
  10
0.3397
  20
-3.2322
  30
0.0
  42
0.0
   0
SEQEND
   0
POLYLINE
   8
Layer1
   6
SOLID
  66
1
  40
0.0
  41
0.0
   0
VERTEX
   8
Layer1
   6
SOLID
  10
0.3656
  20
-2.9776
  30
0.0
  42
0.0
   0
VERTEX
   8
Layer1
   6
SOLID
  42
0.0
  10
0.3961
  20
-3.2258
  30
0.0
   0
VERTEX
   8
Layer1
   6
SOLID
  42
0.0
  10
0.3961
  20
-3.2258
  30
0.0
   0
VERTEX
   8
Layer1
   6
SOLID
  42
0.0
  10
0.3961
  20
-3.2258
  30
0.0
   0
VERTEX
   8
Layer1
   6
SOLID
  10
0.3961
  20
-3.2258
  30
0.0
  42
0.0
   0
SEQEND
   0
POLYLINE
   8
Layer1
   6
SOLID
  66
1
  40
0.0
  41
0.0
   0
VERTEX
   8
Layer1
   6
SOLID
  10
0.4175
  20
-2.9708
  30
0.0
  42
0.0
   0
VERTEX
   8
Layer1
   6
SOLID
  42
0.0
  10
0.4523
  20
-3.2184
  30
0.0
   0
VERTEX
   8
Layer1
   6
SOLID
  42
0.0
  10
0.4523
  20
-3.2184
  30
0.0
   0
VERTEX
   8
Layer1
   6
SOLID
  42
0.0
  10
0.4523
  20
-3.2184
  30
0.0
   0
VERTEX
   8
Layer1
   6
SOLID
  10
0.4523
  20
-3.2184
  30
0.0
  42
0.0
   0
SEQEND
   0
POLYLINE
   8
Layer1
   6
SOLID
  66
1
  40
0.0
  41
0.0
   0
VERTEX
   8
Layer1
   6
SOLID
  10
0.4693
  20
-2.9631
  30
0.0
  42
0.0
   0
VERTEX
   8
Layer1
   6
SOLID
  42
0.0
  10
0.5084
  20
-3.2100
  30
0.0
   0
VERTEX
   8
Layer1
   6
SOLID
  42
0.0
  10
0.5084
  20
-3.2100
  30
0.0
   0
VERTEX
   8
Layer1
   6
SOLID
  42
0.0
  10
0.5084
  20
-3.2100
  30
0.0
   0
VERTEX
   8
Layer1
   6
SOLID
  10
0.5084
  20
-3.2100
  30
0.0
  42
0.0
   0
SEQEND
   0
POLYLINE
   8
Layer1
   6
SOLID
  66
1
  40
0.0
  41
0.0
   0
VERTEX
   8
Layer1
   6
SOLID
  10
0.4341
  20
-2.4620
  30
0.0
  42
0.0
   0
VERTEX
   8
Layer1
   6
SOLID
  42
0.0
  10
0.5644
  20
-3.2006
  30
0.0
   0
VERTEX
   8
Layer1
   6
SOLID
  42
0.0
  10
0.5644
  20
-3.2006
  30
0.0
   0
VERTEX
   8
Layer1
   6
SOLID
  42
0.0
  10
0.5644
  20
-3.2006
  30
0.0
   0
VERTEX
   8
Layer1
   6
SOLID
  10
0.5644
  20
-3.2006
  30
0.0
  42
0.0
   0
SEQEND
   0
POLYLINE
   8
Layer1
   6
SOLID
  66
1
  40
0.0
  41
0.0
   0
VERTEX
   8
Layer1
   6
SOLID
  10
0.5724
  20
-2.9449
  30
0.0
  42
0.0
   0
VERTEX
   8
Layer1
   6
SOLID
  42
0.0
  10
0.6201
  20
-3.1903
  30
0.0
   0
VERTEX
   8
Layer1
   6
SOLID
  42
0.0
  10
0.6201
  20
-3.1903
  30
0.0
   0
VERTEX
   8
Layer1
   6
SOLID
  42
0.0
  10
0.6201
  20
-3.1903
  30
0.0
   0
VERTEX
   8
Layer1
   6
SOLID
  10
0.6201
  20
-3.1903
  30
0.0
  42
0.0
   0
SEQEND
   0
POLYLINE
   8
Layer1
   6
SOLID
  66
1
  40
0.0
  41
0.0
   0
VERTEX
   8
Layer1
   6
SOLID
  10
0.6237
  20
-2.9344
  30
0.0
  42
0.0
   0
VERTEX
   8
Layer1
   6
SOLID
  42
0.0
  10
0.6757
  20
-3.1790
  30
0.0
   0
VERTEX
   8
Layer1
   6
SOLID
  42
0.0
  10
0.6757
  20
-3.1790
  30
0.0
   0
VERTEX
   8
Layer1
   6
SOLID
  42
0.0
  10
0.6757
  20
-3.1790
  30
0.0
   0
VERTEX
   8
Layer1
   6
SOLID
  10
0.6757
  20
-3.1790
  30
0.0
  42
0.0
   0
SEQEND
   0
POLYLINE
   8
Layer1
   6
SOLID
  66
1
  40
0.0
  41
0.0
   0
VERTEX
   8
Layer1
   6
SOLID
  10
0.6749
  20
-2.9231
  30
0.0
  42
0.0
   0
VERTEX
   8
Layer1
   6
SOLID
  42
0.0
  10
0.7311
  20
-3.1667
  30
0.0
   0
VERTEX
   8
Layer1
   6
SOLID
  42
0.0
  10
0.7311
  20
-3.1667
  30
0.0
   0
VERTEX
   8
Layer1
   6
SOLID
  42
0.0
  10
0.7311
  20
-3.1667
  30
0.0
   0
VERTEX
   8
Layer1
   6
SOLID
  10
0.7311
  20
-3.1667
  30
0.0
  42
0.0
   0
SEQEND
   0
POLYLINE
   8
Layer1
   6
SOLID
  66
1
  40
0.0
  41
0.0
   0
VERTEX
   8
Layer1
   6
SOLID
  10
0.7258
  20
-2.9109
  30
0.0
  42
0.0
   0
VERTEX
   8
Layer1
   6
SOLID
  42
0.0
  10
0.7862
  20
-3.1535
  30
0.0
   0
VERTEX
   8
Layer1
   6
SOLID
  42
0.0
  10
0.7862
  20
-3.1535
  30
0.0
   0
VERTEX
   8
Layer1
   6
SOLID
  42
0.0
  10
0.7862
  20
-3.1535
  30
0.0
   0
VERTEX
   8
Layer1
   6
SOLID
  10
0.7862
  20
-3.1535
  30
0.0
  42
0.0
   0
SEQEND
   0
POLYLINE
   8
Layer1
   6
SOLID
  66
1
  40
0.0
  41
0.0
   0
VERTEX
   8
Layer1
   6
SOLID
  10
0.7118
  20
-2.6563
  30
0.0
  42
0.0
   0
VERTEX
   8
Layer1
   6
SOLID
  42
0.0
  10
0.8412
  20
-3.1393
  30
0.0
   0
VERTEX
   8
Layer1
   6
SOLID
  42
0.0
  10
0.8412
  20
-3.1393
  30
0.0
   0
VERTEX
   8
Layer1
   6
SOLID
  42
0.0
  10
0.8412
  20
-3.1393
  30
0.0
   0
VERTEX
   8
Layer1
   6
SOLID
  10
0.8412
  20
-3.1393
  30
0.0
  42
0.0
   0
SEQEND
   0
POLYLINE
   8
Layer1
   6
SOLID
  66
1
  40
0.0
  41
0.0
   0
VERTEX
   8
Layer1
   6
SOLID
  10
0.8269
  20
-2.8838
  30
0.0
  42
0.0
   0
VERTEX
   8
Layer1
   6
SOLID
  42
0.0
  10
0.8958
  20
-3.1241
  30
0.0
   0
VERTEX
   8
Layer1
   6
SOLID
  42
0.0
  10
0.8958
  20
-3.1241
  30
0.0
   0
VERTEX
   8
Layer1
   6
SOLID
  42
0.0
  10
0.8958
  20
-3.1241
  30
0.0
   0
VERTEX
   8
Layer1
   6
SOLID
  10
0.8958
  20
-3.1241
  30
0.0
  42
0.0
   0
SEQEND
   0
POLYLINE
   8
Layer1
   6
SOLID
  66
1
  40
0.0
  41
0.0
   0
VERTEX
   8
Layer1
   6
SOLID
  10
0.8771
  20
-2.8689
  30
0.0
  42
0.0
   0
VERTEX
   8
Layer1
   6
SOLID
  42
0.0
  10
0.9502
  20
-3.1080
  30
0.0
   0
VERTEX
   8
Layer1
   6
SOLID
  42
0.0
  10
0.9502
  20
-3.1080
  30
0.0
   0
VERTEX
   8
Layer1
   6
SOLID
  42
0.0
  10
0.9502
  20
-3.1080
  30
0.0
   0
VERTEX
   8
Layer1
   6
SOLID
  10
0.9502
  20
-3.1080
  30
0.0
  42
0.0
   0
SEQEND
   0
POLYLINE
   8
Layer1
   6
SOLID
  66
1
  40
0.0
  41
0.0
   0
VERTEX
   8
Layer1
   6
SOLID
  10
0.9271
  20
-2.8532
  30
0.0
  42
0.0
   0
VERTEX
   8
Layer1
   6
SOLID
  42
0.0
  10
1.0043
  20
-3.0909
  30
0.0
   0
VERTEX
   8
Layer1
   6
SOLID
  42
0.0
  10
1.0043
  20
-3.0909
  30
0.0
   0
VERTEX
   8
Layer1
   6
SOLID
  42
0.0
  10
1.0043
  20
-3.0909
  30
0.0
   0
VERTEX
   8
Layer1
   6
SOLID
  10
1.0043
  20
-3.0909
  30
0.0
  42
0.0
   0
SEQEND
   0
POLYLINE
   8
Layer1
   6
SOLID
  66
1
  40
0.0
  41
0.0
   0
VERTEX
   8
Layer1
   6
SOLID
  10
0.9767
  20
-2.8366
  30
0.0
  42
0.0
   0
VERTEX
   8
Layer1
   6
SOLID
  42
0.0
  10
1.0581
  20
-3.0729
  30
0.0
   0
VERTEX
   8
Layer1
   6
SOLID
  42
0.0
  10
1.0581
  20
-3.0729
  30
0.0
   0
VERTEX
   8
Layer1
   6
SOLID
  42
0.0
  10
1.0581
  20
-3.0729
  30
0.0
   0
VERTEX
   8
Layer1
   6
SOLID
  10
1.0581
  20
-3.0729
  30
0.0
  42
0.0
   0
SEQEND
   0
POLYLINE
   8
Layer1
   6
SOLID
  66
1
  40
0.0
  41
0.0
   0
VERTEX
   8
Layer1
   6
SOLID
  10
0.8551
  20
-2.3492
  30
0.0
  42
0.0
   0
VERTEX
   8
Layer1
   6
SOLID
  42
0.0
  10
1.1116
  20
-3.0540
  30
0.0
   0
VERTEX
   8
Layer1
   6
SOLID
  42
0.0
  10
1.1116
  20
-3.0540
  30
0.0
   0
VERTEX
   8
Layer1
   6
SOLID
  42
0.0
  10
1.1116
  20
-3.0540
  30
0.0
   0
VERTEX
   8
Layer1
   6
SOLID
  10
1.1116
  20
-3.0540
  30
0.0
  42
0.0
   0
SEQEND
   0
POLYLINE
   8
Layer1
   6
SOLID
  66
1
  40
0.0
  41
0.0
   0
VERTEX
   8
Layer1
   6
SOLID
  10
1.0751
  20
-2.8007
  30
0.0
  42
0.0
   0
VERTEX
   8
Layer1
   6
SOLID
  42
0.0
  10
1.1647
  20
-3.0341
  30
0.0
   0
VERTEX
   8
Layer1
   6
SOLID
  42
0.0
  10
1.1647
  20
-3.0341
  30
0.0
   0
VERTEX
   8
Layer1
   6
SOLID
  42
0.0
  10
1.1647
  20
-3.0341
  30
0.0
   0
VERTEX
   8
Layer1
   6
SOLID
  10
1.1647
  20
-3.0341
  30
0.0
  42
0.0
   0
SEQEND
   0
POLYLINE
   8
Layer1
   6
SOLID
  66
1
  40
0.0
  41
0.0
   0
VERTEX
   8
Layer1
   6
SOLID
  10
1.1238
  20
-2.7816
  30
0.0
  42
0.0
   0
VERTEX
   8
Layer1
   6
SOLID
  42
0.0
  10
1.2175
  20
-3.0133
  30
0.0
   0
VERTEX
   8
Layer1
   6
SOLID
  42
0.0
  10
1.2175
  20
-3.0133
  30
0.0
   0
VERTEX
   8
Layer1
   6
SOLID
  42
0.0
  10
1.2175
  20
-3.0133
  30
0.0
   0
VERTEX
   8
Layer1
   6
SOLID
  10
1.2175
  20
-3.0133
  30
0.0
  42
0.0
   0
SEQEND
   0
POLYLINE
   8
Layer1
   6
SOLID
  66
1
  40
0.0
  41
0.0
   0
VERTEX
   8
Layer1
   6
SOLID
  10
1.1722
  20
-2.7615
  30
0.0
  42
0.0
   0
VERTEX
   8
Layer1
   6
SOLID
  42
0.0
  10
1.2699
  20
-2.9916
  30
0.0
   0
VERTEX
   8
Layer1
   6
SOLID
  42
0.0
  10
1.2699
  20
-2.9916
  30
0.0
   0
VERTEX
   8
Layer1
   6
SOLID
  42
0.0
  10
1.2699
  20
-2.9916
  30
0.0
   0
VERTEX
   8
Layer1
   6
SOLID
  10
1.2699
  20
-2.9916
  30
0.0
  42
0.0
   0
SEQEND
   0
POLYLINE
   8
Layer1
   6
SOLID
  66
1
  40
0.0
  41
0.0
   0
VERTEX
   8
Layer1
   6
SOLID
  10
1.2202
  20
-2.7406
  30
0.0
  42
0.0
   0
VERTEX
   8
Layer1
   6
SOLID
  42
0.0
  10
1.3219
  20
-2.9690
  30
0.0
   0
VERTEX
   8
Layer1
   6
SOLID
  42
0.0
  10
1.3219
  20
-2.9690
  30
0.0
   0
VERTEX
   8
Layer1
   6
SOLID
  42
0.0
  10
1.3219
  20
-2.9690
  30
0.0
   0
VERTEX
   8
Layer1
   6
SOLID
  10
1.3219
  20
-2.9690
  30
0.0
  42
0.0
   0
SEQEND
   0
POLYLINE
   8
Layer1
   6
SOLID
  66
1
  40
0.0
  41
0.0
   0
VERTEX
   8
Layer1
   6
SOLID
  10
1.1622
  20
-2.4923
  30
0.0
  42
0.0
   0
VERTEX
   8
Layer1
   6
SOLID
  42
0.0
  10
1.3735
  20
-2.9455
  30
0.0
   0
VERTEX
   8
Layer1
   6
SOLID
  42
0.0
  10
1.3735
  20
-2.9455
  30
0.0
   0
VERTEX
   8
Layer1
   6
SOLID
  42
0.0
  10
1.3735
  20
-2.9455
  30
0.0
   0
VERTEX
   8
Layer1
   6
SOLID
  10
1.3735
  20
-2.9455
  30
0.0
  42
0.0
   0
SEQEND
   0
POLYLINE
   8
Layer1
   6
SOLID
  66
1
  40
0.0
  41
0.0
   0
VERTEX
   8
Layer1
   6
SOLID
  10
1.3151
  20
-2.6964
  30
0.0
  42
0.0
   0
VERTEX
   8
Layer1
   6
SOLID
  42
0.0
  10
1.4247
  20
-2.9211
  30
0.0
   0
VERTEX
   8
Layer1
   6
SOLID
  42
0.0
  10
1.4247
  20
-2.9211
  30
0.0
   0
VERTEX
   8
Layer1
   6
SOLID
  42
0.0
  10
1.4247
  20
-2.9211
  30
0.0
   0
VERTEX
   8
Layer1
   6
SOLID
  10
1.4247
  20
-2.9211
  30
0.0
  42
0.0
   0
SEQEND
   0
POLYLINE
   8
Layer1
   6
SOLID
  66
1
  40
0.0
  41
0.0
   0
VERTEX
   8
Layer1
   6
SOLID
  10
1.3620
  20
-2.6730
  30
0.0
  42
0.0
   0
VERTEX
   8
Layer1
   6
SOLID
  42
0.0
  10
1.4755
  20
-2.8958
  30
0.0
   0
VERTEX
   8
Layer1
   6
SOLID
  42
0.0
  10
1.4755
  20
-2.8958
  30
0.0
   0
VERTEX
   8
Layer1
   6
SOLID
  42
0.0
  10
1.4755
  20
-2.8958
  30
0.0
   0
VERTEX
   8
Layer1
   6
SOLID
  10
1.4755
  20
-2.8958
  30
0.0
  42
0.0
   0
SEQEND
   0
POLYLINE
   8
Layer1
   6
SOLID
  66
1
  40
0.0
  41
0.0
   0
VERTEX
   8
Layer1
   6
SOLID
  10
1.4084
  20
-2.6488
  30
0.0
  42
0.0
   0
VERTEX
   8
Layer1
   6
SOLID
  42
0.0
  10
1.5258
  20
-2.8696
  30
0.0
   0
VERTEX
   8
Layer1
   6
SOLID
  42
0.0
  10
1.5258
  20
-2.8696
  30
0.0
   0
VERTEX
   8
Layer1
   6
SOLID
  42
0.0
  10
1.5258
  20
-2.8696
  30
0.0
   0
VERTEX
   8
Layer1
   6
SOLID
  10
1.5258
  20
-2.8696
  30
0.0
  42
0.0
   0
SEQEND
   0
POLYLINE
   8
Layer1
   6
SOLID
  66
1
  40
0.0
  41
0.0
   0
VERTEX
   8
Layer1
   6
SOLID
  10
1.4544
  20
-2.6239
  30
0.0
  42
0.0
   0
VERTEX
   8
Layer1
   6
SOLID
  42
0.0
  10
1.5756
  20
-2.8425
  30
0.0
   0
VERTEX
   8
Layer1
   6
SOLID
  42
0.0
  10
1.5756
  20
-2.8425
  30
0.0
   0
VERTEX
   8
Layer1
   6
SOLID
  42
0.0
  10
1.5756
  20
-2.8425
  30
0.0
   0
VERTEX
   8
Layer1
   6
SOLID
  10
1.5756
  20
-2.8425
  30
0.0
  42
0.0
   0
SEQEND
   0
POLYLINE
   8
Layer1
   6
SOLID
  66
1
  40
0.0
  41
0.0
   0
VERTEX
   8
Layer1
   6
SOLID
  10
1.2500
  20
-2.1651
  30
0.0
  42
0.0
   0
VERTEX
   8
Layer1
   6
SOLID
  42
0.0
  10
1.6250
  20
-2.8146
  30
0.0
   0
VERTEX
   8
Layer1
   6
SOLID
  42
0.0
  10
1.6250
  20
-2.8146
  30
0.0
   0
VERTEX
   8
Layer1
   6
SOLID
  42
0.0
  10
1.6250
  20
-2.8146
  30
0.0
   0
VERTEX
   8
Layer1
   6
SOLID
  10
1.6250
  20
-2.8146
  30
0.0
  42
0.0
   0
SEQEND
   0
POLYLINE
   8
Layer1
   6
SOLID
  66
1
  40
0.0
  41
0.0
   0
VERTEX
   8
Layer1
   6
SOLID
  10
1.5451
  20
-2.5715
  30
0.0
  42
0.0
   0
VERTEX
   8
Layer1
   6
SOLID
  42
0.0
  10
1.6739
  20
-2.7858
  30
0.0
   0
VERTEX
   8
Layer1
   6
SOLID
  42
0.0
  10
1.6739
  20
-2.7858
  30
0.0
   0
VERTEX
   8
Layer1
   6
SOLID
  42
0.0
  10
1.6739
  20
-2.7858
  30
0.0
   0
VERTEX
   8
Layer1
   6
SOLID
  10
1.6739
  20
-2.7858
  30
0.0
  42
0.0
   0
SEQEND
   0
POLYLINE
   8
Layer1
   6
SOLID
  66
1
  40
0.0
  41
0.0
   0
VERTEX
   8
Layer1
   6
SOLID
  10
1.5898
  20
-2.5441
  30
0.0
  42
0.0
   0
VERTEX
   8
Layer1
   6
SOLID
  42
0.0
  10
1.7222
  20
-2.7562
  30
0.0
   0
VERTEX
   8
Layer1
   6
SOLID
  42
0.0
  10
1.7222
  20
-2.7562
  30
0.0
   0
VERTEX
   8
Layer1
   6
SOLID
  42
0.0
  10
1.7222
  20
-2.7562
  30
0.0
   0
VERTEX
   8
Layer1
   6
SOLID
  10
1.7222
  20
-2.7562
  30
0.0
  42
0.0
   0
SEQEND
   0
POLYLINE
   8
Layer1
   6
SOLID
  66
1
  40
0.0
  41
0.0
   0
VERTEX
   8
Layer1
   6
SOLID
  10
1.6339
  20
-2.5160
  30
0.0
  42
0.0
   0
VERTEX
   8
Layer1
   6
SOLID
  42
0.0
  10
1.7701
  20
-2.7257
  30
0.0
   0
VERTEX
   8
Layer1
   6
SOLID
  42
0.0
  10
1.7701
  20
-2.7257
  30
0.0
   0
VERTEX
   8
Layer1
   6
SOLID
  42
0.0
  10
1.7701
  20
-2.7257
  30
0.0
   0
VERTEX
   8
Layer1
   6
SOLID
  10
1.7701
  20
-2.7257
  30
0.0
  42
0.0
   0
SEQEND
   0
POLYLINE
   8
Layer1
   6
SOLID
  66
1
  40
0.0
  41
0.0
   0
VERTEX
   8
Layer1
   6
SOLID
  10
1.6776
  20
-2.4871
  30
0.0
  42
0.0
   0
VERTEX
   8
Layer1
   6
SOLID
  42
0.0
  10
1.8174
  20
-2.6944
  30
0.0
   0
VERTEX
   8
Layer1
   6
SOLID
  42
0.0
  10
1.8174
  20
-2.6944
  30
0.0
   0
VERTEX
   8
Layer1
   6
SOLID
  42
0.0
  10
1.8174
  20
-2.6944
  30
0.0
   0
VERTEX
   8
Layer1
   6
SOLID
  10
1.8174
  20
-2.6944
  30
0.0
  42
0.0
   0
SEQEND
   0
POLYLINE
   8
Layer1
   6
SOLID
  66
1
  40
0.0
  41
0.0
   0
VERTEX
   8
Layer1
   6
SOLID
  10
1.5773
  20
-2.2527
  30
0.0
  42
0.0
   0
VERTEX
   8
Layer1
   6
SOLID
  42
0.0
  10
1.8641
  20
-2.6622
  30
0.0
   0
VERTEX
   8
Layer1
   6
SOLID
  42
0.0
  10
1.8641
  20
-2.6622
  30
0.0
   0
VERTEX
   8
Layer1
   6
SOLID
  42
0.0
  10
1.8641
  20
-2.6622
  30
0.0
   0
VERTEX
   8
Layer1
   6
SOLID
  10
1.8641
  20
-2.6622
  30
0.0
  42
0.0
   0
SEQEND
   0
POLYLINE
   8
Layer1
   6
SOLID
  66
1
  40
0.0
  41
0.0
   0
VERTEX
   8
Layer1
   6
SOLID
  10
1.7634
  20
-2.4271
  30
0.0
  42
0.0
   0
VERTEX
   8
Layer1
   6
SOLID
  42
0.0
  10
1.9103
  20
-2.6293
  30
0.0
   0
VERTEX
   8
Layer1
   6
SOLID
  42
0.0
  10
1.9103
  20
-2.6293
  30
0.0
   0
VERTEX
   8
Layer1
   6
SOLID
  42
0.0
  10
1.9103
  20
-2.6293
  30
0.0
   0
VERTEX
   8
Layer1
   6
SOLID
  10
1.9103
  20
-2.6293
  30
0.0
  42
0.0
   0
SEQEND
   0
POLYLINE
   8
Layer1
   6
SOLID
  66
1
  40
0.0
  41
0.0
   0
VERTEX
   8
Layer1
   6
SOLID
  10
1.8054
  20
-2.3959
  30
0.0
  42
0.0
   0
VERTEX
   8
Layer1
   6
SOLID
  42
0.0
  10
1.9559
  20
-2.5956
  30
0.0
   0
VERTEX
   8
Layer1
   6
SOLID
  42
0.0
  10
1.9559
  20
-2.5956
  30
0.0
   0
VERTEX
   8
Layer1
   6
SOLID
  42
0.0
  10
1.9559
  20
-2.5956
  30
0.0
   0
VERTEX
   8
Layer1
   6
SOLID
  10
1.9559
  20
-2.5956
  30
0.0
  42
0.0
   0
SEQEND
   0
POLYLINE
   8
Layer1
   6
SOLID
  66
1
  40
0.0
  41
0.0
   0
VERTEX
   8
Layer1
   6
SOLID
  10
1.8470
  20
-2.3640
  30
0.0
  42
0.0
   0
VERTEX
   8
Layer1
   6
SOLID
  42
0.0
  10
2.0009
  20
-2.5610
  30
0.0
   0
VERTEX
   8
Layer1
   6
SOLID
  42
0.0
  10
2.0009
  20
-2.5610
  30
0.0
   0
VERTEX
   8
Layer1
   6
SOLID
  42
0.0
  10
2.0009
  20
-2.5610
  30
0.0
   0
VERTEX
   8
Layer1
   6
SOLID
  10
2.0009
  20
-2.5610
  30
0.0
  42
0.0
   0
SEQEND
   0
POLYLINE
   8
Layer1
   6
SOLID
  66
1
  40
0.0
  41
0.0
   0
VERTEX
   8
Layer1
   6
SOLID
  10
1.8880
  20
-2.3314
  30
0.0
  42
0.0
   0
VERTEX
   8
Layer1
   6
SOLID
  42
0.0
  10
2.0453
  20
-2.5257
  30
0.0
   0
VERTEX
   8
Layer1
   6
SOLID
  42
0.0
  10
2.0453
  20
-2.5257
  30
0.0
   0
VERTEX
   8
Layer1
   6
SOLID
  42
0.0
  10
2.0453
  20
-2.5257
  30
0.0
   0
VERTEX
   8
Layer1
   6
SOLID
  10
2.0453
  20
-2.5257
  30
0.0
  42
0.0
   0
SEQEND
   0
POLYLINE
   8
Layer1
   6
SOLID
  66
1
  40
0.0
  41
0.0
   0
VERTEX
   8
Layer1
   6
SOLID
  10
1.6070
  20
-1.9151
  30
0.0
  42
0.0
   0
VERTEX
   8
Layer1
   6
SOLID
  42
0.0
  10
2.0891
  20
-2.4896
  30
0.0
   0
VERTEX
   8
Layer1
   6
SOLID
  42
0.0
  10
2.0891
  20
-2.4896
  30
0.0
   0
VERTEX
   8
Layer1
   6
SOLID
  42
0.0
  10
2.0891
  20
-2.4896
  30
0.0
   0
VERTEX
   8
Layer1
   6
SOLID
  10
2.0891
  20
-2.4896
  30
0.0
  42
0.0
   0
SEQEND
   0
POLYLINE
   8
Layer1
   6
SOLID
  66
1
  40
0.0
  41
0.0
   0
VERTEX
   8
Layer1
   6
SOLID
  10
1.9682
  20
-2.2641
  30
0.0
  42
0.0
   0
VERTEX
   8
Layer1
   6
SOLID
  42
0.0
  10
2.1322
  20
-2.4528
  30
0.0
   0
VERTEX
   8
Layer1
   6
SOLID
  42
0.0
  10
2.1322
  20
-2.4528
  30
0.0
   0
VERTEX
   8
Layer1
   6
SOLID
  42
0.0
  10
2.1322
  20
-2.4528
  30
0.0
   0
VERTEX
   8
Layer1
   6
SOLID
  10
2.1322
  20
-2.4528
  30
0.0
  42
0.0
   0
SEQEND
   0
POLYLINE
   8
Layer1
   6
SOLID
  66
1
  40
0.0
  41
0.0
   0
VERTEX
   8
Layer1
   6
SOLID
  10
2.0074
  20
-2.2294
  30
0.0
  42
0.0
   0
VERTEX
   8
Layer1
   6
SOLID
  42
0.0
  10
2.1747
  20
-2.4152
  30
0.0
   0
VERTEX
   8
Layer1
   6
SOLID
  42
0.0
  10
2.1747
  20
-2.4152
  30
0.0
   0
VERTEX
   8
Layer1
   6
SOLID
  42
0.0
  10
2.1747
  20
-2.4152
  30
0.0
   0
VERTEX
   8
Layer1
   6
SOLID
  10
2.1747
  20
-2.4152
  30
0.0
  42
0.0
   0
SEQEND
   0
POLYLINE
   8
Layer1
   6
SOLID
  66
1
  40
0.0
  41
0.0
   0
VERTEX
   8
Layer1
   6
SOLID
  10
2.0460
  20
-2.1941
  30
0.0
  42
0.0
   0
VERTEX
   8
Layer1
   6
SOLID
  42
0.0
  10
2.2165
  20
-2.3769
  30
0.0
   0
VERTEX
   8
Layer1
   6
SOLID
  42
0.0
  10
2.2165
  20
-2.3769
  30
0.0
   0
VERTEX
   8
Layer1
   6
SOLID
  42
0.0
  10
2.2165
  20
-2.3769
  30
0.0
   0
VERTEX
   8
Layer1
   6
SOLID
  10
2.2165
  20
-2.3769
  30
0.0
  42
0.0
   0
SEQEND
   0
POLYLINE
   8
Layer1
   6
SOLID
  66
1
  40
0.0
  41
0.0
   0
VERTEX
   8
Layer1
   6
SOLID
  10
2.0840
  20
-2.1580
  30
0.0
  42
0.0
   0
VERTEX
   8
Layer1
   6
SOLID
  42
0.0
  10
2.2576
  20
-2.3379
  30
0.0
   0
VERTEX
   8
Layer1
   6
SOLID
  42
0.0
  10
2.2576
  20
-2.3379
  30
0.0
   0
VERTEX
   8
Layer1
   6
SOLID
  42
0.0
  10
2.2576
  20
-2.3379
  30
0.0
   0
VERTEX
   8
Layer1
   6
SOLID
  10
2.2576
  20
-2.3379
  30
0.0
  42
0.0
   0
SEQEND
   0
POLYLINE
   8
Layer1
   6
SOLID
  66
1
  40
0.0
  41
0.0
   0
VERTEX
   8
Layer1
   6
SOLID
  10
1.9445
  20
-1.9445
  30
0.0
  42
0.0
   0
VERTEX
   8
Layer1
   6
SOLID
  42
0.0
  10
2.2981
  20
-2.2981
  30
0.0
   0
VERTEX
   8
Layer1
   6
SOLID
  42
0.0
  10
2.2981
  20
-2.2981
  30
0.0
   0
VERTEX
   8
Layer1
   6
SOLID
  42
0.0
  10
2.2981
  20
-2.2981
  30
0.0
   0
VERTEX
   8
Layer1
   6
SOLID
  10
2.2981
  20
-2.2981
  30
0.0
  42
0.0
   0
SEQEND
   0
POLYLINE
   8
Layer1
   6
SOLID
  66
1
  40
0.0
  41
0.0
   0
VERTEX
   8
Layer1
   6
SOLID
  10
2.1580
  20
-2.0840
  30
0.0
  42
0.0
   0
VERTEX
   8
Layer1
   6
SOLID
  42
0.0
  10
2.3379
  20
-2.2576
  30
0.0
   0
VERTEX
   8
Layer1
   6
SOLID
  42
0.0
  10
2.3379
  20
-2.2576
  30
0.0
   0
VERTEX
   8
Layer1
   6
SOLID
  42
0.0
  10
2.3379
  20
-2.2576
  30
0.0
   0
VERTEX
   8
Layer1
   6
SOLID
  10
2.3379
  20
-2.2576
  30
0.0
  42
0.0
   0
SEQEND
   0
POLYLINE
   8
Layer1
   6
SOLID
  66
1
  40
0.0
  41
0.0
   0
VERTEX
   8
Layer1
   6
SOLID
  10
2.1941
  20
-2.0460
  30
0.0
  42
0.0
   0
VERTEX
   8
Layer1
   6
SOLID
  42
0.0
  10
2.3769
  20
-2.2165
  30
0.0
   0
VERTEX
   8
Layer1
   6
SOLID
  42
0.0
  10
2.3769
  20
-2.2165
  30
0.0
   0
VERTEX
   8
Layer1
   6
SOLID
  42
0.0
  10
2.3769
  20
-2.2165
  30
0.0
   0
VERTEX
   8
Layer1
   6
SOLID
  10
2.3769
  20
-2.2165
  30
0.0
  42
0.0
   0
SEQEND
   0
POLYLINE
   8
Layer1
   6
SOLID
  66
1
  40
0.0
  41
0.0
   0
VERTEX
   8
Layer1
   6
SOLID
  10
2.2294
  20
-2.0074
  30
0.0
  42
0.0
   0
VERTEX
   8
Layer1
   6
SOLID
  42
0.0
  10
2.4152
  20
-2.1747
  30
0.0
   0
VERTEX
   8
Layer1
   6
SOLID
  42
0.0
  10
2.4152
  20
-2.1747
  30
0.0
   0
VERTEX
   8
Layer1
   6
SOLID
  42
0.0
  10
2.4152
  20
-2.1747
  30
0.0
   0
VERTEX
   8
Layer1
   6
SOLID
  10
2.4152
  20
-2.1747
  30
0.0
  42
0.0
   0
SEQEND
   0
POLYLINE
   8
Layer1
   6
SOLID
  66
1
  40
0.0
  41
0.0
   0
VERTEX
   8
Layer1
   6
SOLID
  10
2.2641
  20
-1.9682
  30
0.0
  42
0.0
   0
VERTEX
   8
Layer1
   6
SOLID
  42
0.0
  10
2.4528
  20
-2.1322
  30
0.0
   0
VERTEX
   8
Layer1
   6
SOLID
  42
0.0
  10
2.4528
  20
-2.1322
  30
0.0
   0
VERTEX
   8
Layer1
   6
SOLID
  42
0.0
  10
2.4528
  20
-2.1322
  30
0.0
   0
VERTEX
   8
Layer1
   6
SOLID
  10
2.4528
  20
-2.1322
  30
0.0
  42
0.0
   0
SEQEND
   0
POLYLINE
   8
Layer1
   6
SOLID
  66
1
  40
0.0
  41
0.0
   0
VERTEX
   8
Layer1
   6
SOLID
  10
1.9151
  20
-1.6070
  30
0.0
  42
0.0
   0
VERTEX
   8
Layer1
   6
SOLID
  42
0.0
  10
2.4896
  20
-2.0891
  30
0.0
   0
VERTEX
   8
Layer1
   6
SOLID
  42
0.0
  10
2.4896
  20
-2.0891
  30
0.0
   0
VERTEX
   8
Layer1
   6
SOLID
  42
0.0
  10
2.4896
  20
-2.0891
  30
0.0
   0
VERTEX
   8
Layer1
   6
SOLID
  10
2.4896
  20
-2.0891
  30
0.0
  42
0.0
   0
SEQEND
   0
POLYLINE
   8
Layer1
   6
SOLID
  66
1
  40
0.0
  41
0.0
   0
VERTEX
   8
Layer1
   6
SOLID
  10
2.3314
  20
-1.8880
  30
0.0
  42
0.0
   0
VERTEX
   8
Layer1
   6
SOLID
  42
0.0
  10
2.5257
  20
-2.0453
  30
0.0
   0
VERTEX
   8
Layer1
   6
SOLID
  42
0.0
  10
2.5257
  20
-2.0453
  30
0.0
   0
VERTEX
   8
Layer1
   6
SOLID
  42
0.0
  10
2.5257
  20
-2.0453
  30
0.0
   0
VERTEX
   8
Layer1
   6
SOLID
  10
2.5257
  20
-2.0453
  30
0.0
  42
0.0
   0
SEQEND
   0
POLYLINE
   8
Layer1
   6
SOLID
  66
1
  40
0.0
  41
0.0
   0
VERTEX
   8
Layer1
   6
SOLID
  10
2.3640
  20
-1.8470
  30
0.0
  42
0.0
   0
VERTEX
   8
Layer1
   6
SOLID
  42
0.0
  10
2.5610
  20
-2.0009
  30
0.0
   0
VERTEX
   8
Layer1
   6
SOLID
  42
0.0
  10
2.5610
  20
-2.0009
  30
0.0
   0
VERTEX
   8
Layer1
   6
SOLID
  42
0.0
  10
2.5610
  20
-2.0009
  30
0.0
   0
VERTEX
   8
Layer1
   6
SOLID
  10
2.5610
  20
-2.0009
  30
0.0
  42
0.0
   0
SEQEND
   0
POLYLINE
   8
Layer1
   6
SOLID
  66
1
  40
0.0
  41
0.0
   0
VERTEX
   8
Layer1
   6
SOLID
  10
2.3959
  20
-1.8054
  30
0.0
  42
0.0
   0
VERTEX
   8
Layer1
   6
SOLID
  42
0.0
  10
2.5956
  20
-1.9559
  30
0.0
   0
VERTEX
   8
Layer1
   6
SOLID
  42
0.0
  10
2.5956
  20
-1.9559
  30
0.0
   0
VERTEX
   8
Layer1
   6
SOLID
  42
0.0
  10
2.5956
  20
-1.9559
  30
0.0
   0
VERTEX
   8
Layer1
   6
SOLID
  10
2.5956
  20
-1.9559
  30
0.0
  42
0.0
   0
SEQEND
   0
POLYLINE
   8
Layer1
   6
SOLID
  66
1
  40
0.0
  41
0.0
   0
VERTEX
   8
Layer1
   6
SOLID
  10
2.4271
  20
-1.7634
  30
0.0
  42
0.0
   0
VERTEX
   8
Layer1
   6
SOLID
  42
0.0
  10
2.6293
  20
-1.9103
  30
0.0
   0
VERTEX
   8
Layer1
   6
SOLID
  42
0.0
  10
2.6293
  20
-1.9103
  30
0.0
   0
VERTEX
   8
Layer1
   6
SOLID
  42
0.0
  10
2.6293
  20
-1.9103
  30
0.0
   0
VERTEX
   8
Layer1
   6
SOLID
  10
2.6293
  20
-1.9103
  30
0.0
  42
0.0
   0
SEQEND
   0
POLYLINE
   8
Layer1
   6
SOLID
  66
1
  40
0.0
  41
0.0
   0
VERTEX
   8
Layer1
   6
SOLID
  10
2.2527
  20
-1.5773
  30
0.0
  42
0.0
   0
VERTEX
   8
Layer1
   6
SOLID
  42
0.0
  10
2.6622
  20
-1.8641
  30
0.0
   0
VERTEX
   8
Layer1
   6
SOLID
  42
0.0
  10
2.6622
  20
-1.8641
  30
0.0
   0
VERTEX
   8
Layer1
   6
SOLID
  42
0.0
  10
2.6622
  20
-1.8641
  30
0.0
   0
VERTEX
   8
Layer1
   6
SOLID
  10
2.6622
  20
-1.8641
  30
0.0
  42
0.0
   0
SEQEND
   0
POLYLINE
   8
Layer1
   6
SOLID
  66
1
  40
0.0
  41
0.0
   0
VERTEX
   8
Layer1
   6
SOLID
  10
2.4871
  20
-1.6776
  30
0.0
  42
0.0
   0
VERTEX
   8
Layer1
   6
SOLID
  42
0.0
  10
2.6944
  20
-1.8174
  30
0.0
   0
VERTEX
   8
Layer1
   6
SOLID
  42
0.0
  10
2.6944
  20
-1.8174
  30
0.0
   0
VERTEX
   8
Layer1
   6
SOLID
  42
0.0
  10
2.6944
  20
-1.8174
  30
0.0
   0
VERTEX
   8
Layer1
   6
SOLID
  10
2.6944
  20
-1.8174
  30
0.0
  42
0.0
   0
SEQEND
   0
POLYLINE
   8
Layer1
   6
SOLID
  66
1
  40
0.0
  41
0.0
   0
VERTEX
   8
Layer1
   6
SOLID
  10
2.5160
  20
-1.6339
  30
0.0
  42
0.0
   0
VERTEX
   8
Layer1
   6
SOLID
  42
0.0
  10
2.7257
  20
-1.7701
  30
0.0
   0
VERTEX
   8
Layer1
   6
SOLID
  42
0.0
  10
2.7257
  20
-1.7701
  30
0.0
   0
VERTEX
   8
Layer1
   6
SOLID
  42
0.0
  10
2.7257
  20
-1.7701
  30
0.0
   0
VERTEX
   8
Layer1
   6
SOLID
  10
2.7257
  20
-1.7701
  30
0.0
  42
0.0
   0
SEQEND
   0
POLYLINE
   8
Layer1
   6
SOLID
  66
1
  40
0.0
  41
0.0
   0
VERTEX
   8
Layer1
   6
SOLID
  10
2.5441
  20
-1.5898
  30
0.0
  42
0.0
   0
VERTEX
   8
Layer1
   6
SOLID
  42
0.0
  10
2.7562
  20
-1.7222
  30
0.0
   0
VERTEX
   8
Layer1
   6
SOLID
  42
0.0
  10
2.7562
  20
-1.7222
  30
0.0
   0
VERTEX
   8
Layer1
   6
SOLID
  42
0.0
  10
2.7562
  20
-1.7222
  30
0.0
   0
VERTEX
   8
Layer1
   6
SOLID
  10
2.7562
  20
-1.7222
  30
0.0
  42
0.0
   0
SEQEND
   0
POLYLINE
   8
Layer1
   6
SOLID
  66
1
  40
0.0
  41
0.0
   0
VERTEX
   8
Layer1
   6
SOLID
  10
2.5715
  20
-1.5451
  30
0.0
  42
0.0
   0
VERTEX
   8
Layer1
   6
SOLID
  42
0.0
  10
2.7858
  20
-1.6739
  30
0.0
   0
VERTEX
   8
Layer1
   6
SOLID
  42
0.0
  10
2.7858
  20
-1.6739
  30
0.0
   0
VERTEX
   8
Layer1
   6
SOLID
  42
0.0
  10
2.7858
  20
-1.6739
  30
0.0
   0
VERTEX
   8
Layer1
   6
SOLID
  10
2.7858
  20
-1.6739
  30
0.0
  42
0.0
   0
SEQEND
   0
POLYLINE
   8
Layer1
   6
SOLID
  66
1
  40
0.0
  41
0.0
   0
VERTEX
   8
Layer1
   6
SOLID
  10
2.1651
  20
-1.2500
  30
0.0
  42
0.0
   0
VERTEX
   8
Layer1
   6
SOLID
  42
0.0
  10
2.8146
  20
-1.6250
  30
0.0
   0
VERTEX
   8
Layer1
   6
SOLID
  42
0.0
  10
2.8146
  20
-1.6250
  30
0.0
   0
VERTEX
   8
Layer1
   6
SOLID
  42
0.0
  10
2.8146
  20
-1.6250
  30
0.0
   0
VERTEX
   8
Layer1
   6
SOLID
  10
2.8146
  20
-1.6250
  30
0.0
  42
0.0
   0
SEQEND
   0
POLYLINE
   8
Layer1
   6
SOLID
  66
1
  40
0.0
  41
0.0
   0
VERTEX
   8
Layer1
   6
SOLID
  10
2.6239
  20
-1.4544
  30
0.0
  42
0.0
   0
VERTEX
   8
Layer1
   6
SOLID
  42
0.0
  10
2.8425
  20
-1.5756
  30
0.0
   0
VERTEX
   8
Layer1
   6
SOLID
  42
0.0
  10
2.8425
  20
-1.5756
  30
0.0
   0
VERTEX
   8
Layer1
   6
SOLID
  42
0.0
  10
2.8425
  20
-1.5756
  30
0.0
   0
VERTEX
   8
Layer1
   6
SOLID
  10
2.8425
  20
-1.5756
  30
0.0
  42
0.0
   0
SEQEND
   0
POLYLINE
   8
Layer1
   6
SOLID
  66
1
  40
0.0
  41
0.0
   0
VERTEX
   8
Layer1
   6
SOLID
  10
2.6488
  20
-1.4084
  30
0.0
  42
0.0
   0
VERTEX
   8
Layer1
   6
SOLID
  42
0.0
  10
2.8696
  20
-1.5258
  30
0.0
   0
VERTEX
   8
Layer1
   6
SOLID
  42
0.0
  10
2.8696
  20
-1.5258
  30
0.0
   0
VERTEX
   8
Layer1
   6
SOLID
  42
0.0
  10
2.8696
  20
-1.5258
  30
0.0
   0
VERTEX
   8
Layer1
   6
SOLID
  10
2.8696
  20
-1.5258
  30
0.0
  42
0.0
   0
SEQEND
   0
POLYLINE
   8
Layer1
   6
SOLID
  66
1
  40
0.0
  41
0.0
   0
VERTEX
   8
Layer1
   6
SOLID
  10
2.6730
  20
-1.3620
  30
0.0
  42
0.0
   0
VERTEX
   8
Layer1
   6
SOLID
  42
0.0
  10
2.8958
  20
-1.4755
  30
0.0
   0
VERTEX
   8
Layer1
   6
SOLID
  42
0.0
  10
2.8958
  20
-1.4755
  30
0.0
   0
VERTEX
   8
Layer1
   6
SOLID
  42
0.0
  10
2.8958
  20
-1.4755
  30
0.0
   0
VERTEX
   8
Layer1
   6
SOLID
  10
2.8958
  20
-1.4755
  30
0.0
  42
0.0
   0
SEQEND
   0
POLYLINE
   8
Layer1
   6
SOLID
  66
1
  40
0.0
  41
0.0
   0
VERTEX
   8
Layer1
   6
SOLID
  10
2.6964
  20
-1.3151
  30
0.0
  42
0.0
   0
VERTEX
   8
Layer1
   6
SOLID
  42
0.0
  10
2.9211
  20
-1.4247
  30
0.0
   0
VERTEX
   8
Layer1
   6
SOLID
  42
0.0
  10
2.9211
  20
-1.4247
  30
0.0
   0
VERTEX
   8
Layer1
   6
SOLID
  42
0.0
  10
2.9211
  20
-1.4247
  30
0.0
   0
VERTEX
   8
Layer1
   6
SOLID
  10
2.9211
  20
-1.4247
  30
0.0
  42
0.0
   0
SEQEND
   0
POLYLINE
   8
Layer1
   6
SOLID
  66
1
  40
0.0
  41
0.0
   0
VERTEX
   8
Layer1
   6
SOLID
  10
2.4923
  20
-1.1622
  30
0.0
  42
0.0
   0
VERTEX
   8
Layer1
   6
SOLID
  42
0.0
  10
2.9455
  20
-1.3735
  30
0.0
   0
VERTEX
   8
Layer1
   6
SOLID
  42
0.0
  10
2.9455
  20
-1.3735
  30
0.0
   0
VERTEX
   8
Layer1
   6
SOLID
  42
0.0
  10
2.9455
  20
-1.3735
  30
0.0
   0
VERTEX
   8
Layer1
   6
SOLID
  10
2.9455
  20
-1.3735
  30
0.0
  42
0.0
   0
SEQEND
   0
POLYLINE
   8
Layer1
   6
SOLID
  66
1
  40
0.0
  41
0.0
   0
VERTEX
   8
Layer1
   6
SOLID
  10
2.7406
  20
-1.2202
  30
0.0
  42
0.0
   0
VERTEX
   8
Layer1
   6
SOLID
  42
0.0
  10
2.9690
  20
-1.3219
  30
0.0
   0
VERTEX
   8
Layer1
   6
SOLID
  42
0.0
  10
2.9690
  20
-1.3219
  30
0.0
   0
VERTEX
   8
Layer1
   6
SOLID
  42
0.0
  10
2.9690
  20
-1.3219
  30
0.0
   0
VERTEX
   8
Layer1
   6
SOLID
  10
2.9690
  20
-1.3219
  30
0.0
  42
0.0
   0
SEQEND
   0
POLYLINE
   8
Layer1
   6
SOLID
  66
1
  40
0.0
  41
0.0
   0
VERTEX
   8
Layer1
   6
SOLID
  10
2.7615
  20
-1.1722
  30
0.0
  42
0.0
   0
VERTEX
   8
Layer1
   6
SOLID
  42
0.0
  10
2.9916
  20
-1.2699
  30
0.0
   0
VERTEX
   8
Layer1
   6
SOLID
  42
0.0
  10
2.9916
  20
-1.2699
  30
0.0
   0
VERTEX
   8
Layer1
   6
SOLID
  42
0.0
  10
2.9916
  20
-1.2699
  30
0.0
   0
VERTEX
   8
Layer1
   6
SOLID
  10
2.9916
  20
-1.2699
  30
0.0
  42
0.0
   0
SEQEND
   0
POLYLINE
   8
Layer1
   6
SOLID
  66
1
  40
0.0
  41
0.0
   0
VERTEX
   8
Layer1
   6
SOLID
  10
2.7816
  20
-1.1238
  30
0.0
  42
0.0
   0
VERTEX
   8
Layer1
   6
SOLID
  42
0.0
  10
3.0133
  20
-1.2175
  30
0.0
   0
VERTEX
   8
Layer1
   6
SOLID
  42
0.0
  10
3.0133
  20
-1.2175
  30
0.0
   0
VERTEX
   8
Layer1
   6
SOLID
  42
0.0
  10
3.0133
  20
-1.2175
  30
0.0
   0
VERTEX
   8
Layer1
   6
SOLID
  10
3.0133
  20
-1.2175
  30
0.0
  42
0.0
   0
SEQEND
   0
POLYLINE
   8
Layer1
   6
SOLID
  66
1
  40
0.0
  41
0.0
   0
VERTEX
   8
Layer1
   6
SOLID
  10
2.8007
  20
-1.0751
  30
0.0
  42
0.0
   0
VERTEX
   8
Layer1
   6
SOLID
  42
0.0
  10
3.0341
  20
-1.1647
  30
0.0
   0
VERTEX
   8
Layer1
   6
SOLID
  42
0.0
  10
3.0341
  20
-1.1647
  30
0.0
   0
VERTEX
   8
Layer1
   6
SOLID
  42
0.0
  10
3.0341
  20
-1.1647
  30
0.0
   0
VERTEX
   8
Layer1
   6
SOLID
  10
3.0341
  20
-1.1647
  30
0.0
  42
0.0
   0
SEQEND
   0
POLYLINE
   8
Layer1
   6
SOLID
  66
1
  40
0.0
  41
0.0
   0
VERTEX
   8
Layer1
   6
SOLID
  10
2.3492
  20
-0.8551
  30
0.0
  42
0.0
   0
VERTEX
   8
Layer1
   6
SOLID
  42
0.0
  10
3.0540
  20
-1.1116
  30
0.0
   0
VERTEX
   8
Layer1
   6
SOLID
  42
0.0
  10
3.0540
  20
-1.1116
  30
0.0
   0
VERTEX
   8
Layer1
   6
SOLID
  42
0.0
  10
3.0540
  20
-1.1116
  30
0.0
   0
VERTEX
   8
Layer1
   6
SOLID
  10
3.0540
  20
-1.1116
  30
0.0
  42
0.0
   0
SEQEND
   0
POLYLINE
   8
Layer1
   6
SOLID
  66
1
  40
0.0
  41
0.0
   0
VERTEX
   8
Layer1
   6
SOLID
  10
2.8366
  20
-0.9767
  30
0.0
  42
0.0
   0
VERTEX
   8
Layer1
   6
SOLID
  42
0.0
  10
3.0729
  20
-1.0581
  30
0.0
   0
VERTEX
   8
Layer1
   6
SOLID
  42
0.0
  10
3.0729
  20
-1.0581
  30
0.0
   0
VERTEX
   8
Layer1
   6
SOLID
  42
0.0
  10
3.0729
  20
-1.0581
  30
0.0
   0
VERTEX
   8
Layer1
   6
SOLID
  10
3.0729
  20
-1.0581
  30
0.0
  42
0.0
   0
SEQEND
   0
POLYLINE
   8
Layer1
   6
SOLID
  66
1
  40
0.0
  41
0.0
   0
VERTEX
   8
Layer1
   6
SOLID
  10
2.8532
  20
-0.9271
  30
0.0
  42
0.0
   0
VERTEX
   8
Layer1
   6
SOLID
  42
0.0
  10
3.0909
  20
-1.0043
  30
0.0
   0
VERTEX
   8
Layer1
   6
SOLID
  42
0.0
  10
3.0909
  20
-1.0043
  30
0.0
   0
VERTEX
   8
Layer1
   6
SOLID
  42
0.0
  10
3.0909
  20
-1.0043
  30
0.0
   0
VERTEX
   8
Layer1
   6
SOLID
  10
3.0909
  20
-1.0043
  30
0.0
  42
0.0
   0
SEQEND
   0
POLYLINE
   8
Layer1
   6
SOLID
  66
1
  40
0.0
  41
0.0
   0
VERTEX
   8
Layer1
   6
SOLID
  10
2.8689
  20
-0.8771
  30
0.0
  42
0.0
   0
VERTEX
   8
Layer1
   6
SOLID
  42
0.0
  10
3.1080
  20
-0.9502
  30
0.0
   0
VERTEX
   8
Layer1
   6
SOLID
  42
0.0
  10
3.1080
  20
-0.9502
  30
0.0
   0
VERTEX
   8
Layer1
   6
SOLID
  42
0.0
  10
3.1080
  20
-0.9502
  30
0.0
   0
VERTEX
   8
Layer1
   6
SOLID
  10
3.1080
  20
-0.9502
  30
0.0
  42
0.0
   0
SEQEND
   0
POLYLINE
   8
Layer1
   6
SOLID
  66
1
  40
0.0
  41
0.0
   0
VERTEX
   8
Layer1
   6
SOLID
  10
2.8838
  20
-0.8269
  30
0.0
  42
0.0
   0
VERTEX
   8
Layer1
   6
SOLID
  42
0.0
  10
3.1241
  20
-0.8958
  30
0.0
   0
VERTEX
   8
Layer1
   6
SOLID
  42
0.0
  10
3.1241
  20
-0.8958
  30
0.0
   0
VERTEX
   8
Layer1
   6
SOLID
  42
0.0
  10
3.1241
  20
-0.8958
  30
0.0
   0
VERTEX
   8
Layer1
   6
SOLID
  10
3.1241
  20
-0.8958
  30
0.0
  42
0.0
   0
SEQEND
   0
POLYLINE
   8
Layer1
   6
SOLID
  66
1
  40
0.0
  41
0.0
   0
VERTEX
   8
Layer1
   6
SOLID
  10
2.6563
  20
-0.7118
  30
0.0
  42
0.0
   0
VERTEX
   8
Layer1
   6
SOLID
  42
0.0
  10
3.1393
  20
-0.8412
  30
0.0
   0
VERTEX
   8
Layer1
   6
SOLID
  42
0.0
  10
3.1393
  20
-0.8412
  30
0.0
   0
VERTEX
   8
Layer1
   6
SOLID
  42
0.0
  10
3.1393
  20
-0.8412
  30
0.0
   0
VERTEX
   8
Layer1
   6
SOLID
  10
3.1393
  20
-0.8412
  30
0.0
  42
0.0
   0
SEQEND
   0
POLYLINE
   8
Layer1
   6
SOLID
  66
1
  40
0.0
  41
0.0
   0
VERTEX
   8
Layer1
   6
SOLID
  10
2.9109
  20
-0.7258
  30
0.0
  42
0.0
   0
VERTEX
   8
Layer1
   6
SOLID
  42
0.0
  10
3.1535
  20
-0.7862
  30
0.0
   0
VERTEX
   8
Layer1
   6
SOLID
  42
0.0
  10
3.1535
  20
-0.7862
  30
0.0
   0
VERTEX
   8
Layer1
   6
SOLID
  42
0.0
  10
3.1535
  20
-0.7862
  30
0.0
   0
VERTEX
   8
Layer1
   6
SOLID
  10
3.1535
  20
-0.7862
  30
0.0
  42
0.0
   0
SEQEND
   0
POLYLINE
   8
Layer1
   6
SOLID
  66
1
  40
0.0
  41
0.0
   0
VERTEX
   8
Layer1
   6
SOLID
  10
2.9231
  20
-0.6749
  30
0.0
  42
0.0
   0
VERTEX
   8
Layer1
   6
SOLID
  42
0.0
  10
3.1667
  20
-0.7311
  30
0.0
   0
VERTEX
   8
Layer1
   6
SOLID
  42
0.0
  10
3.1667
  20
-0.7311
  30
0.0
   0
VERTEX
   8
Layer1
   6
SOLID
  42
0.0
  10
3.1667
  20
-0.7311
  30
0.0
   0
VERTEX
   8
Layer1
   6
SOLID
  10
3.1667
  20
-0.7311
  30
0.0
  42
0.0
   0
SEQEND
   0
POLYLINE
   8
Layer1
   6
SOLID
  66
1
  40
0.0
  41
0.0
   0
VERTEX
   8
Layer1
   6
SOLID
  10
2.9344
  20
-0.6237
  30
0.0
  42
0.0
   0
VERTEX
   8
Layer1
   6
SOLID
  42
0.0
  10
3.1790
  20
-0.6757
  30
0.0
   0
VERTEX
   8
Layer1
   6
SOLID
  42
0.0
  10
3.1790
  20
-0.6757
  30
0.0
   0
VERTEX
   8
Layer1
   6
SOLID
  42
0.0
  10
3.1790
  20
-0.6757
  30
0.0
   0
VERTEX
   8
Layer1
   6
SOLID
  10
3.1790
  20
-0.6757
  30
0.0
  42
0.0
   0
SEQEND
   0
POLYLINE
   8
Layer1
   6
SOLID
  66
1
  40
0.0
  41
0.0
   0
VERTEX
   8
Layer1
   6
SOLID
  10
2.9449
  20
-0.5724
  30
0.0
  42
0.0
   0
VERTEX
   8
Layer1
   6
SOLID
  42
0.0
  10
3.1903
  20
-0.6201
  30
0.0
   0
VERTEX
   8
Layer1
   6
SOLID
  42
0.0
  10
3.1903
  20
-0.6201
  30
0.0
   0
VERTEX
   8
Layer1
   6
SOLID
  42
0.0
  10
3.1903
  20
-0.6201
  30
0.0
   0
VERTEX
   8
Layer1
   6
SOLID
  10
3.1903
  20
-0.6201
  30
0.0
  42
0.0
   0
SEQEND
   0
POLYLINE
   8
Layer1
   6
SOLID
  66
1
  40
0.0
  41
0.0
   0
VERTEX
   8
Layer1
   6
SOLID
  10
2.4620
  20
-0.4341
  30
0.0
  42
0.0
   0
VERTEX
   8
Layer1
   6
SOLID
  42
0.0
  10
3.2006
  20
-0.5644
  30
0.0
   0
VERTEX
   8
Layer1
   6
SOLID
  42
0.0
  10
3.2006
  20
-0.5644
  30
0.0
   0
VERTEX
   8
Layer1
   6
SOLID
  42
0.0
  10
3.2006
  20
-0.5644
  30
0.0
   0
VERTEX
   8
Layer1
   6
SOLID
  10
3.2006
  20
-0.5644
  30
0.0
  42
0.0
   0
SEQEND
   0
POLYLINE
   8
Layer1
   6
SOLID
  66
1
  40
0.0
  41
0.0
   0
VERTEX
   8
Layer1
   6
SOLID
  10
2.9631
  20
-0.4693
  30
0.0
  42
0.0
   0
VERTEX
   8
Layer1
   6
SOLID
  42
0.0
  10
3.2100
  20
-0.5084
  30
0.0
   0
VERTEX
   8
Layer1
   6
SOLID
  42
0.0
  10
3.2100
  20
-0.5084
  30
0.0
   0
VERTEX
   8
Layer1
   6
SOLID
  42
0.0
  10
3.2100
  20
-0.5084
  30
0.0
   0
VERTEX
   8
Layer1
   6
SOLID
  10
3.2100
  20
-0.5084
  30
0.0
  42
0.0
   0
SEQEND
   0
POLYLINE
   8
Layer1
   6
SOLID
  66
1
  40
0.0
  41
0.0
   0
VERTEX
   8
Layer1
   6
SOLID
  10
2.9708
  20
-0.4175
  30
0.0
  42
0.0
   0
VERTEX
   8
Layer1
   6
SOLID
  42
0.0
  10
3.2184
  20
-0.4523
  30
0.0
   0
VERTEX
   8
Layer1
   6
SOLID
  42
0.0
  10
3.2184
  20
-0.4523
  30
0.0
   0
VERTEX
   8
Layer1
   6
SOLID
  42
0.0
  10
3.2184
  20
-0.4523
  30
0.0
   0
VERTEX
   8
Layer1
   6
SOLID
  10
3.2184
  20
-0.4523
  30
0.0
  42
0.0
   0
SEQEND
   0
POLYLINE
   8
Layer1
   6
SOLID
  66
1
  40
0.0
  41
0.0
   0
VERTEX
   8
Layer1
   6
SOLID
  10
2.9776
  20
-0.3656
  30
0.0
  42
0.0
   0
VERTEX
   8
Layer1
   6
SOLID
  42
0.0
  10
3.2258
  20
-0.3961
  30
0.0
   0
VERTEX
   8
Layer1
   6
SOLID
  42
0.0
  10
3.2258
  20
-0.3961
  30
0.0
   0
VERTEX
   8
Layer1
   6
SOLID
  42
0.0
  10
3.2258
  20
-0.3961
  30
0.0
   0
VERTEX
   8
Layer1
   6
SOLID
  10
3.2258
  20
-0.3961
  30
0.0
  42
0.0
   0
SEQEND
   0
POLYLINE
   8
Layer1
   6
SOLID
  66
1
  40
0.0
  41
0.0
   0
VERTEX
   8
Layer1
   6
SOLID
  10
2.9836
  20
-0.3136
  30
0.0
  42
0.0
   0
VERTEX
   8
Layer1
   6
SOLID
  42
0.0
  10
3.2322
  20
-0.3397
  30
0.0
   0
VERTEX
   8
Layer1
   6
SOLID
  42
0.0
  10
3.2322
  20
-0.3397
  30
0.0
   0
VERTEX
   8
Layer1
   6
SOLID
  42
0.0
  10
3.2322
  20
-0.3397
  30
0.0
   0
VERTEX
   8
Layer1
   6
SOLID
  10
3.2322
  20
-0.3397
  30
0.0
  42
0.0
   0
SEQEND
   0
POLYLINE
   8
Layer1
   6
SOLID
  66
1
  40
0.0
  41
0.0
   0
VERTEX
   8
Layer1
   6
SOLID
  10
2.7395
  20
-0.2397
  30
0.0
  42
0.0
   0
VERTEX
   8
Layer1
   6
SOLID
  42
0.0
  10
3.2376
  20
-0.2833
  30
0.0
   0
VERTEX
   8
Layer1
   6
SOLID
  42
0.0
  10
3.2376
  20
-0.2833
  30
0.0
   0
VERTEX
   8
Layer1
   6
SOLID
  42
0.0
  10
3.2376
  20
-0.2833
  30
0.0
   0
VERTEX
   8
Layer1
   6
SOLID
  10
3.2376
  20
-0.2833
  30
0.0
  42
0.0
   0
SEQEND
   0
POLYLINE
   8
Layer1
   6
SOLID
  66
1
  40
0.0
  41
0.0
   0
VERTEX
   8
Layer1
   6
SOLID
  10
2.9927
  20
-0.2093
  30
0.0
  42
0.0
   0
VERTEX
   8
Layer1
   6
SOLID
  42
0.0
  10
3.2421
  20
-0.2267
  30
0.0
   0
VERTEX
   8
Layer1
   6
SOLID
  42
0.0
  10
3.2421
  20
-0.2267
  30
0.0
   0
VERTEX
   8
Layer1
   6
SOLID
  42
0.0
  10
3.2421
  20
-0.2267
  30
0.0
   0
VERTEX
   8
Layer1
   6
SOLID
  10
3.2421
  20
-0.2267
  30
0.0
  42
0.0
   0
SEQEND
   0
POLYLINE
   8
Layer1
   6
SOLID
  66
1
  40
0.0
  41
0.0
   0
VERTEX
   8
Layer1
   6
SOLID
  10
2.9959
  20
-0.1570
  30
0.0
  42
0.0
   0
VERTEX
   8
Layer1
   6
SOLID
  42
0.0
  10
3.2455
  20
-0.1701
  30
0.0
   0
VERTEX
   8
Layer1
   6
SOLID
  42
0.0
  10
3.2455
  20
-0.1701
  30
0.0
   0
VERTEX
   8
Layer1
   6
SOLID
  42
0.0
  10
3.2455
  20
-0.1701
  30
0.0
   0
VERTEX
   8
Layer1
   6
SOLID
  10
3.2455
  20
-0.1701
  30
0.0
  42
0.0
   0
SEQEND
   0
POLYLINE
   8
Layer1
   6
SOLID
  66
1
  40
0.0
  41
0.0
   0
VERTEX
   8
Layer1
   6
SOLID
  10
2.9982
  20
-0.1047
  30
0.0
  42
0.0
   0
VERTEX
   8
Layer1
   6
SOLID
  42
0.0
  10
3.2480
  20
-0.1134
  30
0.0
   0
VERTEX
   8
Layer1
   6
SOLID
  42
0.0
  10
3.2480
  20
-0.1134
  30
0.0
   0
VERTEX
   8
Layer1
   6
SOLID
  42
0.0
  10
3.2480
  20
-0.1134
  30
0.0
   0
VERTEX
   8
Layer1
   6
SOLID
  10
3.2480
  20
-0.1134
  30
0.0
  42
0.0
   0
SEQEND
   0
POLYLINE
   8
Layer1
   6
SOLID
  66
1
  40
0.0
  41
0.0
   0
VERTEX
   8
Layer1
   6
SOLID
  10
2.9995
  20
-0.0524
  30
0.0
  42
0.0
   0
VERTEX
   8
Layer1
   6
SOLID
  42
0.0
  10
3.2495
  20
-0.0567
  30
0.0
   0
VERTEX
   8
Layer1
   6
SOLID
  42
0.0
  10
3.2495
  20
-0.0567
  30
0.0
   0
VERTEX
   8
Layer1
   6
SOLID
  42
0.0
  10
3.2495
  20
-0.0567
  30
0.0
   0
VERTEX
   8
Layer1
   6
SOLID
  10
3.2495
  20
-0.0567
  30
0.0
  42
0.0
   0
SEQEND
   0
POLYLINE
   8
Layer1
   6
SOLID
  66
1
  40
0.0
  41
0.0
   0
VERTEX
   8
Layer1
   6
SOLID
  10
2.5000
  20
-6.1230E-016
  30
0.0
  42
0.0
   0
VERTEX
   8
Layer1
   6
SOLID
  42
0.0
  10
3.2500
  20
-7.9599E-016
  30
0.0
   0
VERTEX
   8
Layer1
   6
SOLID
  42
0.0
  10
3.2500
  20
-7.9599E-016
  30
0.0
   0
VERTEX
   8
Layer1
   6
SOLID
  42
0.0
  10
3.2500
  20
-7.9599E-016
  30
0.0
   0
VERTEX
   8
Layer1
   6
SOLID
  10
3.2500
  20
-7.9599E-016
  30
0.0
  42
0.0
   0
SEQEND
   0
POLYLINE
   8
Layer1
   6
SOLID
  66
1
  40
0.0
  41
0.0
   0
VERTEX
   8
Layer1
   6
SOLID
  10
2.9995
  20
0.0524
  30
0.0
  42
0.0
   0
VERTEX
   8
Layer1
   6
SOLID
  42
0.0
  10
3.2495
  20
0.0567
  30
0.0
   0
VERTEX
   8
Layer1
   6
SOLID
  42
0.0
  10
3.2495
  20
0.0567
  30
0.0
   0
VERTEX
   8
Layer1
   6
SOLID
  42
0.0
  10
3.2495
  20
0.0567
  30
0.0
   0
VERTEX
   8
Layer1
   6
SOLID
  10
3.2495
  20
0.0567
  30
0.0
  42
0.0
   0
SEQEND
   0
POLYLINE
   8
Layer1
   6
SOLID
  66
1
  40
0.0
  41
0.0
   0
VERTEX
   8
Layer1
   6
SOLID
  10
2.9982
  20
0.1047
  30
0.0
  42
0.0
   0
VERTEX
   8
Layer1
   6
SOLID
  42
0.0
  10
3.2480
  20
0.1134
  30
0.0
   0
VERTEX
   8
Layer1
   6
SOLID
  42
0.0
  10
3.2480
  20
0.1134
  30
0.0
   0
VERTEX
   8
Layer1
   6
SOLID
  42
0.0
  10
3.2480
  20
0.1134
  30
0.0
   0
VERTEX
   8
Layer1
   6
SOLID
  10
3.2480
  20
0.1134
  30
0.0
  42
0.0
   0
SEQEND
   0
POLYLINE
   8
Layer1
   6
SOLID
  66
1
  40
0.0
  41
0.0
   0
VERTEX
   8
Layer1
   6
SOLID
  10
2.9959
  20
0.1570
  30
0.0
  42
0.0
   0
VERTEX
   8
Layer1
   6
SOLID
  42
0.0
  10
3.2455
  20
0.1701
  30
0.0
   0
VERTEX
   8
Layer1
   6
SOLID
  42
0.0
  10
3.2455
  20
0.1701
  30
0.0
   0
VERTEX
   8
Layer1
   6
SOLID
  42
0.0
  10
3.2455
  20
0.1701
  30
0.0
   0
VERTEX
   8
Layer1
   6
SOLID
  10
3.2455
  20
0.1701
  30
0.0
  42
0.0
   0
SEQEND
   0
POLYLINE
   8
Layer1
   6
SOLID
  66
1
  40
0.0
  41
0.0
   0
VERTEX
   8
Layer1
   6
SOLID
  10
2.9927
  20
0.2093
  30
0.0
  42
0.0
   0
VERTEX
   8
Layer1
   6
SOLID
  42
0.0
  10
3.2421
  20
0.2267
  30
0.0
   0
VERTEX
   8
Layer1
   6
SOLID
  42
0.0
  10
3.2421
  20
0.2267
  30
0.0
   0
VERTEX
   8
Layer1
   6
SOLID
  42
0.0
  10
3.2421
  20
0.2267
  30
0.0
   0
VERTEX
   8
Layer1
   6
SOLID
  10
3.2421
  20
0.2267
  30
0.0
  42
0.0
   0
SEQEND
   0
POLYLINE
   8
Layer1
   6
SOLID
  66
1
  40
0.0
  41
0.0
   0
VERTEX
   8
Layer1
   6
SOLID
  10
2.7395
  20
0.2397
  30
0.0
  42
0.0
   0
VERTEX
   8
Layer1
   6
SOLID
  42
0.0
  10
3.2376
  20
0.2833
  30
0.0
   0
VERTEX
   8
Layer1
   6
SOLID
  42
0.0
  10
3.2376
  20
0.2833
  30
0.0
   0
VERTEX
   8
Layer1
   6
SOLID
  42
0.0
  10
3.2376
  20
0.2833
  30
0.0
   0
VERTEX
   8
Layer1
   6
SOLID
  10
3.2376
  20
0.2833
  30
0.0
  42
0.0
   0
SEQEND
   0
POLYLINE
   8
Layer1
   6
SOLID
  66
1
  40
0.0
  41
0.0
   0
VERTEX
   8
Layer1
   6
SOLID
  10
2.9836
  20
0.3136
  30
0.0
  42
0.0
   0
VERTEX
   8
Layer1
   6
SOLID
  42
0.0
  10
3.2322
  20
0.3397
  30
0.0
   0
VERTEX
   8
Layer1
   6
SOLID
  42
0.0
  10
3.2322
  20
0.3397
  30
0.0
   0
VERTEX
   8
Layer1
   6
SOLID
  42
0.0
  10
3.2322
  20
0.3397
  30
0.0
   0
VERTEX
   8
Layer1
   6
SOLID
  10
3.2322
  20
0.3397
  30
0.0
  42
0.0
   0
SEQEND
   0
POLYLINE
   8
Layer1
   6
SOLID
  66
1
  40
0.0
  41
0.0
   0
VERTEX
   8
Layer1
   6
SOLID
  10
2.9776
  20
0.3656
  30
0.0
  42
0.0
   0
VERTEX
   8
Layer1
   6
SOLID
  42
0.0
  10
3.2258
  20
0.3961
  30
0.0
   0
VERTEX
   8
Layer1
   6
SOLID
  42
0.0
  10
3.2258
  20
0.3961
  30
0.0
   0
VERTEX
   8
Layer1
   6
SOLID
  42
0.0
  10
3.2258
  20
0.3961
  30
0.0
   0
VERTEX
   8
Layer1
   6
SOLID
  10
3.2258
  20
0.3961
  30
0.0
  42
0.0
   0
SEQEND
   0
POLYLINE
   8
Layer1
   6
SOLID
  66
1
  40
0.0
  41
0.0
   0
VERTEX
   8
Layer1
   6
SOLID
  10
2.9708
  20
0.4175
  30
0.0
  42
0.0
   0
VERTEX
   8
Layer1
   6
SOLID
  42
0.0
  10
3.2184
  20
0.4523
  30
0.0
   0
VERTEX
   8
Layer1
   6
SOLID
  42
0.0
  10
3.2184
  20
0.4523
  30
0.0
   0
VERTEX
   8
Layer1
   6
SOLID
  42
0.0
  10
3.2184
  20
0.4523
  30
0.0
   0
VERTEX
   8
Layer1
   6
SOLID
  10
3.2184
  20
0.4523
  30
0.0
  42
0.0
   0
SEQEND
   0
POLYLINE
   8
Layer1
   6
SOLID
  66
1
  40
0.0
  41
0.0
   0
VERTEX
   8
Layer1
   6
SOLID
  10
2.9631
  20
0.4693
  30
0.0
  42
0.0
   0
VERTEX
   8
Layer1
   6
SOLID
  42
0.0
  10
3.2100
  20
0.5084
  30
0.0
   0
VERTEX
   8
Layer1
   6
SOLID
  42
0.0
  10
3.2100
  20
0.5084
  30
0.0
   0
VERTEX
   8
Layer1
   6
SOLID
  42
0.0
  10
3.2100
  20
0.5084
  30
0.0
   0
VERTEX
   8
Layer1
   6
SOLID
  10
3.2100
  20
0.5084
  30
0.0
  42
0.0
   0
SEQEND
   0
POLYLINE
   8
Layer1
   6
SOLID
  66
1
  40
0.0
  41
0.0
   0
VERTEX
   8
Layer1
   6
SOLID
  10
2.4620
  20
0.4341
  30
0.0
  42
0.0
   0
VERTEX
   8
Layer1
   6
SOLID
  42
0.0
  10
3.2006
  20
0.5644
  30
0.0
   0
VERTEX
   8
Layer1
   6
SOLID
  42
0.0
  10
3.2006
  20
0.5644
  30
0.0
   0
VERTEX
   8
Layer1
   6
SOLID
  42
0.0
  10
3.2006
  20
0.5644
  30
0.0
   0
VERTEX
   8
Layer1
   6
SOLID
  10
3.2006
  20
0.5644
  30
0.0
  42
0.0
   0
SEQEND
   0
POLYLINE
   8
Layer1
   6
SOLID
  66
1
  40
0.0
  41
0.0
   0
VERTEX
   8
Layer1
   6
SOLID
  10
2.9449
  20
0.5724
  30
0.0
  42
0.0
   0
VERTEX
   8
Layer1
   6
SOLID
  42
0.0
  10
3.1903
  20
0.6201
  30
0.0
   0
VERTEX
   8
Layer1
   6
SOLID
  42
0.0
  10
3.1903
  20
0.6201
  30
0.0
   0
VERTEX
   8
Layer1
   6
SOLID
  42
0.0
  10
3.1903
  20
0.6201
  30
0.0
   0
VERTEX
   8
Layer1
   6
SOLID
  10
3.1903
  20
0.6201
  30
0.0
  42
0.0
   0
SEQEND
   0
POLYLINE
   8
Layer1
   6
SOLID
  66
1
  40
0.0
  41
0.0
   0
VERTEX
   8
Layer1
   6
SOLID
  10
2.9344
  20
0.6237
  30
0.0
  42
0.0
   0
VERTEX
   8
Layer1
   6
SOLID
  42
0.0
  10
3.1790
  20
0.6757
  30
0.0
   0
VERTEX
   8
Layer1
   6
SOLID
  42
0.0
  10
3.1790
  20
0.6757
  30
0.0
   0
VERTEX
   8
Layer1
   6
SOLID
  42
0.0
  10
3.1790
  20
0.6757
  30
0.0
   0
VERTEX
   8
Layer1
   6
SOLID
  10
3.1790
  20
0.6757
  30
0.0
  42
0.0
   0
SEQEND
   0
POLYLINE
   8
Layer1
   6
SOLID
  66
1
  40
0.0
  41
0.0
   0
VERTEX
   8
Layer1
   6
SOLID
  10
2.9231
  20
0.6749
  30
0.0
  42
0.0
   0
VERTEX
   8
Layer1
   6
SOLID
  42
0.0
  10
3.1667
  20
0.7311
  30
0.0
   0
VERTEX
   8
Layer1
   6
SOLID
  42
0.0
  10
3.1667
  20
0.7311
  30
0.0
   0
VERTEX
   8
Layer1
   6
SOLID
  42
0.0
  10
3.1667
  20
0.7311
  30
0.0
   0
VERTEX
   8
Layer1
   6
SOLID
  10
3.1667
  20
0.7311
  30
0.0
  42
0.0
   0
SEQEND
   0
POLYLINE
   8
Layer1
   6
SOLID
  66
1
  40
0.0
  41
0.0
   0
VERTEX
   8
Layer1
   6
SOLID
  10
2.9109
  20
0.7258
  30
0.0
  42
0.0
   0
VERTEX
   8
Layer1
   6
SOLID
  42
0.0
  10
3.1535
  20
0.7862
  30
0.0
   0
VERTEX
   8
Layer1
   6
SOLID
  42
0.0
  10
3.1535
  20
0.7862
  30
0.0
   0
VERTEX
   8
Layer1
   6
SOLID
  42
0.0
  10
3.1535
  20
0.7862
  30
0.0
   0
VERTEX
   8
Layer1
   6
SOLID
  10
3.1535
  20
0.7862
  30
0.0
  42
0.0
   0
SEQEND
   0
POLYLINE
   8
Layer1
   6
SOLID
  66
1
  40
0.0
  41
0.0
   0
VERTEX
   8
Layer1
   6
SOLID
  10
2.6563
  20
0.7118
  30
0.0
  42
0.0
   0
VERTEX
   8
Layer1
   6
SOLID
  42
0.0
  10
3.1393
  20
0.8412
  30
0.0
   0
VERTEX
   8
Layer1
   6
SOLID
  42
0.0
  10
3.1393
  20
0.8412
  30
0.0
   0
VERTEX
   8
Layer1
   6
SOLID
  42
0.0
  10
3.1393
  20
0.8412
  30
0.0
   0
VERTEX
   8
Layer1
   6
SOLID
  10
3.1393
  20
0.8412
  30
0.0
  42
0.0
   0
SEQEND
   0
POLYLINE
   8
Layer1
   6
SOLID
  66
1
  40
0.0
  41
0.0
   0
VERTEX
   8
Layer1
   6
SOLID
  10
2.8838
  20
0.8269
  30
0.0
  42
0.0
   0
VERTEX
   8
Layer1
   6
SOLID
  42
0.0
  10
3.1241
  20
0.8958
  30
0.0
   0
VERTEX
   8
Layer1
   6
SOLID
  42
0.0
  10
3.1241
  20
0.8958
  30
0.0
   0
VERTEX
   8
Layer1
   6
SOLID
  42
0.0
  10
3.1241
  20
0.8958
  30
0.0
   0
VERTEX
   8
Layer1
   6
SOLID
  10
3.1241
  20
0.8958
  30
0.0
  42
0.0
   0
SEQEND
   0
POLYLINE
   8
Layer1
   6
SOLID
  66
1
  40
0.0
  41
0.0
   0
VERTEX
   8
Layer1
   6
SOLID
  10
2.8689
  20
0.8771
  30
0.0
  42
0.0
   0
VERTEX
   8
Layer1
   6
SOLID
  42
0.0
  10
3.1080
  20
0.9502
  30
0.0
   0
VERTEX
   8
Layer1
   6
SOLID
  42
0.0
  10
3.1080
  20
0.9502
  30
0.0
   0
VERTEX
   8
Layer1
   6
SOLID
  42
0.0
  10
3.1080
  20
0.9502
  30
0.0
   0
VERTEX
   8
Layer1
   6
SOLID
  10
3.1080
  20
0.9502
  30
0.0
  42
0.0
   0
SEQEND
   0
POLYLINE
   8
Layer1
   6
SOLID
  66
1
  40
0.0
  41
0.0
   0
VERTEX
   8
Layer1
   6
SOLID
  10
2.8532
  20
0.9271
  30
0.0
  42
0.0
   0
VERTEX
   8
Layer1
   6
SOLID
  42
0.0
  10
3.0909
  20
1.0043
  30
0.0
   0
VERTEX
   8
Layer1
   6
SOLID
  42
0.0
  10
3.0909
  20
1.0043
  30
0.0
   0
VERTEX
   8
Layer1
   6
SOLID
  42
0.0
  10
3.0909
  20
1.0043
  30
0.0
   0
VERTEX
   8
Layer1
   6
SOLID
  10
3.0909
  20
1.0043
  30
0.0
  42
0.0
   0
SEQEND
   0
POLYLINE
   8
Layer1
   6
SOLID
  66
1
  40
0.0
  41
0.0
   0
VERTEX
   8
Layer1
   6
SOLID
  10
2.8366
  20
0.9767
  30
0.0
  42
0.0
   0
VERTEX
   8
Layer1
   6
SOLID
  42
0.0
  10
3.0729
  20
1.0581
  30
0.0
   0
VERTEX
   8
Layer1
   6
SOLID
  42
0.0
  10
3.0729
  20
1.0581
  30
0.0
   0
VERTEX
   8
Layer1
   6
SOLID
  42
0.0
  10
3.0729
  20
1.0581
  30
0.0
   0
VERTEX
   8
Layer1
   6
SOLID
  10
3.0729
  20
1.0581
  30
0.0
  42
0.0
   0
SEQEND
   0
POLYLINE
   8
Layer1
   6
SOLID
  66
1
  40
0.0
  41
0.0
   0
VERTEX
   8
Layer1
   6
SOLID
  10
2.3492
  20
0.8551
  30
0.0
  42
0.0
   0
VERTEX
   8
Layer1
   6
SOLID
  42
0.0
  10
3.0540
  20
1.1116
  30
0.0
   0
VERTEX
   8
Layer1
   6
SOLID
  42
0.0
  10
3.0540
  20
1.1116
  30
0.0
   0
VERTEX
   8
Layer1
   6
SOLID
  42
0.0
  10
3.0540
  20
1.1116
  30
0.0
   0
VERTEX
   8
Layer1
   6
SOLID
  10
3.0540
  20
1.1116
  30
0.0
  42
0.0
   0
SEQEND
   0
POLYLINE
   8
Layer1
   6
SOLID
  66
1
  40
0.0
  41
0.0
   0
VERTEX
   8
Layer1
   6
SOLID
  10
2.8007
  20
1.0751
  30
0.0
  42
0.0
   0
VERTEX
   8
Layer1
   6
SOLID
  42
0.0
  10
3.0341
  20
1.1647
  30
0.0
   0
VERTEX
   8
Layer1
   6
SOLID
  42
0.0
  10
3.0341
  20
1.1647
  30
0.0
   0
VERTEX
   8
Layer1
   6
SOLID
  42
0.0
  10
3.0341
  20
1.1647
  30
0.0
   0
VERTEX
   8
Layer1
   6
SOLID
  10
3.0341
  20
1.1647
  30
0.0
  42
0.0
   0
SEQEND
   0
POLYLINE
   8
Layer1
   6
SOLID
  66
1
  40
0.0
  41
0.0
   0
VERTEX
   8
Layer1
   6
SOLID
  10
2.7816
  20
1.1238
  30
0.0
  42
0.0
   0
VERTEX
   8
Layer1
   6
SOLID
  42
0.0
  10
3.0133
  20
1.2175
  30
0.0
   0
VERTEX
   8
Layer1
   6
SOLID
  42
0.0
  10
3.0133
  20
1.2175
  30
0.0
   0
VERTEX
   8
Layer1
   6
SOLID
  42
0.0
  10
3.0133
  20
1.2175
  30
0.0
   0
VERTEX
   8
Layer1
   6
SOLID
  10
3.0133
  20
1.2175
  30
0.0
  42
0.0
   0
SEQEND
   0
POLYLINE
   8
Layer1
   6
SOLID
  66
1
  40
0.0
  41
0.0
   0
VERTEX
   8
Layer1
   6
SOLID
  10
2.7615
  20
1.1722
  30
0.0
  42
0.0
   0
VERTEX
   8
Layer1
   6
SOLID
  42
0.0
  10
2.9916
  20
1.2699
  30
0.0
   0
VERTEX
   8
Layer1
   6
SOLID
  42
0.0
  10
2.9916
  20
1.2699
  30
0.0
   0
VERTEX
   8
Layer1
   6
SOLID
  42
0.0
  10
2.9916
  20
1.2699
  30
0.0
   0
VERTEX
   8
Layer1
   6
SOLID
  10
2.9916
  20
1.2699
  30
0.0
  42
0.0
   0
SEQEND
   0
POLYLINE
   8
Layer1
   6
SOLID
  66
1
  40
0.0
  41
0.0
   0
VERTEX
   8
Layer1
   6
SOLID
  10
2.7406
  20
1.2202
  30
0.0
  42
0.0
   0
VERTEX
   8
Layer1
   6
SOLID
  42
0.0
  10
2.9690
  20
1.3219
  30
0.0
   0
VERTEX
   8
Layer1
   6
SOLID
  42
0.0
  10
2.9690
  20
1.3219
  30
0.0
   0
VERTEX
   8
Layer1
   6
SOLID
  42
0.0
  10
2.9690
  20
1.3219
  30
0.0
   0
VERTEX
   8
Layer1
   6
SOLID
  10
2.9690
  20
1.3219
  30
0.0
  42
0.0
   0
SEQEND
   0
POLYLINE
   8
Layer1
   6
SOLID
  66
1
  40
0.0
  41
0.0
   0
VERTEX
   8
Layer1
   6
SOLID
  10
2.4923
  20
1.1622
  30
0.0
  42
0.0
   0
VERTEX
   8
Layer1
   6
SOLID
  42
0.0
  10
2.9455
  20
1.3735
  30
0.0
   0
VERTEX
   8
Layer1
   6
SOLID
  42
0.0
  10
2.9455
  20
1.3735
  30
0.0
   0
VERTEX
   8
Layer1
   6
SOLID
  42
0.0
  10
2.9455
  20
1.3735
  30
0.0
   0
VERTEX
   8
Layer1
   6
SOLID
  10
2.9455
  20
1.3735
  30
0.0
  42
0.0
   0
SEQEND
   0
POLYLINE
   8
Layer1
   6
SOLID
  66
1
  40
0.0
  41
0.0
   0
VERTEX
   8
Layer1
   6
SOLID
  10
2.6964
  20
1.3151
  30
0.0
  42
0.0
   0
VERTEX
   8
Layer1
   6
SOLID
  42
0.0
  10
2.9211
  20
1.4247
  30
0.0
   0
VERTEX
   8
Layer1
   6
SOLID
  42
0.0
  10
2.9211
  20
1.4247
  30
0.0
   0
VERTEX
   8
Layer1
   6
SOLID
  42
0.0
  10
2.9211
  20
1.4247
  30
0.0
   0
VERTEX
   8
Layer1
   6
SOLID
  10
2.9211
  20
1.4247
  30
0.0
  42
0.0
   0
SEQEND
   0
POLYLINE
   8
Layer1
   6
SOLID
  66
1
  40
0.0
  41
0.0
   0
VERTEX
   8
Layer1
   6
SOLID
  10
2.6730
  20
1.3620
  30
0.0
  42
0.0
   0
VERTEX
   8
Layer1
   6
SOLID
  42
0.0
  10
2.8958
  20
1.4755
  30
0.0
   0
VERTEX
   8
Layer1
   6
SOLID
  42
0.0
  10
2.8958
  20
1.4755
  30
0.0
   0
VERTEX
   8
Layer1
   6
SOLID
  42
0.0
  10
2.8958
  20
1.4755
  30
0.0
   0
VERTEX
   8
Layer1
   6
SOLID
  10
2.8958
  20
1.4755
  30
0.0
  42
0.0
   0
SEQEND
   0
POLYLINE
   8
Layer1
   6
SOLID
  66
1
  40
0.0
  41
0.0
   0
VERTEX
   8
Layer1
   6
SOLID
  10
2.6488
  20
1.4084
  30
0.0
  42
0.0
   0
VERTEX
   8
Layer1
   6
SOLID
  42
0.0
  10
2.8696
  20
1.5258
  30
0.0
   0
VERTEX
   8
Layer1
   6
SOLID
  42
0.0
  10
2.8696
  20
1.5258
  30
0.0
   0
VERTEX
   8
Layer1
   6
SOLID
  42
0.0
  10
2.8696
  20
1.5258
  30
0.0
   0
VERTEX
   8
Layer1
   6
SOLID
  10
2.8696
  20
1.5258
  30
0.0
  42
0.0
   0
SEQEND
   0
POLYLINE
   8
Layer1
   6
SOLID
  66
1
  40
0.0
  41
0.0
   0
VERTEX
   8
Layer1
   6
SOLID
  10
2.6239
  20
1.4544
  30
0.0
  42
0.0
   0
VERTEX
   8
Layer1
   6
SOLID
  42
0.0
  10
2.8425
  20
1.5756
  30
0.0
   0
VERTEX
   8
Layer1
   6
SOLID
  42
0.0
  10
2.8425
  20
1.5756
  30
0.0
   0
VERTEX
   8
Layer1
   6
SOLID
  42
0.0
  10
2.8425
  20
1.5756
  30
0.0
   0
VERTEX
   8
Layer1
   6
SOLID
  10
2.8425
  20
1.5756
  30
0.0
  42
0.0
   0
SEQEND
   0
POLYLINE
   8
Layer1
   6
SOLID
  66
1
  40
0.0
  41
0.0
   0
VERTEX
   8
Layer1
   6
SOLID
  10
2.1651
  20
1.2500
  30
0.0
  42
0.0
   0
VERTEX
   8
Layer1
   6
SOLID
  42
0.0
  10
2.8146
  20
1.6250
  30
0.0
   0
VERTEX
   8
Layer1
   6
SOLID
  42
0.0
  10
2.8146
  20
1.6250
  30
0.0
   0
VERTEX
   8
Layer1
   6
SOLID
  42
0.0
  10
2.8146
  20
1.6250
  30
0.0
   0
VERTEX
   8
Layer1
   6
SOLID
  10
2.8146
  20
1.6250
  30
0.0
  42
0.0
   0
SEQEND
   0
POLYLINE
   8
Layer1
   6
SOLID
  66
1
  40
0.0
  41
0.0
   0
VERTEX
   8
Layer1
   6
SOLID
  10
2.5715
  20
1.5451
  30
0.0
  42
0.0
   0
VERTEX
   8
Layer1
   6
SOLID
  42
0.0
  10
2.7858
  20
1.6739
  30
0.0
   0
VERTEX
   8
Layer1
   6
SOLID
  42
0.0
  10
2.7858
  20
1.6739
  30
0.0
   0
VERTEX
   8
Layer1
   6
SOLID
  42
0.0
  10
2.7858
  20
1.6739
  30
0.0
   0
VERTEX
   8
Layer1
   6
SOLID
  10
2.7858
  20
1.6739
  30
0.0
  42
0.0
   0
SEQEND
   0
POLYLINE
   8
Layer1
   6
SOLID
  66
1
  40
0.0
  41
0.0
   0
VERTEX
   8
Layer1
   6
SOLID
  10
2.5441
  20
1.5898
  30
0.0
  42
0.0
   0
VERTEX
   8
Layer1
   6
SOLID
  42
0.0
  10
2.7562
  20
1.7222
  30
0.0
   0
VERTEX
   8
Layer1
   6
SOLID
  42
0.0
  10
2.7562
  20
1.7222
  30
0.0
   0
VERTEX
   8
Layer1
   6
SOLID
  42
0.0
  10
2.7562
  20
1.7222
  30
0.0
   0
VERTEX
   8
Layer1
   6
SOLID
  10
2.7562
  20
1.7222
  30
0.0
  42
0.0
   0
SEQEND
   0
POLYLINE
   8
Layer1
   6
SOLID
  66
1
  40
0.0
  41
0.0
   0
VERTEX
   8
Layer1
   6
SOLID
  10
2.5160
  20
1.6339
  30
0.0
  42
0.0
   0
VERTEX
   8
Layer1
   6
SOLID
  42
0.0
  10
2.7257
  20
1.7701
  30
0.0
   0
VERTEX
   8
Layer1
   6
SOLID
  42
0.0
  10
2.7257
  20
1.7701
  30
0.0
   0
VERTEX
   8
Layer1
   6
SOLID
  42
0.0
  10
2.7257
  20
1.7701
  30
0.0
   0
VERTEX
   8
Layer1
   6
SOLID
  10
2.7257
  20
1.7701
  30
0.0
  42
0.0
   0
SEQEND
   0
POLYLINE
   8
Layer1
   6
SOLID
  66
1
  40
0.0
  41
0.0
   0
VERTEX
   8
Layer1
   6
SOLID
  10
2.4871
  20
1.6776
  30
0.0
  42
0.0
   0
VERTEX
   8
Layer1
   6
SOLID
  42
0.0
  10
2.6944
  20
1.8174
  30
0.0
   0
VERTEX
   8
Layer1
   6
SOLID
  42
0.0
  10
2.6944
  20
1.8174
  30
0.0
   0
VERTEX
   8
Layer1
   6
SOLID
  42
0.0
  10
2.6944
  20
1.8174
  30
0.0
   0
VERTEX
   8
Layer1
   6
SOLID
  10
2.6944
  20
1.8174
  30
0.0
  42
0.0
   0
SEQEND
   0
POLYLINE
   8
Layer1
   6
SOLID
  66
1
  40
0.0
  41
0.0
   0
VERTEX
   8
Layer1
   6
SOLID
  10
2.2527
  20
1.5773
  30
0.0
  42
0.0
   0
VERTEX
   8
Layer1
   6
SOLID
  42
0.0
  10
2.6622
  20
1.8641
  30
0.0
   0
VERTEX
   8
Layer1
   6
SOLID
  42
0.0
  10
2.6622
  20
1.8641
  30
0.0
   0
VERTEX
   8
Layer1
   6
SOLID
  42
0.0
  10
2.6622
  20
1.8641
  30
0.0
   0
VERTEX
   8
Layer1
   6
SOLID
  10
2.6622
  20
1.8641
  30
0.0
  42
0.0
   0
SEQEND
   0
POLYLINE
   8
Layer1
   6
SOLID
  66
1
  40
0.0
  41
0.0
   0
VERTEX
   8
Layer1
   6
SOLID
  10
2.4271
  20
1.7634
  30
0.0
  42
0.0
   0
VERTEX
   8
Layer1
   6
SOLID
  42
0.0
  10
2.6293
  20
1.9103
  30
0.0
   0
VERTEX
   8
Layer1
   6
SOLID
  42
0.0
  10
2.6293
  20
1.9103
  30
0.0
   0
VERTEX
   8
Layer1
   6
SOLID
  42
0.0
  10
2.6293
  20
1.9103
  30
0.0
   0
VERTEX
   8
Layer1
   6
SOLID
  10
2.6293
  20
1.9103
  30
0.0
  42
0.0
   0
SEQEND
   0
POLYLINE
   8
Layer1
   6
SOLID
  66
1
  40
0.0
  41
0.0
   0
VERTEX
   8
Layer1
   6
SOLID
  10
2.3959
  20
1.8054
  30
0.0
  42
0.0
   0
VERTEX
   8
Layer1
   6
SOLID
  42
0.0
  10
2.5956
  20
1.9559
  30
0.0
   0
VERTEX
   8
Layer1
   6
SOLID
  42
0.0
  10
2.5956
  20
1.9559
  30
0.0
   0
VERTEX
   8
Layer1
   6
SOLID
  42
0.0
  10
2.5956
  20
1.9559
  30
0.0
   0
VERTEX
   8
Layer1
   6
SOLID
  10
2.5956
  20
1.9559
  30
0.0
  42
0.0
   0
SEQEND
   0
POLYLINE
   8
Layer1
   6
SOLID
  66
1
  40
0.0
  41
0.0
   0
VERTEX
   8
Layer1
   6
SOLID
  10
2.3640
  20
1.8470
  30
0.0
  42
0.0
   0
VERTEX
   8
Layer1
   6
SOLID
  42
0.0
  10
2.5610
  20
2.0009
  30
0.0
   0
VERTEX
   8
Layer1
   6
SOLID
  42
0.0
  10
2.5610
  20
2.0009
  30
0.0
   0
VERTEX
   8
Layer1
   6
SOLID
  42
0.0
  10
2.5610
  20
2.0009
  30
0.0
   0
VERTEX
   8
Layer1
   6
SOLID
  10
2.5610
  20
2.0009
  30
0.0
  42
0.0
   0
SEQEND
   0
POLYLINE
   8
Layer1
   6
SOLID
  66
1
  40
0.0
  41
0.0
   0
VERTEX
   8
Layer1
   6
SOLID
  10
2.3314
  20
1.8880
  30
0.0
  42
0.0
   0
VERTEX
   8
Layer1
   6
SOLID
  42
0.0
  10
2.5257
  20
2.0453
  30
0.0
   0
VERTEX
   8
Layer1
   6
SOLID
  42
0.0
  10
2.5257
  20
2.0453
  30
0.0
   0
VERTEX
   8
Layer1
   6
SOLID
  42
0.0
  10
2.5257
  20
2.0453
  30
0.0
   0
VERTEX
   8
Layer1
   6
SOLID
  10
2.5257
  20
2.0453
  30
0.0
  42
0.0
   0
SEQEND
   0
POLYLINE
   8
Layer1
   6
SOLID
  66
1
  40
0.0
  41
0.0
   0
VERTEX
   8
Layer1
   6
SOLID
  10
1.9151
  20
1.6070
  30
0.0
  42
0.0
   0
VERTEX
   8
Layer1
   6
SOLID
  42
0.0
  10
2.4896
  20
2.0891
  30
0.0
   0
VERTEX
   8
Layer1
   6
SOLID
  42
0.0
  10
2.4896
  20
2.0891
  30
0.0
   0
VERTEX
   8
Layer1
   6
SOLID
  42
0.0
  10
2.4896
  20
2.0891
  30
0.0
   0
VERTEX
   8
Layer1
   6
SOLID
  10
2.4896
  20
2.0891
  30
0.0
  42
0.0
   0
SEQEND
   0
POLYLINE
   8
Layer1
   6
SOLID
  66
1
  40
0.0
  41
0.0
   0
VERTEX
   8
Layer1
   6
SOLID
  10
2.2641
  20
1.9682
  30
0.0
  42
0.0
   0
VERTEX
   8
Layer1
   6
SOLID
  42
0.0
  10
2.4528
  20
2.1322
  30
0.0
   0
VERTEX
   8
Layer1
   6
SOLID
  42
0.0
  10
2.4528
  20
2.1322
  30
0.0
   0
VERTEX
   8
Layer1
   6
SOLID
  42
0.0
  10
2.4528
  20
2.1322
  30
0.0
   0
VERTEX
   8
Layer1
   6
SOLID
  10
2.4528
  20
2.1322
  30
0.0
  42
0.0
   0
SEQEND
   0
POLYLINE
   8
Layer1
   6
SOLID
  66
1
  40
0.0
  41
0.0
   0
VERTEX
   8
Layer1
   6
SOLID
  10
2.2294
  20
2.0074
  30
0.0
  42
0.0
   0
VERTEX
   8
Layer1
   6
SOLID
  42
0.0
  10
2.4152
  20
2.1747
  30
0.0
   0
VERTEX
   8
Layer1
   6
SOLID
  42
0.0
  10
2.4152
  20
2.1747
  30
0.0
   0
VERTEX
   8
Layer1
   6
SOLID
  42
0.0
  10
2.4152
  20
2.1747
  30
0.0
   0
VERTEX
   8
Layer1
   6
SOLID
  10
2.4152
  20
2.1747
  30
0.0
  42
0.0
   0
SEQEND
   0
POLYLINE
   8
Layer1
   6
SOLID
  66
1
  40
0.0
  41
0.0
   0
VERTEX
   8
Layer1
   6
SOLID
  10
2.1941
  20
2.0460
  30
0.0
  42
0.0
   0
VERTEX
   8
Layer1
   6
SOLID
  42
0.0
  10
2.3769
  20
2.2165
  30
0.0
   0
VERTEX
   8
Layer1
   6
SOLID
  42
0.0
  10
2.3769
  20
2.2165
  30
0.0
   0
VERTEX
   8
Layer1
   6
SOLID
  42
0.0
  10
2.3769
  20
2.2165
  30
0.0
   0
VERTEX
   8
Layer1
   6
SOLID
  10
2.3769
  20
2.2165
  30
0.0
  42
0.0
   0
SEQEND
   0
POLYLINE
   8
Layer1
   6
SOLID
  66
1
  40
0.0
  41
0.0
   0
VERTEX
   8
Layer1
   6
SOLID
  10
2.1580
  20
2.0840
  30
0.0
  42
0.0
   0
VERTEX
   8
Layer1
   6
SOLID
  42
0.0
  10
2.3379
  20
2.2576
  30
0.0
   0
VERTEX
   8
Layer1
   6
SOLID
  42
0.0
  10
2.3379
  20
2.2576
  30
0.0
   0
VERTEX
   8
Layer1
   6
SOLID
  42
0.0
  10
2.3379
  20
2.2576
  30
0.0
   0
VERTEX
   8
Layer1
   6
SOLID
  10
2.3379
  20
2.2576
  30
0.0
  42
0.0
   0
SEQEND
   0
POLYLINE
   8
Layer1
   6
SOLID
  66
1
  40
0.0
  41
0.0
   0
VERTEX
   8
Layer1
   6
SOLID
  10
1.9445
  20
1.9445
  30
0.0
  42
0.0
   0
VERTEX
   8
Layer1
   6
SOLID
  42
0.0
  10
2.2981
  20
2.2981
  30
0.0
   0
VERTEX
   8
Layer1
   6
SOLID
  42
0.0
  10
2.2981
  20
2.2981
  30
0.0
   0
VERTEX
   8
Layer1
   6
SOLID
  42
0.0
  10
2.2981
  20
2.2981
  30
0.0
   0
VERTEX
   8
Layer1
   6
SOLID
  10
2.2981
  20
2.2981
  30
0.0
  42
0.0
   0
SEQEND
   0
POLYLINE
   8
Layer1
   6
SOLID
  66
1
  40
0.0
  41
0.0
   0
VERTEX
   8
Layer1
   6
SOLID
  10
2.0840
  20
2.1580
  30
0.0
  42
0.0
   0
VERTEX
   8
Layer1
   6
SOLID
  42
0.0
  10
2.2576
  20
2.3379
  30
0.0
   0
VERTEX
   8
Layer1
   6
SOLID
  42
0.0
  10
2.2576
  20
2.3379
  30
0.0
   0
VERTEX
   8
Layer1
   6
SOLID
  42
0.0
  10
2.2576
  20
2.3379
  30
0.0
   0
VERTEX
   8
Layer1
   6
SOLID
  10
2.2576
  20
2.3379
  30
0.0
  42
0.0
   0
SEQEND
   0
POLYLINE
   8
Layer1
   6
SOLID
  66
1
  40
0.0
  41
0.0
   0
VERTEX
   8
Layer1
   6
SOLID
  10
2.0460
  20
2.1941
  30
0.0
  42
0.0
   0
VERTEX
   8
Layer1
   6
SOLID
  42
0.0
  10
2.2165
  20
2.3769
  30
0.0
   0
VERTEX
   8
Layer1
   6
SOLID
  42
0.0
  10
2.2165
  20
2.3769
  30
0.0
   0
VERTEX
   8
Layer1
   6
SOLID
  42
0.0
  10
2.2165
  20
2.3769
  30
0.0
   0
VERTEX
   8
Layer1
   6
SOLID
  10
2.2165
  20
2.3769
  30
0.0
  42
0.0
   0
SEQEND
   0
POLYLINE
   8
Layer1
   6
SOLID
  66
1
  40
0.0
  41
0.0
   0
VERTEX
   8
Layer1
   6
SOLID
  10
2.0074
  20
2.2294
  30
0.0
  42
0.0
   0
VERTEX
   8
Layer1
   6
SOLID
  42
0.0
  10
2.1747
  20
2.4152
  30
0.0
   0
VERTEX
   8
Layer1
   6
SOLID
  42
0.0
  10
2.1747
  20
2.4152
  30
0.0
   0
VERTEX
   8
Layer1
   6
SOLID
  42
0.0
  10
2.1747
  20
2.4152
  30
0.0
   0
VERTEX
   8
Layer1
   6
SOLID
  10
2.1747
  20
2.4152
  30
0.0
  42
0.0
   0
SEQEND
   0
POLYLINE
   8
Layer1
   6
SOLID
  66
1
  40
0.0
  41
0.0
   0
VERTEX
   8
Layer1
   6
SOLID
  10
1.9682
  20
2.2641
  30
0.0
  42
0.0
   0
VERTEX
   8
Layer1
   6
SOLID
  42
0.0
  10
2.1322
  20
2.4528
  30
0.0
   0
VERTEX
   8
Layer1
   6
SOLID
  42
0.0
  10
2.1322
  20
2.4528
  30
0.0
   0
VERTEX
   8
Layer1
   6
SOLID
  42
0.0
  10
2.1322
  20
2.4528
  30
0.0
   0
VERTEX
   8
Layer1
   6
SOLID
  10
2.1322
  20
2.4528
  30
0.0
  42
0.0
   0
SEQEND
   0
POLYLINE
   8
Layer1
   6
SOLID
  66
1
  40
0.0
  41
0.0
   0
VERTEX
   8
Layer1
   6
SOLID
  10
1.6070
  20
1.9151
  30
0.0
  42
0.0
   0
VERTEX
   8
Layer1
   6
SOLID
  42
0.0
  10
2.0891
  20
2.4896
  30
0.0
   0
VERTEX
   8
Layer1
   6
SOLID
  42
0.0
  10
2.0891
  20
2.4896
  30
0.0
   0
VERTEX
   8
Layer1
   6
SOLID
  42
0.0
  10
2.0891
  20
2.4896
  30
0.0
   0
VERTEX
   8
Layer1
   6
SOLID
  10
2.0891
  20
2.4896
  30
0.0
  42
0.0
   0
SEQEND
   0
POLYLINE
   8
Layer1
   6
SOLID
  66
1
  40
0.0
  41
0.0
   0
VERTEX
   8
Layer1
   6
SOLID
  10
1.8880
  20
2.3314
  30
0.0
  42
0.0
   0
VERTEX
   8
Layer1
   6
SOLID
  42
0.0
  10
2.0453
  20
2.5257
  30
0.0
   0
VERTEX
   8
Layer1
   6
SOLID
  42
0.0
  10
2.0453
  20
2.5257
  30
0.0
   0
VERTEX
   8
Layer1
   6
SOLID
  42
0.0
  10
2.0453
  20
2.5257
  30
0.0
   0
VERTEX
   8
Layer1
   6
SOLID
  10
2.0453
  20
2.5257
  30
0.0
  42
0.0
   0
SEQEND
   0
POLYLINE
   8
Layer1
   6
SOLID
  66
1
  40
0.0
  41
0.0
   0
VERTEX
   8
Layer1
   6
SOLID
  10
1.8470
  20
2.3640
  30
0.0
  42
0.0
   0
VERTEX
   8
Layer1
   6
SOLID
  42
0.0
  10
2.0009
  20
2.5610
  30
0.0
   0
VERTEX
   8
Layer1
   6
SOLID
  42
0.0
  10
2.0009
  20
2.5610
  30
0.0
   0
VERTEX
   8
Layer1
   6
SOLID
  42
0.0
  10
2.0009
  20
2.5610
  30
0.0
   0
VERTEX
   8
Layer1
   6
SOLID
  10
2.0009
  20
2.5610
  30
0.0
  42
0.0
   0
SEQEND
   0
POLYLINE
   8
Layer1
   6
SOLID
  66
1
  40
0.0
  41
0.0
   0
VERTEX
   8
Layer1
   6
SOLID
  10
1.8054
  20
2.3959
  30
0.0
  42
0.0
   0
VERTEX
   8
Layer1
   6
SOLID
  42
0.0
  10
1.9559
  20
2.5956
  30
0.0
   0
VERTEX
   8
Layer1
   6
SOLID
  42
0.0
  10
1.9559
  20
2.5956
  30
0.0
   0
VERTEX
   8
Layer1
   6
SOLID
  42
0.0
  10
1.9559
  20
2.5956
  30
0.0
   0
VERTEX
   8
Layer1
   6
SOLID
  10
1.9559
  20
2.5956
  30
0.0
  42
0.0
   0
SEQEND
   0
POLYLINE
   8
Layer1
   6
SOLID
  66
1
  40
0.0
  41
0.0
   0
VERTEX
   8
Layer1
   6
SOLID
  10
1.7634
  20
2.4271
  30
0.0
  42
0.0
   0
VERTEX
   8
Layer1
   6
SOLID
  42
0.0
  10
1.9103
  20
2.6293
  30
0.0
   0
VERTEX
   8
Layer1
   6
SOLID
  42
0.0
  10
1.9103
  20
2.6293
  30
0.0
   0
VERTEX
   8
Layer1
   6
SOLID
  42
0.0
  10
1.9103
  20
2.6293
  30
0.0
   0
VERTEX
   8
Layer1
   6
SOLID
  10
1.9103
  20
2.6293
  30
0.0
  42
0.0
   0
SEQEND
   0
POLYLINE
   8
Layer1
   6
SOLID
  66
1
  40
0.0
  41
0.0
   0
VERTEX
   8
Layer1
   6
SOLID
  10
1.5773
  20
2.2527
  30
0.0
  42
0.0
   0
VERTEX
   8
Layer1
   6
SOLID
  42
0.0
  10
1.8641
  20
2.6622
  30
0.0
   0
VERTEX
   8
Layer1
   6
SOLID
  42
0.0
  10
1.8641
  20
2.6622
  30
0.0
   0
VERTEX
   8
Layer1
   6
SOLID
  42
0.0
  10
1.8641
  20
2.6622
  30
0.0
   0
VERTEX
   8
Layer1
   6
SOLID
  10
1.8641
  20
2.6622
  30
0.0
  42
0.0
   0
SEQEND
   0
POLYLINE
   8
Layer1
   6
SOLID
  66
1
  40
0.0
  41
0.0
   0
VERTEX
   8
Layer1
   6
SOLID
  10
1.6776
  20
2.4871
  30
0.0
  42
0.0
   0
VERTEX
   8
Layer1
   6
SOLID
  42
0.0
  10
1.8174
  20
2.6944
  30
0.0
   0
VERTEX
   8
Layer1
   6
SOLID
  42
0.0
  10
1.8174
  20
2.6944
  30
0.0
   0
VERTEX
   8
Layer1
   6
SOLID
  42
0.0
  10
1.8174
  20
2.6944
  30
0.0
   0
VERTEX
   8
Layer1
   6
SOLID
  10
1.8174
  20
2.6944
  30
0.0
  42
0.0
   0
SEQEND
   0
POLYLINE
   8
Layer1
   6
SOLID
  66
1
  40
0.0
  41
0.0
   0
VERTEX
   8
Layer1
   6
SOLID
  10
1.6339
  20
2.5160
  30
0.0
  42
0.0
   0
VERTEX
   8
Layer1
   6
SOLID
  42
0.0
  10
1.7701
  20
2.7257
  30
0.0
   0
VERTEX
   8
Layer1
   6
SOLID
  42
0.0
  10
1.7701
  20
2.7257
  30
0.0
   0
VERTEX
   8
Layer1
   6
SOLID
  42
0.0
  10
1.7701
  20
2.7257
  30
0.0
   0
VERTEX
   8
Layer1
   6
SOLID
  10
1.7701
  20
2.7257
  30
0.0
  42
0.0
   0
SEQEND
   0
POLYLINE
   8
Layer1
   6
SOLID
  66
1
  40
0.0
  41
0.0
   0
VERTEX
   8
Layer1
   6
SOLID
  10
1.5898
  20
2.5441
  30
0.0
  42
0.0
   0
VERTEX
   8
Layer1
   6
SOLID
  42
0.0
  10
1.7222
  20
2.7562
  30
0.0
   0
VERTEX
   8
Layer1
   6
SOLID
  42
0.0
  10
1.7222
  20
2.7562
  30
0.0
   0
VERTEX
   8
Layer1
   6
SOLID
  42
0.0
  10
1.7222
  20
2.7562
  30
0.0
   0
VERTEX
   8
Layer1
   6
SOLID
  10
1.7222
  20
2.7562
  30
0.0
  42
0.0
   0
SEQEND
   0
POLYLINE
   8
Layer1
   6
SOLID
  66
1
  40
0.0
  41
0.0
   0
VERTEX
   8
Layer1
   6
SOLID
  10
1.5451
  20
2.5715
  30
0.0
  42
0.0
   0
VERTEX
   8
Layer1
   6
SOLID
  42
0.0
  10
1.6739
  20
2.7858
  30
0.0
   0
VERTEX
   8
Layer1
   6
SOLID
  42
0.0
  10
1.6739
  20
2.7858
  30
0.0
   0
VERTEX
   8
Layer1
   6
SOLID
  42
0.0
  10
1.6739
  20
2.7858
  30
0.0
   0
VERTEX
   8
Layer1
   6
SOLID
  10
1.6739
  20
2.7858
  30
0.0
  42
0.0
   0
SEQEND
   0
POLYLINE
   8
Layer1
   6
SOLID
  66
1
  40
0.0
  41
0.0
   0
VERTEX
   8
Layer1
   6
SOLID
  10
1.2500
  20
2.1651
  30
0.0
  42
0.0
   0
VERTEX
   8
Layer1
   6
SOLID
  42
0.0
  10
1.6250
  20
2.8146
  30
0.0
   0
VERTEX
   8
Layer1
   6
SOLID
  42
0.0
  10
1.6250
  20
2.8146
  30
0.0
   0
VERTEX
   8
Layer1
   6
SOLID
  42
0.0
  10
1.6250
  20
2.8146
  30
0.0
   0
VERTEX
   8
Layer1
   6
SOLID
  10
1.6250
  20
2.8146
  30
0.0
  42
0.0
   0
SEQEND
   0
POLYLINE
   8
Layer1
   6
SOLID
  66
1
  40
0.0
  41
0.0
   0
VERTEX
   8
Layer1
   6
SOLID
  10
1.4544
  20
2.6239
  30
0.0
  42
0.0
   0
VERTEX
   8
Layer1
   6
SOLID
  42
0.0
  10
1.5756
  20
2.8425
  30
0.0
   0
VERTEX
   8
Layer1
   6
SOLID
  42
0.0
  10
1.5756
  20
2.8425
  30
0.0
   0
VERTEX
   8
Layer1
   6
SOLID
  42
0.0
  10
1.5756
  20
2.8425
  30
0.0
   0
VERTEX
   8
Layer1
   6
SOLID
  10
1.5756
  20
2.8425
  30
0.0
  42
0.0
   0
SEQEND
   0
POLYLINE
   8
Layer1
   6
SOLID
  66
1
  40
0.0
  41
0.0
   0
VERTEX
   8
Layer1
   6
SOLID
  10
1.4084
  20
2.6488
  30
0.0
  42
0.0
   0
VERTEX
   8
Layer1
   6
SOLID
  42
0.0
  10
1.5258
  20
2.8696
  30
0.0
   0
VERTEX
   8
Layer1
   6
SOLID
  42
0.0
  10
1.5258
  20
2.8696
  30
0.0
   0
VERTEX
   8
Layer1
   6
SOLID
  42
0.0
  10
1.5258
  20
2.8696
  30
0.0
   0
VERTEX
   8
Layer1
   6
SOLID
  10
1.5258
  20
2.8696
  30
0.0
  42
0.0
   0
SEQEND
   0
POLYLINE
   8
Layer1
   6
SOLID
  66
1
  40
0.0
  41
0.0
   0
VERTEX
   8
Layer1
   6
SOLID
  10
1.3620
  20
2.6730
  30
0.0
  42
0.0
   0
VERTEX
   8
Layer1
   6
SOLID
  42
0.0
  10
1.4755
  20
2.8958
  30
0.0
   0
VERTEX
   8
Layer1
   6
SOLID
  42
0.0
  10
1.4755
  20
2.8958
  30
0.0
   0
VERTEX
   8
Layer1
   6
SOLID
  42
0.0
  10
1.4755
  20
2.8958
  30
0.0
   0
VERTEX
   8
Layer1
   6
SOLID
  10
1.4755
  20
2.8958
  30
0.0
  42
0.0
   0
SEQEND
   0
POLYLINE
   8
Layer1
   6
SOLID
  66
1
  40
0.0
  41
0.0
   0
VERTEX
   8
Layer1
   6
SOLID
  10
1.3151
  20
2.6964
  30
0.0
  42
0.0
   0
VERTEX
   8
Layer1
   6
SOLID
  42
0.0
  10
1.4247
  20
2.9211
  30
0.0
   0
VERTEX
   8
Layer1
   6
SOLID
  42
0.0
  10
1.4247
  20
2.9211
  30
0.0
   0
VERTEX
   8
Layer1
   6
SOLID
  42
0.0
  10
1.4247
  20
2.9211
  30
0.0
   0
VERTEX
   8
Layer1
   6
SOLID
  10
1.4247
  20
2.9211
  30
0.0
  42
0.0
   0
SEQEND
   0
POLYLINE
   8
Layer1
   6
SOLID
  66
1
  40
0.0
  41
0.0
   0
VERTEX
   8
Layer1
   6
SOLID
  10
1.1622
  20
2.4923
  30
0.0
  42
0.0
   0
VERTEX
   8
Layer1
   6
SOLID
  42
0.0
  10
1.3735
  20
2.9455
  30
0.0
   0
VERTEX
   8
Layer1
   6
SOLID
  42
0.0
  10
1.3735
  20
2.9455
  30
0.0
   0
VERTEX
   8
Layer1
   6
SOLID
  42
0.0
  10
1.3735
  20
2.9455
  30
0.0
   0
VERTEX
   8
Layer1
   6
SOLID
  10
1.3735
  20
2.9455
  30
0.0
  42
0.0
   0
SEQEND
   0
POLYLINE
   8
Layer1
   6
SOLID
  66
1
  40
0.0
  41
0.0
   0
VERTEX
   8
Layer1
   6
SOLID
  10
1.2202
  20
2.7406
  30
0.0
  42
0.0
   0
VERTEX
   8
Layer1
   6
SOLID
  42
0.0
  10
1.3219
  20
2.9690
  30
0.0
   0
VERTEX
   8
Layer1
   6
SOLID
  42
0.0
  10
1.3219
  20
2.9690
  30
0.0
   0
VERTEX
   8
Layer1
   6
SOLID
  42
0.0
  10
1.3219
  20
2.9690
  30
0.0
   0
VERTEX
   8
Layer1
   6
SOLID
  10
1.3219
  20
2.9690
  30
0.0
  42
0.0
   0
SEQEND
   0
POLYLINE
   8
Layer1
   6
SOLID
  66
1
  40
0.0
  41
0.0
   0
VERTEX
   8
Layer1
   6
SOLID
  10
1.1722
  20
2.7615
  30
0.0
  42
0.0
   0
VERTEX
   8
Layer1
   6
SOLID
  42
0.0
  10
1.2699
  20
2.9916
  30
0.0
   0
VERTEX
   8
Layer1
   6
SOLID
  42
0.0
  10
1.2699
  20
2.9916
  30
0.0
   0
VERTEX
   8
Layer1
   6
SOLID
  42
0.0
  10
1.2699
  20
2.9916
  30
0.0
   0
VERTEX
   8
Layer1
   6
SOLID
  10
1.2699
  20
2.9916
  30
0.0
  42
0.0
   0
SEQEND
   0
POLYLINE
   8
Layer1
   6
SOLID
  66
1
  40
0.0
  41
0.0
   0
VERTEX
   8
Layer1
   6
SOLID
  10
1.1238
  20
2.7816
  30
0.0
  42
0.0
   0
VERTEX
   8
Layer1
   6
SOLID
  42
0.0
  10
1.2175
  20
3.0133
  30
0.0
   0
VERTEX
   8
Layer1
   6
SOLID
  42
0.0
  10
1.2175
  20
3.0133
  30
0.0
   0
VERTEX
   8
Layer1
   6
SOLID
  42
0.0
  10
1.2175
  20
3.0133
  30
0.0
   0
VERTEX
   8
Layer1
   6
SOLID
  10
1.2175
  20
3.0133
  30
0.0
  42
0.0
   0
SEQEND
   0
POLYLINE
   8
Layer1
   6
SOLID
  66
1
  40
0.0
  41
0.0
   0
VERTEX
   8
Layer1
   6
SOLID
  10
1.0751
  20
2.8007
  30
0.0
  42
0.0
   0
VERTEX
   8
Layer1
   6
SOLID
  42
0.0
  10
1.1647
  20
3.0341
  30
0.0
   0
VERTEX
   8
Layer1
   6
SOLID
  42
0.0
  10
1.1647
  20
3.0341
  30
0.0
   0
VERTEX
   8
Layer1
   6
SOLID
  42
0.0
  10
1.1647
  20
3.0341
  30
0.0
   0
VERTEX
   8
Layer1
   6
SOLID
  10
1.1647
  20
3.0341
  30
0.0
  42
0.0
   0
SEQEND
   0
POLYLINE
   8
Layer1
   6
SOLID
  66
1
  40
0.0
  41
0.0
   0
VERTEX
   8
Layer1
   6
SOLID
  10
0.8551
  20
2.3492
  30
0.0
  42
0.0
   0
VERTEX
   8
Layer1
   6
SOLID
  42
0.0
  10
1.1116
  20
3.0540
  30
0.0
   0
VERTEX
   8
Layer1
   6
SOLID
  42
0.0
  10
1.1116
  20
3.0540
  30
0.0
   0
VERTEX
   8
Layer1
   6
SOLID
  42
0.0
  10
1.1116
  20
3.0540
  30
0.0
   0
VERTEX
   8
Layer1
   6
SOLID
  10
1.1116
  20
3.0540
  30
0.0
  42
0.0
   0
SEQEND
   0
POLYLINE
   8
Layer1
   6
SOLID
  66
1
  40
0.0
  41
0.0
   0
VERTEX
   8
Layer1
   6
SOLID
  10
0.9767
  20
2.8366
  30
0.0
  42
0.0
   0
VERTEX
   8
Layer1
   6
SOLID
  42
0.0
  10
1.0581
  20
3.0729
  30
0.0
   0
VERTEX
   8
Layer1
   6
SOLID
  42
0.0
  10
1.0581
  20
3.0729
  30
0.0
   0
VERTEX
   8
Layer1
   6
SOLID
  42
0.0
  10
1.0581
  20
3.0729
  30
0.0
   0
VERTEX
   8
Layer1
   6
SOLID
  10
1.0581
  20
3.0729
  30
0.0
  42
0.0
   0
SEQEND
   0
POLYLINE
   8
Layer1
   6
SOLID
  66
1
  40
0.0
  41
0.0
   0
VERTEX
   8
Layer1
   6
SOLID
  10
0.9271
  20
2.8532
  30
0.0
  42
0.0
   0
VERTEX
   8
Layer1
   6
SOLID
  42
0.0
  10
1.0043
  20
3.0909
  30
0.0
   0
VERTEX
   8
Layer1
   6
SOLID
  42
0.0
  10
1.0043
  20
3.0909
  30
0.0
   0
VERTEX
   8
Layer1
   6
SOLID
  42
0.0
  10
1.0043
  20
3.0909
  30
0.0
   0
VERTEX
   8
Layer1
   6
SOLID
  10
1.0043
  20
3.0909
  30
0.0
  42
0.0
   0
SEQEND
   0
POLYLINE
   8
Layer1
   6
SOLID
  66
1
  40
0.0
  41
0.0
   0
VERTEX
   8
Layer1
   6
SOLID
  10
0.8771
  20
2.8689
  30
0.0
  42
0.0
   0
VERTEX
   8
Layer1
   6
SOLID
  42
0.0
  10
0.9502
  20
3.1080
  30
0.0
   0
VERTEX
   8
Layer1
   6
SOLID
  42
0.0
  10
0.9502
  20
3.1080
  30
0.0
   0
VERTEX
   8
Layer1
   6
SOLID
  42
0.0
  10
0.9502
  20
3.1080
  30
0.0
   0
VERTEX
   8
Layer1
   6
SOLID
  10
0.9502
  20
3.1080
  30
0.0
  42
0.0
   0
SEQEND
   0
POLYLINE
   8
Layer1
   6
SOLID
  66
1
  40
0.0
  41
0.0
   0
VERTEX
   8
Layer1
   6
SOLID
  10
0.8269
  20
2.8838
  30
0.0
  42
0.0
   0
VERTEX
   8
Layer1
   6
SOLID
  42
0.0
  10
0.8958
  20
3.1241
  30
0.0
   0
VERTEX
   8
Layer1
   6
SOLID
  42
0.0
  10
0.8958
  20
3.1241
  30
0.0
   0
VERTEX
   8
Layer1
   6
SOLID
  42
0.0
  10
0.8958
  20
3.1241
  30
0.0
   0
VERTEX
   8
Layer1
   6
SOLID
  10
0.8958
  20
3.1241
  30
0.0
  42
0.0
   0
SEQEND
   0
POLYLINE
   8
Layer1
   6
SOLID
  66
1
  40
0.0
  41
0.0
   0
VERTEX
   8
Layer1
   6
SOLID
  10
0.7118
  20
2.6563
  30
0.0
  42
0.0
   0
VERTEX
   8
Layer1
   6
SOLID
  42
0.0
  10
0.8412
  20
3.1393
  30
0.0
   0
VERTEX
   8
Layer1
   6
SOLID
  42
0.0
  10
0.8412
  20
3.1393
  30
0.0
   0
VERTEX
   8
Layer1
   6
SOLID
  42
0.0
  10
0.8412
  20
3.1393
  30
0.0
   0
VERTEX
   8
Layer1
   6
SOLID
  10
0.8412
  20
3.1393
  30
0.0
  42
0.0
   0
SEQEND
   0
POLYLINE
   8
Layer1
   6
SOLID
  66
1
  40
0.0
  41
0.0
   0
VERTEX
   8
Layer1
   6
SOLID
  10
0.7258
  20
2.9109
  30
0.0
  42
0.0
   0
VERTEX
   8
Layer1
   6
SOLID
  42
0.0
  10
0.7862
  20
3.1535
  30
0.0
   0
VERTEX
   8
Layer1
   6
SOLID
  42
0.0
  10
0.7862
  20
3.1535
  30
0.0
   0
VERTEX
   8
Layer1
   6
SOLID
  42
0.0
  10
0.7862
  20
3.1535
  30
0.0
   0
VERTEX
   8
Layer1
   6
SOLID
  10
0.7862
  20
3.1535
  30
0.0
  42
0.0
   0
SEQEND
   0
POLYLINE
   8
Layer1
   6
SOLID
  66
1
  40
0.0
  41
0.0
   0
VERTEX
   8
Layer1
   6
SOLID
  10
0.6749
  20
2.9231
  30
0.0
  42
0.0
   0
VERTEX
   8
Layer1
   6
SOLID
  42
0.0
  10
0.7311
  20
3.1667
  30
0.0
   0
VERTEX
   8
Layer1
   6
SOLID
  42
0.0
  10
0.7311
  20
3.1667
  30
0.0
   0
VERTEX
   8
Layer1
   6
SOLID
  42
0.0
  10
0.7311
  20
3.1667
  30
0.0
   0
VERTEX
   8
Layer1
   6
SOLID
  10
0.7311
  20
3.1667
  30
0.0
  42
0.0
   0
SEQEND
   0
POLYLINE
   8
Layer1
   6
SOLID
  66
1
  40
0.0
  41
0.0
   0
VERTEX
   8
Layer1
   6
SOLID
  10
0.6237
  20
2.9344
  30
0.0
  42
0.0
   0
VERTEX
   8
Layer1
   6
SOLID
  42
0.0
  10
0.6757
  20
3.1790
  30
0.0
   0
VERTEX
   8
Layer1
   6
SOLID
  42
0.0
  10
0.6757
  20
3.1790
  30
0.0
   0
VERTEX
   8
Layer1
   6
SOLID
  42
0.0
  10
0.6757
  20
3.1790
  30
0.0
   0
VERTEX
   8
Layer1
   6
SOLID
  10
0.6757
  20
3.1790
  30
0.0
  42
0.0
   0
SEQEND
   0
POLYLINE
   8
Layer1
   6
SOLID
  66
1
  40
0.0
  41
0.0
   0
VERTEX
   8
Layer1
   6
SOLID
  10
0.5724
  20
2.9449
  30
0.0
  42
0.0
   0
VERTEX
   8
Layer1
   6
SOLID
  42
0.0
  10
0.6201
  20
3.1903
  30
0.0
   0
VERTEX
   8
Layer1
   6
SOLID
  42
0.0
  10
0.6201
  20
3.1903
  30
0.0
   0
VERTEX
   8
Layer1
   6
SOLID
  42
0.0
  10
0.6201
  20
3.1903
  30
0.0
   0
VERTEX
   8
Layer1
   6
SOLID
  10
0.6201
  20
3.1903
  30
0.0
  42
0.0
   0
SEQEND
   0
POLYLINE
   8
Layer1
   6
SOLID
  66
1
  40
0.0
  41
0.0
   0
VERTEX
   8
Layer1
   6
SOLID
  10
0.4341
  20
2.4620
  30
0.0
  42
0.0
   0
VERTEX
   8
Layer1
   6
SOLID
  42
0.0
  10
0.5644
  20
3.2006
  30
0.0
   0
VERTEX
   8
Layer1
   6
SOLID
  42
0.0
  10
0.5644
  20
3.2006
  30
0.0
   0
VERTEX
   8
Layer1
   6
SOLID
  42
0.0
  10
0.5644
  20
3.2006
  30
0.0
   0
VERTEX
   8
Layer1
   6
SOLID
  10
0.5644
  20
3.2006
  30
0.0
  42
0.0
   0
SEQEND
   0
POLYLINE
   8
Layer1
   6
SOLID
  66
1
  40
0.0
  41
0.0
   0
VERTEX
   8
Layer1
   6
SOLID
  10
0.4693
  20
2.9631
  30
0.0
  42
0.0
   0
VERTEX
   8
Layer1
   6
SOLID
  42
0.0
  10
0.5084
  20
3.2100
  30
0.0
   0
VERTEX
   8
Layer1
   6
SOLID
  42
0.0
  10
0.5084
  20
3.2100
  30
0.0
   0
VERTEX
   8
Layer1
   6
SOLID
  42
0.0
  10
0.5084
  20
3.2100
  30
0.0
   0
VERTEX
   8
Layer1
   6
SOLID
  10
0.5084
  20
3.2100
  30
0.0
  42
0.0
   0
SEQEND
   0
POLYLINE
   8
Layer1
   6
SOLID
  66
1
  40
0.0
  41
0.0
   0
VERTEX
   8
Layer1
   6
SOLID
  10
0.4175
  20
2.9708
  30
0.0
  42
0.0
   0
VERTEX
   8
Layer1
   6
SOLID
  42
0.0
  10
0.4523
  20
3.2184
  30
0.0
   0
VERTEX
   8
Layer1
   6
SOLID
  42
0.0
  10
0.4523
  20
3.2184
  30
0.0
   0
VERTEX
   8
Layer1
   6
SOLID
  42
0.0
  10
0.4523
  20
3.2184
  30
0.0
   0
VERTEX
   8
Layer1
   6
SOLID
  10
0.4523
  20
3.2184
  30
0.0
  42
0.0
   0
SEQEND
   0
POLYLINE
   8
Layer1
   6
SOLID
  66
1
  40
0.0
  41
0.0
   0
VERTEX
   8
Layer1
   6
SOLID
  10
0.3656
  20
2.9776
  30
0.0
  42
0.0
   0
VERTEX
   8
Layer1
   6
SOLID
  42
0.0
  10
0.3961
  20
3.2258
  30
0.0
   0
VERTEX
   8
Layer1
   6
SOLID
  42
0.0
  10
0.3961
  20
3.2258
  30
0.0
   0
VERTEX
   8
Layer1
   6
SOLID
  42
0.0
  10
0.3961
  20
3.2258
  30
0.0
   0
VERTEX
   8
Layer1
   6
SOLID
  10
0.3961
  20
3.2258
  30
0.0
  42
0.0
   0
SEQEND
   0
POLYLINE
   8
Layer1
   6
SOLID
  66
1
  40
0.0
  41
0.0
   0
VERTEX
   8
Layer1
   6
SOLID
  10
0.3136
  20
2.9836
  30
0.0
  42
0.0
   0
VERTEX
   8
Layer1
   6
SOLID
  42
0.0
  10
0.3397
  20
3.2322
  30
0.0
   0
VERTEX
   8
Layer1
   6
SOLID
  42
0.0
  10
0.3397
  20
3.2322
  30
0.0
   0
VERTEX
   8
Layer1
   6
SOLID
  42
0.0
  10
0.3397
  20
3.2322
  30
0.0
   0
VERTEX
   8
Layer1
   6
SOLID
  10
0.3397
  20
3.2322
  30
0.0
  42
0.0
   0
SEQEND
   0
POLYLINE
   8
Layer1
   6
SOLID
  66
1
  40
0.0
  41
0.0
   0
VERTEX
   8
Layer1
   6
SOLID
  10
0.2397
  20
2.7395
  30
0.0
  42
0.0
   0
VERTEX
   8
Layer1
   6
SOLID
  42
0.0
  10
0.2833
  20
3.2376
  30
0.0
   0
VERTEX
   8
Layer1
   6
SOLID
  42
0.0
  10
0.2833
  20
3.2376
  30
0.0
   0
VERTEX
   8
Layer1
   6
SOLID
  42
0.0
  10
0.2833
  20
3.2376
  30
0.0
   0
VERTEX
   8
Layer1
   6
SOLID
  10
0.2833
  20
3.2376
  30
0.0
  42
0.0
   0
SEQEND
   0
POLYLINE
   8
Layer1
   6
SOLID
  66
1
  40
0.0
  41
0.0
   0
VERTEX
   8
Layer1
   6
SOLID
  10
0.2093
  20
2.9927
  30
0.0
  42
0.0
   0
VERTEX
   8
Layer1
   6
SOLID
  42
0.0
  10
0.2267
  20
3.2421
  30
0.0
   0
VERTEX
   8
Layer1
   6
SOLID
  42
0.0
  10
0.2267
  20
3.2421
  30
0.0
   0
VERTEX
   8
Layer1
   6
SOLID
  42
0.0
  10
0.2267
  20
3.2421
  30
0.0
   0
VERTEX
   8
Layer1
   6
SOLID
  10
0.2267
  20
3.2421
  30
0.0
  42
0.0
   0
SEQEND
   0
POLYLINE
   8
Layer1
   6
SOLID
  66
1
  40
0.0
  41
0.0
   0
VERTEX
   8
Layer1
   6
SOLID
  10
0.1570
  20
2.9959
  30
0.0
  42
0.0
   0
VERTEX
   8
Layer1
   6
SOLID
  42
0.0
  10
0.1701
  20
3.2455
  30
0.0
   0
VERTEX
   8
Layer1
   6
SOLID
  42
0.0
  10
0.1701
  20
3.2455
  30
0.0
   0
VERTEX
   8
Layer1
   6
SOLID
  42
0.0
  10
0.1701
  20
3.2455
  30
0.0
   0
VERTEX
   8
Layer1
   6
SOLID
  10
0.1701
  20
3.2455
  30
0.0
  42
0.0
   0
SEQEND
   0
POLYLINE
   8
Layer1
   6
SOLID
  66
1
  40
0.0
  41
0.0
   0
VERTEX
   8
Layer1
   6
SOLID
  10
0.1047
  20
2.9982
  30
0.0
  42
0.0
   0
VERTEX
   8
Layer1
   6
SOLID
  42
0.0
  10
0.1134
  20
3.2480
  30
0.0
   0
VERTEX
   8
Layer1
   6
SOLID
  42
0.0
  10
0.1134
  20
3.2480
  30
0.0
   0
VERTEX
   8
Layer1
   6
SOLID
  42
0.0
  10
0.1134
  20
3.2480
  30
0.0
   0
VERTEX
   8
Layer1
   6
SOLID
  10
0.1134
  20
3.2480
  30
0.0
  42
0.0
   0
SEQEND
   0
POLYLINE
   8
Layer1
   6
SOLID
  66
1
  40
0.0
  41
0.0
   0
VERTEX
   8
Layer1
   6
SOLID
  10
0.0524
  20
2.9995
  30
0.0
  42
0.0
   0
VERTEX
   8
Layer1
   6
SOLID
  42
0.0
  10
0.0567
  20
3.2495
  30
0.0
   0
VERTEX
   8
Layer1
   6
SOLID
  42
0.0
  10
0.0567
  20
3.2495
  30
0.0
   0
VERTEX
   8
Layer1
   6
SOLID
  42
0.0
  10
0.0567
  20
3.2495
  30
0.0
   0
VERTEX
   8
Layer1
   6
SOLID
  10
0.0567
  20
3.2495
  30
0.0
  42
0.0
   0
SEQEND
   0
POLYLINE
   8
Layer1
   6
SOLID
  66
1
  40
0.0
  41
0.0
   0
VERTEX
   8
Layer1
   6
SOLID
  10
1.5308E-016
  20
2.5000
  30
0.0
  42
0.0
   0
VERTEX
   8
Layer1
   6
SOLID
  42
0.0
  10
1.9900E-016
  20
3.2500
  30
0.0
   0
VERTEX
   8
Layer1
   6
SOLID
  42
0.0
  10
2.0981E-016
  20
2.5000
  30
0.0
   0
VERTEX
   8
Layer1
   6
SOLID
  42
0.0
  10
2.0981E-016
  20
2.5000
  30
0.0
   0
VERTEX
   8
Layer1
   6
SOLID
  42
0.0
  10
2.0981E-016
  20
2.5000
  30
0.0
   0
VERTEX
   8
Layer1
   6
SOLID
  10
2.0981E-016
  20
2.5000
  30
0.0
  42
0.0
   0
SEQEND
   0
ENDSEC
   0
EOF
