0
SECTION
2
ENTITIES
0
LINE
8
1
62
3
10
0.555407
20
-4.167666
30
0.0
11
0.804426
21
-4.167666
31
0.0
0
LINE
8
1
62
3
10
0.929917
20
-4.667666
30
0.0
11
0.680897
21
-3.667666
31
0.0
0
LINE
8
1
62
3
10
0.680897
20
-3.667666
30
0.0
11
0.429917
21
-4.667666
31
0.0
0
LINE
8
1
62
3
10
2.129917
20
-3.965743
30
0.0
11
2.129917
21
-4.667666
31
0.0
0
LINE
8
1
62
3
10
2.096583
20
-4.489782
30
0.0
11
2.129917
21
-4.393628
31
0.0
0
LINE
8
1
62
3
10
2.071093
20
-4.542666
30
0.0
11
2.096583
21
-4.489782
31
0.0
0
LINE
8
1
62
3
10
2.039721
20
-4.585936
30
0.0
11
2.071093
21
-4.542666
31
0.0
0
LINE
8
1
62
3
10
2.004426
20
-4.61959
30
0.0
11
2.039721
21
-4.585936
31
0.0
0
LINE
8
1
62
3
10
1.965211
20
-4.648436
30
0.0
11
2.004426
21
-4.61959
31
0.0
0
LINE
8
1
62
3
10
1.880897
20
-4.667666
30
0.0
11
1.924034
21
-4.662859
31
0.0
0
LINE
8
1
62
3
10
1.835799
20
-4.662859
30
0.0
11
1.880897
21
-4.667666
31
0.0
0
LINE
8
1
62
3
10
1.794623
20
-4.648436
30
0.0
11
1.835799
21
-4.662859
31
0.0
0
LINE
8
1
62
3
10
1.755407
20
-4.61959
30
0.0
11
1.794623
21
-4.648436
31
0.0
0
LINE
8
1
62
3
10
1.720113
20
-4.585936
30
0.0
11
1.755407
21
-4.61959
31
0.0
0
LINE
8
1
62
3
10
1.68874
20
-4.542666
30
0.0
11
1.720113
21
-4.585936
31
0.0
0
LINE
8
1
62
3
10
1.66325
20
-4.489782
30
0.0
11
1.68874
21
-4.542666
31
0.0
0
LINE
8
1
62
3
10
1.645603
20
-4.436897
30
0.0
11
1.66325
21
-4.489782
31
0.0
0
LINE
8
1
62
3
10
1.633838
20
-4.379205
30
0.0
11
1.645603
21
-4.436897
31
0.0
0
LINE
8
1
62
3
10
1.629917
20
-4.316705
30
0.0
11
1.633838
21
-4.379205
31
0.0
0
LINE
8
1
62
3
10
1.633838
20
-4.254205
30
0.0
11
1.629917
21
-4.316705
31
0.0
0
LINE
8
1
62
3
10
1.645603
20
-4.196513
30
0.0
11
1.633838
21
-4.254205
31
0.0
0
LINE
8
1
62
3
10
1.66325
20
-4.13882
30
0.0
11
1.645603
21
-4.196513
31
0.0
0
LINE
8
1
62
3
10
1.68874
20
-4.090743
30
0.0
11
1.66325
21
-4.13882
31
0.0
0
LINE
8
1
62
3
10
1.720113
20
-4.047474
30
0.0
11
1.68874
21
-4.090743
31
0.0
0
LINE
8
1
62
3
10
1.755407
20
-4.01382
30
0.0
11
1.720113
21
-4.047474
31
0.0
0
LINE
8
1
62
3
10
1.794623
20
-3.984974
30
0.0
11
1.755407
21
-4.01382
31
0.0
0
LINE
8
1
62
3
10
1.835799
20
-3.970551
30
0.0
11
1.794623
21
-3.984974
31
0.0
0
LINE
8
1
62
3
10
1.924034
20
-3.970551
30
0.0
11
1.880897
21
-3.965743
31
0.0
0
LINE
8
1
62
3
10
1.965211
20
-3.984974
30
0.0
11
1.924034
21
-3.970551
31
0.0
0
LINE
8
1
62
3
10
2.004426
20
-4.01382
30
0.0
11
1.965211
21
-3.984974
31
0.0
0
LINE
8
1
62
3
10
2.039721
20
-4.047474
30
0.0
11
2.004426
21
-4.01382
31
0.0
0
LINE
8
1
62
3
10
2.071093
20
-4.090743
30
0.0
11
2.039721
21
-4.047474
31
0.0
0
LINE
8
1
62
3
10
2.096583
20
-4.13882
30
0.0
11
2.071093
21
-4.090743
31
0.0
0
LINE
8
1
62
3
10
2.129917
20
-4.239782
30
0.0
11
2.096583
21
-4.13882
31
0.0
0
LINE
8
1
62
3
10
1.880897
20
-3.965743
30
0.0
11
1.835799
21
-3.970551
31
0.0
0
LINE
8
1
62
3
10
1.924034
20
-4.662859
30
0.0
11
1.965211
21
-4.648436
31
0.0
0
LINE
8
1
62
3
10
3.080897
20
-4.05709
30
0.0
11
2.829917
21
-4.05709
31
0.0
0
LINE
8
1
62
3
10
3.078936
20
-4.05709
30
0.0
11
3.127956
21
-4.047474
31
0.0
0
LINE
8
1
62
3
10
3.124034
20
-4.061897
30
0.0
11
3.078936
21
-4.05709
31
0.0
0
LINE
8
1
62
3
10
3.080897
20
-4.667666
30
0.0
11
3.124034
21
-4.662859
31
0.0
0
LINE
8
1
62
3
10
2.829917
20
-4.667666
30
0.0
11
3.080897
21
-4.667666
31
0.0
0
LINE
8
1
62
3
10
3.090701
20
-3.672474
30
0.0
11
3.053446
21
-3.667666
31
0.0
0
LINE
8
1
62
3
10
3.053446
20
-3.667666
30
0.0
11
2.829917
21
-3.667666
31
0.0
0
LINE
8
1
62
3
10
3.271093
20
-3.898436
30
0.0
11
3.275015
21
-3.859974
31
0.0
0
LINE
8
1
62
3
10
3.261289
20
-3.927282
30
0.0
11
3.271093
21
-3.898436
31
0.0
0
LINE
8
1
62
3
10
3.245603
20
-3.960936
30
0.0
11
3.261289
21
-3.927282
31
0.0
0
LINE
8
1
62
3
10
3.222074
20
-3.989782
30
0.0
11
3.245603
21
-3.960936
31
0.0
0
LINE
8
1
62
3
10
3.194623
20
-4.01382
30
0.0
11
3.222074
21
-3.989782
31
0.0
0
LINE
8
1
62
3
10
3.16325
20
-4.033051
30
0.0
11
3.194623
21
-4.01382
31
0.0
0
LINE
8
1
62
3
10
3.127956
20
-4.047474
30
0.0
11
3.16325
21
-4.033051
31
0.0
0
LINE
8
1
62
3
10
3.127956
20
-3.677282
30
0.0
11
3.090701
21
-3.672474
31
0.0
0
LINE
8
1
62
3
10
3.16325
20
-3.691705
30
0.0
11
3.127956
21
-3.677282
31
0.0
0
LINE
8
1
62
3
10
3.194623
20
-3.710936
30
0.0
11
3.16325
21
-3.691705
31
0.0
0
LINE
8
1
62
3
10
3.222074
20
-3.734974
30
0.0
11
3.194623
21
-3.710936
31
0.0
0
LINE
8
1
62
3
10
3.245603
20
-3.76382
30
0.0
11
3.222074
21
-3.734974
31
0.0
0
LINE
8
1
62
3
10
3.261289
20
-3.797474
30
0.0
11
3.245603
21
-3.76382
31
0.0
0
LINE
8
1
62
3
10
3.271093
20
-3.82632
30
0.0
11
3.261289
21
-3.797474
31
0.0
0
LINE
8
1
62
3
10
3.275015
20
-3.859974
30
0.0
11
3.271093
21
-3.82632
31
0.0
0
LINE
8
1
62
3
10
3.325995
20
-4.417666
30
0.0
11
3.329917
21
-4.359974
31
0.0
0
LINE
8
1
62
3
10
3.31423
20
-4.465743
30
0.0
11
3.325995
21
-4.417666
31
0.0
0
LINE
8
1
62
3
10
3.296583
20
-4.51382
30
0.0
11
3.31423
21
-4.465743
31
0.0
0
LINE
8
1
62
3
10
3.271093
20
-4.55709
30
0.0
11
3.296583
21
-4.51382
31
0.0
0
LINE
8
1
62
3
10
3.239721
20
-4.595551
30
0.0
11
3.271093
21
-4.55709
31
0.0
0
LINE
8
1
62
3
10
3.204426
20
-4.624397
30
0.0
11
3.239721
21
-4.595551
31
0.0
0
LINE
8
1
62
3
10
3.165211
20
-4.648436
30
0.0
11
3.204426
21
-4.624397
31
0.0
0
LINE
8
1
62
3
10
3.124034
20
-4.662859
30
0.0
11
3.165211
21
-4.648436
31
0.0
0
LINE
8
1
62
3
10
3.165211
20
-4.07632
30
0.0
11
3.124034
21
-4.061897
31
0.0
0
LINE
8
1
62
3
10
3.204426
20
-4.100359
30
0.0
11
3.165211
21
-4.07632
31
0.0
0
LINE
8
1
62
3
10
3.239721
20
-4.129205
30
0.0
11
3.204426
21
-4.100359
31
0.0
0
LINE
8
1
62
3
10
3.271093
20
-4.167666
30
0.0
11
3.239721
21
-4.129205
31
0.0
0
LINE
8
1
62
3
10
3.296583
20
-4.210936
30
0.0
11
3.271093
21
-4.167666
31
0.0
0
LINE
8
1
62
3
10
3.31423
20
-4.259013
30
0.0
11
3.296583
21
-4.210936
31
0.0
0
LINE
8
1
62
3
10
3.325995
20
-4.30709
30
0.0
11
3.31423
21
-4.259013
31
0.0
0
LINE
8
1
62
3
10
3.329917
20
-4.359974
30
0.0
11
3.325995
21
-4.30709
31
0.0
0
LINE
8
1
62
3
10
2.829917
20
-3.667666
30
0.0
11
2.829917
21
-4.667666
31
0.0
0
LINE
8
1
62
3
10
4.525995
20
-4.379205
30
0.0
11
4.529917
21
-4.316705
31
0.0
0
LINE
8
1
62
3
10
4.51423
20
-4.436897
30
0.0
11
4.525995
21
-4.379205
31
0.0
0
LINE
8
1
62
3
10
4.496583
20
-4.489782
30
0.0
11
4.51423
21
-4.436897
31
0.0
0
LINE
8
1
62
3
10
4.471093
20
-4.542666
30
0.0
11
4.496583
21
-4.489782
31
0.0
0
LINE
8
1
62
3
10
4.439721
20
-4.585936
30
0.0
11
4.471093
21
-4.542666
31
0.0
0
LINE
8
1
62
3
10
4.404426
20
-4.61959
30
0.0
11
4.439721
21
-4.585936
31
0.0
0
LINE
8
1
62
3
10
4.365211
20
-4.648436
30
0.0
11
4.404426
21
-4.61959
31
0.0
0
LINE
8
1
62
3
10
4.324034
20
-4.662859
30
0.0
11
4.365211
21
-4.648436
31
0.0
0
LINE
8
1
62
3
10
4.280897
20
-4.667666
30
0.0
11
4.324034
21
-4.662859
31
0.0
0
LINE
8
1
62
3
10
4.235799
20
-4.662859
30
0.0
11
4.280897
21
-4.667666
31
0.0
0
LINE
8
1
62
3
10
4.194623
20
-4.648436
30
0.0
11
4.235799
21
-4.662859
31
0.0
0
LINE
8
1
62
3
10
4.155407
20
-4.61959
30
0.0
11
4.194623
21
-4.648436
31
0.0
0
LINE
8
1
62
3
10
4.120113
20
-4.585936
30
0.0
11
4.155407
21
-4.61959
31
0.0
0
LINE
8
1
62
3
10
4.08874
20
-4.542666
30
0.0
11
4.120113
21
-4.585936
31
0.0
0
LINE
8
1
62
3
10
4.06325
20
-4.489782
30
0.0
11
4.08874
21
-4.542666
31
0.0
0
LINE
8
1
62
3
10
4.029917
20
-4.393628
30
0.0
11
4.06325
21
-4.489782
31
0.0
0
LINE
8
1
62
3
10
4.06325
20
-4.13882
30
0.0
11
4.029917
21
-4.239782
31
0.0
0
LINE
8
1
62
3
10
4.08874
20
-4.090743
30
0.0
11
4.06325
21
-4.13882
31
0.0
0
LINE
8
1
62
3
10
4.120113
20
-4.047474
30
0.0
11
4.08874
21
-4.090743
31
0.0
0
LINE
8
1
62
3
10
4.155407
20
-4.01382
30
0.0
11
4.120113
21
-4.047474
31
0.0
0
LINE
8
1
62
3
10
4.194623
20
-3.984974
30
0.0
11
4.155407
21
-4.01382
31
0.0
0
LINE
8
1
62
3
10
4.235799
20
-3.970551
30
0.0
11
4.194623
21
-3.984974
31
0.0
0
LINE
8
1
62
3
10
4.280897
20
-3.965743
30
0.0
11
4.235799
21
-3.970551
31
0.0
0
LINE
8
1
62
3
10
4.324034
20
-3.970551
30
0.0
11
4.280897
21
-3.965743
31
0.0
0
LINE
8
1
62
3
10
4.365211
20
-3.984974
30
0.0
11
4.324034
21
-3.970551
31
0.0
0
LINE
8
1
62
3
10
4.404426
20
-4.01382
30
0.0
11
4.365211
21
-3.984974
31
0.0
0
LINE
8
1
62
3
10
4.439721
20
-4.047474
30
0.0
11
4.404426
21
-4.01382
31
0.0
0
LINE
8
1
62
3
10
4.471093
20
-4.090743
30
0.0
11
4.439721
21
-4.047474
31
0.0
0
LINE
8
1
62
3
10
4.496583
20
-4.13882
30
0.0
11
4.471093
21
-4.090743
31
0.0
0
LINE
8
1
62
3
10
4.51423
20
-4.196513
30
0.0
11
4.496583
21
-4.13882
31
0.0
0
LINE
8
1
62
3
10
4.525995
20
-4.254205
30
0.0
11
4.51423
21
-4.196513
31
0.0
0
LINE
8
1
62
3
10
4.529917
20
-4.316705
30
0.0
11
4.525995
21
-4.254205
31
0.0
0
LINE
8
1
62
3
10
4.029917
20
-3.667666
30
0.0
11
4.029917
21
-4.667666
31
0.0
0
LINE
8
1
62
3
10
5.671093
20
-4.489782
30
0.0
11
5.692662
21
-4.427282
31
0.0
0
LINE
8
1
62
3
10
5.639721
20
-4.552282
30
0.0
11
5.671093
21
-4.489782
31
0.0
0
LINE
8
1
62
3
10
5.604426
20
-4.600359
30
0.0
11
5.639721
21
-4.552282
31
0.0
0
LINE
8
1
62
3
10
5.565211
20
-4.63882
30
0.0
11
5.604426
21
-4.600359
31
0.0
0
LINE
8
1
62
3
10
5.524034
20
-4.658051
30
0.0
11
5.565211
21
-4.63882
31
0.0
0
LINE
8
1
62
3
10
5.480897
20
-4.667666
30
0.0
11
5.524034
21
-4.658051
31
0.0
0
LINE
8
1
62
3
10
5.435799
20
-4.658051
30
0.0
11
5.480897
21
-4.667666
31
0.0
0
LINE
8
1
62
3
10
5.394623
20
-4.63882
30
0.0
11
5.435799
21
-4.658051
31
0.0
0
LINE
8
1
62
3
10
5.355407
20
-4.600359
30
0.0
11
5.394623
21
-4.63882
31
0.0
0
LINE
8
1
62
3
10
5.320113
20
-4.552282
30
0.0
11
5.355407
21
-4.600359
31
0.0
0
LINE
8
1
62
3
10
5.28874
20
-4.489782
30
0.0
11
5.320113
21
-4.552282
31
0.0
0
LINE
8
1
62
3
10
5.26325
20
-4.417666
30
0.0
11
5.28874
21
-4.489782
31
0.0
0
LINE
8
1
62
3
10
5.245603
20
-4.340743
30
0.0
11
5.26325
21
-4.417666
31
0.0
0
LINE
8
1
62
3
10
5.233838
20
-4.254205
30
0.0
11
5.245603
21
-4.340743
31
0.0
0
LINE
8
1
62
3
10
5.229917
20
-4.167666
30
0.0
11
5.233838
21
-4.254205
31
0.0
0
LINE
8
1
62
3
10
5.233838
20
-4.081128
30
0.0
11
5.229917
21
-4.167666
31
0.0
0
LINE
8
1
62
3
10
5.245603
20
-3.99459
30
0.0
11
5.233838
21
-4.081128
31
0.0
0
LINE
8
1
62
3
10
5.26325
20
-3.917666
30
0.0
11
5.245603
21
-3.99459
31
0.0
0
LINE
8
1
62
3
10
5.28874
20
-3.845551
30
0.0
11
5.26325
21
-3.917666
31
0.0
0
LINE
8
1
62
3
10
5.320113
20
-3.783051
30
0.0
11
5.28874
21
-3.845551
31
0.0
0
LINE
8
1
62
3
10
5.355407
20
-3.734974
30
0.0
11
5.320113
21
-3.783051
31
0.0
0
LINE
8
1
62
3
10
5.394623
20
-3.696513
30
0.0
11
5.355407
21
-3.734974
31
0.0
0
LINE
8
1
62
3
10
5.435799
20
-3.677282
30
0.0
11
5.394623
21
-3.696513
31
0.0
0
LINE
8
1
62
3
10
5.480897
20
-3.667666
30
0.0
11
5.435799
21
-3.677282
31
0.0
0
LINE
8
1
62
3
10
5.524034
20
-3.677282
30
0.0
11
5.480897
21
-3.667666
31
0.0
0
LINE
8
1
62
3
10
5.565211
20
-3.696513
30
0.0
11
5.524034
21
-3.677282
31
0.0
0
LINE
8
1
62
3
10
5.604426
20
-3.734974
30
0.0
11
5.565211
21
-3.696513
31
0.0
0
LINE
8
1
62
3
10
5.639721
20
-3.783051
30
0.0
11
5.604426
21
-3.734974
31
0.0
0
LINE
8
1
62
3
10
5.671093
20
-3.845551
30
0.0
11
5.639721
21
-3.783051
31
0.0
0
LINE
8
1
62
3
10
5.692662
20
-3.908051
30
0.0
11
5.671093
21
-3.845551
31
0.0
0
LINE
8
1
62
3
10
6.871093
20
-4.542666
30
0.0
11
6.880897
21
-4.523436
31
0.0
0
LINE
8
1
62
3
10
6.839721
20
-4.585936
30
0.0
11
6.871093
21
-4.542666
31
0.0
0
LINE
8
1
62
3
10
6.804426
20
-4.61959
30
0.0
11
6.839721
21
-4.585936
31
0.0
0
LINE
8
1
62
3
10
6.765211
20
-4.648436
30
0.0
11
6.804426
21
-4.61959
31
0.0
0
LINE
8
1
62
3
10
6.724034
20
-4.662859
30
0.0
11
6.765211
21
-4.648436
31
0.0
0
LINE
8
1
62
3
10
6.680897
20
-4.667666
30
0.0
11
6.724034
21
-4.662859
31
0.0
0
LINE
8
1
62
3
10
6.635799
20
-4.662859
30
0.0
11
6.680897
21
-4.667666
31
0.0
0
LINE
8
1
62
3
10
6.594623
20
-4.648436
30
0.0
11
6.635799
21
-4.662859
31
0.0
0
LINE
8
1
62
3
10
6.555407
20
-4.61959
30
0.0
11
6.594623
21
-4.648436
31
0.0
0
LINE
8
1
62
3
10
6.520113
20
-4.585936
30
0.0
11
6.555407
21
-4.61959
31
0.0
0
LINE
8
1
62
3
10
6.48874
20
-4.542666
30
0.0
11
6.520113
21
-4.585936
31
0.0
0
LINE
8
1
62
3
10
6.46325
20
-4.489782
30
0.0
11
6.48874
21
-4.542666
31
0.0
0
LINE
8
1
62
3
10
6.445603
20
-4.436897
30
0.0
11
6.46325
21
-4.489782
31
0.0
0
LINE
8
1
62
3
10
6.433838
20
-4.379205
30
0.0
11
6.445603
21
-4.436897
31
0.0
0
LINE
8
1
62
3
10
6.429917
20
-4.316705
30
0.0
11
6.433838
21
-4.379205
31
0.0
0
LINE
8
1
62
3
10
6.433838
20
-4.254205
30
0.0
11
6.429917
21
-4.316705
31
0.0
0
LINE
8
1
62
3
10
6.445603
20
-4.196513
30
0.0
11
6.433838
21
-4.254205
31
0.0
0
LINE
8
1
62
3
10
6.46325
20
-4.13882
30
0.0
11
6.445603
21
-4.196513
31
0.0
0
LINE
8
1
62
3
10
6.48874
20
-4.090743
30
0.0
11
6.46325
21
-4.13882
31
0.0
0
LINE
8
1
62
3
10
6.520113
20
-4.047474
30
0.0
11
6.48874
21
-4.090743
31
0.0
0
LINE
8
1
62
3
10
6.555407
20
-4.01382
30
0.0
11
6.520113
21
-4.047474
31
0.0
0
LINE
8
1
62
3
10
6.594623
20
-3.984974
30
0.0
11
6.555407
21
-4.01382
31
0.0
0
LINE
8
1
62
3
10
6.635799
20
-3.970551
30
0.0
11
6.594623
21
-3.984974
31
0.0
0
LINE
8
1
62
3
10
6.680897
20
-3.965743
30
0.0
11
6.635799
21
-3.970551
31
0.0
0
LINE
8
1
62
3
10
6.724034
20
-3.970551
30
0.0
11
6.680897
21
-3.965743
31
0.0
0
LINE
8
1
62
3
10
6.765211
20
-3.984974
30
0.0
11
6.724034
21
-3.970551
31
0.0
0
LINE
8
1
62
3
10
6.804426
20
-4.01382
30
0.0
11
6.765211
21
-3.984974
31
0.0
0
LINE
8
1
62
3
10
6.839721
20
-4.047474
30
0.0
11
6.804426
21
-4.01382
31
0.0
0
LINE
8
1
62
3
10
6.871093
20
-4.090743
30
0.0
11
6.839721
21
-4.047474
31
0.0
0
LINE
8
1
62
3
10
6.880897
20
-4.109974
30
0.0
11
6.871093
21
-4.090743
31
0.0
0
LINE
8
1
62
3
10
7.924034
20
-3.677282
30
0.0
11
7.880897
21
-3.667666
31
0.0
0
LINE
8
1
62
3
10
7.880897
20
-3.667666
30
0.0
11
7.629917
21
-3.667666
31
0.0
0
LINE
8
1
62
3
10
7.880897
20
-4.667666
30
0.0
11
7.924034
21
-4.658051
31
0.0
0
LINE
8
1
62
3
10
7.629917
20
-4.667666
30
0.0
11
7.880897
21
-4.667666
31
0.0
0
LINE
8
1
62
3
10
8.125995
20
-4.254205
30
0.0
11
8.129917
21
-4.167666
31
0.0
0
LINE
8
1
62
3
10
8.11423
20
-4.340743
30
0.0
11
8.125995
21
-4.254205
31
0.0
0
LINE
8
1
62
3
10
8.096583
20
-4.417666
30
0.0
11
8.11423
21
-4.340743
31
0.0
0
LINE
8
1
62
3
10
8.071093
20
-4.489782
30
0.0
11
8.096583
21
-4.417666
31
0.0
0
LINE
8
1
62
3
10
8.039721
20
-4.552282
30
0.0
11
8.071093
21
-4.489782
31
0.0
0
LINE
8
1
62
3
10
8.004426
20
-4.600359
30
0.0
11
8.039721
21
-4.552282
31
0.0
0
LINE
8
1
62
3
10
7.965211
20
-4.63882
30
0.0
11
8.004426
21
-4.600359
31
0.0
0
LINE
8
1
62
3
10
7.924034
20
-4.658051
30
0.0
11
7.965211
21
-4.63882
31
0.0
0
LINE
8
1
62
3
10
7.965211
20
-3.696513
30
0.0
11
7.924034
21
-3.677282
31
0.0
0
LINE
8
1
62
3
10
8.004426
20
-3.734974
30
0.0
11
7.965211
21
-3.696513
31
0.0
0
LINE
8
1
62
3
10
8.039721
20
-3.783051
30
0.0
11
8.004426
21
-3.734974
31
0.0
0
LINE
8
1
62
3
10
8.071093
20
-3.845551
30
0.0
11
8.039721
21
-3.783051
31
0.0
0
LINE
8
1
62
3
10
8.096583
20
-3.917666
30
0.0
11
8.071093
21
-3.845551
31
0.0
0
LINE
8
1
62
3
10
8.11423
20
-3.99459
30
0.0
11
8.096583
21
-3.917666
31
0.0
0
LINE
8
1
62
3
10
8.125995
20
-4.081128
30
0.0
11
8.11423
21
-3.99459
31
0.0
0
LINE
8
1
62
3
10
8.129917
20
-4.167666
30
0.0
11
8.125995
21
-4.081128
31
0.0
0
LINE
8
1
62
3
10
7.629917
20
-3.667666
30
0.0
11
7.629917
21
-4.667666
31
0.0
0
LINE
8
1
62
3
10
9.296583
20
-4.49459
30
0.0
11
9.329917
21
-4.393628
31
0.0
0
LINE
8
1
62
3
10
9.271093
20
-4.542666
30
0.0
11
9.296583
21
-4.49459
31
0.0
0
LINE
8
1
62
3
10
9.239721
20
-4.585936
30
0.0
11
9.271093
21
-4.542666
31
0.0
0
LINE
8
1
62
3
10
9.204426
20
-4.61959
30
0.0
11
9.239721
21
-4.585936
31
0.0
0
LINE
8
1
62
3
10
9.165211
20
-4.648436
30
0.0
11
9.204426
21
-4.61959
31
0.0
0
LINE
8
1
62
3
10
9.124034
20
-4.662859
30
0.0
11
9.165211
21
-4.648436
31
0.0
0
LINE
8
1
62
3
10
9.080897
20
-4.667666
30
0.0
11
9.124034
21
-4.662859
31
0.0
0
LINE
8
1
62
3
10
9.035799
20
-4.662859
30
0.0
11
9.080897
21
-4.667666
31
0.0
0
LINE
8
1
62
3
10
8.994623
20
-4.648436
30
0.0
11
9.035799
21
-4.662859
31
0.0
0
LINE
8
1
62
3
10
8.955407
20
-4.61959
30
0.0
11
8.994623
21
-4.648436
31
0.0
0
LINE
8
1
62
3
10
8.920113
20
-4.585936
30
0.0
11
8.955407
21
-4.61959
31
0.0
0
LINE
8
1
62
3
10
8.88874
20
-4.542666
30
0.0
11
8.920113
21
-4.585936
31
0.0
0
LINE
8
1
62
3
10
8.86325
20
-4.49459
30
0.0
11
8.88874
21
-4.542666
31
0.0
0
LINE
8
1
62
3
10
8.845603
20
-4.436897
30
0.0
11
8.86325
21
-4.49459
31
0.0
0
LINE
8
1
62
3
10
8.833838
20
-4.379205
30
0.0
11
8.845603
21
-4.436897
31
0.0
0
LINE
8
1
62
3
10
8.829917
20
-4.316705
30
0.0
11
8.833838
21
-4.379205
31
0.0
0
LINE
8
1
62
3
10
8.833838
20
-4.254205
30
0.0
11
8.829917
21
-4.316705
31
0.0
0
LINE
8
1
62
3
10
8.845603
20
-4.196513
30
0.0
11
8.833838
21
-4.254205
31
0.0
0
LINE
8
1
62
3
10
8.86325
20
-4.13882
30
0.0
11
8.845603
21
-4.196513
31
0.0
0
LINE
8
1
62
3
10
8.88874
20
-4.090743
30
0.0
11
8.86325
21
-4.13882
31
0.0
0
LINE
8
1
62
3
10
8.920113
20
-4.047474
30
0.0
11
8.88874
21
-4.090743
31
0.0
0
LINE
8
1
62
3
10
8.955407
20
-4.01382
30
0.0
11
8.920113
21
-4.047474
31
0.0
0
LINE
8
1
62
3
10
8.994623
20
-3.984974
30
0.0
11
8.955407
21
-4.01382
31
0.0
0
LINE
8
1
62
3
10
9.035799
20
-3.970551
30
0.0
11
8.994623
21
-3.984974
31
0.0
0
LINE
8
1
62
3
10
9.080897
20
-3.965743
30
0.0
11
9.035799
21
-3.970551
31
0.0
0
LINE
8
1
62
3
10
9.124034
20
-3.970551
30
0.0
11
9.080897
21
-3.965743
31
0.0
0
LINE
8
1
62
3
10
9.165211
20
-3.984974
30
0.0
11
9.124034
21
-3.970551
31
0.0
0
LINE
8
1
62
3
10
9.204426
20
-4.01382
30
0.0
11
9.165211
21
-3.984974
31
0.0
0
LINE
8
1
62
3
10
9.239721
20
-4.047474
30
0.0
11
9.204426
21
-4.01382
31
0.0
0
LINE
8
1
62
3
10
9.271093
20
-4.090743
30
0.0
11
9.239721
21
-4.047474
31
0.0
0
LINE
8
1
62
3
10
9.296583
20
-4.13882
30
0.0
11
9.271093
21
-4.090743
31
0.0
0
LINE
8
1
62
3
10
9.329917
20
-4.239782
30
0.0
11
9.296583
21
-4.13882
31
0.0
0
LINE
8
1
62
3
10
9.329917
20
-3.667666
30
0.0
11
9.329917
21
-4.667666
31
0.0
0
LINE
8
1
62
3
10
10.029917
20
-4.05709
30
0.0
11
10.529917
21
-4.05709
31
0.0
0
LINE
8
1
62
3
10
10.029917
20
-3.667666
30
0.0
11
10.029917
21
-4.667666
31
0.0
0
LINE
8
1
62
3
10
10.029917
20
-4.667666
30
0.0
11
10.529917
21
-4.667666
31
0.0
0
LINE
8
1
62
3
10
10.029917
20
-3.667666
30
0.0
11
10.529917
21
-3.667666
31
0.0
0
LINE
8
1
62
3
10
11.696583
20
-4.489782
30
0.0
11
11.71423
21
-4.436897
31
0.0
0
LINE
8
1
62
3
10
11.671093
20
-4.542666
30
0.0
11
11.696583
21
-4.489782
31
0.0
0
LINE
8
1
62
3
10
11.639721
20
-4.585936
30
0.0
11
11.671093
21
-4.542666
31
0.0
0
LINE
8
1
62
3
10
11.604426
20
-4.61959
30
0.0
11
11.639721
21
-4.585936
31
0.0
0
LINE
8
1
62
3
10
11.565211
20
-4.648436
30
0.0
11
11.604426
21
-4.61959
31
0.0
0
LINE
8
1
62
3
10
11.524034
20
-4.662859
30
0.0
11
11.565211
21
-4.648436
31
0.0
0
LINE
8
1
62
3
10
11.480897
20
-4.667666
30
0.0
11
11.524034
21
-4.662859
31
0.0
0
LINE
8
1
62
3
10
11.435799
20
-4.662859
30
0.0
11
11.480897
21
-4.667666
31
0.0
0
LINE
8
1
62
3
10
11.394623
20
-4.648436
30
0.0
11
11.435799
21
-4.662859
31
0.0
0
LINE
8
1
62
3
10
11.355407
20
-4.61959
30
0.0
11
11.394623
21
-4.648436
31
0.0
0
LINE
8
1
62
3
10
11.320113
20
-4.585936
30
0.0
11
11.355407
21
-4.61959
31
0.0
0
LINE
8
1
62
3
10
11.28874
20
-4.542666
30
0.0
11
11.320113
21
-4.585936
31
0.0
0
LINE
8
1
62
3
10
11.26325
20
-4.489782
30
0.0
11
11.28874
21
-4.542666
31
0.0
0
LINE
8
1
62
3
10
11.245603
20
-4.436897
30
0.0
11
11.26325
21
-4.489782
31
0.0
0
LINE
8
1
62
3
10
11.233838
20
-4.379205
30
0.0
11
11.245603
21
-4.436897
31
0.0
0
LINE
8
1
62
3
10
11.229917
20
-4.316705
30
0.0
11
11.233838
21
-4.379205
31
0.0
0
LINE
8
1
62
3
10
11.233838
20
-4.254205
30
0.0
11
11.229917
21
-4.316705
31
0.0
0
LINE
8
1
62
3
10
11.245603
20
-4.196513
30
0.0
11
11.233838
21
-4.254205
31
0.0
0
LINE
8
1
62
3
10
11.26325
20
-4.13882
30
0.0
11
11.245603
21
-4.196513
31
0.0
0
LINE
8
1
62
3
10
11.28874
20
-4.090743
30
0.0
11
11.26325
21
-4.13882
31
0.0
0
LINE
8
1
62
3
10
11.320113
20
-4.047474
30
0.0
11
11.28874
21
-4.090743
31
0.0
0
LINE
8
1
62
3
10
11.355407
20
-4.01382
30
0.0
11
11.320113
21
-4.047474
31
0.0
0
LINE
8
1
62
3
10
11.394623
20
-3.984974
30
0.0
11
11.355407
21
-4.01382
31
0.0
0
LINE
8
1
62
3
10
11.435799
20
-3.970551
30
0.0
11
11.394623
21
-3.984974
31
0.0
0
LINE
8
1
62
3
10
11.480897
20
-3.965743
30
0.0
11
11.435799
21
-3.970551
31
0.0
0
LINE
8
1
62
3
10
11.524034
20
-3.970551
30
0.0
11
11.480897
21
-3.965743
31
0.0
0
LINE
8
1
62
3
10
11.565211
20
-3.984974
30
0.0
11
11.524034
21
-3.970551
31
0.0
0
LINE
8
1
62
3
10
11.604426
20
-4.01382
30
0.0
11
11.565211
21
-3.984974
31
0.0
0
LINE
8
1
62
3
10
11.639721
20
-4.047474
30
0.0
11
11.604426
21
-4.01382
31
0.0
0
LINE
8
1
62
3
10
11.671093
20
-4.090743
30
0.0
11
11.639721
21
-4.047474
31
0.0
0
LINE
8
1
62
3
10
11.696583
20
-4.13882
30
0.0
11
11.671093
21
-4.090743
31
0.0
0
LINE
8
1
62
3
10
11.71423
20
-4.196513
30
0.0
11
11.696583
21
-4.13882
31
0.0
0
LINE
8
1
62
3
10
11.725995
20
-4.254205
30
0.0
11
11.71423
21
-4.196513
31
0.0
0
LINE
8
1
62
3
10
11.729917
20
-4.316705
30
0.0
11
11.725995
21
-4.254205
31
0.0
0
LINE
8
1
62
3
10
11.729917
20
-4.316705
30
0.0
11
11.229917
21
-4.316705
31
0.0
0
LINE
8
1
62
3
10
12.429917
20
-4.05709
30
0.0
11
12.929917
21
-4.05709
31
0.0
0
LINE
8
1
62
3
10
12.429917
20
-3.667666
30
0.0
11
12.429917
21
-4.667666
31
0.0
0
LINE
8
1
62
3
10
12.429917
20
-3.667666
30
0.0
11
12.929917
21
-3.667666
31
0.0
0
LINE
8
1
62
3
10
13.876975
20
-3.672474
30
0.0
11
13.896583
21
-3.667666
31
0.0
0
LINE
8
1
62
3
10
13.859328
20
-3.686897
30
0.0
11
13.876975
21
-3.672474
31
0.0
0
LINE
8
1
62
3
10
13.841681
20
-3.710936
30
0.0
11
13.859328
21
-3.686897
31
0.0
0
LINE
8
1
62
3
10
13.825995
20
-3.739782
30
0.0
11
13.841681
21
-3.710936
31
0.0
0
LINE
8
1
62
3
10
13.81423
20
-3.778243
30
0.0
11
13.825995
21
-3.739782
31
0.0
0
LINE
8
1
62
3
10
13.804426
20
-3.821513
30
0.0
11
13.81423
21
-3.778243
31
0.0
0
LINE
8
1
62
3
10
13.798544
20
-3.864782
30
0.0
11
13.804426
21
-3.821513
31
0.0
0
LINE
8
1
62
3
10
13.796583
20
-3.912859
30
0.0
11
13.798544
21
-3.864782
31
0.0
0
LINE
8
1
62
3
10
13.629917
20
-3.965743
30
0.0
11
14.129917
21
-3.965743
31
0.0
0
LINE
8
1
62
3
10
13.796583
20
-3.912859
30
0.0
11
13.796583
21
-4.667666
31
0.0
0
LINE
8
1
62
3
10
13.896583
20
-3.667666
30
0.0
11
14.129917
21
-3.667666
31
0.0
0
LINE
8
1
62
3
10
15.325995
20
-4.254205
30
0.0
11
15.329917
21
-4.167666
31
0.0
0
LINE
8
1
62
3
10
15.292662
20
-3.908051
30
0.0
11
15.271093
21
-3.845551
31
0.0
0
LINE
8
1
62
3
10
15.31423
20
-4.340743
30
0.0
11
15.325995
21
-4.254205
31
0.0
0
LINE
8
1
62
3
10
15.296583
20
-4.417666
30
0.0
11
15.31423
21
-4.340743
31
0.0
0
LINE
8
1
62
3
10
15.271093
20
-4.489782
30
0.0
11
15.296583
21
-4.417666
31
0.0
0
LINE
8
1
62
3
10
15.239721
20
-4.552282
30
0.0
11
15.271093
21
-4.489782
31
0.0
0
LINE
8
1
62
3
10
15.204426
20
-4.600359
30
0.0
11
15.239721
21
-4.552282
31
0.0
0
LINE
8
1
62
3
10
15.165211
20
-4.63882
30
0.0
11
15.204426
21
-4.600359
31
0.0
0
LINE
8
1
62
3
10
15.124034
20
-4.658051
30
0.0
11
15.165211
21
-4.63882
31
0.0
0
LINE
8
1
62
3
10
15.080897
20
-4.667666
30
0.0
11
15.124034
21
-4.658051
31
0.0
0
LINE
8
1
62
3
10
15.035799
20
-4.658051
30
0.0
11
15.080897
21
-4.667666
31
0.0
0
LINE
8
1
62
3
10
14.994623
20
-4.63882
30
0.0
11
15.035799
21
-4.658051
31
0.0
0
LINE
8
1
62
3
10
14.955407
20
-4.600359
30
0.0
11
14.994623
21
-4.63882
31
0.0
0
LINE
8
1
62
3
10
14.920113
20
-4.552282
30
0.0
11
14.955407
21
-4.600359
31
0.0
0
LINE
8
1
62
3
10
14.88874
20
-4.489782
30
0.0
11
14.920113
21
-4.552282
31
0.0
0
LINE
8
1
62
3
10
14.86325
20
-4.417666
30
0.0
11
14.88874
21
-4.489782
31
0.0
0
LINE
8
1
62
3
10
14.845603
20
-4.340743
30
0.0
11
14.86325
21
-4.417666
31
0.0
0
LINE
8
1
62
3
10
14.833838
20
-4.254205
30
0.0
11
14.845603
21
-4.340743
31
0.0
0
LINE
8
1
62
3
10
14.829917
20
-4.167666
30
0.0
11
14.833838
21
-4.254205
31
0.0
0
LINE
8
1
62
3
10
14.833838
20
-4.081128
30
0.0
11
14.829917
21
-4.167666
31
0.0
0
LINE
8
1
62
3
10
14.845603
20
-3.99459
30
0.0
11
14.833838
21
-4.081128
31
0.0
0
LINE
8
1
62
3
10
14.86325
20
-3.917666
30
0.0
11
14.845603
21
-3.99459
31
0.0
0
LINE
8
1
62
3
10
14.88874
20
-3.845551
30
0.0
11
14.86325
21
-3.917666
31
0.0
0
LINE
8
1
62
3
10
14.920113
20
-3.783051
30
0.0
11
14.88874
21
-3.845551
31
0.0
0
LINE
8
1
62
3
10
14.955407
20
-3.734974
30
0.0
11
14.920113
21
-3.783051
31
0.0
0
LINE
8
1
62
3
10
14.994623
20
-3.696513
30
0.0
11
14.955407
21
-3.734974
31
0.0
0
LINE
8
1
62
3
10
15.035799
20
-3.677282
30
0.0
11
14.994623
21
-3.696513
31
0.0
0
LINE
8
1
62
3
10
15.080897
20
-3.667666
30
0.0
11
15.035799
21
-3.677282
31
0.0
0
LINE
8
1
62
3
10
15.124034
20
-3.677282
30
0.0
11
15.080897
21
-3.667666
31
0.0
0
LINE
8
1
62
3
10
15.165211
20
-3.696513
30
0.0
11
15.124034
21
-3.677282
31
0.0
0
LINE
8
1
62
3
10
15.204426
20
-3.734974
30
0.0
11
15.165211
21
-3.696513
31
0.0
0
LINE
8
1
62
3
10
15.239721
20
-3.783051
30
0.0
11
15.204426
21
-3.734974
31
0.0
0
LINE
8
1
62
3
10
15.271093
20
-3.845551
30
0.0
11
15.239721
21
-3.783051
31
0.0
0
LINE
8
1
62
3
10
15.329917
20
-4.167666
30
0.0
11
15.135799
21
-4.167666
31
0.0
0
LINE
8
1
62
3
10
16.527956
20
-4.614782
30
0.0
11
16.529917
21
-4.566705
31
0.0
0
LINE
8
1
62
3
10
16.522074
20
-4.658051
30
0.0
11
16.527956
21
-4.614782
31
0.0
0
LINE
8
1
62
3
10
16.51423
20
-4.70132
30
0.0
11
16.522074
21
-4.658051
31
0.0
0
LINE
8
1
62
3
10
16.502466
20
-4.739782
30
0.0
11
16.51423
21
-4.70132
31
0.0
0
LINE
8
1
62
3
10
16.486779
20
-4.768628
30
0.0
11
16.502466
21
-4.739782
31
0.0
0
LINE
8
1
62
3
10
16.471093
20
-4.792666
30
0.0
11
16.486779
21
-4.768628
31
0.0
0
LINE
8
1
62
3
10
16.453446
20
-4.811897
30
0.0
11
16.471093
21
-4.792666
31
0.0
0
LINE
8
1
62
3
10
16.433838
20
-4.82632
30
0.0
11
16.453446
21
-4.811897
31
0.0
0
LINE
8
1
62
3
10
16.416191
20
-4.845551
30
0.0
11
16.433838
21
-4.82632
31
0.0
0
LINE
8
1
62
3
10
16.396583
20
-4.855166
30
0.0
11
16.416191
21
-4.845551
31
0.0
0
LINE
8
1
62
3
10
16.376975
20
-4.86959
30
0.0
11
16.396583
21
-4.855166
31
0.0
0
LINE
8
1
62
3
10
16.357368
20
-4.879205
30
0.0
11
16.376975
21
-4.86959
31
0.0
0
LINE
8
1
62
3
10
16.339721
20
-4.884013
30
0.0
11
16.357368
21
-4.879205
31
0.0
0
LINE
8
1
62
3
10
16.320113
20
-4.88882
30
0.0
11
16.339721
21
-4.884013
31
0.0
0
LINE
8
1
62
3
10
16.300505
20
-4.893628
30
0.0
11
16.320113
21
-4.88882
31
0.0
0
LINE
8
1
62
3
10
16.278936
20
-4.893628
30
0.0
11
16.300505
21
-4.893628
31
0.0
0
LINE
8
1
62
3
10
16.259328
20
-4.893628
30
0.0
11
16.278936
21
-4.893628
31
0.0
0
LINE
8
1
62
3
10
16.239721
20
-4.88882
30
0.0
11
16.259328
21
-4.893628
31
0.0
0
LINE
8
1
62
3
10
16.220113
20
-4.884013
30
0.0
11
16.239721
21
-4.88882
31
0.0
0
LINE
8
1
62
3
10
16.200505
20
-4.879205
30
0.0
11
16.220113
21
-4.884013
31
0.0
0
LINE
8
1
62
3
10
16.182858
20
-4.86959
30
0.0
11
16.200505
21
-4.879205
31
0.0
0
LINE
8
1
62
3
10
16.16325
20
-4.855166
30
0.0
11
16.182858
21
-4.86959
31
0.0
0
LINE
8
1
62
3
10
16.143642
20
-4.845551
30
0.0
11
16.16325
21
-4.855166
31
0.0
0
LINE
8
1
62
3
10
16.125995
20
-4.82632
30
0.0
11
16.143642
21
-4.845551
31
0.0
0
LINE
8
1
62
3
10
16.106387
20
-4.811897
30
0.0
11
16.125995
21
-4.82632
31
0.0
0
LINE
8
1
62
3
10
16.08874
20
-4.792666
30
0.0
11
16.106387
21
-4.811897
31
0.0
0
LINE
8
1
62
3
10
16.071093
20
-4.768628
30
0.0
11
16.08874
21
-4.792666
31
0.0
0
LINE
8
1
62
3
10
16.053446
20
-4.749397
30
0.0
11
16.071093
21
-4.768628
31
0.0
0
LINE
8
1
62
3
10
16.035799
20
-4.725359
30
0.0
11
16.053446
21
-4.749397
31
0.0
0
LINE
8
1
62
3
10
16.496583
20
-4.489782
30
0.0
11
16.529917
21
-4.393628
31
0.0
0
LINE
8
1
62
3
10
16.471093
20
-4.542666
30
0.0
11
16.496583
21
-4.489782
31
0.0
0
LINE
8
1
62
3
10
16.439721
20
-4.585936
30
0.0
11
16.471093
21
-4.542666
31
0.0
0
LINE
8
1
62
3
10
16.404426
20
-4.61959
30
0.0
11
16.439721
21
-4.585936
31
0.0
0
LINE
8
1
62
3
10
16.365211
20
-4.648436
30
0.0
11
16.404426
21
-4.61959
31
0.0
0
LINE
8
1
62
3
10
16.324034
20
-4.662859
30
0.0
11
16.365211
21
-4.648436
31
0.0
0
LINE
8
1
62
3
10
16.280897
20
-4.667666
30
0.0
11
16.324034
21
-4.662859
31
0.0
0
LINE
8
1
62
3
10
16.235799
20
-4.662859
30
0.0
11
16.280897
21
-4.667666
31
0.0
0
LINE
8
1
62
3
10
16.194623
20
-4.648436
30
0.0
11
16.235799
21
-4.662859
31
0.0
0
LINE
8
1
62
3
10
16.155407
20
-4.61959
30
0.0
11
16.194623
21
-4.648436
31
0.0
0
LINE
8
1
62
3
10
16.120113
20
-4.585936
30
0.0
11
16.155407
21
-4.61959
31
0.0
0
LINE
8
1
62
3
10
16.08874
20
-4.542666
30
0.0
11
16.120113
21
-4.585936
31
0.0
0
LINE
8
1
62
3
10
16.06325
20
-4.489782
30
0.0
11
16.08874
21
-4.542666
31
0.0
0
LINE
8
1
62
3
10
16.045603
20
-4.436897
30
0.0
11
16.06325
21
-4.489782
31
0.0
0
LINE
8
1
62
3
10
16.033838
20
-4.379205
30
0.0
11
16.045603
21
-4.436897
31
0.0
0
LINE
8
1
62
3
10
16.029917
20
-4.316705
30
0.0
11
16.033838
21
-4.379205
31
0.0
0
LINE
8
1
62
3
10
16.033838
20
-4.254205
30
0.0
11
16.029917
21
-4.316705
31
0.0
0
LINE
8
1
62
3
10
16.06325
20
-4.13882
30
0.0
11
16.045603
21
-4.196513
31
0.0
0
LINE
8
1
62
3
10
16.08874
20
-4.090743
30
0.0
11
16.06325
21
-4.13882
31
0.0
0
LINE
8
1
62
3
10
16.120113
20
-4.047474
30
0.0
11
16.08874
21
-4.090743
31
0.0
0
LINE
8
1
62
3
10
16.155407
20
-4.01382
30
0.0
11
16.120113
21
-4.047474
31
0.0
0
LINE
8
1
62
3
10
16.194623
20
-3.984974
30
0.0
11
16.155407
21
-4.01382
31
0.0
0
LINE
8
1
62
3
10
16.235799
20
-3.970551
30
0.0
11
16.194623
21
-3.984974
31
0.0
0
LINE
8
1
62
3
10
16.280897
20
-3.965743
30
0.0
11
16.235799
21
-3.970551
31
0.0
0
LINE
8
1
62
3
10
16.324034
20
-3.970551
30
0.0
11
16.280897
21
-3.965743
31
0.0
0
LINE
8
1
62
3
10
16.365211
20
-3.984974
30
0.0
11
16.324034
21
-3.970551
31
0.0
0
LINE
8
1
62
3
10
16.404426
20
-4.01382
30
0.0
11
16.365211
21
-3.984974
31
0.0
0
LINE
8
1
62
3
10
16.439721
20
-4.047474
30
0.0
11
16.404426
21
-4.01382
31
0.0
0
LINE
8
1
62
3
10
16.471093
20
-4.090743
30
0.0
11
16.439721
21
-4.047474
31
0.0
0
LINE
8
1
62
3
10
16.496583
20
-4.13882
30
0.0
11
16.471093
21
-4.090743
31
0.0
0
LINE
8
1
62
3
10
16.529917
20
-4.239782
30
0.0
11
16.496583
21
-4.13882
31
0.0
0
LINE
8
1
62
3
10
16.529917
20
-4.566705
30
0.0
11
16.529917
21
-3.965743
31
0.0
0
LINE
8
1
62
3
10
16.045603
20
-4.196513
30
0.0
11
16.033838
21
-4.254205
31
0.0
0
LINE
8
1
62
3
10
17.229917
20
-4.05709
30
0.0
11
17.729917
21
-4.05709
31
0.0
0
LINE
8
1
62
3
10
17.729917
20
-3.667666
30
0.0
11
17.729917
21
-4.667666
31
0.0
0
LINE
8
1
62
3
10
17.229917
20
-3.667666
30
0.0
11
17.229917
21
-4.667666
31
0.0
0
LINE
8
1
62
3
10
18.433838
20
-4.254205
30
0.0
11
18.429917
21
-4.316705
31
0.0
0
LINE
8
1
62
3
10
18.445603
20
-4.196513
30
0.0
11
18.433838
21
-4.254205
31
0.0
0
LINE
8
1
62
3
10
18.46325
20
-4.13882
30
0.0
11
18.445603
21
-4.196513
31
0.0
0
LINE
8
1
62
3
10
18.48874
20
-4.090743
30
0.0
11
18.46325
21
-4.13882
31
0.0
0
LINE
8
1
62
3
10
18.520113
20
-4.047474
30
0.0
11
18.48874
21
-4.090743
31
0.0
0
LINE
8
1
62
3
10
18.555407
20
-4.01382
30
0.0
11
18.520113
21
-4.047474
31
0.0
0
LINE
8
1
62
3
10
18.594623
20
-3.984974
30
0.0
11
18.555407
21
-4.01382
31
0.0
0
LINE
8
1
62
3
10
18.635799
20
-3.970551
30
0.0
11
18.594623
21
-3.984974
31
0.0
0
LINE
8
1
62
3
10
18.680897
20
-3.965743
30
0.0
11
18.635799
21
-3.970551
31
0.0
0
LINE
8
1
62
3
10
18.724034
20
-3.970551
30
0.0
11
18.680897
21
-3.965743
31
0.0
0
LINE
8
1
62
3
10
18.765211
20
-3.984974
30
0.0
11
18.724034
21
-3.970551
31
0.0
0
LINE
8
1
62
3
10
18.804426
20
-4.01382
30
0.0
11
18.765211
21
-3.984974
31
0.0
0
LINE
8
1
62
3
10
18.839721
20
-4.047474
30
0.0
11
18.804426
21
-4.01382
31
0.0
0
LINE
8
1
62
3
10
18.871093
20
-4.090743
30
0.0
11
18.839721
21
-4.047474
31
0.0
0
LINE
8
1
62
3
10
18.896583
20
-4.13882
30
0.0
11
18.871093
21
-4.090743
31
0.0
0
LINE
8
1
62
3
10
18.91423
20
-4.196513
30
0.0
11
18.896583
21
-4.13882
31
0.0
0
LINE
8
1
62
3
10
18.925995
20
-4.254205
30
0.0
11
18.91423
21
-4.196513
31
0.0
0
LINE
8
1
62
3
10
18.929917
20
-4.316705
30
0.0
11
18.925995
21
-4.254205
31
0.0
0
LINE
8
1
62
3
10
18.929917
20
-4.667666
30
0.0
11
18.929917
21
-4.316705
31
0.0
0
LINE
8
1
62
3
10
18.429917
20
-4.667666
30
0.0
11
18.429917
21
-3.667666
31
0.0
0
LINE
8
1
62
3
10
19.880897
20
-3.667666
30
0.0
11
19.880897
21
-4.667666
31
0.0
0
LINE
8
1
62
3
10
21.080897
20
-4.667666
30
0.0
11
21.080897
21
-3.965743
31
0.0
0
LINE
8
1
62
3
10
21.080897
20
-3.816705
30
0.0
11
21.080897
21
-3.667666
31
0.0
0
LINE
8
1
62
3
10
22.529917
20
-4.436897
30
0.0
11
22.529917
21
-3.667666
31
0.0
0
LINE
8
1
62
3
10
22.527956
20
-4.465743
30
0.0
11
22.529917
21
-4.436897
31
0.0
0
LINE
8
1
62
3
10
22.029917
20
-4.403243
30
0.0
11
22.035799
21
-4.465743
31
0.0
0
LINE
8
1
62
3
10
22.516191
20
-4.504205
30
0.0
11
22.527956
21
-4.465743
31
0.0
0
LINE
8
1
62
3
10
22.498544
20
-4.547474
30
0.0
11
22.516191
21
-4.504205
31
0.0
0
LINE
8
1
62
3
10
22.473054
20
-4.581128
30
0.0
11
22.498544
21
-4.547474
31
0.0
0
LINE
8
1
62
3
10
22.441681
20
-4.609974
30
0.0
11
22.473054
21
-4.581128
31
0.0
0
LINE
8
1
62
3
10
22.406387
20
-4.63882
30
0.0
11
22.441681
21
-4.609974
31
0.0
0
LINE
8
1
62
3
10
22.367172
20
-4.653243
30
0.0
11
22.406387
21
-4.63882
31
0.0
0
LINE
8
1
62
3
10
22.324034
20
-4.667666
30
0.0
11
22.367172
21
-4.653243
31
0.0
0
LINE
8
1
62
3
10
22.280897
20
-4.672474
30
0.0
11
22.324034
21
-4.667666
31
0.0
0
LINE
8
1
62
3
10
22.23776
20
-4.667666
30
0.0
11
22.280897
21
-4.672474
31
0.0
0
LINE
8
1
62
3
10
22.196583
20
-4.653243
30
0.0
11
22.23776
21
-4.667666
31
0.0
0
LINE
8
1
62
3
10
22.155407
20
-4.63882
30
0.0
11
22.196583
21
-4.653243
31
0.0
0
LINE
8
1
62
3
10
22.120113
20
-4.609974
30
0.0
11
22.155407
21
-4.63882
31
0.0
0
LINE
8
1
62
3
10
22.090701
20
-4.581128
30
0.0
11
22.120113
21
-4.609974
31
0.0
0
LINE
8
1
62
3
10
22.065211
20
-4.547474
30
0.0
11
22.090701
21
-4.581128
31
0.0
0
LINE
8
1
62
3
10
22.045603
20
-4.504205
30
0.0
11
22.065211
21
-4.547474
31
0.0
0
LINE
8
1
62
3
10
22.035799
20
-4.465743
30
0.0
11
22.045603
21
-4.504205
31
0.0
0
LINE
8
1
62
3
10
23.539721
20
-4.88882
30
0.0
11
23.520113
21
-4.893628
31
0.0
0
LINE
8
1
62
3
10
23.557368
20
-4.874397
30
0.0
11
23.539721
21
-4.88882
31
0.0
0
LINE
8
1
62
3
10
23.575015
20
-4.850359
30
0.0
11
23.557368
21
-4.874397
31
0.0
0
LINE
8
1
62
3
10
23.590701
20
-4.821513
30
0.0
11
23.575015
21
-4.850359
31
0.0
0
LINE
8
1
62
3
10
23.602466
20
-4.783051
30
0.0
11
23.590701
21
-4.821513
31
0.0
0
LINE
8
1
62
3
10
23.61227
20
-4.739782
30
0.0
11
23.602466
21
-4.783051
31
0.0
0
LINE
8
1
62
3
10
23.618152
20
-4.696513
30
0.0
11
23.61227
21
-4.739782
31
0.0
0
LINE
8
1
62
3
10
23.620113
20
-4.648436
30
0.0
11
23.618152
21
-4.696513
31
0.0
0
LINE
8
1
62
3
10
23.339721
20
-4.893628
30
0.0
11
23.520113
21
-4.893628
31
0.0
0
LINE
8
1
62
3
10
23.620113
20
-3.667666
30
0.0
11
23.620113
21
-3.816705
31
0.0
0
LINE
8
1
62
3
10
23.620113
20
-4.648436
30
0.0
11
23.620113
21
-3.965743
31
0.0
0
LINE
8
1
62
3
10
24.429917
20
-4.05709
30
0.0
11
24.929917
21
-4.667666
31
0.0
0
LINE
8
1
62
3
10
24.929917
20
-3.667666
30
0.0
11
24.429917
21
-4.05709
31
0.0
0
LINE
8
1
62
3
10
24.429917
20
-3.667666
30
0.0
11
24.429917
21
-4.667666
31
0.0
0
LINE
8
1
62
3
10
26.129917
20
-4.667666
30
0.0
11
25.629917
21
-4.316705
31
0.0
0
LINE
8
1
62
3
10
25.629917
20
-4.316705
30
0.0
11
26.129917
21
-3.965743
31
0.0
0
LINE
8
1
62
3
10
25.629917
20
-3.667666
30
0.0
11
25.629917
21
-4.667666
31
0.0
0
LINE
8
1
62
3
10
26.829917
20
-4.667666
30
0.0
11
27.329917
21
-4.667666
31
0.0
0
LINE
8
1
62
3
10
26.829917
20
-3.667666
30
0.0
11
26.829917
21
-4.667666
31
0.0
0
LINE
8
1
62
3
10
28.280897
20
-3.667666
30
0.0
11
28.280897
21
-4.667666
31
0.0
0
LINE
8
1
62
3
10
29.729917
20
-4.667666
30
0.0
11
29.604426
21
-3.667666
31
0.0
0
LINE
8
1
62
3
10
29.604426
20
-3.667666
30
0.0
11
29.480897
21
-4.667666
31
0.0
0
LINE
8
1
62
3
10
29.355407
20
-3.667666
30
0.0
11
29.480897
21
-4.667666
31
0.0
0
LINE
8
1
62
3
10
29.229917
20
-4.667666
30
0.0
11
29.355407
21
-3.667666
31
0.0
0
LINE
8
1
62
3
10
30.686779
20
-4.148436
30
0.0
11
30.680897
21
-4.210936
31
0.0
0
LINE
8
1
62
3
10
30.696583
20
-4.105166
30
0.0
11
30.686779
21
-4.148436
31
0.0
0
LINE
8
1
62
3
10
30.708348
20
-4.066705
30
0.0
11
30.696583
21
-4.105166
31
0.0
0
LINE
8
1
62
3
10
30.724034
20
-4.033051
30
0.0
11
30.708348
21
-4.066705
31
0.0
0
LINE
8
1
62
3
10
30.741681
20
-4.004205
30
0.0
11
30.724034
21
-4.033051
31
0.0
0
LINE
8
1
62
3
10
30.761289
20
-3.980166
30
0.0
11
30.741681
21
-4.004205
31
0.0
0
LINE
8
1
62
3
10
30.782858
20
-3.970551
30
0.0
11
30.761289
21
-3.980166
31
0.0
0
LINE
8
1
62
3
10
30.804426
20
-3.965743
30
0.0
11
30.782858
21
-3.970551
31
0.0
0
LINE
8
1
62
3
10
30.825995
20
-3.970551
30
0.0
11
30.804426
21
-3.965743
31
0.0
0
LINE
8
1
62
3
10
30.847564
20
-3.980166
30
0.0
11
30.825995
21
-3.970551
31
0.0
0
LINE
8
1
62
3
10
30.867172
20
-4.004205
30
0.0
11
30.847564
21
-3.980166
31
0.0
0
LINE
8
1
62
3
10
30.884819
20
-4.033051
30
0.0
11
30.867172
21
-4.004205
31
0.0
0
LINE
8
1
62
3
10
30.900505
20
-4.066705
30
0.0
11
30.884819
21
-4.033051
31
0.0
0
LINE
8
1
62
3
10
30.91227
20
-4.105166
30
0.0
11
30.900505
21
-4.066705
31
0.0
0
LINE
8
1
62
3
10
30.922074
20
-4.148436
30
0.0
11
30.91227
21
-4.105166
31
0.0
0
LINE
8
1
62
3
10
30.927956
20
-4.196513
30
0.0
11
30.922074
21
-4.148436
31
0.0
0
LINE
8
1
62
3
10
30.929917
20
-4.24459
30
0.0
11
30.927956
21
-4.196513
31
0.0
0
LINE
8
1
62
3
10
30.447564
20
-4.105166
30
0.0
11
30.429917
21
-4.186897
31
0.0
0
LINE
8
1
62
3
10
30.459328
20
-4.066705
30
0.0
11
30.447564
21
-4.105166
31
0.0
0
LINE
8
1
62
3
10
30.475015
20
-4.033051
30
0.0
11
30.459328
21
-4.066705
31
0.0
0
LINE
8
1
62
3
10
30.492662
20
-4.004205
30
0.0
11
30.475015
21
-4.033051
31
0.0
0
LINE
8
1
62
3
10
30.51227
20
-3.980166
30
0.0
11
30.492662
21
-4.004205
31
0.0
0
LINE
8
1
62
3
10
30.533838
20
-3.970551
30
0.0
11
30.51227
21
-3.980166
31
0.0
0
LINE
8
1
62
3
10
30.555407
20
-3.965743
30
0.0
11
30.533838
21
-3.970551
31
0.0
0
LINE
8
1
62
3
10
30.576975
20
-3.970551
30
0.0
11
30.555407
21
-3.965743
31
0.0
0
LINE
8
1
62
3
10
30.598544
20
-3.980166
30
0.0
11
30.576975
21
-3.970551
31
0.0
0
LINE
8
1
62
3
10
30.618152
20
-4.004205
30
0.0
11
30.598544
21
-3.980166
31
0.0
0
LINE
8
1
62
3
10
30.635799
20
-4.033051
30
0.0
11
30.618152
21
-4.004205
31
0.0
0
LINE
8
1
62
3
10
30.651485
20
-4.066705
30
0.0
11
30.635799
21
-4.033051
31
0.0
0
LINE
8
1
62
3
10
30.66325
20
-4.105166
30
0.0
11
30.651485
21
-4.066705
31
0.0
0
LINE
8
1
62
3
10
30.673054
20
-4.148436
30
0.0
11
30.66325
21
-4.105166
31
0.0
0
LINE
8
1
62
3
10
30.680897
20
-4.210936
30
0.0
11
30.673054
21
-4.148436
31
0.0
0
LINE
8
1
62
3
10
30.680897
20
-4.667666
30
0.0
11
30.680897
21
-4.210936
31
0.0
0
LINE
8
1
62
3
10
30.929917
20
-4.667666
30
0.0
11
30.929917
21
-4.24459
31
0.0
0
LINE
8
1
62
3
10
30.429917
20
-4.667666
30
0.0
11
30.429917
21
-3.965743
31
0.0
0
LINE
8
1
62
3
10
31.629917
20
-3.667666
30
0.0
11
32.129917
21
-4.667666
31
0.0
0
LINE
8
1
62
3
10
32.129917
20
-4.667666
30
0.0
11
32.129917
21
-3.667666
31
0.0
0
LINE
8
1
62
3
10
31.629917
20
-3.667666
30
0.0
11
31.629917
21
-4.667666
31
0.0
0
LINE
8
1
62
3
10
32.833838
20
-4.254205
30
0.0
11
32.829917
21
-4.316705
31
0.0
0
LINE
8
1
62
3
10
32.845603
20
-4.196513
30
0.0
11
32.833838
21
-4.254205
31
0.0
0
LINE
8
1
62
3
10
32.86325
20
-4.13882
30
0.0
11
32.845603
21
-4.196513
31
0.0
0
LINE
8
1
62
3
10
32.88874
20
-4.090743
30
0.0
11
32.86325
21
-4.13882
31
0.0
0
LINE
8
1
62
3
10
32.920113
20
-4.047474
30
0.0
11
32.88874
21
-4.090743
31
0.0
0
LINE
8
1
62
3
10
32.955407
20
-4.01382
30
0.0
11
32.920113
21
-4.047474
31
0.0
0
LINE
8
1
62
3
10
32.994623
20
-3.984974
30
0.0
11
32.955407
21
-4.01382
31
0.0
0
LINE
8
1
62
3
10
33.035799
20
-3.970551
30
0.0
11
32.994623
21
-3.984974
31
0.0
0
LINE
8
1
62
3
10
33.080897
20
-3.965743
30
0.0
11
33.035799
21
-3.970551
31
0.0
0
LINE
8
1
62
3
10
33.124034
20
-3.970551
30
0.0
11
33.080897
21
-3.965743
31
0.0
0
LINE
8
1
62
3
10
33.165211
20
-3.984974
30
0.0
11
33.124034
21
-3.970551
31
0.0
0
LINE
8
1
62
3
10
33.204426
20
-4.01382
30
0.0
11
33.165211
21
-3.984974
31
0.0
0
LINE
8
1
62
3
10
33.239721
20
-4.047474
30
0.0
11
33.204426
21
-4.01382
31
0.0
0
LINE
8
1
62
3
10
33.271093
20
-4.090743
30
0.0
11
33.239721
21
-4.047474
31
0.0
0
LINE
8
1
62
3
10
33.296583
20
-4.13882
30
0.0
11
33.271093
21
-4.090743
31
0.0
0
LINE
8
1
62
3
10
33.31423
20
-4.196513
30
0.0
11
33.296583
21
-4.13882
31
0.0
0
LINE
8
1
62
3
10
33.325995
20
-4.254205
30
0.0
11
33.31423
21
-4.196513
31
0.0
0
LINE
8
1
62
3
10
33.329917
20
-4.316705
30
0.0
11
33.325995
21
-4.254205
31
0.0
0
LINE
8
1
62
3
10
32.829917
20
-3.965743
30
0.0
11
32.829917
21
-4.667666
31
0.0
0
LINE
8
1
62
3
10
33.329917
20
-4.667666
30
0.0
11
33.329917
21
-4.316705
31
0.0
0
LINE
8
1
62
3
10
34.525995
20
-4.254205
30
0.0
11
34.529917
21
-4.167666
31
0.0
0
LINE
8
1
62
3
10
34.51423
20
-4.340743
30
0.0
11
34.525995
21
-4.254205
31
0.0
0
LINE
8
1
62
3
10
34.496583
20
-4.417666
30
0.0
11
34.51423
21
-4.340743
31
0.0
0
LINE
8
1
62
3
10
34.471093
20
-4.489782
30
0.0
11
34.496583
21
-4.417666
31
0.0
0
LINE
8
1
62
3
10
34.439721
20
-4.552282
30
0.0
11
34.471093
21
-4.489782
31
0.0
0
LINE
8
1
62
3
10
34.404426
20
-4.600359
30
0.0
11
34.439721
21
-4.552282
31
0.0
0
LINE
8
1
62
3
10
34.365211
20
-4.63882
30
0.0
11
34.404426
21
-4.600359
31
0.0
0
LINE
8
1
62
3
10
34.324034
20
-4.658051
30
0.0
11
34.365211
21
-4.63882
31
0.0
0
LINE
8
1
62
3
10
34.280897
20
-4.667666
30
0.0
11
34.324034
21
-4.658051
31
0.0
0
LINE
8
1
62
3
10
34.235799
20
-4.658051
30
0.0
11
34.280897
21
-4.667666
31
0.0
0
LINE
8
1
62
3
10
34.194623
20
-4.63882
30
0.0
11
34.235799
21
-4.658051
31
0.0
0
LINE
8
1
62
3
10
34.155407
20
-4.600359
30
0.0
11
34.194623
21
-4.63882
31
0.0
0
LINE
8
1
62
3
10
34.120113
20
-4.552282
30
0.0
11
34.155407
21
-4.600359
31
0.0
0
LINE
8
1
62
3
10
34.08874
20
-4.489782
30
0.0
11
34.120113
21
-4.552282
31
0.0
0
LINE
8
1
62
3
10
34.06325
20
-4.417666
30
0.0
11
34.08874
21
-4.489782
31
0.0
0
LINE
8
1
62
3
10
34.045603
20
-4.340743
30
0.0
11
34.06325
21
-4.417666
31
0.0
0
LINE
8
1
62
3
10
34.033838
20
-4.254205
30
0.0
11
34.045603
21
-4.340743
31
0.0
0
LINE
8
1
62
3
10
34.029917
20
-4.167666
30
0.0
11
34.033838
21
-4.254205
31
0.0
0
LINE
8
1
62
3
10
34.033838
20
-4.081128
30
0.0
11
34.029917
21
-4.167666
31
0.0
0
LINE
8
1
62
3
10
34.045603
20
-3.99459
30
0.0
11
34.033838
21
-4.081128
31
0.0
0
LINE
8
1
62
3
10
34.06325
20
-3.917666
30
0.0
11
34.045603
21
-3.99459
31
0.0
0
LINE
8
1
62
3
10
34.08874
20
-3.845551
30
0.0
11
34.06325
21
-3.917666
31
0.0
0
LINE
8
1
62
3
10
34.120113
20
-3.783051
30
0.0
11
34.08874
21
-3.845551
31
0.0
0
LINE
8
1
62
3
10
34.155407
20
-3.734974
30
0.0
11
34.120113
21
-3.783051
31
0.0
0
LINE
8
1
62
3
10
34.194623
20
-3.696513
30
0.0
11
34.155407
21
-3.734974
31
0.0
0
LINE
8
1
62
3
10
34.235799
20
-3.677282
30
0.0
11
34.194623
21
-3.696513
31
0.0
0
LINE
8
1
62
3
10
34.280897
20
-3.667666
30
0.0
11
34.235799
21
-3.677282
31
0.0
0
LINE
8
1
62
3
10
34.324034
20
-3.677282
30
0.0
11
34.280897
21
-3.667666
31
0.0
0
LINE
8
1
62
3
10
34.365211
20
-3.696513
30
0.0
11
34.324034
21
-3.677282
31
0.0
0
LINE
8
1
62
3
10
34.404426
20
-3.734974
30
0.0
11
34.365211
21
-3.696513
31
0.0
0
LINE
8
1
62
3
10
34.439721
20
-3.783051
30
0.0
11
34.404426
21
-3.734974
31
0.0
0
LINE
8
1
62
3
10
34.471093
20
-3.845551
30
0.0
11
34.439721
21
-3.783051
31
0.0
0
LINE
8
1
62
3
10
34.496583
20
-3.917666
30
0.0
11
34.471093
21
-3.845551
31
0.0
0
LINE
8
1
62
3
10
34.51423
20
-3.99459
30
0.0
11
34.496583
21
-3.917666
31
0.0
0
LINE
8
1
62
3
10
34.525995
20
-4.081128
30
0.0
11
34.51423
21
-3.99459
31
0.0
0
LINE
8
1
62
3
10
34.529917
20
-4.167666
30
0.0
11
34.525995
21
-4.081128
31
0.0
0
LINE
8
1
62
3
10
35.725995
20
-4.379205
30
0.0
11
35.729917
21
-4.316705
31
0.0
0
LINE
8
1
62
3
10
35.71423
20
-4.436897
30
0.0
11
35.725995
21
-4.379205
31
0.0
0
LINE
8
1
62
3
10
35.696583
20
-4.489782
30
0.0
11
35.71423
21
-4.436897
31
0.0
0
LINE
8
1
62
3
10
35.671093
20
-4.542666
30
0.0
11
35.696583
21
-4.489782
31
0.0
0
LINE
8
1
62
3
10
35.639721
20
-4.585936
30
0.0
11
35.671093
21
-4.542666
31
0.0
0
LINE
8
1
62
3
10
35.604426
20
-4.61959
30
0.0
11
35.639721
21
-4.585936
31
0.0
0
LINE
8
1
62
3
10
35.565211
20
-4.648436
30
0.0
11
35.604426
21
-4.61959
31
0.0
0
LINE
8
1
62
3
10
35.524034
20
-4.662859
30
0.0
11
35.565211
21
-4.648436
31
0.0
0
LINE
8
1
62
3
10
35.480897
20
-4.667666
30
0.0
11
35.524034
21
-4.662859
31
0.0
0
LINE
8
1
62
3
10
35.435799
20
-4.662859
30
0.0
11
35.480897
21
-4.667666
31
0.0
0
LINE
8
1
62
3
10
35.394623
20
-4.648436
30
0.0
11
35.435799
21
-4.662859
31
0.0
0
LINE
8
1
62
3
10
35.355407
20
-4.61959
30
0.0
11
35.394623
21
-4.648436
31
0.0
0
LINE
8
1
62
3
10
35.320113
20
-4.585936
30
0.0
11
35.355407
21
-4.61959
31
0.0
0
LINE
8
1
62
3
10
35.28874
20
-4.542666
30
0.0
11
35.320113
21
-4.585936
31
0.0
0
LINE
8
1
62
3
10
35.26325
20
-4.489782
30
0.0
11
35.28874
21
-4.542666
31
0.0
0
LINE
8
1
62
3
10
35.245603
20
-4.436897
30
0.0
11
35.26325
21
-4.489782
31
0.0
0
LINE
8
1
62
3
10
35.233838
20
-4.379205
30
0.0
11
35.245603
21
-4.436897
31
0.0
0
LINE
8
1
62
3
10
35.229917
20
-4.316705
30
0.0
11
35.233838
21
-4.379205
31
0.0
0
LINE
8
1
62
3
10
35.233838
20
-4.254205
30
0.0
11
35.229917
21
-4.316705
31
0.0
0
LINE
8
1
62
3
10
35.245603
20
-4.196513
30
0.0
11
35.233838
21
-4.254205
31
0.0
0
LINE
8
1
62
3
10
35.26325
20
-4.13882
30
0.0
11
35.245603
21
-4.196513
31
0.0
0
LINE
8
1
62
3
10
35.28874
20
-4.090743
30
0.0
11
35.26325
21
-4.13882
31
0.0
0
LINE
8
1
62
3
10
35.320113
20
-4.047474
30
0.0
11
35.28874
21
-4.090743
31
0.0
0
LINE
8
1
62
3
10
35.355407
20
-4.01382
30
0.0
11
35.320113
21
-4.047474
31
0.0
0
LINE
8
1
62
3
10
35.394623
20
-3.984974
30
0.0
11
35.355407
21
-4.01382
31
0.0
0
LINE
8
1
62
3
10
35.435799
20
-3.970551
30
0.0
11
35.394623
21
-3.984974
31
0.0
0
LINE
8
1
62
3
10
35.480897
20
-3.965743
30
0.0
11
35.435799
21
-3.970551
31
0.0
0
LINE
8
1
62
3
10
35.524034
20
-3.970551
30
0.0
11
35.480897
21
-3.965743
31
0.0
0
LINE
8
1
62
3
10
35.565211
20
-3.984974
30
0.0
11
35.524034
21
-3.970551
31
0.0
0
LINE
8
1
62
3
10
35.604426
20
-4.01382
30
0.0
11
35.565211
21
-3.984974
31
0.0
0
LINE
8
1
62
3
10
35.639721
20
-4.047474
30
0.0
11
35.604426
21
-4.01382
31
0.0
0
LINE
8
1
62
3
10
35.671093
20
-4.090743
30
0.0
11
35.639721
21
-4.047474
31
0.0
0
LINE
8
1
62
3
10
35.696583
20
-4.13882
30
0.0
11
35.671093
21
-4.090743
31
0.0
0
LINE
8
1
62
3
10
35.71423
20
-4.196513
30
0.0
11
35.696583
21
-4.13882
31
0.0
0
LINE
8
1
62
3
10
35.725995
20
-4.254205
30
0.0
11
35.71423
21
-4.196513
31
0.0
0
LINE
8
1
62
3
10
35.729917
20
-4.316705
30
0.0
11
35.725995
21
-4.254205
31
0.0
0
LINE
8
1
62
3
10
36.724034
20
-3.672474
30
0.0
11
36.680897
21
-3.667666
31
0.0
0
LINE
8
1
62
3
10
36.429917
20
-3.667666
30
0.0
11
36.680897
21
-3.667666
31
0.0
0
LINE
8
1
62
3
10
36.429917
20
-4.167666
30
0.0
11
36.678936
21
-4.167666
31
0.0
0
LINE
8
1
62
3
10
36.678936
20
-4.167666
30
0.0
11
36.724034
21
-4.162859
31
0.0
0
LINE
8
1
62
3
10
36.925995
20
-3.960936
30
0.0
11
36.929917
21
-3.917666
31
0.0
0
LINE
8
1
62
3
10
36.91423
20
-4.004205
30
0.0
11
36.925995
21
-3.960936
31
0.0
0
LINE
8
1
62
3
10
36.896583
20
-4.042666
30
0.0
11
36.91423
21
-4.004205
31
0.0
0
LINE
8
1
62
3
10
36.871093
20
-4.07632
30
0.0
11
36.896583
21
-4.042666
31
0.0
0
LINE
8
1
62
3
10
36.839721
20
-4.109974
30
0.0
11
36.871093
21
-4.07632
31
0.0
0
LINE
8
1
62
3
10
36.804426
20
-4.134013
30
0.0
11
36.839721
21
-4.109974
31
0.0
0
LINE
8
1
62
3
10
36.765211
20
-4.153243
30
0.0
11
36.804426
21
-4.134013
31
0.0
0
LINE
8
1
62
3
10
36.724034
20
-4.162859
30
0.0
11
36.765211
21
-4.153243
31
0.0
0
LINE
8
1
62
3
10
36.765211
20
-3.68209
30
0.0
11
36.724034
21
-3.672474
31
0.0
0
LINE
8
1
62
3
10
36.804426
20
-3.70132
30
0.0
11
36.765211
21
-3.68209
31
0.0
0
LINE
8
1
62
3
10
36.839721
20
-3.725359
30
0.0
11
36.804426
21
-3.70132
31
0.0
0
LINE
8
1
62
3
10
36.871093
20
-3.759013
30
0.0
11
36.839721
21
-3.725359
31
0.0
0
LINE
8
1
62
3
10
36.896583
20
-3.792666
30
0.0
11
36.871093
21
-3.759013
31
0.0
0
LINE
8
1
62
3
10
36.91423
20
-3.831128
30
0.0
11
36.896583
21
-3.792666
31
0.0
0
LINE
8
1
62
3
10
36.925995
20
-3.874397
30
0.0
11
36.91423
21
-3.831128
31
0.0
0
LINE
8
1
62
3
10
36.929917
20
-3.917666
30
0.0
11
36.925995
21
-3.874397
31
0.0
0
LINE
8
1
62
3
10
36.429917
20
-3.667666
30
0.0
11
36.429917
21
-4.667666
31
0.0
0
LINE
8
1
62
3
10
38.125995
20
-4.379205
30
0.0
11
38.129917
21
-4.316705
31
0.0
0
LINE
8
1
62
3
10
38.11423
20
-4.436897
30
0.0
11
38.125995
21
-4.379205
31
0.0
0
LINE
8
1
62
3
10
38.096583
20
-4.489782
30
0.0
11
38.11423
21
-4.436897
31
0.0
0
LINE
8
1
62
3
10
38.071093
20
-4.542666
30
0.0
11
38.096583
21
-4.489782
31
0.0
0
LINE
8
1
62
3
10
38.039721
20
-4.585936
30
0.0
11
38.071093
21
-4.542666
31
0.0
0
LINE
8
1
62
3
10
38.004426
20
-4.61959
30
0.0
11
38.039721
21
-4.585936
31
0.0
0
LINE
8
1
62
3
10
37.965211
20
-4.648436
30
0.0
11
38.004426
21
-4.61959
31
0.0
0
LINE
8
1
62
3
10
37.924034
20
-4.662859
30
0.0
11
37.965211
21
-4.648436
31
0.0
0
LINE
8
1
62
3
10
37.880897
20
-4.667666
30
0.0
11
37.924034
21
-4.662859
31
0.0
0
LINE
8
1
62
3
10
37.835799
20
-4.662859
30
0.0
11
37.880897
21
-4.667666
31
0.0
0
LINE
8
1
62
3
10
37.794623
20
-4.648436
30
0.0
11
37.835799
21
-4.662859
31
0.0
0
LINE
8
1
62
3
10
37.755407
20
-4.61959
30
0.0
11
37.794623
21
-4.648436
31
0.0
0
LINE
8
1
62
3
10
37.720113
20
-4.585936
30
0.0
11
37.755407
21
-4.61959
31
0.0
0
LINE
8
1
62
3
10
37.68874
20
-4.542666
30
0.0
11
37.720113
21
-4.585936
31
0.0
0
LINE
8
1
62
3
10
37.66325
20
-4.489782
30
0.0
11
37.68874
21
-4.542666
31
0.0
0
LINE
8
1
62
3
10
37.629917
20
-4.393628
30
0.0
11
37.66325
21
-4.489782
31
0.0
0
LINE
8
1
62
3
10
37.66325
20
-4.13882
30
0.0
11
37.629917
21
-4.239782
31
0.0
0
LINE
8
1
62
3
10
37.68874
20
-4.090743
30
0.0
11
37.66325
21
-4.13882
31
0.0
0
LINE
8
1
62
3
10
37.720113
20
-4.047474
30
0.0
11
37.68874
21
-4.090743
31
0.0
0
LINE
8
1
62
3
10
37.755407
20
-4.01382
30
0.0
11
37.720113
21
-4.047474
31
0.0
0
LINE
8
1
62
3
10
37.794623
20
-3.984974
30
0.0
11
37.755407
21
-4.01382
31
0.0
0
LINE
8
1
62
3
10
37.835799
20
-3.970551
30
0.0
11
37.794623
21
-3.984974
31
0.0
0
LINE
8
1
62
3
10
37.880897
20
-3.965743
30
0.0
11
37.835799
21
-3.970551
31
0.0
0
LINE
8
1
62
3
10
37.924034
20
-3.970551
30
0.0
11
37.880897
21
-3.965743
31
0.0
0
LINE
8
1
62
3
10
37.965211
20
-3.984974
30
0.0
11
37.924034
21
-3.970551
31
0.0
0
LINE
8
1
62
3
10
38.004426
20
-4.01382
30
0.0
11
37.965211
21
-3.984974
31
0.0
0
LINE
8
1
62
3
10
38.039721
20
-4.047474
30
0.0
11
38.004426
21
-4.01382
31
0.0
0
LINE
8
1
62
3
10
38.071093
20
-4.090743
30
0.0
11
38.039721
21
-4.047474
31
0.0
0
LINE
8
1
62
3
10
38.096583
20
-4.13882
30
0.0
11
38.071093
21
-4.090743
31
0.0
0
LINE
8
1
62
3
10
38.11423
20
-4.196513
30
0.0
11
38.096583
21
-4.13882
31
0.0
0
LINE
8
1
62
3
10
38.125995
20
-4.254205
30
0.0
11
38.11423
21
-4.196513
31
0.0
0
LINE
8
1
62
3
10
38.129917
20
-4.316705
30
0.0
11
38.125995
21
-4.254205
31
0.0
0
LINE
8
1
62
3
10
37.629917
20
-4.893628
30
0.0
11
37.629917
21
-3.965743
31
0.0
0
LINE
8
1
62
3
10
39.131877
20
-4.311897
30
0.0
11
39.329917
21
-4.667666
31
0.0
0
LINE
8
1
62
3
10
39.325995
20
-4.254205
30
0.0
11
39.329917
21
-4.167666
31
0.0
0
LINE
8
1
62
3
10
39.31423
20
-4.340743
30
0.0
11
39.325995
21
-4.254205
31
0.0
0
LINE
8
1
62
3
10
39.296583
20
-4.417666
30
0.0
11
39.31423
21
-4.340743
31
0.0
0
LINE
8
1
62
3
10
39.271093
20
-4.489782
30
0.0
11
39.296583
21
-4.417666
31
0.0
0
LINE
8
1
62
3
10
39.239721
20
-4.552282
30
0.0
11
39.271093
21
-4.489782
31
0.0
0
LINE
8
1
62
3
10
39.204426
20
-4.600359
30
0.0
11
39.239721
21
-4.552282
31
0.0
0
LINE
8
1
62
3
10
39.165211
20
-4.63882
30
0.0
11
39.204426
21
-4.600359
31
0.0
0
LINE
8
1
62
3
10
39.124034
20
-4.658051
30
0.0
11
39.165211
21
-4.63882
31
0.0
0
LINE
8
1
62
3
10
39.080897
20
-4.667666
30
0.0
11
39.124034
21
-4.658051
31
0.0
0
LINE
8
1
62
3
10
39.035799
20
-4.658051
30
0.0
11
39.080897
21
-4.667666
31
0.0
0
LINE
8
1
62
3
10
38.994623
20
-4.63882
30
0.0
11
39.035799
21
-4.658051
31
0.0
0
LINE
8
1
62
3
10
38.955407
20
-4.600359
30
0.0
11
38.994623
21
-4.63882
31
0.0
0
LINE
8
1
62
3
10
38.920113
20
-4.552282
30
0.0
11
38.955407
21
-4.600359
31
0.0
0
LINE
8
1
62
3
10
38.88874
20
-4.489782
30
0.0
11
38.920113
21
-4.552282
31
0.0
0
LINE
8
1
62
3
10
38.86325
20
-4.417666
30
0.0
11
38.88874
21
-4.489782
31
0.0
0
LINE
8
1
62
3
10
38.845603
20
-4.340743
30
0.0
11
38.86325
21
-4.417666
31
0.0
0
LINE
8
1
62
3
10
38.833838
20
-4.254205
30
0.0
11
38.845603
21
-4.340743
31
0.0
0
LINE
8
1
62
3
10
38.829917
20
-4.167666
30
0.0
11
38.833838
21
-4.254205
31
0.0
0
LINE
8
1
62
3
10
38.833838
20
-4.081128
30
0.0
11
38.829917
21
-4.167666
31
0.0
0
LINE
8
1
62
3
10
38.845603
20
-3.99459
30
0.0
11
38.833838
21
-4.081128
31
0.0
0
LINE
8
1
62
3
10
38.86325
20
-3.917666
30
0.0
11
38.845603
21
-3.99459
31
0.0
0
LINE
8
1
62
3
10
38.88874
20
-3.845551
30
0.0
11
38.86325
21
-3.917666
31
0.0
0
LINE
8
1
62
3
10
38.920113
20
-3.783051
30
0.0
11
38.88874
21
-3.845551
31
0.0
0
LINE
8
1
62
3
10
38.955407
20
-3.734974
30
0.0
11
38.920113
21
-3.783051
31
0.0
0
LINE
8
1
62
3
10
38.994623
20
-3.696513
30
0.0
11
38.955407
21
-3.734974
31
0.0
0
LINE
8
1
62
3
10
39.035799
20
-3.677282
30
0.0
11
38.994623
21
-3.696513
31
0.0
0
LINE
8
1
62
3
10
39.080897
20
-3.667666
30
0.0
11
39.035799
21
-3.677282
31
0.0
0
LINE
8
1
62
3
10
39.124034
20
-3.677282
30
0.0
11
39.080897
21
-3.667666
31
0.0
0
LINE
8
1
62
3
10
39.165211
20
-3.696513
30
0.0
11
39.124034
21
-3.677282
31
0.0
0
LINE
8
1
62
3
10
39.204426
20
-3.734974
30
0.0
11
39.165211
21
-3.696513
31
0.0
0
LINE
8
1
62
3
10
39.239721
20
-3.783051
30
0.0
11
39.204426
21
-3.734974
31
0.0
0
LINE
8
1
62
3
10
39.271093
20
-3.845551
30
0.0
11
39.239721
21
-3.783051
31
0.0
0
LINE
8
1
62
3
10
39.296583
20
-3.917666
30
0.0
11
39.271093
21
-3.845551
31
0.0
0
LINE
8
1
62
3
10
39.31423
20
-3.99459
30
0.0
11
39.296583
21
-3.917666
31
0.0
0
LINE
8
1
62
3
10
39.325995
20
-4.081128
30
0.0
11
39.31423
21
-3.99459
31
0.0
0
LINE
8
1
62
3
10
39.329917
20
-4.167666
30
0.0
11
39.325995
21
-4.081128
31
0.0
0
LINE
8
1
62
3
10
40.496583
20
-4.489782
30
0.0
11
40.529917
21
-4.393628
31
0.0
0
LINE
8
1
62
3
10
40.471093
20
-4.542666
30
0.0
11
40.496583
21
-4.489782
31
0.0
0
LINE
8
1
62
3
10
40.439721
20
-4.585936
30
0.0
11
40.471093
21
-4.542666
31
0.0
0
LINE
8
1
62
3
10
40.404426
20
-4.61959
30
0.0
11
40.439721
21
-4.585936
31
0.0
0
LINE
8
1
62
3
10
40.365211
20
-4.648436
30
0.0
11
40.404426
21
-4.61959
31
0.0
0
LINE
8
1
62
3
10
40.324034
20
-4.662859
30
0.0
11
40.365211
21
-4.648436
31
0.0
0
LINE
8
1
62
3
10
40.280897
20
-4.667666
30
0.0
11
40.324034
21
-4.662859
31
0.0
0
LINE
8
1
62
3
10
40.235799
20
-4.662859
30
0.0
11
40.280897
21
-4.667666
31
0.0
0
LINE
8
1
62
3
10
40.194623
20
-4.648436
30
0.0
11
40.235799
21
-4.662859
31
0.0
0
LINE
8
1
62
3
10
40.155407
20
-4.61959
30
0.0
11
40.194623
21
-4.648436
31
0.0
0
LINE
8
1
62
3
10
40.120113
20
-4.585936
30
0.0
11
40.155407
21
-4.61959
31
0.0
0
LINE
8
1
62
3
10
40.08874
20
-4.542666
30
0.0
11
40.120113
21
-4.585936
31
0.0
0
LINE
8
1
62
3
10
40.06325
20
-4.489782
30
0.0
11
40.08874
21
-4.542666
31
0.0
0
LINE
8
1
62
3
10
40.045603
20
-4.436897
30
0.0
11
40.06325
21
-4.489782
31
0.0
0
LINE
8
1
62
3
10
40.033838
20
-4.379205
30
0.0
11
40.045603
21
-4.436897
31
0.0
0
LINE
8
1
62
3
10
40.029917
20
-4.316705
30
0.0
11
40.033838
21
-4.379205
31
0.0
0
LINE
8
1
62
3
10
40.033838
20
-4.254205
30
0.0
11
40.029917
21
-4.316705
31
0.0
0
LINE
8
1
62
3
10
40.045603
20
-4.196513
30
0.0
11
40.033838
21
-4.254205
31
0.0
0
LINE
8
1
62
3
10
40.06325
20
-4.13882
30
0.0
11
40.045603
21
-4.196513
31
0.0
0
LINE
8
1
62
3
10
40.08874
20
-4.090743
30
0.0
11
40.06325
21
-4.13882
31
0.0
0
LINE
8
1
62
3
10
40.120113
20
-4.047474
30
0.0
11
40.08874
21
-4.090743
31
0.0
0
LINE
8
1
62
3
10
40.155407
20
-4.01382
30
0.0
11
40.120113
21
-4.047474
31
0.0
0
LINE
8
1
62
3
10
40.194623
20
-3.984974
30
0.0
11
40.155407
21
-4.01382
31
0.0
0
LINE
8
1
62
3
10
40.235799
20
-3.970551
30
0.0
11
40.194623
21
-3.984974
31
0.0
0
LINE
8
1
62
3
10
40.280897
20
-3.965743
30
0.0
11
40.235799
21
-3.970551
31
0.0
0
LINE
8
1
62
3
10
40.324034
20
-3.970551
30
0.0
11
40.280897
21
-3.965743
31
0.0
0
LINE
8
1
62
3
10
40.365211
20
-3.984974
30
0.0
11
40.324034
21
-3.970551
31
0.0
0
LINE
8
1
62
3
10
40.404426
20
-4.01382
30
0.0
11
40.365211
21
-3.984974
31
0.0
0
LINE
8
1
62
3
10
40.439721
20
-4.047474
30
0.0
11
40.404426
21
-4.01382
31
0.0
0
LINE
8
1
62
3
10
40.471093
20
-4.090743
30
0.0
11
40.439721
21
-4.047474
31
0.0
0
LINE
8
1
62
3
10
40.496583
20
-4.13882
30
0.0
11
40.471093
21
-4.090743
31
0.0
0
LINE
8
1
62
3
10
40.529917
20
-4.239782
30
0.0
11
40.496583
21
-4.13882
31
0.0
0
LINE
8
1
62
3
10
40.529917
20
-4.893628
30
0.0
11
40.529917
21
-3.965743
31
0.0
0
LINE
8
1
62
3
10
41.229917
20
-3.667666
30
0.0
11
41.480897
21
-3.667666
31
0.0
0
LINE
8
1
62
3
10
41.480897
20
-3.667666
30
0.0
11
41.524034
21
-3.672474
31
0.0
0
LINE
8
1
62
3
10
41.478936
20
-4.167666
30
0.0
11
41.524034
21
-4.162859
31
0.0
0
LINE
8
1
62
3
10
41.478936
20
-4.167666
30
0.0
11
41.229917
21
-4.167666
31
0.0
0
LINE
8
1
62
3
10
41.725995
20
-3.960936
30
0.0
11
41.729917
21
-3.917666
31
0.0
0
LINE
8
1
62
3
10
41.71423
20
-4.004205
30
0.0
11
41.725995
21
-3.960936
31
0.0
0
LINE
8
1
62
3
10
41.696583
20
-4.042666
30
0.0
11
41.71423
21
-4.004205
31
0.0
0
LINE
8
1
62
3
10
41.671093
20
-4.07632
30
0.0
11
41.696583
21
-4.042666
31
0.0
0
LINE
8
1
62
3
10
41.639721
20
-4.109974
30
0.0
11
41.671093
21
-4.07632
31
0.0
0
LINE
8
1
62
3
10
41.604426
20
-4.134013
30
0.0
11
41.639721
21
-4.109974
31
0.0
0
LINE
8
1
62
3
10
41.565211
20
-4.153243
30
0.0
11
41.604426
21
-4.134013
31
0.0
0
LINE
8
1
62
3
10
41.524034
20
-4.162859
30
0.0
11
41.565211
21
-4.153243
31
0.0
0
LINE
8
1
62
3
10
41.565211
20
-3.68209
30
0.0
11
41.524034
21
-3.672474
31
0.0
0
LINE
8
1
62
3
10
41.604426
20
-3.70132
30
0.0
11
41.565211
21
-3.68209
31
0.0
0
LINE
8
1
62
3
10
41.639721
20
-3.725359
30
0.0
11
41.604426
21
-3.70132
31
0.0
0
LINE
8
1
62
3
10
41.671093
20
-3.759013
30
0.0
11
41.639721
21
-3.725359
31
0.0
0
LINE
8
1
62
3
10
41.696583
20
-3.792666
30
0.0
11
41.671093
21
-3.759013
31
0.0
0
LINE
8
1
62
3
10
41.71423
20
-3.831128
30
0.0
11
41.696583
21
-3.792666
31
0.0
0
LINE
8
1
62
3
10
41.725995
20
-3.874397
30
0.0
11
41.71423
21
-3.831128
31
0.0
0
LINE
8
1
62
3
10
41.729917
20
-3.917666
30
0.0
11
41.725995
21
-3.874397
31
0.0
0
LINE
8
1
62
3
10
41.329917
20
-4.167666
30
0.0
11
41.729917
21
-4.667666
31
0.0
0
LINE
8
1
62
3
10
41.229917
20
-3.667666
30
0.0
11
41.229917
21
-4.667666
31
0.0
0
LINE
8
1
62
3
10
42.429917
20
-4.667666
30
0.0
11
42.429917
21
-3.965743
31
0.0
0
LINE
8
1
62
3
10
42.600505
20
-3.965743
30
0.0
11
42.759328
21
-3.965743
31
0.0
0
LINE
8
1
62
3
10
42.600505
20
-3.965743
30
0.0
11
42.582858
21
-3.970551
31
0.0
0
LINE
8
1
62
3
10
42.582858
20
-3.970551
30
0.0
11
42.56325
21
-3.975359
31
0.0
0
LINE
8
1
62
3
10
42.56325
20
-3.975359
30
0.0
11
42.545603
21
-3.989782
31
0.0
0
LINE
8
1
62
3
10
42.545603
20
-3.989782
30
0.0
11
42.525995
21
-4.009013
31
0.0
0
LINE
8
1
62
3
10
42.525995
20
-4.009013
30
0.0
11
42.510309
21
-4.028243
31
0.0
0
LINE
8
1
62
3
10
42.510309
20
-4.028243
30
0.0
11
42.494623
21
-4.05709
31
0.0
0
LINE
8
1
62
3
10
42.494623
20
-4.05709
30
0.0
11
42.480897
21
-4.090743
31
0.0
0
LINE
8
1
62
3
10
42.480897
20
-4.090743
30
0.0
11
42.467172
21
-4.124397
31
0.0
0
LINE
8
1
62
3
10
42.467172
20
-4.124397
30
0.0
11
42.455407
21
-4.162859
31
0.0
0
LINE
8
1
62
3
10
42.455407
20
-4.162859
30
0.0
11
42.447564
21
-4.20132
31
0.0
0
LINE
8
1
62
3
10
42.447564
20
-4.20132
30
0.0
11
42.429917
21
-4.302282
31
0.0
0
LINE
8
1
62
3
10
42.878936
20
-4.090743
30
0.0
11
42.865211
21
-4.05709
31
0.0
0
LINE
8
1
62
3
10
42.865211
20
-4.05709
30
0.0
11
42.849524
21
-4.028243
31
0.0
0
LINE
8
1
62
3
10
42.849524
20
-4.028243
30
0.0
11
42.833838
21
-4.009013
31
0.0
0
LINE
8
1
62
3
10
42.833838
20
-4.009013
30
0.0
11
42.81423
21
-3.989782
31
0.0
0
LINE
8
1
62
3
10
42.81423
20
-3.989782
30
0.0
11
42.796583
21
-3.975359
31
0.0
0
LINE
8
1
62
3
10
42.796583
20
-3.975359
30
0.0
11
42.776975
21
-3.970551
31
0.0
0
LINE
8
1
62
3
10
42.776975
20
-3.970551
30
0.0
11
42.759328
21
-3.965743
31
0.0
0
LINE
8
1
62
3
10
43.73776
20
-3.989782
30
0.0
11
44.071093
21
-4.259013
31
0.0
0
LINE
8
1
62
3
10
43.71423
20
-3.960936
30
0.0
11
43.73776
21
-3.989782
31
0.0
0
LINE
8
1
62
3
10
43.698544
20
-3.927282
30
0.0
11
43.71423
21
-3.960936
31
0.0
0
LINE
8
1
62
3
10
43.68874
20
-3.898436
30
0.0
11
43.698544
21
-3.927282
31
0.0
0
LINE
8
1
62
3
10
43.684819
20
-3.859974
30
0.0
11
43.68874
21
-3.898436
31
0.0
0
LINE
8
1
62
3
10
43.68874
20
-3.82632
30
0.0
11
43.684819
21
-3.859974
31
0.0
0
LINE
8
1
62
3
10
43.698544
20
-3.797474
30
0.0
11
43.68874
21
-3.82632
31
0.0
0
LINE
8
1
62
3
10
43.71423
20
-3.76382
30
0.0
11
43.698544
21
-3.797474
31
0.0
0
LINE
8
1
62
3
10
43.73776
20
-3.734974
30
0.0
11
43.71423
21
-3.76382
31
0.0
0
LINE
8
1
62
3
10
43.765211
20
-3.710936
30
0.0
11
43.73776
21
-3.734974
31
0.0
0
LINE
8
1
62
3
10
43.796583
20
-3.691705
30
0.0
11
43.765211
21
-3.710936
31
0.0
0
LINE
8
1
62
3
10
43.831877
20
-3.677282
30
0.0
11
43.796583
21
-3.691705
31
0.0
0
LINE
8
1
62
3
10
43.869132
20
-3.672474
30
0.0
11
43.831877
21
-3.677282
31
0.0
0
LINE
8
1
62
3
10
43.908348
20
-3.667666
30
0.0
11
43.869132
21
-3.672474
31
0.0
0
LINE
8
1
62
3
10
43.945603
20
-3.672474
30
0.0
11
43.908348
21
-3.667666
31
0.0
0
LINE
8
1
62
3
10
43.982858
20
-3.677282
30
0.0
11
43.945603
21
-3.672474
31
0.0
0
LINE
8
1
62
3
10
44.018152
20
-3.691705
30
0.0
11
43.982858
21
-3.677282
31
0.0
0
LINE
8
1
62
3
10
44.049524
20
-3.710936
30
0.0
11
44.018152
21
-3.691705
31
0.0
0
LINE
8
1
62
3
10
44.076975
20
-3.734974
30
0.0
11
44.049524
21
-3.710936
31
0.0
0
LINE
8
1
62
3
10
44.100505
20
-3.76382
30
0.0
11
44.076975
21
-3.734974
31
0.0
0
LINE
8
1
62
3
10
44.116191
20
-3.797474
30
0.0
11
44.100505
21
-3.76382
31
0.0
0
LINE
8
1
62
3
10
44.125995
20
-3.82632
30
0.0
11
44.116191
21
-3.797474
31
0.0
0
LINE
8
1
62
3
10
44.129917
20
-3.859974
30
0.0
11
44.125995
21
-3.82632
31
0.0
0
LINE
8
1
62
3
10
44.125995
20
-4.460936
30
0.0
11
44.129917
21
-4.417666
31
0.0
0
LINE
8
1
62
3
10
44.11423
20
-4.504205
30
0.0
11
44.125995
21
-4.460936
31
0.0
0
LINE
8
1
62
3
10
44.096583
20
-4.542666
30
0.0
11
44.11423
21
-4.504205
31
0.0
0
LINE
8
1
62
3
10
44.071093
20
-4.57632
30
0.0
11
44.096583
21
-4.542666
31
0.0
0
LINE
8
1
62
3
10
44.039721
20
-4.609974
30
0.0
11
44.071093
21
-4.57632
31
0.0
0
LINE
8
1
62
3
10
44.004426
20
-4.634013
30
0.0
11
44.039721
21
-4.609974
31
0.0
0
LINE
8
1
62
3
10
43.965211
20
-4.653243
30
0.0
11
44.004426
21
-4.634013
31
0.0
0
LINE
8
1
62
3
10
43.924034
20
-4.662859
30
0.0
11
43.965211
21
-4.653243
31
0.0
0
LINE
8
1
62
3
10
43.880897
20
-4.667666
30
0.0
11
43.924034
21
-4.662859
31
0.0
0
LINE
8
1
62
3
10
43.835799
20
-4.662859
30
0.0
11
43.880897
21
-4.667666
31
0.0
0
LINE
8
1
62
3
10
43.794623
20
-4.653243
30
0.0
11
43.835799
21
-4.662859
31
0.0
0
LINE
8
1
62
3
10
43.755407
20
-4.634013
30
0.0
11
43.794623
21
-4.653243
31
0.0
0
LINE
8
1
62
3
10
43.720113
20
-4.609974
30
0.0
11
43.755407
21
-4.634013
31
0.0
0
LINE
8
1
62
3
10
43.68874
20
-4.57632
30
0.0
11
43.720113
21
-4.609974
31
0.0
0
LINE
8
1
62
3
10
43.66325
20
-4.542666
30
0.0
11
43.68874
21
-4.57632
31
0.0
0
LINE
8
1
62
3
10
43.645603
20
-4.504205
30
0.0
11
43.66325
21
-4.542666
31
0.0
0
LINE
8
1
62
3
10
43.633838
20
-4.460936
30
0.0
11
43.645603
21
-4.504205
31
0.0
0
LINE
8
1
62
3
10
43.629917
20
-4.417666
30
0.0
11
43.633838
21
-4.460936
31
0.0
0
LINE
8
1
62
3
10
44.096583
20
-4.292666
30
0.0
11
44.071093
21
-4.259013
31
0.0
0
LINE
8
1
62
3
10
44.11423
20
-4.331128
30
0.0
11
44.096583
21
-4.292666
31
0.0
0
LINE
8
1
62
3
10
44.125995
20
-4.374397
30
0.0
11
44.11423
21
-4.331128
31
0.0
0
LINE
8
1
62
3
10
44.129917
20
-4.417666
30
0.0
11
44.125995
21
-4.374397
31
0.0
0
LINE
8
1
62
3
10
45.325995
20
-4.523436
30
0.0
11
45.329917
21
-4.489782
31
0.0
0
LINE
8
1
62
3
10
45.31423
20
-4.552282
30
0.0
11
45.325995
21
-4.523436
31
0.0
0
LINE
8
1
62
3
10
45.296583
20
-4.581128
30
0.0
11
45.31423
21
-4.552282
31
0.0
0
LINE
8
1
62
3
10
45.271093
20
-4.605166
30
0.0
11
45.296583
21
-4.581128
31
0.0
0
LINE
8
1
62
3
10
45.239721
20
-4.624397
30
0.0
11
45.271093
21
-4.605166
31
0.0
0
LINE
8
1
62
3
10
45.204426
20
-4.643628
30
0.0
11
45.239721
21
-4.624397
31
0.0
0
LINE
8
1
62
3
10
45.165211
20
-4.658051
30
0.0
11
45.204426
21
-4.643628
31
0.0
0
LINE
8
1
62
3
10
45.124034
20
-4.662859
30
0.0
11
45.165211
21
-4.658051
31
0.0
0
LINE
8
1
62
3
10
45.080897
20
-4.667666
30
0.0
11
45.124034
21
-4.662859
31
0.0
0
LINE
8
1
62
3
10
45.035799
20
-4.662859
30
0.0
11
45.080897
21
-4.667666
31
0.0
0
LINE
8
1
62
3
10
44.994623
20
-4.658051
30
0.0
11
45.035799
21
-4.662859
31
0.0
0
LINE
8
1
62
3
10
44.955407
20
-4.643628
30
0.0
11
44.994623
21
-4.658051
31
0.0
0
LINE
8
1
62
3
10
44.920113
20
-4.624397
30
0.0
11
44.955407
21
-4.643628
31
0.0
0
LINE
8
1
62
3
10
44.88874
20
-4.605166
30
0.0
11
44.920113
21
-4.624397
31
0.0
0
LINE
8
1
62
3
10
44.86325
20
-4.581128
30
0.0
11
44.88874
21
-4.605166
31
0.0
0
LINE
8
1
62
3
10
44.845603
20
-4.552282
30
0.0
11
44.86325
21
-4.581128
31
0.0
0
LINE
8
1
62
3
10
44.833838
20
-4.523436
30
0.0
11
44.845603
21
-4.552282
31
0.0
0
LINE
8
1
62
3
10
44.829917
20
-4.489782
30
0.0
11
44.833838
21
-4.523436
31
0.0
0
LINE
8
1
62
3
10
45.124034
20
-4.321513
30
0.0
11
45.080897
21
-4.316705
31
0.0
0
LINE
8
1
62
3
10
45.165211
20
-4.32632
30
0.0
11
45.124034
21
-4.321513
31
0.0
0
LINE
8
1
62
3
10
45.204426
20
-4.340743
30
0.0
11
45.165211
21
-4.32632
31
0.0
0
LINE
8
1
62
3
10
45.239721
20
-4.359974
30
0.0
11
45.204426
21
-4.340743
31
0.0
0
LINE
8
1
62
3
10
45.271093
20
-4.379205
30
0.0
11
45.239721
21
-4.359974
31
0.0
0
LINE
8
1
62
3
10
45.296583
20
-4.403243
30
0.0
11
45.271093
21
-4.379205
31
0.0
0
LINE
8
1
62
3
10
45.31423
20
-4.43209
30
0.0
11
45.296583
21
-4.403243
31
0.0
0
LINE
8
1
62
3
10
45.325995
20
-4.460936
30
0.0
11
45.31423
21
-4.43209
31
0.0
0
LINE
8
1
62
3
10
45.329917
20
-4.489782
30
0.0
11
45.325995
21
-4.460936
31
0.0
0
LINE
8
1
62
3
10
45.035799
20
-4.311897
30
0.0
11
45.080897
21
-4.316705
31
0.0
0
LINE
8
1
62
3
10
44.994623
20
-4.30709
30
0.0
11
45.035799
21
-4.311897
31
0.0
0
LINE
8
1
62
3
10
44.955407
20
-4.292666
30
0.0
11
44.994623
21
-4.30709
31
0.0
0
LINE
8
1
62
3
10
44.920113
20
-4.273436
30
0.0
11
44.955407
21
-4.292666
31
0.0
0
LINE
8
1
62
3
10
44.88874
20
-4.254205
30
0.0
11
44.920113
21
-4.273436
31
0.0
0
LINE
8
1
62
3
10
44.86325
20
-4.230166
30
0.0
11
44.88874
21
-4.254205
31
0.0
0
LINE
8
1
62
3
10
44.845603
20
-4.20132
30
0.0
11
44.86325
21
-4.230166
31
0.0
0
LINE
8
1
62
3
10
44.833838
20
-4.172474
30
0.0
11
44.845603
21
-4.20132
31
0.0
0
LINE
8
1
62
3
10
44.829917
20
-4.13882
30
0.0
11
44.833838
21
-4.172474
31
0.0
0
LINE
8
1
62
3
10
44.833838
20
-4.109974
30
0.0
11
44.829917
21
-4.13882
31
0.0
0
LINE
8
1
62
3
10
44.845603
20
-4.081128
30
0.0
11
44.833838
21
-4.109974
31
0.0
0
LINE
8
1
62
3
10
44.86325
20
-4.052282
30
0.0
11
44.845603
21
-4.081128
31
0.0
0
LINE
8
1
62
3
10
44.920113
20
-4.009013
30
0.0
11
44.88874
21
-4.028243
31
0.0
0
LINE
8
1
62
3
10
44.955407
20
-3.989782
30
0.0
11
44.920113
21
-4.009013
31
0.0
0
LINE
8
1
62
3
10
44.994623
20
-3.975359
30
0.0
11
44.955407
21
-3.989782
31
0.0
0
LINE
8
1
62
3
10
45.035799
20
-3.970551
30
0.0
11
44.994623
21
-3.975359
31
0.0
0
LINE
8
1
62
3
10
45.080897
20
-3.965743
30
0.0
11
45.035799
21
-3.970551
31
0.0
0
LINE
8
1
62
3
10
45.124034
20
-3.970551
30
0.0
11
45.080897
21
-3.965743
31
0.0
0
LINE
8
1
62
3
10
45.165211
20
-3.975359
30
0.0
11
45.124034
21
-3.970551
31
0.0
0
LINE
8
1
62
3
10
45.204426
20
-3.989782
30
0.0
11
45.165211
21
-3.975359
31
0.0
0
LINE
8
1
62
3
10
45.239721
20
-4.009013
30
0.0
11
45.204426
21
-3.989782
31
0.0
0
LINE
8
1
62
3
10
45.271093
20
-4.028243
30
0.0
11
45.239721
21
-4.009013
31
0.0
0
LINE
8
1
62
3
10
45.296583
20
-4.052282
30
0.0
11
45.271093
21
-4.028243
31
0.0
0
LINE
8
1
62
3
10
45.31423
20
-4.081128
30
0.0
11
45.296583
21
-4.052282
31
0.0
0
LINE
8
1
62
3
10
45.325995
20
-4.109974
30
0.0
11
45.31423
21
-4.081128
31
0.0
0
LINE
8
1
62
3
10
44.88874
20
-4.028243
30
0.0
11
44.86325
21
-4.052282
31
0.0
0
LINE
8
1
62
3
10
45.329917
20
-4.13882
30
0.0
11
45.325995
21
-4.109974
31
0.0
0
LINE
8
1
62
3
10
46.280897
20
-3.667666
30
0.0
11
46.280897
21
-4.667666
31
0.0
0
LINE
8
1
62
3
10
46.029917
20
-3.667666
30
0.0
11
46.529917
21
-3.667666
31
0.0
0
LINE
8
1
62
3
10
47.229917
20
-3.965743
30
0.0
11
47.729917
21
-3.965743
31
0.0
0
LINE
8
1
62
3
10
47.480897
20
-3.667666
30
0.0
11
47.480897
21
-4.667666
31
0.0
0
LINE
8
1
62
3
10
48.929917
20
-4.436897
30
0.0
11
48.929917
21
-3.667666
31
0.0
0
LINE
8
1
62
3
10
48.927956
20
-4.465743
30
0.0
11
48.929917
21
-4.436897
31
0.0
0
LINE
8
1
62
3
10
48.429917
20
-4.403243
30
0.0
11
48.429917
21
-3.667666
31
0.0
0
LINE
8
1
62
3
10
48.429917
20
-4.403243
30
0.0
11
48.435799
21
-4.465743
31
0.0
0
LINE
8
1
62
3
10
48.916191
20
-4.504205
30
0.0
11
48.927956
21
-4.465743
31
0.0
0
LINE
8
1
62
3
10
48.898544
20
-4.547474
30
0.0
11
48.916191
21
-4.504205
31
0.0
0
LINE
8
1
62
3
10
48.873054
20
-4.581128
30
0.0
11
48.898544
21
-4.547474
31
0.0
0
LINE
8
1
62
3
10
48.841681
20
-4.609974
30
0.0
11
48.873054
21
-4.581128
31
0.0
0
LINE
8
1
62
3
10
48.806387
20
-4.63882
30
0.0
11
48.841681
21
-4.609974
31
0.0
0
LINE
8
1
62
3
10
48.767172
20
-4.653243
30
0.0
11
48.806387
21
-4.63882
31
0.0
0
LINE
8
1
62
3
10
48.724034
20
-4.667666
30
0.0
11
48.767172
21
-4.653243
31
0.0
0
LINE
8
1
62
3
10
48.680897
20
-4.672474
30
0.0
11
48.724034
21
-4.667666
31
0.0
0
LINE
8
1
62
3
10
48.63776
20
-4.667666
30
0.0
11
48.680897
21
-4.672474
31
0.0
0
LINE
8
1
62
3
10
48.596583
20
-4.653243
30
0.0
11
48.63776
21
-4.667666
31
0.0
0
LINE
8
1
62
3
10
48.555407
20
-4.63882
30
0.0
11
48.596583
21
-4.653243
31
0.0
0
LINE
8
1
62
3
10
48.520113
20
-4.609974
30
0.0
11
48.555407
21
-4.63882
31
0.0
0
LINE
8
1
62
3
10
48.490701
20
-4.581128
30
0.0
11
48.520113
21
-4.609974
31
0.0
0
LINE
8
1
62
3
10
48.465211
20
-4.547474
30
0.0
11
48.490701
21
-4.581128
31
0.0
0
LINE
8
1
62
3
10
48.445603
20
-4.504205
30
0.0
11
48.465211
21
-4.547474
31
0.0
0
LINE
8
1
62
3
10
48.435799
20
-4.465743
30
0.0
11
48.445603
21
-4.504205
31
0.0
0
LINE
8
1
62
3
10
50.125995
20
-4.379205
30
0.0
11
50.129917
21
-4.316705
31
0.0
0
LINE
8
1
62
3
10
50.11423
20
-4.436897
30
0.0
11
50.125995
21
-4.379205
31
0.0
0
LINE
8
1
62
3
10
50.096583
20
-4.489782
30
0.0
11
50.11423
21
-4.436897
31
0.0
0
LINE
8
1
62
3
10
50.071093
20
-4.542666
30
0.0
11
50.096583
21
-4.489782
31
0.0
0
LINE
8
1
62
3
10
50.039721
20
-4.585936
30
0.0
11
50.071093
21
-4.542666
31
0.0
0
LINE
8
1
62
3
10
50.004426
20
-4.61959
30
0.0
11
50.039721
21
-4.585936
31
0.0
0
LINE
8
1
62
3
10
49.965211
20
-4.648436
30
0.0
11
50.004426
21
-4.61959
31
0.0
0
LINE
8
1
62
3
10
49.924034
20
-4.662859
30
0.0
11
49.965211
21
-4.648436
31
0.0
0
LINE
8
1
62
3
10
49.880897
20
-4.667666
30
0.0
11
49.924034
21
-4.662859
31
0.0
0
LINE
8
1
62
3
10
49.835799
20
-4.662859
30
0.0
11
49.880897
21
-4.667666
31
0.0
0
LINE
8
1
62
3
10
49.794623
20
-4.648436
30
0.0
11
49.835799
21
-4.662859
31
0.0
0
LINE
8
1
62
3
10
49.755407
20
-4.61959
30
0.0
11
49.794623
21
-4.648436
31
0.0
0
LINE
8
1
62
3
10
49.720113
20
-4.585936
30
0.0
11
49.755407
21
-4.61959
31
0.0
0
LINE
8
1
62
3
10
49.68874
20
-4.542666
30
0.0
11
49.720113
21
-4.585936
31
0.0
0
LINE
8
1
62
3
10
49.66325
20
-4.489782
30
0.0
11
49.68874
21
-4.542666
31
0.0
0
LINE
8
1
62
3
10
49.645603
20
-4.436897
30
0.0
11
49.66325
21
-4.489782
31
0.0
0
LINE
8
1
62
3
10
49.633838
20
-4.379205
30
0.0
11
49.645603
21
-4.436897
31
0.0
0
LINE
8
1
62
3
10
49.629917
20
-4.316705
30
0.0
11
49.633838
21
-4.379205
31
0.0
0
LINE
8
1
62
3
10
50.129917
20
-4.316705
30
0.0
11
50.129917
21
-3.965743
31
0.0
0
LINE
8
1
62
3
10
49.629917
20
-3.965743
30
0.0
11
49.629917
21
-4.316705
31
0.0
0
LINE
8
1
62
3
10
51.080897
20
-4.667666
30
0.0
11
51.329917
21
-3.667666
31
0.0
0
LINE
8
1
62
3
10
50.829917
20
-3.667666
30
0.0
11
51.080897
21
-4.667666
31
0.0
0
LINE
8
1
62
3
10
52.280897
20
-4.667666
30
0.0
11
52.529917
21
-3.965743
31
0.0
0
LINE
8
1
62
3
10
52.029917
20
-3.965743
30
0.0
11
52.280897
21
-4.667666
31
0.0
0
LINE
8
1
62
3
10
53.729917
20
-3.667666
30
0.0
11
53.604426
21
-4.667666
31
0.0
0
LINE
8
1
62
3
10
53.604426
20
-4.667666
30
0.0
11
53.480897
21
-3.667666
31
0.0
0
LINE
8
1
62
3
10
53.355407
20
-4.667666
30
0.0
11
53.480897
21
-3.667666
31
0.0
0
LINE
8
1
62
3
10
53.229917
20
-3.667666
30
0.0
11
53.355407
21
-4.667666
31
0.0
0
LINE
8
1
62
3
10
54.429917
20
-3.965743
30
0.0
11
54.555407
21
-4.667666
31
0.0
0
LINE
8
1
62
3
10
54.555407
20
-4.667666
30
0.0
11
54.680897
21
-3.965743
31
0.0
0
LINE
8
1
62
3
10
54.680897
20
-3.965743
30
0.0
11
54.845603
21
-4.667666
31
0.0
0
LINE
8
1
62
3
10
54.845603
20
-4.667666
30
0.0
11
54.929917
21
-3.965743
31
0.0
0
LINE
8
1
62
3
10
56.129917
20
-3.667666
30
0.0
11
55.629917
21
-4.667666
31
0.0
0
LINE
8
1
62
3
10
55.629917
20
-3.667666
30
0.0
11
56.129917
21
-4.667666
31
0.0
0
LINE
8
1
62
3
10
56.829917
20
-3.965743
30
0.0
11
57.329917
21
-4.667666
31
0.0
0
LINE
8
1
62
3
10
57.329917
20
-3.965743
30
0.0
11
56.829917
21
-4.667666
31
0.0
0
LINE
8
1
62
3
10
58.529917
20
-3.667666
30
0.0
11
58.280897
21
-4.167666
31
0.0
0
LINE
8
1
62
3
10
58.280897
20
-4.167666
30
0.0
11
58.029917
21
-3.667666
31
0.0
0
LINE
8
1
62
3
10
58.280897
20
-4.167666
30
0.0
11
58.280897
21
-4.667666
31
0.0
0
LINE
8
1
62
3
10
59.229917
20
-3.965743
30
0.0
11
59.502466
21
-4.605166
31
0.0
0
LINE
8
1
62
3
10
59.398544
20
-4.893628
30
0.0
11
59.729917
21
-3.965743
31
0.0
0
LINE
8
1
62
3
10
60.429917
20
-4.667666
30
0.0
11
60.929917
21
-4.667666
31
0.0
0
LINE
8
1
62
3
10
60.929917
20
-3.667666
30
0.0
11
60.429917
21
-4.667666
31
0.0
0
LINE
8
1
62
3
10
60.429917
20
-3.667666
30
0.0
11
60.929917
21
-3.667666
31
0.0
0
LINE
8
1
62
3
10
62.129917
20
-4.667666
30
0.0
11
61.629917
21
-4.667666
31
0.0
0
LINE
8
1
62
3
10
61.629917
20
-3.965743
30
0.0
11
62.129917
21
-3.965743
31
0.0
0
LINE
8
1
62
3
10
62.129917
20
-3.965743
30
0.0
11
61.629917
21
-4.667666
31
0.0
0
LINE
8
1
62
3
10
63.090701
20
-3.667666
30
0.0
11
62.973054
21
-3.667666
31
0.0
0
LINE
8
1
62
3
10
63.090701
20
-3.667666
30
0.0
11
63.090701
21
-4.667666
31
0.0
0
LINE
8
1
62
3
10
64.029917
20
-4.667666
30
0.0
11
64.496583
21
-3.960936
31
0.0
0
LINE
8
1
62
3
10
64.525995
20
-3.898436
30
0.0
11
64.529917
21
-3.859974
31
0.0
0
LINE
8
1
62
3
10
64.51423
20
-3.927282
30
0.0
11
64.525995
21
-3.898436
31
0.0
0
LINE
8
1
62
3
10
64.496583
20
-3.960936
30
0.0
11
64.51423
21
-3.927282
31
0.0
0
LINE
8
1
62
3
10
64.033838
20
-3.82632
30
0.0
11
64.029917
21
-3.859974
31
0.0
0
LINE
8
1
62
3
10
64.045603
20
-3.797474
30
0.0
11
64.033838
21
-3.82632
31
0.0
0
LINE
8
1
62
3
10
64.06325
20
-3.76382
30
0.0
11
64.045603
21
-3.797474
31
0.0
0
LINE
8
1
62
3
10
64.08874
20
-3.734974
30
0.0
11
64.06325
21
-3.76382
31
0.0
0
LINE
8
1
62
3
10
64.120113
20
-3.710936
30
0.0
11
64.08874
21
-3.734974
31
0.0
0
LINE
8
1
62
3
10
64.155407
20
-3.691705
30
0.0
11
64.120113
21
-3.710936
31
0.0
0
LINE
8
1
62
3
10
64.194623
20
-3.677282
30
0.0
11
64.155407
21
-3.691705
31
0.0
0
LINE
8
1
62
3
10
64.235799
20
-3.672474
30
0.0
11
64.194623
21
-3.677282
31
0.0
0
LINE
8
1
62
3
10
64.280897
20
-3.667666
30
0.0
11
64.235799
21
-3.672474
31
0.0
0
LINE
8
1
62
3
10
64.324034
20
-3.672474
30
0.0
11
64.280897
21
-3.667666
31
0.0
0
LINE
8
1
62
3
10
64.365211
20
-3.677282
30
0.0
11
64.324034
21
-3.672474
31
0.0
0
LINE
8
1
62
3
10
64.404426
20
-3.691705
30
0.0
11
64.365211
21
-3.677282
31
0.0
0
LINE
8
1
62
3
10
64.439721
20
-3.710936
30
0.0
11
64.404426
21
-3.691705
31
0.0
0
LINE
8
1
62
3
10
64.471093
20
-3.734974
30
0.0
11
64.439721
21
-3.710936
31
0.0
0
LINE
8
1
62
3
10
64.496583
20
-3.76382
30
0.0
11
64.471093
21
-3.734974
31
0.0
0
LINE
8
1
62
3
10
64.51423
20
-3.797474
30
0.0
11
64.496583
21
-3.76382
31
0.0
0
LINE
8
1
62
3
10
64.525995
20
-3.82632
30
0.0
11
64.51423
21
-3.797474
31
0.0
0
LINE
8
1
62
3
10
64.529917
20
-3.859974
30
0.0
11
64.525995
21
-3.82632
31
0.0
0
LINE
8
1
62
3
10
64.029917
20
-4.667666
30
0.0
11
64.529917
21
-4.667666
31
0.0
0
LINE
8
1
62
3
10
65.480897
20
-4.05709
30
0.0
11
65.518152
21
-4.052282
31
0.0
0
LINE
8
1
62
3
10
65.524034
20
-4.061897
30
0.0
11
65.480897
21
-4.05709
31
0.0
0
LINE
8
1
62
3
10
65.698544
20
-3.898436
30
0.0
11
65.702466
21
-3.859974
31
0.0
0
LINE
8
1
62
3
10
65.68874
20
-3.927282
30
0.0
11
65.698544
21
-3.898436
31
0.0
0
LINE
8
1
62
3
10
65.673054
20
-3.960936
30
0.0
11
65.68874
21
-3.927282
31
0.0
0
LINE
8
1
62
3
10
65.649524
20
-3.989782
30
0.0
11
65.673054
21
-3.960936
31
0.0
0
LINE
8
1
62
3
10
65.622074
20
-4.01382
30
0.0
11
65.649524
21
-3.989782
31
0.0
0
LINE
8
1
62
3
10
65.590701
20
-4.033051
30
0.0
11
65.622074
21
-4.01382
31
0.0
0
LINE
8
1
62
3
10
65.555407
20
-4.047474
30
0.0
11
65.590701
21
-4.033051
31
0.0
0
LINE
8
1
62
3
10
65.518152
20
-4.052282
30
0.0
11
65.555407
21
-4.047474
31
0.0
0
LINE
8
1
62
3
10
65.261289
20
-3.82632
30
0.0
11
65.257368
21
-3.859974
31
0.0
0
LINE
8
1
62
3
10
65.271093
20
-3.797474
30
0.0
11
65.261289
21
-3.82632
31
0.0
0
LINE
8
1
62
3
10
65.286779
20
-3.76382
30
0.0
11
65.271093
21
-3.797474
31
0.0
0
LINE
8
1
62
3
10
65.310309
20
-3.734974
30
0.0
11
65.286779
21
-3.76382
31
0.0
0
LINE
8
1
62
3
10
65.33776
20
-3.710936
30
0.0
11
65.310309
21
-3.734974
31
0.0
0
LINE
8
1
62
3
10
65.369132
20
-3.691705
30
0.0
11
65.33776
21
-3.710936
31
0.0
0
LINE
8
1
62
3
10
65.404426
20
-3.677282
30
0.0
11
65.369132
21
-3.691705
31
0.0
0
LINE
8
1
62
3
10
65.441681
20
-3.672474
30
0.0
11
65.404426
21
-3.677282
31
0.0
0
LINE
8
1
62
3
10
65.480897
20
-3.667666
30
0.0
11
65.441681
21
-3.672474
31
0.0
0
LINE
8
1
62
3
10
65.518152
20
-3.672474
30
0.0
11
65.480897
21
-3.667666
31
0.0
0
LINE
8
1
62
3
10
65.555407
20
-3.677282
30
0.0
11
65.518152
21
-3.672474
31
0.0
0
LINE
8
1
62
3
10
65.590701
20
-3.691705
30
0.0
11
65.555407
21
-3.677282
31
0.0
0
LINE
8
1
62
3
10
65.622074
20
-3.710936
30
0.0
11
65.590701
21
-3.691705
31
0.0
0
LINE
8
1
62
3
10
65.649524
20
-3.734974
30
0.0
11
65.622074
21
-3.710936
31
0.0
0
LINE
8
1
62
3
10
65.673054
20
-3.76382
30
0.0
11
65.649524
21
-3.734974
31
0.0
0
LINE
8
1
62
3
10
65.68874
20
-3.797474
30
0.0
11
65.673054
21
-3.76382
31
0.0
0
LINE
8
1
62
3
10
65.698544
20
-3.82632
30
0.0
11
65.68874
21
-3.797474
31
0.0
0
LINE
8
1
62
3
10
65.702466
20
-3.859974
30
0.0
11
65.698544
21
-3.82632
31
0.0
0
LINE
8
1
62
3
10
65.725995
20
-4.417666
30
0.0
11
65.729917
21
-4.359974
31
0.0
0
LINE
8
1
62
3
10
65.71423
20
-4.465743
30
0.0
11
65.725995
21
-4.417666
31
0.0
0
LINE
8
1
62
3
10
65.696583
20
-4.51382
30
0.0
11
65.71423
21
-4.465743
31
0.0
0
LINE
8
1
62
3
10
65.671093
20
-4.55709
30
0.0
11
65.696583
21
-4.51382
31
0.0
0
LINE
8
1
62
3
10
65.639721
20
-4.595551
30
0.0
11
65.671093
21
-4.55709
31
0.0
0
LINE
8
1
62
3
10
65.604426
20
-4.624397
30
0.0
11
65.639721
21
-4.595551
31
0.0
0
LINE
8
1
62
3
10
65.565211
20
-4.648436
30
0.0
11
65.604426
21
-4.624397
31
0.0
0
LINE
8
1
62
3
10
65.524034
20
-4.662859
30
0.0
11
65.565211
21
-4.648436
31
0.0
0
LINE
8
1
62
3
10
65.480897
20
-4.667666
30
0.0
11
65.524034
21
-4.662859
31
0.0
0
LINE
8
1
62
3
10
65.435799
20
-4.662859
30
0.0
11
65.480897
21
-4.667666
31
0.0
0
LINE
8
1
62
3
10
65.394623
20
-4.648436
30
0.0
11
65.435799
21
-4.662859
31
0.0
0
LINE
8
1
62
3
10
65.355407
20
-4.624397
30
0.0
11
65.394623
21
-4.648436
31
0.0
0
LINE
8
1
62
3
10
65.320113
20
-4.595551
30
0.0
11
65.355407
21
-4.624397
31
0.0
0
LINE
8
1
62
3
10
65.28874
20
-4.55709
30
0.0
11
65.320113
21
-4.595551
31
0.0
0
LINE
8
1
62
3
10
65.26325
20
-4.51382
30
0.0
11
65.28874
21
-4.55709
31
0.0
0
LINE
8
1
62
3
10
65.245603
20
-4.465743
30
0.0
11
65.26325
21
-4.51382
31
0.0
0
LINE
8
1
62
3
10
65.233838
20
-4.417666
30
0.0
11
65.245603
21
-4.465743
31
0.0
0
LINE
8
1
62
3
10
65.229917
20
-4.359974
30
0.0
11
65.233838
21
-4.417666
31
0.0
0
LINE
8
1
62
3
10
65.565211
20
-4.07632
30
0.0
11
65.524034
21
-4.061897
31
0.0
0
LINE
8
1
62
3
10
65.604426
20
-4.100359
30
0.0
11
65.565211
21
-4.07632
31
0.0
0
LINE
8
1
62
3
10
65.639721
20
-4.129205
30
0.0
11
65.604426
21
-4.100359
31
0.0
0
LINE
8
1
62
3
10
65.671093
20
-4.167666
30
0.0
11
65.639721
21
-4.129205
31
0.0
0
LINE
8
1
62
3
10
65.696583
20
-4.210936
30
0.0
11
65.671093
21
-4.167666
31
0.0
0
LINE
8
1
62
3
10
65.71423
20
-4.259013
30
0.0
11
65.696583
21
-4.210936
31
0.0
0
LINE
8
1
62
3
10
65.725995
20
-4.30709
30
0.0
11
65.71423
21
-4.259013
31
0.0
0
LINE
8
1
62
3
10
65.729917
20
-4.359974
30
0.0
11
65.725995
21
-4.30709
31
0.0
0
LINE
8
1
62
3
10
66.429917
20
-4.335936
30
0.0
11
66.847564
21
-3.667666
31
0.0
0
LINE
8
1
62
3
10
66.847564
20
-3.667666
30
0.0
11
66.847564
21
-4.667666
31
0.0
0
LINE
8
1
62
3
10
66.429917
20
-4.335936
30
0.0
11
66.929917
21
-4.335936
31
0.0
0
LINE
8
1
62
3
10
68.125995
20
-4.417666
30
0.0
11
68.129917
21
-4.359974
31
0.0
0
LINE
8
1
62
3
10
68.11423
20
-4.465743
30
0.0
11
68.125995
21
-4.417666
31
0.0
0
LINE
8
1
62
3
10
68.096583
20
-4.51382
30
0.0
11
68.11423
21
-4.465743
31
0.0
0
LINE
8
1
62
3
10
68.071093
20
-4.55709
30
0.0
11
68.096583
21
-4.51382
31
0.0
0
LINE
8
1
62
3
10
68.039721
20
-4.595551
30
0.0
11
68.071093
21
-4.55709
31
0.0
0
LINE
8
1
62
3
10
68.004426
20
-4.624397
30
0.0
11
68.039721
21
-4.595551
31
0.0
0
LINE
8
1
62
3
10
67.965211
20
-4.648436
30
0.0
11
68.004426
21
-4.624397
31
0.0
0
LINE
8
1
62
3
10
67.924034
20
-4.662859
30
0.0
11
67.965211
21
-4.648436
31
0.0
0
LINE
8
1
62
3
10
67.880897
20
-4.667666
30
0.0
11
67.924034
21
-4.662859
31
0.0
0
LINE
8
1
62
3
10
67.835799
20
-4.662859
30
0.0
11
67.880897
21
-4.667666
31
0.0
0
LINE
8
1
62
3
10
67.794623
20
-4.648436
30
0.0
11
67.835799
21
-4.662859
31
0.0
0
LINE
8
1
62
3
10
67.755407
20
-4.624397
30
0.0
11
67.794623
21
-4.648436
31
0.0
0
LINE
8
1
62
3
10
67.720113
20
-4.595551
30
0.0
11
67.755407
21
-4.624397
31
0.0
0
LINE
8
1
62
3
10
67.68874
20
-4.55709
30
0.0
11
67.720113
21
-4.595551
31
0.0
0
LINE
8
1
62
3
10
67.66325
20
-4.51382
30
0.0
11
67.68874
21
-4.55709
31
0.0
0
LINE
8
1
62
3
10
67.68874
20
-4.167666
30
0.0
11
67.669132
21
-4.20132
31
0.0
0
LINE
8
1
62
3
10
67.720113
20
-4.129205
30
0.0
11
67.68874
21
-4.167666
31
0.0
0
LINE
8
1
62
3
10
67.755407
20
-4.100359
30
0.0
11
67.720113
21
-4.129205
31
0.0
0
LINE
8
1
62
3
10
67.794623
20
-4.07632
30
0.0
11
67.755407
21
-4.100359
31
0.0
0
LINE
8
1
62
3
10
67.835799
20
-4.061897
30
0.0
11
67.794623
21
-4.07632
31
0.0
0
LINE
8
1
62
3
10
67.880897
20
-4.05709
30
0.0
11
67.835799
21
-4.061897
31
0.0
0
LINE
8
1
62
3
10
67.924034
20
-4.061897
30
0.0
11
67.880897
21
-4.05709
31
0.0
0
LINE
8
1
62
3
10
67.965211
20
-4.07632
30
0.0
11
67.924034
21
-4.061897
31
0.0
0
LINE
8
1
62
3
10
68.004426
20
-4.100359
30
0.0
11
67.965211
21
-4.07632
31
0.0
0
LINE
8
1
62
3
10
68.039721
20
-4.129205
30
0.0
11
68.004426
21
-4.100359
31
0.0
0
LINE
8
1
62
3
10
68.071093
20
-4.167666
30
0.0
11
68.039721
21
-4.129205
31
0.0
0
LINE
8
1
62
3
10
68.096583
20
-4.210936
30
0.0
11
68.071093
21
-4.167666
31
0.0
0
LINE
8
1
62
3
10
68.11423
20
-4.259013
30
0.0
11
68.096583
21
-4.210936
31
0.0
0
LINE
8
1
62
3
10
68.125995
20
-4.30709
30
0.0
11
68.11423
21
-4.259013
31
0.0
0
LINE
8
1
62
3
10
68.129917
20
-4.359974
30
0.0
11
68.125995
21
-4.30709
31
0.0
0
LINE
8
1
62
3
10
68.129917
20
-3.667666
30
0.0
11
67.669132
21
-3.667666
31
0.0
0
LINE
8
1
62
3
10
67.669132
20
-4.20132
30
0.0
11
67.669132
21
-3.667666
31
0.0
0
LINE
8
1
62
3
10
68.920113
20
-4.225359
30
0.0
11
68.88874
21
-4.259013
31
0.0
0
LINE
8
1
62
3
10
68.88874
20
-4.259013
30
0.0
11
69.329917
21
-3.667666
31
0.0
0
LINE
8
1
62
3
10
68.833838
20
-4.374397
30
0.0
11
68.829917
21
-4.417666
31
0.0
0
LINE
8
1
62
3
10
68.845603
20
-4.331128
30
0.0
11
68.833838
21
-4.374397
31
0.0
0
LINE
8
1
62
3
10
68.86325
20
-4.292666
30
0.0
11
68.845603
21
-4.331128
31
0.0
0
LINE
8
1
62
3
10
68.88874
20
-4.259013
30
0.0
11
68.86325
21
-4.292666
31
0.0
0
LINE
8
1
62
3
10
68.955407
20
-4.20132
30
0.0
11
68.920113
21
-4.225359
31
0.0
0
LINE
8
1
62
3
10
68.994623
20
-4.18209
30
0.0
11
68.955407
21
-4.20132
31
0.0
0
LINE
8
1
62
3
10
69.035799
20
-4.172474
30
0.0
11
68.994623
21
-4.18209
31
0.0
0
LINE
8
1
62
3
10
69.080897
20
-4.167666
30
0.0
11
69.035799
21
-4.172474
31
0.0
0
LINE
8
1
62
3
10
69.124034
20
-4.172474
30
0.0
11
69.080897
21
-4.167666
31
0.0
0
LINE
8
1
62
3
10
69.165211
20
-4.18209
30
0.0
11
69.124034
21
-4.172474
31
0.0
0
LINE
8
1
62
3
10
69.204426
20
-4.20132
30
0.0
11
69.165211
21
-4.18209
31
0.0
0
LINE
8
1
62
3
10
69.239721
20
-4.225359
30
0.0
11
69.204426
21
-4.20132
31
0.0
0
LINE
8
1
62
3
10
69.271093
20
-4.259013
30
0.0
11
69.239721
21
-4.225359
31
0.0
0
LINE
8
1
62
3
10
69.296583
20
-4.292666
30
0.0
11
69.271093
21
-4.259013
31
0.0
0
LINE
8
1
62
3
10
69.31423
20
-4.331128
30
0.0
11
69.296583
21
-4.292666
31
0.0
0
LINE
8
1
62
3
10
69.325995
20
-4.374397
30
0.0
11
69.31423
21
-4.331128
31
0.0
0
LINE
8
1
62
3
10
69.329917
20
-4.417666
30
0.0
11
69.325995
21
-4.374397
31
0.0
0
LINE
8
1
62
3
10
69.325995
20
-4.460936
30
0.0
11
69.329917
21
-4.417666
31
0.0
0
LINE
8
1
62
3
10
69.31423
20
-4.504205
30
0.0
11
69.325995
21
-4.460936
31
0.0
0
LINE
8
1
62
3
10
69.296583
20
-4.542666
30
0.0
11
69.31423
21
-4.504205
31
0.0
0
LINE
8
1
62
3
10
69.271093
20
-4.57632
30
0.0
11
69.296583
21
-4.542666
31
0.0
0
LINE
8
1
62
3
10
69.239721
20
-4.609974
30
0.0
11
69.271093
21
-4.57632
31
0.0
0
LINE
8
1
62
3
10
69.204426
20
-4.634013
30
0.0
11
69.239721
21
-4.609974
31
0.0
0
LINE
8
1
62
3
10
69.165211
20
-4.653243
30
0.0
11
69.204426
21
-4.634013
31
0.0
0
LINE
8
1
62
3
10
69.124034
20
-4.662859
30
0.0
11
69.165211
21
-4.653243
31
0.0
0
LINE
8
1
62
3
10
69.080897
20
-4.667666
30
0.0
11
69.124034
21
-4.662859
31
0.0
0
LINE
8
1
62
3
10
69.035799
20
-4.662859
30
0.0
11
69.080897
21
-4.667666
31
0.0
0
LINE
8
1
62
3
10
68.994623
20
-4.653243
30
0.0
11
69.035799
21
-4.662859
31
0.0
0
LINE
8
1
62
3
10
68.955407
20
-4.634013
30
0.0
11
68.994623
21
-4.653243
31
0.0
0
LINE
8
1
62
3
10
68.920113
20
-4.609974
30
0.0
11
68.955407
21
-4.634013
31
0.0
0
LINE
8
1
62
3
10
68.88874
20
-4.57632
30
0.0
11
68.920113
21
-4.609974
31
0.0
0
LINE
8
1
62
3
10
68.86325
20
-4.542666
30
0.0
11
68.88874
21
-4.57632
31
0.0
0
LINE
8
1
62
3
10
68.845603
20
-4.504205
30
0.0
11
68.86325
21
-4.542666
31
0.0
0
LINE
8
1
62
3
10
68.833838
20
-4.460936
30
0.0
11
68.845603
21
-4.504205
31
0.0
0
LINE
8
1
62
3
10
68.829917
20
-4.417666
30
0.0
11
68.833838
21
-4.460936
31
0.0
0
LINE
8
1
62
3
10
70.029917
20
-4.667666
30
0.0
11
70.529917
21
-3.667666
31
0.0
0
LINE
8
1
62
3
10
70.529917
20
-3.667666
30
0.0
11
70.029917
21
-3.667666
31
0.0
0
LINE
8
1
62
3
10
71.698544
20
-3.898436
30
0.0
11
71.702466
21
-3.859974
31
0.0
0
LINE
8
1
62
3
10
71.68874
20
-3.927282
30
0.0
11
71.698544
21
-3.898436
31
0.0
0
LINE
8
1
62
3
10
71.673054
20
-3.960936
30
0.0
11
71.68874
21
-3.927282
31
0.0
0
LINE
8
1
62
3
10
71.649524
20
-3.989782
30
0.0
11
71.673054
21
-3.960936
31
0.0
0
LINE
8
1
62
3
10
71.622074
20
-4.01382
30
0.0
11
71.649524
21
-3.989782
31
0.0
0
LINE
8
1
62
3
10
71.590701
20
-4.033051
30
0.0
11
71.622074
21
-4.01382
31
0.0
0
LINE
8
1
62
3
10
71.555407
20
-4.047474
30
0.0
11
71.590701
21
-4.033051
31
0.0
0
LINE
8
1
62
3
10
71.518152
20
-4.052282
30
0.0
11
71.555407
21
-4.047474
31
0.0
0
LINE
8
1
62
3
10
71.404426
20
-4.047474
30
0.0
11
71.441681
21
-4.052282
31
0.0
0
LINE
8
1
62
3
10
71.369132
20
-4.033051
30
0.0
11
71.404426
21
-4.047474
31
0.0
0
LINE
8
1
62
3
10
71.33776
20
-4.01382
30
0.0
11
71.369132
21
-4.033051
31
0.0
0
LINE
8
1
62
3
10
71.310309
20
-3.989782
30
0.0
11
71.33776
21
-4.01382
31
0.0
0
LINE
8
1
62
3
10
71.286779
20
-3.960936
30
0.0
11
71.310309
21
-3.989782
31
0.0
0
LINE
8
1
62
3
10
71.271093
20
-3.927282
30
0.0
11
71.286779
21
-3.960936
31
0.0
0
LINE
8
1
62
3
10
71.261289
20
-3.898436
30
0.0
11
71.271093
21
-3.927282
31
0.0
0
LINE
8
1
62
3
10
71.257368
20
-3.859974
30
0.0
11
71.261289
21
-3.898436
31
0.0
0
LINE
8
1
62
3
10
71.261289
20
-3.82632
30
0.0
11
71.257368
21
-3.859974
31
0.0
0
LINE
8
1
62
3
10
71.271093
20
-3.797474
30
0.0
11
71.261289
21
-3.82632
31
0.0
0
LINE
8
1
62
3
10
71.286779
20
-3.76382
30
0.0
11
71.271093
21
-3.797474
31
0.0
0
LINE
8
1
62
3
10
71.310309
20
-3.734974
30
0.0
11
71.286779
21
-3.76382
31
0.0
0
LINE
8
1
62
3
10
71.33776
20
-3.710936
30
0.0
11
71.310309
21
-3.734974
31
0.0
0
LINE
8
1
62
3
10
71.369132
20
-3.691705
30
0.0
11
71.33776
21
-3.710936
31
0.0
0
LINE
8
1
62
3
10
71.404426
20
-3.677282
30
0.0
11
71.369132
21
-3.691705
31
0.0
0
LINE
8
1
62
3
10
71.441681
20
-3.672474
30
0.0
11
71.404426
21
-3.677282
31
0.0
0
LINE
8
1
62
3
10
71.480897
20
-3.667666
30
0.0
11
71.441681
21
-3.672474
31
0.0
0
LINE
8
1
62
3
10
71.518152
20
-3.672474
30
0.0
11
71.480897
21
-3.667666
31
0.0
0
LINE
8
1
62
3
10
71.555407
20
-3.677282
30
0.0
11
71.518152
21
-3.672474
31
0.0
0
LINE
8
1
62
3
10
71.590701
20
-3.691705
30
0.0
11
71.555407
21
-3.677282
31
0.0
0
LINE
8
1
62
3
10
71.622074
20
-3.710936
30
0.0
11
71.590701
21
-3.691705
31
0.0
0
LINE
8
1
62
3
10
71.649524
20
-3.734974
30
0.0
11
71.622074
21
-3.710936
31
0.0
0
LINE
8
1
62
3
10
71.673054
20
-3.76382
30
0.0
11
71.649524
21
-3.734974
31
0.0
0
LINE
8
1
62
3
10
71.68874
20
-3.797474
30
0.0
11
71.673054
21
-3.76382
31
0.0
0
LINE
8
1
62
3
10
71.698544
20
-3.82632
30
0.0
11
71.68874
21
-3.797474
31
0.0
0
LINE
8
1
62
3
10
71.702466
20
-3.859974
30
0.0
11
71.698544
21
-3.82632
31
0.0
0
LINE
8
1
62
3
10
71.725995
20
-4.417666
30
0.0
11
71.729917
21
-4.359974
31
0.0
0
LINE
8
1
62
3
10
71.71423
20
-4.465743
30
0.0
11
71.725995
21
-4.417666
31
0.0
0
LINE
8
1
62
3
10
71.696583
20
-4.51382
30
0.0
11
71.71423
21
-4.465743
31
0.0
0
LINE
8
1
62
3
10
71.671093
20
-4.55709
30
0.0
11
71.696583
21
-4.51382
31
0.0
0
LINE
8
1
62
3
10
71.639721
20
-4.595551
30
0.0
11
71.671093
21
-4.55709
31
0.0
0
LINE
8
1
62
3
10
71.604426
20
-4.624397
30
0.0
11
71.639721
21
-4.595551
31
0.0
0
LINE
8
1
62
3
10
71.565211
20
-4.648436
30
0.0
11
71.604426
21
-4.624397
31
0.0
0
LINE
8
1
62
3
10
71.524034
20
-4.662859
30
0.0
11
71.565211
21
-4.648436
31
0.0
0
LINE
8
1
62
3
10
71.480897
20
-4.667666
30
0.0
11
71.524034
21
-4.662859
31
0.0
0
LINE
8
1
62
3
10
71.435799
20
-4.662859
30
0.0
11
71.480897
21
-4.667666
31
0.0
0
LINE
8
1
62
3
10
71.394623
20
-4.648436
30
0.0
11
71.435799
21
-4.662859
31
0.0
0
LINE
8
1
62
3
10
71.355407
20
-4.624397
30
0.0
11
71.394623
21
-4.648436
31
0.0
0
LINE
8
1
62
3
10
71.320113
20
-4.595551
30
0.0
11
71.355407
21
-4.624397
31
0.0
0
LINE
8
1
62
3
10
71.28874
20
-4.55709
30
0.0
11
71.320113
21
-4.595551
31
0.0
0
LINE
8
1
62
3
10
71.26325
20
-4.51382
30
0.0
11
71.28874
21
-4.55709
31
0.0
0
LINE
8
1
62
3
10
71.245603
20
-4.465743
30
0.0
11
71.26325
21
-4.51382
31
0.0
0
LINE
8
1
62
3
10
71.233838
20
-4.417666
30
0.0
11
71.245603
21
-4.465743
31
0.0
0
LINE
8
1
62
3
10
71.229917
20
-4.359974
30
0.0
11
71.233838
21
-4.417666
31
0.0
0
LINE
8
1
62
3
10
71.233838
20
-4.30709
30
0.0
11
71.229917
21
-4.359974
31
0.0
0
LINE
8
1
62
3
10
71.245603
20
-4.259013
30
0.0
11
71.233838
21
-4.30709
31
0.0
0
LINE
8
1
62
3
10
71.26325
20
-4.210936
30
0.0
11
71.245603
21
-4.259013
31
0.0
0
LINE
8
1
62
3
10
71.28874
20
-4.167666
30
0.0
11
71.26325
21
-4.210936
31
0.0
0
LINE
8
1
62
3
10
71.320113
20
-4.129205
30
0.0
11
71.28874
21
-4.167666
31
0.0
0
LINE
8
1
62
3
10
71.355407
20
-4.100359
30
0.0
11
71.320113
21
-4.129205
31
0.0
0
LINE
8
1
62
3
10
71.394623
20
-4.07632
30
0.0
11
71.355407
21
-4.100359
31
0.0
0
LINE
8
1
62
3
10
71.435799
20
-4.061897
30
0.0
11
71.394623
21
-4.07632
31
0.0
0
LINE
8
1
62
3
10
71.565211
20
-4.07632
30
0.0
11
71.524034
21
-4.061897
31
0.0
0
LINE
8
1
62
3
10
71.604426
20
-4.100359
30
0.0
11
71.565211
21
-4.07632
31
0.0
0
LINE
8
1
62
3
10
71.639721
20
-4.129205
30
0.0
11
71.604426
21
-4.100359
31
0.0
0
LINE
8
1
62
3
10
71.671093
20
-4.167666
30
0.0
11
71.639721
21
-4.129205
31
0.0
0
LINE
8
1
62
3
10
71.696583
20
-4.210936
30
0.0
11
71.671093
21
-4.167666
31
0.0
0
LINE
8
1
62
3
10
71.71423
20
-4.259013
30
0.0
11
71.696583
21
-4.210936
31
0.0
0
LINE
8
1
62
3
10
71.725995
20
-4.30709
30
0.0
11
71.71423
21
-4.259013
31
0.0
0
LINE
8
1
62
3
10
71.729917
20
-4.359974
30
0.0
11
71.725995
21
-4.30709
31
0.0
0
LINE
8
1
62
3
10
71.461289
20
-4.05709
30
0.0
11
71.500505
21
-4.05709
31
0.0
0
LINE
8
1
62
3
10
71.441681
20
-4.052282
30
0.0
11
71.461289
21
-4.05709
31
0.0
0
LINE
8
1
62
3
10
71.435799
20
-4.061897
30
0.0
11
71.461289
21
-4.05709
31
0.0
0
LINE
8
1
62
3
10
71.518152
20
-4.052282
30
0.0
11
71.500505
21
-4.05709
31
0.0
0
LINE
8
1
62
3
10
71.524034
20
-4.061897
30
0.0
11
71.500505
21
-4.05709
31
0.0
0
LINE
8
1
62
3
10
72.839721
20
-4.109974
30
0.0
11
72.871093
21
-4.07632
31
0.0
0
LINE
8
1
62
3
10
72.871093
20
-4.07632
30
0.0
11
72.429917
21
-4.667666
31
0.0
0
LINE
8
1
62
3
10
72.925995
20
-3.960936
30
0.0
11
72.929917
21
-3.917666
31
0.0
0
LINE
8
1
62
3
10
72.91423
20
-4.004205
30
0.0
11
72.925995
21
-3.960936
31
0.0
0
LINE
8
1
62
3
10
72.896583
20
-4.042666
30
0.0
11
72.91423
21
-4.004205
31
0.0
0
LINE
8
1
62
3
10
72.871093
20
-4.07632
30
0.0
11
72.896583
21
-4.042666
31
0.0
0
LINE
8
1
62
3
10
72.804426
20
-4.134013
30
0.0
11
72.839721
21
-4.109974
31
0.0
0
LINE
8
1
62
3
10
72.765211
20
-4.153243
30
0.0
11
72.804426
21
-4.134013
31
0.0
0
LINE
8
1
62
3
10
72.724034
20
-4.162859
30
0.0
11
72.765211
21
-4.153243
31
0.0
0
LINE
8
1
62
3
10
72.680897
20
-4.167666
30
0.0
11
72.724034
21
-4.162859
31
0.0
0
LINE
8
1
62
3
10
72.635799
20
-4.162859
30
0.0
11
72.680897
21
-4.167666
31
0.0
0
LINE
8
1
62
3
10
72.594623
20
-4.153243
30
0.0
11
72.635799
21
-4.162859
31
0.0
0
LINE
8
1
62
3
10
72.555407
20
-4.134013
30
0.0
11
72.594623
21
-4.153243
31
0.0
0
LINE
8
1
62
3
10
72.520113
20
-4.109974
30
0.0
11
72.555407
21
-4.134013
31
0.0
0
LINE
8
1
62
3
10
72.48874
20
-4.07632
30
0.0
11
72.520113
21
-4.109974
31
0.0
0
LINE
8
1
62
3
10
72.46325
20
-4.042666
30
0.0
11
72.48874
21
-4.07632
31
0.0
0
LINE
8
1
62
3
10
72.445603
20
-4.004205
30
0.0
11
72.46325
21
-4.042666
31
0.0
0
LINE
8
1
62
3
10
72.433838
20
-3.960936
30
0.0
11
72.445603
21
-4.004205
31
0.0
0
LINE
8
1
62
3
10
72.429917
20
-3.917666
30
0.0
11
72.433838
21
-3.960936
31
0.0
0
LINE
8
1
62
3
10
72.433838
20
-3.874397
30
0.0
11
72.429917
21
-3.917666
31
0.0
0
LINE
8
1
62
3
10
72.445603
20
-3.831128
30
0.0
11
72.433838
21
-3.874397
31
0.0
0
LINE
8
1
62
3
10
72.46325
20
-3.792666
30
0.0
11
72.445603
21
-3.831128
31
0.0
0
LINE
8
1
62
3
10
72.48874
20
-3.759013
30
0.0
11
72.46325
21
-3.792666
31
0.0
0
LINE
8
1
62
3
10
72.520113
20
-3.725359
30
0.0
11
72.48874
21
-3.759013
31
0.0
0
LINE
8
1
62
3
10
72.555407
20
-3.70132
30
0.0
11
72.520113
21
-3.725359
31
0.0
0
LINE
8
1
62
3
10
72.594623
20
-3.68209
30
0.0
11
72.555407
21
-3.70132
31
0.0
0
LINE
8
1
62
3
10
72.635799
20
-3.672474
30
0.0
11
72.594623
21
-3.68209
31
0.0
0
LINE
8
1
62
3
10
72.680897
20
-3.667666
30
0.0
11
72.635799
21
-3.672474
31
0.0
0
LINE
8
1
62
3
10
72.724034
20
-3.672474
30
0.0
11
72.680897
21
-3.667666
31
0.0
0
LINE
8
1
62
3
10
72.765211
20
-3.68209
30
0.0
11
72.724034
21
-3.672474
31
0.0
0
LINE
8
1
62
3
10
72.804426
20
-3.70132
30
0.0
11
72.765211
21
-3.68209
31
0.0
0
LINE
8
1
62
3
10
72.839721
20
-3.725359
30
0.0
11
72.804426
21
-3.70132
31
0.0
0
LINE
8
1
62
3
10
72.871093
20
-3.759013
30
0.0
11
72.839721
21
-3.725359
31
0.0
0
LINE
8
1
62
3
10
72.896583
20
-3.792666
30
0.0
11
72.871093
21
-3.759013
31
0.0
0
LINE
8
1
62
3
10
72.91423
20
-3.831128
30
0.0
11
72.896583
21
-3.792666
31
0.0
0
LINE
8
1
62
3
10
72.925995
20
-3.874397
30
0.0
11
72.91423
21
-3.831128
31
0.0
0
LINE
8
1
62
3
10
72.929917
20
-3.917666
30
0.0
11
72.925995
21
-3.874397
31
0.0
0
LINE
8
1
62
3
10
74.125995
20
-4.254205
30
0.0
11
74.129917
21
-4.167666
31
0.0
0
LINE
8
1
62
3
10
74.11423
20
-4.340743
30
0.0
11
74.125995
21
-4.254205
31
0.0
0
LINE
8
1
62
3
10
74.096583
20
-4.417666
30
0.0
11
74.11423
21
-4.340743
31
0.0
0
LINE
8
1
62
3
10
74.071093
20
-4.489782
30
0.0
11
74.096583
21
-4.417666
31
0.0
0
LINE
8
1
62
3
10
74.039721
20
-4.552282
30
0.0
11
74.071093
21
-4.489782
31
0.0
0
LINE
8
1
62
3
10
74.004426
20
-4.600359
30
0.0
11
74.039721
21
-4.552282
31
0.0
0
LINE
8
1
62
3
10
73.965211
20
-4.63882
30
0.0
11
74.004426
21
-4.600359
31
0.0
0
LINE
8
1
62
3
10
73.924034
20
-4.658051
30
0.0
11
73.965211
21
-4.63882
31
0.0
0
LINE
8
1
62
3
10
73.880897
20
-4.667666
30
0.0
11
73.924034
21
-4.658051
31
0.0
0
LINE
8
1
62
3
10
73.835799
20
-4.658051
30
0.0
11
73.880897
21
-4.667666
31
0.0
0
LINE
8
1
62
3
10
73.794623
20
-4.63882
30
0.0
11
73.835799
21
-4.658051
31
0.0
0
LINE
8
1
62
3
10
73.755407
20
-4.600359
30
0.0
11
73.794623
21
-4.63882
31
0.0
0
LINE
8
1
62
3
10
73.720113
20
-4.552282
30
0.0
11
73.755407
21
-4.600359
31
0.0
0
LINE
8
1
62
3
10
73.68874
20
-4.489782
30
0.0
11
73.720113
21
-4.552282
31
0.0
0
LINE
8
1
62
3
10
73.66325
20
-4.417666
30
0.0
11
73.68874
21
-4.489782
31
0.0
0
LINE
8
1
62
3
10
73.645603
20
-4.340743
30
0.0
11
73.66325
21
-4.417666
31
0.0
0
LINE
8
1
62
3
10
73.633838
20
-4.254205
30
0.0
11
73.645603
21
-4.340743
31
0.0
0
LINE
8
1
62
3
10
73.629917
20
-4.167666
30
0.0
11
73.633838
21
-4.254205
31
0.0
0
LINE
8
1
62
3
10
73.633838
20
-4.081128
30
0.0
11
73.629917
21
-4.167666
31
0.0
0
LINE
8
1
62
3
10
73.645603
20
-3.99459
30
0.0
11
73.633838
21
-4.081128
31
0.0
0
LINE
8
1
62
3
10
73.66325
20
-3.917666
30
0.0
11
73.645603
21
-3.99459
31
0.0
0
LINE
8
1
62
3
10
73.68874
20
-3.845551
30
0.0
11
73.66325
21
-3.917666
31
0.0
0
LINE
8
1
62
3
10
73.720113
20
-3.783051
30
0.0
11
73.68874
21
-3.845551
31
0.0
0
LINE
8
1
62
3
10
73.755407
20
-3.734974
30
0.0
11
73.720113
21
-3.783051
31
0.0
0
LINE
8
1
62
3
10
73.794623
20
-3.696513
30
0.0
11
73.755407
21
-3.734974
31
0.0
0
LINE
8
1
62
3
10
73.835799
20
-3.677282
30
0.0
11
73.794623
21
-3.696513
31
0.0
0
LINE
8
1
62
3
10
73.880897
20
-3.667666
30
0.0
11
73.835799
21
-3.677282
31
0.0
0
LINE
8
1
62
3
10
73.924034
20
-3.677282
30
0.0
11
73.880897
21
-3.667666
31
0.0
0
LINE
8
1
62
3
10
73.965211
20
-3.696513
30
0.0
11
73.924034
21
-3.677282
31
0.0
0
LINE
8
1
62
3
10
74.004426
20
-3.734974
30
0.0
11
73.965211
21
-3.696513
31
0.0
0
LINE
8
1
62
3
10
74.039721
20
-3.783051
30
0.0
11
74.004426
21
-3.734974
31
0.0
0
LINE
8
1
62
3
10
74.071093
20
-3.845551
30
0.0
11
74.039721
21
-3.783051
31
0.0
0
LINE
8
1
62
3
10
74.096583
20
-3.917666
30
0.0
11
74.071093
21
-3.845551
31
0.0
0
LINE
8
1
62
3
10
74.11423
20
-3.99459
30
0.0
11
74.096583
21
-3.917666
31
0.0
0
LINE
8
1
62
3
10
74.125995
20
-4.081128
30
0.0
11
74.11423
21
-3.99459
31
0.0
0
LINE
8
1
62
3
10
74.129917
20
-4.167666
30
0.0
11
74.125995
21
-4.081128
31
0.0
0
LINE
8
1
62
3
10
30.738801
20
-7.729429
30
0.0
11
30.668213
21
-8.710198
31
0.0
0
LINE
8
1
62
3
10
30.538801
20
-7.729429
30
0.0
11
30.468213
21
-8.710198
31
0.0
0
LINE
8
1
62
3
10
30.338801
20
-8.388083
30
0.0
11
30.838801
21
-8.388083
31
0.0
0
LINE
8
1
62
3
10
30.338801
20
-8.051545
30
0.0
11
30.838801
21
-8.051545
31
0.0
0
LINE
8
1
62
3
10
31.901547
20
-8.652506
30
0.0
11
32.038801
21
-8.479429
31
0.0
0
LINE
8
1
62
3
10
32.038801
20
-8.719814
30
0.0
11
31.623115
21
-7.974622
31
0.0
0
LINE
8
1
62
3
10
31.617233
20
-8.224622
30
0.0
11
31.870174
21
-8.013083
31
0.0
0
LINE
8
1
62
3
10
31.870174
20
-8.681352
30
0.0
11
31.901547
21
-8.652506
31
0.0
0
LINE
8
1
62
3
10
31.83488
20
-8.700583
30
0.0
11
31.870174
21
-8.681352
31
0.0
0
LINE
8
1
62
3
10
31.797625
20
-8.715006
30
0.0
11
31.83488
21
-8.700583
31
0.0
0
LINE
8
1
62
3
10
31.76037
20
-8.719814
30
0.0
11
31.797625
21
-8.715006
31
0.0
0
LINE
8
1
62
3
10
31.721154
20
-8.715006
30
0.0
11
31.76037
21
-8.719814
31
0.0
0
LINE
8
1
62
3
10
31.6839
20
-8.700583
30
0.0
11
31.721154
21
-8.715006
31
0.0
0
LINE
8
1
62
3
10
31.648605
20
-8.681352
30
0.0
11
31.6839
21
-8.700583
31
0.0
0
LINE
8
1
62
3
10
31.617233
20
-8.652506
30
0.0
11
31.648605
21
-8.681352
31
0.0
0
LINE
8
1
62
3
10
31.589782
20
-8.618852
30
0.0
11
31.617233
21
-8.652506
31
0.0
0
LINE
8
1
62
3
10
31.568213
20
-8.580391
30
0.0
11
31.589782
21
-8.618852
31
0.0
0
LINE
8
1
62
3
10
31.552527
20
-8.537122
30
0.0
11
31.568213
21
-8.580391
31
0.0
0
LINE
8
1
62
3
10
31.542723
20
-8.489045
30
0.0
11
31.552527
21
-8.537122
31
0.0
0
LINE
8
1
62
3
10
31.538801
20
-8.43616
30
0.0
11
31.542723
21
-8.489045
31
0.0
0
LINE
8
1
62
3
10
31.542723
20
-8.388083
30
0.0
11
31.538801
21
-8.43616
31
0.0
0
LINE
8
1
62
3
10
31.552527
20
-8.340006
30
0.0
11
31.542723
21
-8.388083
31
0.0
0
LINE
8
1
62
3
10
31.568213
20
-8.296737
30
0.0
11
31.552527
21
-8.340006
31
0.0
0
LINE
8
1
62
3
10
31.589782
20
-8.258275
30
0.0
11
31.568213
21
-8.296737
31
0.0
0
LINE
8
1
62
3
10
31.617233
20
-8.224622
30
0.0
11
31.589782
21
-8.258275
31
0.0
0
LINE
8
1
62
3
10
31.913311
20
-7.921737
30
0.0
11
31.917233
21
-7.888083
31
0.0
0
LINE
8
1
62
3
10
31.907429
20
-7.950583
30
0.0
11
31.913311
21
-7.921737
31
0.0
0
LINE
8
1
62
3
10
31.895664
20
-7.974622
30
0.0
11
31.907429
21
-7.950583
31
0.0
0
LINE
8
1
62
3
10
31.879978
20
-7.99866
30
0.0
11
31.895664
21
-7.974622
31
0.0
0
LINE
8
1
62
3
10
31.870174
20
-8.013083
30
0.0
11
31.879978
21
-7.99866
31
0.0
0
LINE
8
1
62
3
10
31.61135
20
-7.950583
30
0.0
11
31.623115
21
-7.974622
31
0.0
0
LINE
8
1
62
3
10
31.605468
20
-7.921737
30
0.0
11
31.61135
21
-7.950583
31
0.0
0
LINE
8
1
62
3
10
31.603507
20
-7.888083
30
0.0
11
31.605468
21
-7.921737
31
0.0
0
LINE
8
1
62
3
10
31.605468
20
-7.859237
30
0.0
11
31.603507
21
-7.888083
31
0.0
0
LINE
8
1
62
3
10
31.61135
20
-7.830391
30
0.0
11
31.605468
21
-7.859237
31
0.0
0
LINE
8
1
62
3
10
31.623115
20
-7.806352
30
0.0
11
31.61135
21
-7.830391
31
0.0
0
LINE
8
1
62
3
10
31.638801
20
-7.782314
30
0.0
11
31.623115
21
-7.806352
31
0.0
0
LINE
8
1
62
3
10
31.658409
20
-7.758275
30
0.0
11
31.638801
21
-7.782314
31
0.0
0
LINE
8
1
62
3
10
31.681939
20
-7.743852
30
0.0
11
31.658409
21
-7.758275
31
0.0
0
LINE
8
1
62
3
10
31.705468
20
-7.729429
30
0.0
11
31.681939
21
-7.743852
31
0.0
0
LINE
8
1
62
3
10
31.732919
20
-7.724622
30
0.0
11
31.705468
21
-7.729429
31
0.0
0
LINE
8
1
62
3
10
31.76037
20
-7.719814
30
0.0
11
31.732919
21
-7.724622
31
0.0
0
LINE
8
1
62
3
10
31.78586
20
-7.724622
30
0.0
11
31.76037
21
-7.719814
31
0.0
0
LINE
8
1
62
3
10
31.813311
20
-7.729429
30
0.0
11
31.78586
21
-7.724622
31
0.0
0
LINE
8
1
62
3
10
31.838801
20
-7.743852
30
0.0
11
31.813311
21
-7.729429
31
0.0
0
LINE
8
1
62
3
10
31.86037
20
-7.758275
30
0.0
11
31.838801
21
-7.743852
31
0.0
0
LINE
8
1
62
3
10
31.879978
20
-7.782314
30
0.0
11
31.86037
21
-7.758275
31
0.0
0
LINE
8
1
62
3
10
31.895664
20
-7.806352
30
0.0
11
31.879978
21
-7.782314
31
0.0
0
LINE
8
1
62
3
10
31.907429
20
-7.830391
30
0.0
11
31.895664
21
-7.806352
31
0.0
0
LINE
8
1
62
3
10
31.913311
20
-7.859237
30
0.0
11
31.907429
21
-7.830391
31
0.0
0
LINE
8
1
62
3
10
31.917233
20
-7.888083
30
0.0
11
31.913311
21
-7.859237
31
0.0
0
ENDSEC
0
EOF
