  0
SECTION
  2
HEADER
  9
$ACADVER
  1
AC1015
  9
$ACADMAINTVER
 70
     6
  9
$DWGCODEPAGE
  3
ANSI_1252
  9
$INSBASE
 10
0.0
 20
0.0
 30
0.0
  9
$EXTMIN
 10
1.000000E+20
 20
1.000000E+20
 30
1.000000E+20
  9
$EXTMAX
 10
-1.000000E+20
 20
-1.000000E+20
 30
-1.000000E+20
  9
$LIMMIN
 10
0.0
 20
0.0
  9
$LIMMAX
 10
420.0
 20
297.0
  9
$ORTHOMODE
 70
     0
  9
$REGENMODE
 70
     1
  9
$FILLMODE
 70
     1
  9
$QTEXTMODE
 70
     0
  9
$MIRRTEXT
 70
     1
  9
$LTSCALE
 40
1.0
  9
$ATTMODE
 70
     1
  9
$TEXTSIZE
 40
2.5
  9
$TRACEWID
 40
1.0
  9
$TEXTSTYLE
  7
Standard
  9
$CLAYER
  8
0
  9
$CELTYPE
  6
ByLayer
  9
$CECOLOR
 62
   256
  9
$CELTSCALE
 40
1.0
  9
$DISPSILH
 70
     0
  9
$DIMSCALE
 40
1.0
  9
$DIMASZ
 40
2.5
  9
$DIMEXO
 40
0.625
  9
$DIMDLI
 40
3.75
  9
$DIMRND
 40
0.0
  9
$DIMDLE
 40
0.0
  9
$DIMEXE
 40
1.25
  9
$DIMTP
 40
0.0
  9
$DIMTM
 40
0.0
  9
$DIMTXT
 40
2.5
  9
$DIMCEN
 40
2.5
  9
$DIMTSZ
 40
0.0
  9
$DIMTOL
 70
     0
  9
$DIMLIM
 70
     0
  9
$DIMTIH
 70
     0
  9
$DIMTOH
 70
     0
  9
$DIMSE1
 70
     0
  9
$DIMSE2
 70
     0
  9
$DIMTAD
 70
     1
  9
$DIMZIN
 70
     8
  9
$DIMBLK
  1

  9
$DIMASO
 70
     1
  9
$DIMSHO
 70
     1
  9
$DIMPOST
  1

  9
$DIMAPOST
  1

  9
$DIMALT
 70
     0
  9
$DIMALTD
 70
     3
  9
$DIMALTF
 40
0.03937
  9
$DIMLFAC
 40
1.0
  9
$DIMTOFL
 70
     1
  9
$DIMTVP
 40
0.0
  9
$DIMTIX
 70
     0
  9
$DIMSOXD
 70
     0
  9
$DIMSAH
 70
     0
  9
$DIMBLK1
  1

  9
$DIMBLK2
  1

  9
$DIMSTYLE
  2
ISO-25
  9
$DIMCLRD
 70
     0
  9
$DIMCLRE
 70
     0
  9
$DIMCLRT
 70
     0
  9
$DIMTFAC
 40
1.0
  9
$DIMGAP
 40
0.625
  9
$DIMJUST
 70
     0
  9
$DIMSD1
 70
     0
  9
$DIMSD2
 70
     0
  9
$DIMTOLJ
 70
     0
  9
$DIMTZIN
 70
     8
  9
$DIMALTZ
 70
     0
  9
$DIMALTTZ
 70
     0
  9
$DIMUPT
 70
     0
  9
$DIMDEC
 70
     2
  9
$DIMTDEC
 70
     2
  9
$DIMALTU
 70
     2
  9
$DIMALTTD
 70
     3
  9
$DIMTXSTY
  7
Standard
  9
$DIMAUNIT
 70
     0
  9
$DIMADEC
 70
     0
  9
$DIMALTRND
 40
0.0
  9
$DIMAZIN
 70
     0
  9
$DIMDSEP
 70
    44
  9
$DIMATFIT
 70
     3
  9
$DIMFRAC
 70
     0
  9
$DIMLDRBLK
  1

  9
$DIMLUNIT
 70
     2
  9
$DIMLWD
 70
    -2
  9
$DIMLWE
 70
    -2
  9
$DIMTMOVE
 70
     0
  9
$LUNITS
 70
     2
  9
$LUPREC
 70
     4
  9
$SKETCHINC
 40
1.0
  9
$FILLETRAD
 40
10.0
  9
$AUNITS
 70
     0
  9
$AUPREC
 70
     0
  9
$MENU
  1
.
  9
$ELEVATION
 40
0.0
  9
$PELEVATION
 40
0.0
  9
$THICKNESS
 40
0.0
  9
$LIMCHECK
 70
     0
  9
$CHAMFERA
 40
10.0
  9
$CHAMFERB
 40
10.0
  9
$CHAMFERC
 40
20.0
  9
$CHAMFERD
 40
0.0
  9
$SKPOLY
 70
     0
  9
$TDCREATE
 40
2455250.439744109
  9
$TDUCREATE
 40
2455250.689744109
  9
$TDUPDATE
 40
2455250.439744121
  9
$TDUUPDATE
 40
2455250.689744121
  9
$TDINDWG
 40
0.0000000116
  9
$TDUSRTIMER
 40
0.0000000116
  9
$USRTIMER
 70
     1
  9
$ANGBASE
 50
0.0
  9
$ANGDIR
 70
     0
  9
$PDMODE
 70
     3
  9
$PDSIZE
 40
-0.7
  9
$PLINEWID
 40
0.0
  9
$SPLFRAME
 70
     0
  9
$SPLINETYPE
 70
     6
  9
$SPLINESEGS
 70
     8
  9
$HANDSEED
  5
3F
  9
$SURFTAB1
 70
     6
  9
$SURFTAB2
 70
     6
  9
$SURFTYPE
 70
     6
  9
$SURFU
 70
     6
  9
$SURFV
 70
     6
  9
$UCSBASE
  2

  9
$UCSNAME
  2

  9
$UCSORG
 10
0.0
 20
0.0
 30
0.0
  9
$UCSXDIR
 10
1.0
 20
0.0
 30
0.0
  9
$UCSYDIR
 10
0.0
 20
1.0
 30
0.0
  9
$UCSORTHOREF
  2

  9
$UCSORTHOVIEW
 70
     0
  9
$UCSORGTOP
 10
0.0
 20
0.0
 30
0.0
  9
$UCSORGBOTTOM
 10
0.0
 20
0.0
 30
0.0
  9
$UCSORGLEFT
 10
0.0
 20
0.0
 30
0.0
  9
$UCSORGRIGHT
 10
0.0
 20
0.0
 30
0.0
  9
$UCSORGFRONT
 10
0.0
 20
0.0
 30
0.0
  9
$UCSORGBACK
 10
0.0
 20
0.0
 30
0.0
  9
$PUCSBASE
  2

  9
$PUCSNAME
  2

  9
$PUCSORG
 10
0.0
 20
0.0
 30
0.0
  9
$PUCSXDIR
 10
1.0
 20
0.0
 30
0.0
  9
$PUCSYDIR
 10
0.0
 20
1.0
 30
0.0
  9
$PUCSORTHOREF
  2

  9
$PUCSORTHOVIEW
 70
     0
  9
$PUCSORGTOP
 10
0.0
 20
0.0
 30
0.0
  9
$PUCSORGBOTTOM
 10
0.0
 20
0.0
 30
0.0
  9
$PUCSORGLEFT
 10
0.0
 20
0.0
 30
0.0
  9
$PUCSORGRIGHT
 10
0.0
 20
0.0
 30
0.0
  9
$PUCSORGFRONT
 10
0.0
 20
0.0
 30
0.0
  9
$PUCSORGBACK
 10
0.0
 20
0.0
 30
0.0
  9
$USERI1
 70
     0
  9
$USERI2
 70
     0
  9
$USERI3
 70
     0
  9
$USERI4
 70
     0
  9
$USERI5
 70
     0
  9
$USERR1
 40
0.0
  9
$USERR2
 40
0.0
  9
$USERR3
 40
0.0
  9
$USERR4
 40
0.0
  9
$USERR5
 40
0.0
  9
$WORLDVIEW
 70
     1
  9
$SHADEDGE
 70
     3
  9
$SHADEDIF
 70
    70
  9
$TILEMODE
 70
     1
  9
$MAXACTVP
 70
    64
  9
$PINSBASE
 10
0.0
 20
0.0
 30
0.0
  9
$PLIMCHECK
 70
     0
  9
$PEXTMIN
 10
1.000000E+20
 20
1.000000E+20
 30
1.000000E+20
  9
$PEXTMAX
 10
-1.000000E+20
 20
-1.000000E+20
 30
-1.000000E+20
  9
$PLIMMIN
 10
0.0
 20
0.0
  9
$PLIMMAX
 10
420.0
 20
297.0
  9
$UNITMODE
 70
     0
  9
$VISRETAIN
 70
     1
  9
$PLINEGEN
 70
     0
  9
$PSLTSCALE
 70
     1
  9
$TREEDEPTH
 70
  3020
  9
$CMLSTYLE
  2
Standard
  9
$CMLJUST
 70
     1
  9
$CMLSCALE
 40
1.0
  9
$PROXYGRAPHICS
 70
     1
  9
$MEASUREMENT
 70
     1
  9
$CELWEIGHT
370
    -1
  9
$ENDCAPS
280
     0
  9
$JOINSTYLE
280
     0
  9
$LWDISPLAY
290
     0
  9
$INSUNITS
 70
     4
  9
$HYPERLINKBASE
  1

  9
$STYLESHEET
  1

  9
$XEDIT
290
     1
  9
$CEPSNTYPE
380
     0
  9
$PSTYLEMODE
290
     1
  9
$FINGERPRINTGUID
  2
{FAEB1C30-E019-11D5-929B-00C0DF256EC4}
  9
$VERSIONGUID
  2
{FAEB1C32-E019-11D5-929B-00C0DF256EC4}
  9
$EXTNAMES
290
     1
  9
$PSVPSCALE
 40
0.0
  9
$OLESTARTUP
290
     0
  0
ENDSEC
  0
SECTION
  2
CLASSES
  0
CLASS
  1
ACDBDICTIONARYWDFLT
  2
AcDbDictionaryWithDefault
  3
ObjectDBX Classes
 90
        0
280
     0
281
     0
  0
CLASS
  1
ACDBPLACEHOLDER
  2
AcDbPlaceHolder
  3
ObjectDBX Classes
 90
        0
280
     0
281
     0
  0
CLASS
  1
LAYOUT
  2
AcDbLayout
  3
ObjectDBX Classes
 90
        0
280
     0
281
     0
  0
ENDSEC
  0
SECTION
  2
TABLES
  0
TABLE
  2
VPORT
  5
8
330
0
100
AcDbSymbolTable
 70
     2
  0
VPORT
  5
29
330
8
100
AcDbSymbolTableRecord
100
AcDbViewportTableRecord
  2
*Active
 70
     0
 10
0.0
 20
0.0
 11
1.0
 21
1.0
 12
50.0
 22
50.0
 13
0.0
 23
0.0
 14
10.0
 24
10.0
 15
10.0
 25
10.0
 16
0.0
 26
0.0
 36
1.0
 17
0.0
 27
0.0
 37
0.0
 40
103.921569
 41
1.0
 42
50.0
 43
0.0
 44
0.0
 50
0.0
 51
0.0
 71
     0
 72
   100
 73
     1
 74
     3
 75
     0
 76
     0
 77
     0
 78
     0
281
     0
 65
     1
110
0.0
120
0.0
130
0.0
111
1.0
121
0.0
131
0.0
112
0.0
122
1.0
132
0.0
 79
     0
146
0.0
  0
ENDTAB
  0
TABLE
  2
LTYPE
  5
5
330
0
100
AcDbSymbolTable
 70
     1
  0
LTYPE
  5
14
330
5
100
AcDbSymbolTableRecord
100
AcDbLinetypeTableRecord
  2
ByBlock
 70
     0
  3

 72
    65
 73
     0
 40
0.0
  0
LTYPE
  5
15
330
5
100
AcDbSymbolTableRecord
100
AcDbLinetypeTableRecord
  2
ByLayer
 70
     0
  3

 72
    65
 73
     0
 40
0.0
  0
LTYPE
  5
16
330
5
100
AcDbSymbolTableRecord
100
AcDbLinetypeTableRecord
  2
Continuous
 70
     0
  3

 72
    65
 73
     0
 40
0.0
  0
ENDTAB
  0
TABLE
  2
LAYER
  5
2
330
0
100
AcDbSymbolTable
 70
     1
  0
LAYER
  5
10
330
2
100
AcDbSymbolTableRecord
100
AcDbLayerTableRecord
  2
0
 70
     0
 62
     7
  6
Continuous
370
    -3
390
F
  0
ENDTAB
  0
TABLE
  2
STYLE
  5
3
330
0
100
AcDbSymbolTable
 70
     1
  0
STYLE
  5
11
330
3
100
AcDbSymbolTableRecord
100
AcDbTextStyleTableRecord
  2
Standard
 70
     0
 40
1.0
 41
1.0
 50
0.0
 71
     0
 42
2.5
  3
RomanS
  4

  0
ENDTAB
  0
TABLE
  2
VIEW
  5
6
330
0
100
AcDbSymbolTable
 70
     0
  0
ENDTAB
  0
TABLE
  2
UCS
  5
7
330
0
100
AcDbSymbolTable
 70
     0
  0
ENDTAB
  0
TABLE
  2
APPID
  5
9
330
0
100
AcDbSymbolTable
 70
     1
  0
APPID
  5
12
330
9
100
AcDbSymbolTableRecord
100
AcDbRegAppTableRecord
  2
ACAD
 70
     0
  0
ENDTAB
  0
TABLE
  2
DIMSTYLE
  5
A
330
0
100
AcDbSymbolTable
 70
     1
100
AcDbDimStyleTable
  0
DIMSTYLE
105
27
330
A
100
AcDbSymbolTableRecord
100
AcDbDimStyleTableRecord
  2
ISO-25
 70
     0
 41
2.5
 42
0.625
 44
1.25
 73
     0
 74
     0
 77
     1
 78
     8
 79
     2
140
2.5
141
2.5
146
0.0
147
0.625
271
     2
272
     0
273
     0
274
     0
278
    44
283
     0
289
     0
340
11
  0
ENDTAB
  0
TABLE
  2
BLOCK_RECORD
  5
1
330
0
100
AcDbSymbolTable
 70
     1
  0
BLOCK_RECORD
  5
1F
330
1
100
AcDbSymbolTableRecord
100
AcDbBlockTableRecord
  2
*Model_Space
340
22
  0
BLOCK_RECORD
  5
1B
330
1
100
AcDbSymbolTableRecord
100
AcDbBlockTableRecord
  2
*Paper_Space
340
1E
  0
BLOCK_RECORD
  5
23
330
1
100
AcDbSymbolTableRecord
100
AcDbBlockTableRecord
  2
*Paper_Space0
340
26
  0
ENDTAB
  0
ENDSEC
  0
SECTION
  2
BLOCKS
  0
BLOCK
  5
20
330
1F
100
AcDbEntity
  8
0
100
AcDbBlockBegin
  2
*Model_Space
 70
     0
 71
     0
 10
0.0
 20
0.0
 30
0.0
  3
*Model_Space
  1

  0
ENDBLK
  5
21
330
1F
100
AcDbEntity
  8
0
100
AcDbBlockEnd
  0
BLOCK
  5
1C
330
1B
100
AcDbEntity
 67
     1
  8
0
100
AcDbBlockBegin
  2
*Paper_Space
 70
     0
 71
     0
 10
0.0
 20
0.0
 30
0.0
  3
*Paper_Space
  1

  0
ENDBLK
  5
1D
330
1B
100
AcDbEntity
 67
     1
  8
0
100
AcDbBlockEnd
  0
BLOCK
  5
24
330
23
100
AcDbEntity
  8
0
100
AcDbBlockBegin
  2
*Paper_Space0
 70
     0
 71
     0
 10
0.0
 20
0.0
 30
0.0
  3
*Paper_Space0
  1

  0
ENDBLK
  5
25
330
23
100
AcDbEntity
  8
0
100
AcDbBlockEnd
  0
ENDSEC
  0
SECTION
  2
ENTITIES
  0
LWPOLYLINE
  5
2A
330
1F
100
AcDbEntity
  8
0
100
AcDbPolyline
 90
      341
 70
   128
 43
0.0
 10
2.885038
 20
2.200458
 10
2.892197
 20
2.208118
 10
2.89972
 20
2.216903
 10
2.90738
 20
2.226503
 10
2.914954
 20
2.236608
 10
2.922217
 20
2.246909
 10
2.928943
 20
2.257097
 10
2.934907
 20
2.266862
 10
2.939885
 20
2.275895
 10
2.94688
 20
2.288883
 10
2.952854
 20
2.298587
 10
2.955506
 20
2.302251
 10
2.95796
 20
2.305147
 10
2.960234
 20
2.307291
 10
2.962349
 20
2.308702
 10
2.964323
 20
2.309396
 10
2.966175
 20
2.309392
 10
2.967924
 20
2.308706
 10
2.96959
 20
2.307356
 10
2.971191
 20
2.30536
 10
2.972747
 20
2.302735
 10
2.975798
 20
2.295668
 10
2.979217
 20
2.285504
 10
2.982214
 20
2.274116
 10
2.98458
 20
2.261301
 10
2.986103
 20
2.246856
 10
2.986877
 20
2.22999
 10
2.98755
 20
2.212618
 10
2.988043
 20
2.204948
 10
2.988744
 20
2.198597
 10
2.989731
 20
2.194048
 10
2.990357
 20
2.192599
 10
2.991083
 20
2.191782
 10
2.992184
 20
2.191356
 10
2.993465
 20
2.191318
 10
2.996527
 20
2.192347
 10
3.000191
 20
2.194761
 10
3.00438
 20
2.198447
 10
3.00902
 20
2.203298
 10
3.014032
 20
2.209203
 10
3.019341
 20
2.216053
 10
3.024871
 20
2.223737
 10
3.036285
 20
2.24117
 10
3.047663
 20
2.260624
 10
3.058394
 20
2.281221
 10
3.063325
 20
2.291674
 10
3.067866
 20
2.302083
 10
3.082514
 20
2.336368
 10
3.087619
 20
2.347716
 10
3.090264
 20
2.352974
 10
3.091389
 20
2.353416
 10
3.093512
 20
2.353126
 10
3.09651
 20
2.352159
 10
3.100259
 20
2.350572
 10
3.10952
 20
2.345766
 10
3.120308
 20
2.339161
 10
3.134885
 20
2.329121
 10
3.147512
 20
2.320075
 10
3.153095
 20
2.31625
 10
3.158191
 20
2.313064
 10
3.162801
 20
2.310648
 10
3.166925
 20
2.309132
 10
3.170562
 20
2.308645
 10
3.172199
 20
2.308829
 10
3.173714
 20
2.309319
 10
3.175108
 20
2.310132
 10
3.176381
 20
2.311284
 10
3.177532
 20
2.312791
 10
3.178562
 20
2.314669
 10
3.180258
 20
2.319605
 10
3.181469
 20
2.326223
 10
3.182195
 20
2.334652
 10
3.182438
 20
2.345023
 10
3.181774
 20
2.364238
 10
3.180272
 20
2.383327
 10
3.178663
 20
2.401539
 10
3.177676
 20
2.418124
 10
3.177646
 20
2.425571
 10
3.178045
 20
2.43233
 10
3.178965
 20
2.438307
 10
3.180498
 20
2.443407
 10
3.182736
 20
2.447537
 10
3.184147
 20
2.449209
 10
3.185768
 20
2.450604
 10
3.187612
 20
2.451709
 10
3.189688
 20
2.452512
 10
3.192009
 20
2.453003
 10
3.194586
 20
2.453169
 10
3.197905
 20
2.452884
 10
3.20166
 20
2.452065
 10
3.210224
 20
2.449053
 10
3.219754
 20
2.444589
 10
3.22973
 20
2.439125
 10
3.239628
 20
2.433117
 10
3.248929
 20
2.427018
 10
3.263646
 20
2.416362
 10
3.272538
 20
2.409462
 10
3.279353
 20
2.404757
 10
3.28212
 20
2.403294
 10
3.284535
 20
2.402461
 10
3.286652
 20
2.402283
 10
3.288527
 20
2.402787
 10
3.290215
 20
2.404001
 10
3.291771
 20
2.40595
 10
3.293252
 20
2.408661
 10
3.294711
 20
2.412162
 10
3.29779
 20
2.421638
 10
3.301451
 20
2.434591
 10
3.303649
 20
2.44363
 10
3.305701
 20
2.454247
 10
3.307563
 20
2.466055
 10
3.30919
 20
2.478665
 10
3.310536
 20
2.491688
 10
3.311557
 20
2.504735
 10
3.312207
 20
2.517418
 10
3.312442
 20
2.529348
 10
3.311937
 20
2.561259
 10
3.311867
 20
2.572007
 10
3.312442
 20
2.579679
 10
3.313096
 20
2.582454
 10
3.314059
 20
2.584569
 10
3.31538
 20
2.586064
 10
3.31711
 20
2.586973
 10
3.319296
 20
2.587336
 10
3.321989
 20
2.587187
 10
3.329092
 20
2.585505
 10
3.334554
 20
2.583318
 10
3.341041
 20
2.579888
 10
3.348203
 20
2.575513
 10
3.35569
 20
2.570492
 10
3.370248
 20
2.559703
 10
3.381922
 20
2.549907
 10
3.389804
 20
2.542902
 10
3.396654
 20
2.537453
 10
3.402566
 20
2.53379
 10
3.405198
 20
2.532699
 10
3.407631
 20
2.53214
 10
3.409875
 20
2.532142
 10
3.411943
 20
2.532733
 10
3.413846
 20
2.533942
 10
3.415596
 20
2.535797
 10
3.417204
 20
2.538327
 10
3.418681
 20
2.54156
 10
3.42004
 20
2.545526
 10
3.421293
 20
2.550252
 10
3.42347
 20
2.562653
 10
3.425319
 20
2.579341
 10
3.426603
 20
2.598408
 10
3.427083
 20
2.617948
 10
3.426673
 20
2.626616
 10
3.425639
 20
2.634792
 10
3.422885
 20
2.649261
 10
3.421757
 20
2.655353
 10
3.42119
 20
2.660552
 10
3.421479
 20
2.664755
 10
3.422037
 20
2.666452
 10
3.42292
 20
2.667863
 10
3.424052
 20
2.668881
 10
3.425501
 20
2.66965
 10
3.429255
 20
2.670566
 10
3.433993
 20
2.670858
 10
3.439525
 20
2.670773
 10
3.452208
 20
2.670461
 10
3.45898
 20
2.670729
 10
3.465786
 20
2.671609
 10
3.47512
 20
2.673531
 10
3.484282
 20
2.675761
 10
3.493265
 20
2.678295
 10
3.50206
 20
2.681128
 10
3.51066
 20
2.684256
 10
3.519055
 20
2.687675
 10
3.527238
 20
2.69138
 10
3.5352
 20
2.695368
 10
3.542934
 20
2.699633
 10
3.550431
 20
2.704171
 10
3.557682
 20
2.708979
 10
3.56468
 20
2.714052
 10
3.571416
 20
2.719385
 10
3.577883
 20
2.724974
 10
3.584071
 20
2.730815
 10
3.589973
 20
2.736904
 10
3.604746
 20
2.75252
 10
3.621328
 20
2.770538
 10
3.628217
 20
2.778716
 10
3.633061
 20
2.785414
 10
3.634456
 20
2.787993
 10
3.635028
 20
2.789942
 10
3.634673
 20
2.791175
 10
3.633286
 20
2.791605
 10
3.628218
 20
2.792415
 10
3.616227
 20
2.794709
 10
3.600928
 20
2.79828
 10
3.593168
 20
2.80048
 10
3.585937
 20
2.802923
 10
3.569899
 20
2.809495
 10
3.554449
 20
2.817009
 10
3.5395
 20
2.82557
 10
3.532185
 20
2.830277
 10
3.524961
 20
2.835285
 10
3.517817
 20
2.840607
 10
3.510743
 20
2.846257
 10
3.496755
 20
2.858592
 10
3.482909
 20
2.872396
 10
3.469115
 20
2.887774
 10
3.455282
 20
2.904831
 10
3.441323
 20
2.923671
 10
3.427145
 20
2.944402
 10
3.412661
 20
2.967127
 10
3.397781
 20
2.991952
 10
3.382414
 20
3.018982
 10
3.366471
 20
3.048323
 10
3.349863
 20
3.080079
 10
3.338446
 20
3.101778
 10
3.327163
 20
3.122179
 10
3.31596
 20
3.141343
 10
3.304784
 20
3.159336
 10
3.293578
 20
3.176218
 10
3.282289
 20
3.192053
 10
3.270862
 20
3.206904
 10
3.259242
 20
3.220833
 10
3.247375
 20
3.233904
 10
3.235206
 20
3.246179
 10
3.22268
 20
3.257721
 10
3.209742
 20
3.268593
 10
3.196339
 20
3.278858
 10
3.182415
 20
3.288578
 10
3.167915
 20
3.297816
 10
3.152786
 20
3.306635
 10
3.133096
 20
3.317219
 10
3.113404
 20
3.326977
 10
3.093655
 20
3.335922
 10
3.073793
 20
3.344066
 10
3.053763
 20
3.351422
 10
3.033509
 20
3.358002
 10
3.012976
 20
3.363819
 10
2.99211
 20
3.368884
 10
2.970853
 20
3.37321
 10
2.949152
 20
3.376809
 10
2.926951
 20
3.379694
 10
2.904194
 20
3.381877
 10
2.880826
 20
3.383371
 10
2.856792
 20
3.384187
 10
2.832036
 20
3.384339
 10
2.806503
 20
3.383837
 10
2.794075
 20
3.383687
 10
2.783041
 20
3.383945
 10
2.764192
 20
3.384912
 10
2.7559
 20
3.385233
 10
2.748043
 20
3.385187
 10
2.740383
 20
3.384581
 10
2.732679
 20
3.383222
 10
2.723445
 20
3.382653
 10
2.705431
 20
3.381792
 10
2.687433
 20
3.380578
 10
2.681189
 20
3.37982
 10
2.679236
 20
3.379401
 10
2.678246
 20
3.378952
 10
2.677912
 20
3.377907
 10
2.67816
 20
3.376078
 10
2.680266
 20
3.370287
 10
2.684286
 20
3.362007
 10
2.689943
 20
3.351666
 10
2.696961
 20
3.339691
 10
2.705064
 20
3.326511
 10
2.723417
 20
3.298247
 10
2.734168
 20
3.281534
 10
2.746878
 20
3.260632
 10
2.761076
 20
3.236379
 10
2.776293
 20
3.209612
 10
2.792059
 20
3.181166
 10
2.807905
 20
3.151881
 10
2.823359
 20
3.122592
 10
2.837954
 20
3.094138
 10
2.905871
 20
2.959552
 10
2.915806
 20
2.915336
 10
2.917984
 20
2.904568
 10
2.9195
 20
2.89459
 10
2.920353
 20
2.885387
 10
2.920543
 20
2.876941
 10
2.920069
 20
2.869239
 10
2.918933
 20
2.862263
 10
2.917132
 20
2.855999
 10
2.914667
 20
2.850431
 10
2.912386
 20
2.844864
 10
2.910149
 20
2.836945
 10
2.908012
 20
2.827042
 10
2.906031
 20
2.815522
 10
2.904265
 20
2.802755
 10
2.90277
 20
2.789108
 10
2.901602
 20
2.77495
 10
2.900819
 20
2.760649
 10
2.899532
 20
2.740844
 10
2.897158
 20
2.721326
 10
2.895498
 20
2.711435
 10
2.893487
 20
2.701326
 10
2.888311
 20
2.680074
 10
2.881421
 20
2.656798
 10
2.872607
 20
2.63073
 10
2.861662
 20
2.601098
 10
2.848377
 20
2.567133
 10
2.833372
 20
2.529018
 10
2.821653
 20
2.497604
 10
2.816892
 20
2.483848
 10
2.81279
 20
2.471091
 10
2.809294
 20
2.459108
 10
2.806351
 20
2.447675
 10
2.803907
 20
2.436566
 10
2.801907
 20
2.425556
 10
2.800298
 20
2.414419
 10
2.799026
 20
2.402931
 10
2.797278
 20
2.377999
 10
2.796233
 20
2.348958
 10
2.79271
 20
2.233224
 10
2.791976
 20
2.228035
 10
2.790275
 20
2.221697
 10
2.787718
 20
2.214458
 10
2.784416
 20
2.206562
 10
2.780477
 20
2.198255
 10
2.776011
 20
2.189784
 10
2.771128
 20
2.181393
 10
2.765939
 20
2.173329
 10
2.757384
 20
2.160418
 10
2.752669
 20
2.152375
 10
2.751623
 20
2.149903
 10
2.751381
 20
2.148317
 10
2.751892
 20
2.147506
 10
2.753105
 20
2.14736
 10
2.76083
 20
2.148288
 10
2.76906
 20
2.149619
 10
2.786659
 20
2.153421
 10
2.805158
 20
2.158618
 10
2.814512
 20
2.161695
 10
2.82381
 20
2.165067
 10
2.832961
 20
2.168715
 10
2.84187
 20
2.172621
 10
2.850445
 20
2.176767
 10
2.858592
 20
2.181134
 10
2.866218
 20
2.185705
 10
2.87323
 20
2.190462
 10
2.879534
 20
2.195385
 10
2.885038
 20
2.200458
  0
LWPOLYLINE
  5
2B
330
1F
100
AcDbEntity
  8
0
100
AcDbPolyline
 90
      105
 70
   128
 43
0.0
 10
2.991902
 20
3.155764
 10
2.99244
 20
3.155912
 10
2.992507
 20
3.156539
 10
2.991462
 20
3.159046
 10
2.986268
 20
3.167773
 10
2.983047
 20
3.173253
 10
2.980026
 20
3.178984
 10
2.977669
 20
3.184596
 10
2.976885
 20
3.187241
 10
2.97644
 20
3.189718
 10
2.976106
 20
3.196381
 10
2.976652
 20
3.202587
 10
2.977293
 20
3.205453
 10
2.978199
 20
3.208126
 10
2.979386
 20
3.21058
 10
2.980867
 20
3.212788
 10
2.982658
 20
3.214724
 10
2.984775
 20
3.216362
 10
2.987231
 20
3.217675
 10
2.990042
 20
3.218638
 10
2.993224
 20
3.219223
 10
2.99679
 20
3.219406
 10
3.000757
 20
3.219158
 10
3.005139
 20
3.218454
 10
3.030932
 20
3.213275
 10
3.047879
 20
3.210297
 10
3.053265
 20
3.209675
 10
3.056717
 20
3.209654
 10
3.057747
 20
3.209874
 10
3.058327
 20
3.21025
 10
3.05847
 20
3.210784
 10
3.058187
 20
3.211479
 10
3.056389
 20
3.213358
 10
3.053025
 20
3.215905
 10
3.041971
 20
3.223066
 10
3.025763
 20
3.233095
 10
3.005139
 20
3.246126
 10
2.982907
 20
3.259972
 10
2.960405
 20
3.272975
 10
2.937812
 20
3.284994
 10
2.915311
 20
3.295886
 10
2.893083
 20
3.305511
 10
2.882128
 20
3.309803
 10
2.87131
 20
3.313725
 10
2.860651
 20
3.31726
 10
2.850174
 20
3.320389
 10
2.839902
 20
3.323094
 10
2.829856
 20
3.325359
 10
2.818062
 20
3.327639
 10
2.8081
 20
3.329276
 10
2.799879
 20
3.330311
 10
2.793308
 20
3.330787
 10
2.788296
 20
3.330746
 10
2.784751
 20
3.330232
 10
2.782582
 20
3.329285
 10
2.781985
 20
3.328663
 10
2.781698
 20
3.327948
 10
2.782006
 20
3.326265
 10
2.783416
 20
3.324277
 10
2.785837
 20
3.322027
 10
2.789176
 20
3.319557
 10
2.798246
 20
3.314128
 10
2.809896
 20
3.308329
 10
2.816622
 20
3.304853
 10
2.822809
 20
3.300928
 10
2.828412
 20
3.296626
 10
2.833383
 20
3.292015
 10
2.837676
 20
3.287167
 10
2.841246
 20
3.282152
 10
2.844045
 20
3.27704
 10
2.846028
 20
3.271902
 10
2.847149
 20
3.266808
 10
2.847361
 20
3.261828
 10
2.846618
 20
3.257033
 10
2.844873
 20
3.252493
 10
2.842081
 20
3.248278
 10
2.838194
 20
3.24446
 10
2.833168
 20
3.241107
 10
2.826956
 20
3.238291
 10
2.823253
 20
3.236759
 10
2.820197
 20
3.235155
 10
2.817779
 20
3.233493
 10
2.815989
 20
3.231789
 10
2.814816
 20
3.230057
 10
2.814253
 20
3.228313
 10
2.814288
 20
3.226572
 10
2.814913
 20
3.224849
 10
2.816117
 20
3.223159
 10
2.817892
 20
3.221516
 10
2.820227
 20
3.219936
 10
2.823114
 20
3.218434
 10
2.830501
 20
3.215722
 10
2.839977
 20
3.213502
 10
2.873319
 20
3.207351
 10
2.88327
 20
3.205246
 10
2.890436
 20
3.203241
 10
2.896087
 20
3.200925
 10
2.901495
 20
3.197887
 10
2.916667
 20
3.188007
 10
2.92646
 20
3.182321
 10
2.937722
 20
3.176696
 10
2.949664
 20
3.171338
 10
2.961494
 20
3.166452
 10
2.98166
 20
3.158925
 10
2.991902
 20
3.155764
  0
LWPOLYLINE
  5
2C
330
1F
100
AcDbEntity
  8
0
100
AcDbPolyline
 90
       51
 70
   128
 43
0.0
 10
2.943201
 20
3.264344
 10
2.937679
 20
3.267473
 10
2.931469
 20
3.27051
 10
2.917936
 20
3.276306
 10
2.904495
 20
3.28173
 10
2.893039
 20
3.286783
 10
2.883465
 20
3.291069
 10
2.880078
 20
3.292162
 10
2.877489
 20
3.292606
 10
2.875598
 20
3.29244
 10
2.874304
 20
3.291702
 10
2.873506
 20
3.29043
 10
2.873103
 20
3.288663
 10
2.873079
 20
3.283796
 10
2.873425
 20
3.277407
 10
2.873335
 20
3.269803
 10
2.872873
 20
3.265641
 10
2.872001
 20
3.261291
 10
2.871199
 20
3.256224
 10
2.871505
 20
3.252457
 10
2.872626
 20
3.249772
 10
2.874269
 20
3.247951
 10
2.877954
 20
3.24603
 10
2.879409
 20
3.245495
 10
2.880217
 20
3.244952
 10
2.883404
 20
3.240609
 10
2.887051
 20
3.236937
 10
2.891089
 20
3.233897
 10
2.895443
 20
3.231451
 10
2.900043
 20
3.229561
 10
2.904817
 20
3.22819
 10
2.909691
 20
3.227299
 10
2.914594
 20
3.226849
 10
2.919454
 20
3.226804
 10
2.924199
 20
3.227125
 10
2.928757
 20
3.227774
 10
2.933055
 20
3.228713
 10
2.937022
 20
3.229904
 10
2.940585
 20
3.231308
 10
2.943673
 20
3.232889
 10
2.946213
 20
3.234608
 10
2.953184
 20
3.23959
 10
2.95883
 20
3.243046
 10
2.962763
 20
3.245556
 10
2.963967
 20
3.24664
 10
2.964598
 20
3.247705
 10
2.964607
 20
3.248826
 10
2.963946
 20
3.250076
 10
2.962567
 20
3.251526
 10
2.96042
 20
3.25325
 10
2.943201
 20
3.264344
  0
LWPOLYLINE
  5
2D
330
1F
100
AcDbEntity
  8
0
100
AcDbPolyline
 90
       91
 70
   128
 43
0.0
 10
2.113245
 20
3.912482
 10
2.114103
 20
3.919551
 10
2.11631
 20
3.931121
 10
2.119312
 20
3.943377
 10
2.120939
 20
3.948571
 10
2.122558
 20
3.952506
 10
2.125059
 20
3.956516
 10
2.127753
 20
3.959218
 10
2.130684
 20
3.960961
 10
2.133892
 20
3.962097
 10
2.14131
 20
3.963944
 10
2.145604
 20
3.965356
 10
2.150344
 20
3.967561
 10
2.166189
 20
3.975732
 10
2.179855
 20
3.981747
 10
2.185878
 20
3.983947
 10
2.191363
 20
3.985608
 10
2.196313
 20
3.986731
 10
2.200732
 20
3.987316
 10
2.204621
 20
3.987364
 10
2.207983
 20
3.986874
 10
2.210821
 20
3.985846
 10
2.213137
 20
3.984282
 10
2.214934
 20
3.98218
 10
2.216214
 20
3.979541
 10
2.216981
 20
3.976366
 10
2.217235
 20
3.972655
 10
2.217735
 20
3.966756
 10
2.218379
 20
3.964134
 10
2.219301
 20
3.96175
 10
2.220515
 20
3.95962
 10
2.222033
 20
3.957758
 10
2.223867
 20
3.95618
 10
2.226029
 20
3.954902
 10
2.228533
 20
3.953937
 10
2.23139
 20
3.953302
 10
2.234614
 20
3.953011
 10
2.238215
 20
3.953081
 10
2.242208
 20
3.953525
 10
2.246604
 20
3.954359
 10
2.256656
 20
3.957259
 10
2.261001
 20
3.958865
 10
2.264733
 20
3.960588
 10
2.267818
 20
3.962568
 10
2.270222
 20
3.964946
 10
2.271911
 20
3.967864
 10
2.27285
 20
3.971461
 10
2.273006
 20
3.975879
 10
2.272344
 20
3.981258
 10
2.270831
 20
3.987739
 10
2.268432
 20
3.995462
 10
2.265112
 20
4.004569
 10
2.260839
 20
4.0152
 10
2.249293
 20
4.041598
 10
2.233522
 20
4.07578
 10
2.191642
 20
4.165363
 10
2.18408
 20
4.165204
 10
2.179918
 20
4.164446
 10
2.174176
 20
4.162501
 10
2.167611
 20
4.159662
 10
2.160982
 20
4.156226
 10
2.145445
 20
4.147407
 10
2.099277
 20
4.015878
 10
2.090122
 20
3.991259
 10
2.082699
 20
3.971882
 10
2.074961
 20
3.950463
 10
2.068093
 20
3.929006
 10
2.065356
 20
3.918889
 10
2.063281
 20
3.909513
 10
2.062017
 20
3.901129
 10
2.061712
 20
3.893986
 10
2.061965
 20
3.890959
 10
2.062514
 20
3.888337
 10
2.063376
 20
3.88615
 10
2.064571
 20
3.88443
 10
2.067377
 20
3.882109
 10
2.070599
 20
3.880652
 10
2.074155
 20
3.879991
 10
2.077961
 20
3.880056
 10
2.081936
 20
3.880779
 10
2.085998
 20
3.882091
 10
2.090063
 20
3.883923
 10
2.09405
 20
3.886207
 10
2.097876
 20
3.888874
 10
2.10146
 20
3.891855
 10
2.104718
 20
3.89508
 10
2.107568
 20
3.898483
 10
2.109928
 20
3.901993
 10
2.111716
 20
3.905542
 10
2.112849
 20
3.909061
 10
2.113245
 20
3.912482
  0
LWPOLYLINE
  5
2E
330
1F
100
AcDbEntity
  8
0
100
AcDbPolyline
 90
      161
 70
   128
 43
0.0
 10
3.802274
 20
3.950577
 10
3.768803
 20
3.96444
 10
3.757051
 20
3.969432
 10
3.74818
 20
3.973798
 10
3.74472
 20
3.975903
 10
3.741857
 20
3.97804
 10
3.739548
 20
3.980271
 10
3.737751
 20
3.98266
 10
3.736426
 20
3.985267
 10
3.735531
 20
3.988157
 10
3.735024
 20
3.991392
 10
3.734865
 20
3.995034
 10
3.734837
 20
4.005437
 10
3.735242
 20
4.013688
 10
3.735835
 20
4.016958
 10
3.736811
 20
4.01963
 10
3.738261
 20
4.021684
 10
3.740277
 20
4.023102
 10
3.742949
 20
4.023862
 10
3.74637
 20
4.023945
 10
3.750631
 20
4.023332
 10
3.755822
 20
4.022001
 10
3.762037
 20
4.019934
 10
3.769366
 20
4.01711
 10
3.787733
 20
4.009113
 10
3.805962
 20
4.001078
 10
3.819481
 20
3.995883
 10
3.824694
 20
3.994298
 10
3.828992
 20
3.993361
 10
3.832464
 20
3.993051
 10
3.835198
 20
3.993347
 10
3.837281
 20
3.994228
 10
3.838802
 20
3.995674
 10
3.839847
 20
3.997664
 10
3.840506
 20
4.000178
 10
3.841013
 20
4.00669
 10
3.841026
 20
4.015046
 10
3.840824
 20
4.017535
 10
3.840218
 20
4.019887
 10
3.839203
 20
4.022125
 10
3.837778
 20
4.02427
 10
3.83594
 20
4.026345
 10
3.833684
 20
4.028371
 10
3.827911
 20
4.032367
 10
3.820437
 20
4.036436
 10
3.811237
 20
4.040755
 10
3.787567
 20
4.05085
 10
3.773268
 20
4.057119
 10
3.761589
 20
4.062906
 10
3.75231
 20
4.068405
 10
3.748502
 20
4.071108
 10
3.745211
 20
4.073813
 10
3.74241
 20
4.076544
 10
3.740072
 20
4.079326
 10
3.738169
 20
4.082184
 10
3.736674
 20
4.085141
 10
3.735559
 20
4.088223
 10
3.734796
 20
4.091453
 10
3.734359
 20
4.094857
 10
3.734219
 20
4.09846
 10
3.734638
 20
4.10742
 10
3.735717
 20
4.113625
 10
3.737188
 20
4.117297
 10
3.737987
 20
4.118251
 10
3.738784
 20
4.118653
 10
3.742183
 20
4.118702
 10
3.746883
 20
4.11792
 10
3.752829
 20
4.116342
 10
3.759968
 20
4.114
 10
3.777607
 20
4.107156
 10
3.799366
 20
4.097655
 10
3.822147
 20
4.087635
 10
3.839581
 20
4.080765
 10
3.846515
 20
4.078452
 10
3.852379
 20
4.076856
 10
3.857262
 20
4.075952
 10
3.861253
 20
4.075718
 10
3.864442
 20
4.076129
 10
3.866917
 20
4.077162
 10
3.868766
 20
4.078793
 10
3.87008
 20
4.080999
 10
3.870947
 20
4.083756
 10
3.871456
 20
4.08704
 10
3.871756
 20
4.095095
 10
3.871483
 20
4.09753
 10
3.870653
 20
4.099976
 10
3.869253
 20
4.102452
 10
3.867271
 20
4.104973
 10
3.864691
 20
4.107557
 10
3.861501
 20
4.110221
 10
3.853236
 20
4.115854
 10
3.842367
 20
4.122007
 10
3.828786
 20
4.128813
 10
3.812384
 20
4.136408
 10
3.793055
 20
4.144925
 10
3.783922
 20
4.14924
 10
3.774577
 20
4.154135
 10
3.764913
 20
4.159312
 10
3.754823
 20
4.164476
 10
3.744199
 20
4.169328
 10
3.732936
 20
4.173571
 10
3.727031
 20
4.175371
 10
3.720926
 20
4.176908
 10
3.714607
 20
4.178143
 10
3.708062
 20
4.179041
 10
3.703453
 20
4.17962
 10
3.698211
 20
4.179902
 10
3.695777
 20
4.179637
 10
3.693693
 20
4.178945
 10
3.692129
 20
4.177709
 10
3.691254
 20
4.17581
 10
3.689294
 20
4.163664
 10
3.688301
 20
4.151288
 10
3.688049
 20
4.138578
 10
3.688315
 20
4.125429
 10
3.689498
 20
4.097392
 10
3.689966
 20
4.082295
 10
3.690052
 20
4.066339
 10
3.688685
 20
4.026254
 10
3.687854
 20
4.009745
 10
3.687377
 20
3.995368
 10
3.68759
 20
3.982956
 10
3.688061
 20
3.977436
 10
3.688831
 20
3.972343
 10
3.689944
 20
3.967659
 10
3.69144
 20
3.963361
 10
3.693362
 20
3.95943
 10
3.695753
 20
3.955843
 10
3.698113
 20
3.953163
 10
3.700862
 20
3.950705
 10
3.703991
 20
3.948434
 10
3.707488
 20
3.946318
 10
3.715546
 20
3.942409
 10
3.724953
 20
3.938705
 10
3.747479
 20
3.930824
 10
3.760431
 20
3.926101
 10
3.774398
 20
3.920491
 10
3.831885
 20
3.895066
 10
3.836656
 20
3.892804
 10
3.843454
 20
3.889295
 10
3.847678
 20
3.887552
 10
3.852486
 20
3.88607
 10
3.857905
 20
3.885041
 10
3.86396
 20
3.884655
 10
3.865028
 20
3.884808
 10
3.865918
 20
3.885254
 10
3.867214
 20
3.886935
 10
3.867956
 20
3.889524
 10
3.868251
 20
3.892847
 10
3.867927
 20
3.900994
 10
3.8671
 20
3.909982
 10
3.866643
 20
3.912763
 10
3.865775
 20
3.915354
 10
3.86448
 20
3.91779
 10
3.862744
 20
3.920103
 10
3.860553
 20
3.922328
 10
3.857893
 20
3.924498
 10
3.851105
 20
3.928808
 10
3.842264
 20
3.933302
 10
3.831256
 20
3.938248
 10
3.802274
 20
3.950577
  0
LWPOLYLINE
  5
2F
330
1F
100
AcDbEntity
  8
0
100
AcDbPolyline
 90
       48
 70
   128
 43
0.0
 10
2.356835
 20
4.107974
 10
2.356835
 20
4.216217
 10
2.347555
 20
4.221353
 10
2.344986
 20
4.222159
 10
2.341315
 20
4.222486
 10
2.336851
 20
4.222373
 10
2.331903
 20
4.221859
 10
2.32678
 20
4.220984
 10
2.321793
 20
4.219787
 10
2.31725
 20
4.218308
 10
2.313461
 20
4.216585
 10
2.311398
 20
4.21507
 10
2.309699
 20
4.212989
 10
2.308331
 20
4.210295
 10
2.307263
 20
4.206942
 10
2.306465
 20
4.202885
 10
2.305903
 20
4.198075
 10
2.305367
 20
4.186014
 10
2.305759
 20
4.150825
 10
2.306184
 20
4.126953
 10
2.306426
 20
4.0984
 10
2.305992
 20
4.085214
 10
2.30489
 20
4.070764
 10
2.302188
 20
4.039757
 10
2.30134
 20
4.024047
 10
2.301331
 20
4.008763
 10
2.301759
 20
4.001412
 10
2.302538
 20
3.994326
 10
2.303714
 20
3.987557
 10
2.305336
 20
3.98116
 10
2.306061
 20
3.980116
 10
2.307441
 20
3.979435
 10
2.3094
 20
3.979086
 10
2.311857
 20
3.979037
 10
2.317955
 20
3.979714
 10
2.32511
 20
3.981213
 10
2.332694
 20
3.983282
 10
2.340081
 20
3.985671
 10
2.346644
 20
3.988126
 10
2.351757
 20
3.990397
 10
2.352795
 20
3.991174
 10
2.353684
 20
3.992489
 10
2.354436
 20
3.994414
 10
2.355062
 20
3.997021
 10
2.355979
 20
4.004574
 10
2.356528
 20
4.015729
 10
2.356879
 20
4.051165
 10
2.356835
 20
4.107974
  0
LWPOLYLINE
  5
30
330
1F
100
AcDbEntity
  8
0
100
AcDbPolyline
 90
       33
 70
   128
 43
0.0
 10
2.142993
 20
4.009113
 10
2.14706
 20
4.009951
 10
2.153718
 20
4.012231
 10
2.162044
 20
4.015607
 10
2.171117
 20
4.019728
 10
2.177437
 20
4.023013
 10
2.182139
 20
4.026186
 10
2.183901
 20
4.02781
 10
2.185281
 20
4.029502
 10
2.186285
 20
4.031294
 10
2.186921
 20
4.033217
 10
2.187196
 20
4.035304
 10
2.187117
 20
4.037586
 10
2.185927
 20
4.042863
 10
2.183408
 20
4.049305
 10
2.179619
 20
4.057166
 10
2.175086
 20
4.065947
 10
2.171502
 20
4.072088
 10
2.169964
 20
4.07413
 10
2.168539
 20
4.075466
 10
2.167188
 20
4.07608
 10
2.165867
 20
4.075956
 10
2.164537
 20
4.07508
 10
2.163156
 20
4.073434
 10
2.160077
 20
4.067776
 10
2.151495
 20
4.046551
 10
2.146346
 20
4.032015
 10
2.143027
 20
4.020111
 10
2.14214
 20
4.01553
 10
2.141816
 20
4.012067
 10
2.142088
 20
4.009877
 10
2.142459
 20
4.009307
 10
2.142993
 20
4.009113
  0
LWPOLYLINE
  5
31
330
1F
100
AcDbEntity
  8
0
100
AcDbPolyline
 90
      118
 70
   128
 43
0.0
 10
2.440375
 20
4.071784
 10
2.441672
 20
4.085599
 10
2.44328
 20
4.096496
 10
2.444276
 20
4.100967
 10
2.445443
 20
4.104847
 10
2.44681
 20
4.108183
 10
2.448407
 20
4.111021
 10
2.450266
 20
4.113407
 10
2.452417
 20
4.115388
 10
2.45489
 20
4.11701
 10
2.457717
 20
4.118319
 10
2.460928
 20
4.119362
 10
2.464552
 20
4.120185
 10
2.473168
 20
4.121354
 10
2.481097
 20
4.121671
 10
2.488411
 20
4.120913
 10
2.491897
 20
4.120096
 10
2.495299
 20
4.118967
 10
2.498642
 20
4.117514
 10
2.501949
 20
4.115722
 10
2.508549
 20
4.111065
 10
2.515286
 20
4.104883
 10
2.522349
 20
4.097066
 10
2.529926
 20
4.0875
 10
2.538766
 20
4.075952
 10
2.54884
 20
4.063655
 10
2.554008
 20
4.057916
 10
2.559085
 20
4.052818
 10
2.563938
 20
4.048636
 10
2.568434
 20
4.045647
 10
2.571682
 20
4.044109
 10
2.574798
 20
4.043046
 10
2.577785
 20
4.042429
 10
2.580649
 20
4.042227
 10
2.583393
 20
4.042409
 10
2.586021
 20
4.042945
 10
2.588538
 20
4.043805
 10
2.590949
 20
4.044959
 10
2.595467
 20
4.048028
 10
2.59961
 20
4.051908
 10
2.603413
 20
4.056358
 10
2.606909
 20
4.061135
 10
2.607476
 20
4.062379
 10
2.60771
 20
4.06396
 10
2.607231
 20
4.068036
 10
2.605571
 20
4.073169
 10
2.602826
 20
4.079168
 10
2.599095
 20
4.085842
 10
2.594477
 20
4.092997
 10
2.58907
 20
4.100441
 10
2.582971
 20
4.107983
 10
2.572619
 20
4.119193
 10
2.564094
 20
4.127015
 10
2.557502
 20
4.132291
 10
2.552949
 20
4.13586
 10
2.55147
 20
4.137267
 10
2.550542
 20
4.138563
 10
2.550176
 20
4.139852
 10
2.550387
 20
4.14124
 10
2.551187
 20
4.142831
 10
2.55259
 20
4.144731
 10
2.557259
 20
4.149877
 10
2.559709
 20
4.152762
 10
2.562273
 20
4.156342
 10
2.567584
 20
4.165203
 10
2.572863
 20
4.175691
 10
2.577782
 20
4.187039
 10
2.582014
 20
4.198479
 10
2.58523
 20
4.209242
 10
2.587101
 20
4.218561
 10
2.587431
 20
4.222439
 10
2.587301
 20
4.225668
 10
2.58587
 20
4.232998
 10
2.583572
 20
4.239589
 10
2.580403
 20
4.245444
 10
2.576359
 20
4.250562
 10
2.571434
 20
4.254945
 10
2.565626
 20
4.258594
 10
2.558929
 20
4.26151
 10
2.551338
 20
4.263693
 10
2.54285
 20
4.265146
 10
2.53346
 20
4.265869
 10
2.523164
 20
4.265862
 10
2.511957
 20
4.265128
 10
2.499834
 20
4.263666
 10
2.486791
 20
4.261478
 10
2.472825
 20
4.258565
 10
2.457929
 20
4.254929
 10
2.43608
 20
4.249018
 10
2.42724
 20
4.246187
 10
2.419661
 20
4.243181
 10
2.413245
 20
4.239809
 10
2.407896
 20
4.235877
 10
2.405591
 20
4.233642
 10
2.403516
 20
4.231194
 10
2.40166
 20
4.22851
 10
2.400009
 20
4.225565
 10
2.397278
 20
4.218799
 10
2.395226
 20
4.210703
 10
2.393755
 20
4.201084
 10
2.392769
 20
4.18975
 10
2.392171
 20
4.176508
 10
2.391864
 20
4.161165
 10
2.391735
 20
4.123406
 10
2.391735
 20
4.009113
 10
2.424092
 20
4.012293
 10
2.428186
 20
4.012568
 10
2.431531
 20
4.013238
 10
2.434202
 20
4.014317
 10
2.436269
 20
4.015819
 10
2.437805
 20
4.017756
 10
2.438884
 20
4.020144
 10
2.439576
 20
4.022995
 10
2.439955
 20
4.026324
 10
2.440061
 20
4.034468
 10
2.43978
 20
4.044686
 10
2.439692
 20
4.057089
 10
2.440375
 20
4.071784
  0
LWPOLYLINE
  5
32
330
1F
100
AcDbEntity
  8
0
100
AcDbPolyline
 90
      126
 70
   128
 43
0.0
 10
3.380837
 20
4.104078
 10
3.36976
 20
4.120337
 10
3.361681
 20
4.132827
 10
3.356477
 20
4.142206
 10
3.354914
 20
4.145935
 10
3.354022
 20
4.149133
 10
3.353787
 20
4.151883
 10
3.354192
 20
4.154267
 10
3.355223
 20
4.156367
 10
3.356862
 20
4.158265
 10
3.359096
 20
4.160045
 10
3.361908
 20
4.161788
 10
3.369204
 20
4.165493
 10
3.374318
 20
4.168242
 10
3.378816
 20
4.171276
 10
3.382712
 20
4.174574
 10
3.386017
 20
4.178115
 10
3.388746
 20
4.181877
 10
3.39091
 20
4.18584
 10
3.392523
 20
4.189984
 10
3.393598
 20
4.194286
 10
3.394147
 20
4.198727
 10
3.394185
 20
4.203285
 10
3.393722
 20
4.20794
 10
3.392773
 20
4.21267
 10
3.391351
 20
4.217455
 10
3.389468
 20
4.222274
 10
3.387137
 20
4.227106
 10
3.384371
 20
4.231929
 10
3.381183
 20
4.236724
 10
3.377587
 20
4.24147
 10
3.373594
 20
4.246144
 10
3.369218
 20
4.250728
 10
3.364472
 20
4.255198
 10
3.359369
 20
4.259536
 10
3.353922
 20
4.263719
 10
3.348143
 20
4.267727
 10
3.342045
 20
4.27154
 10
3.335643
 20
4.275135
 10
3.328947
 20
4.278493
 10
3.321972
 20
4.281592
 10
3.31473
 20
4.284412
 10
3.307234
 20
4.286931
 10
3.299498
 20
4.289129
 10
3.291533
 20
4.290985
 10
3.254733
 20
4.299232
 10
3.239394
 20
4.30262
 10
3.226107
 20
4.305026
 10
3.220237
 20
4.305746
 10
3.214882
 20
4.306083
 10
3.210046
 20
4.30599
 10
3.205728
 20
4.305421
 10
3.20193
 20
4.304331
 10
3.198653
 20
4.302672
 10
3.195898
 20
4.3004
 10
3.193667
 20
4.297468
 10
3.192223
 20
4.294448
 10
3.191169
 20
4.29089
 10
3.190465
 20
4.286795
 10
3.190069
 20
4.282168
 10
3.190037
 20
4.271328
 10
3.190746
 20
4.258393
 10
3.193075
 20
4.226337
 10
3.194039
 20
4.207266
 10
3.194434
 20
4.186197
 10
3.194434
 20
4.071613
 10
3.2177
 20
4.071613
 10
3.224391
 20
4.07199
 10
3.227207
 20
4.072517
 10
3.229697
 20
4.073322
 10
3.231879
 20
4.074442
 10
3.233772
 20
4.075916
 10
3.235395
 20
4.077782
 10
3.236766
 20
4.080077
 10
3.237905
 20
4.08284
 10
3.238831
 20
4.086109
 10
3.240119
 20
4.094318
 10
3.24078
 20
4.10501
 10
3.240967
 20
4.118488
 10
3.241383
 20
4.136689
 10
3.242515
 20
4.151594
 10
3.243295
 20
4.157329
 10
3.24419
 20
4.161664
 10
3.245178
 20
4.164406
 10
3.245699
 20
4.16512
 10
3.246236
 20
4.165363
 10
3.255584
 20
4.164912
 10
3.265733
 20
4.163522
 10
3.27622
 20
4.161137
 10
3.286583
 20
4.157703
 10
3.291572
 20
4.155575
 10
3.296357
 20
4.153164
 10
3.300879
 20
4.150463
 10
3.305081
 20
4.147465
 10
3.308903
 20
4.144163
 10
3.31229
 20
4.140551
 10
3.315182
 20
4.136621
 10
3.317521
 20
4.132367
 10
3.324491
 20
4.117644
 10
3.332352
 20
4.10196
 10
3.340876
 20
4.086216
 10
3.349837
 20
4.071313
 10
3.35441
 20
4.064459
 10
3.359007
 20
4.058153
 10
3.363599
 20
4.052508
 10
3.368159
 20
4.047637
 10
3.372658
 20
4.043652
 10
3.377066
 20
4.040666
 10
3.381357
 20
4.038792
 10
3.383449
 20
4.038307
 10
3.385502
 20
4.038142
 10
3.393688
 20
4.03862
 10
3.397206
 20
4.039305
 10
3.400267
 20
4.040368
 10
3.402814
 20
4.041867
 10
3.404791
 20
4.043861
 10
3.406141
 20
4.04641
 10
3.406809
 20
4.049573
 10
3.406738
 20
4.053409
 10
3.405872
 20
4.057977
 10
3.404155
 20
4.063336
 10
3.401531
 20
4.069546
 10
3.397943
 20
4.076666
 10
3.393335
 20
4.084756
 10
3.387652
 20
4.093873
 10
3.380837
 20
4.104078
  0
LWPOLYLINE
  5
33
330
1F
100
AcDbEntity
  8
0
100
AcDbPolyline
 90
      100
 70
   128
 43
0.0
 10
2.819868
 20
4.097345
 10
2.825688
 20
4.102555
 10
2.830931
 20
4.107905
 10
2.835568
 20
4.113369
 10
2.83957
 20
4.118921
 10
2.84291
 20
4.124537
 10
2.84556
 20
4.130191
 10
2.84749
 20
4.135858
 10
2.848674
 20
4.141511
 10
2.849082
 20
4.147125
 10
2.848686
 20
4.152675
 10
2.847459
 20
4.158135
 10
2.845372
 20
4.16348
 10
2.842397
 20
4.168684
 10
2.838505
 20
4.173721
 10
2.833669
 20
4.178567
 10
2.82786
 20
4.183195
 10
2.824301
 20
4.186034
 10
2.821471
 20
4.188896
 10
2.819311
 20
4.191762
 10
2.817763
 20
4.194614
 10
2.816767
 20
4.197432
 10
2.816265
 20
4.200197
 10
2.816197
 20
4.20289
 10
2.816506
 20
4.205492
 10
2.818017
 20
4.210347
 10
2.820325
 20
4.214611
 10
2.822962
 20
4.218131
 10
2.825455
 20
4.220754
 10
2.828788
 20
4.224402
 10
2.831468
 20
4.228426
 10
2.833522
 20
4.232768
 10
2.834974
 20
4.23737
 10
2.835849
 20
4.242174
 10
2.836172
 20
4.247122
 10
2.835969
 20
4.252156
 10
2.835263
 20
4.257216
 10
2.834081
 20
4.262246
 10
2.832447
 20
4.267186
 10
2.830387
 20
4.271979
 10
2.827925
 20
4.276566
 10
2.825086
 20
4.280889
 10
2.821896
 20
4.28489
 10
2.818379
 20
4.28851
 10
2.814561
 20
4.291692
 10
2.809332
 20
4.294768
 10
2.802546
 20
4.297444
 10
2.794356
 20
4.299696
 10
2.784917
 20
4.3015
 10
2.774382
 20
4.30283
 10
2.762905
 20
4.303664
 10
2.750641
 20
4.303977
 10
2.737743
 20
4.303745
 10
2.698121
 20
4.303135
 10
2.681567
 20
4.303002
 10
2.667228
 20
4.302403
 10
2.660899
 20
4.301792
 10
2.655137
 20
4.300902
 10
2.649945
 20
4.299677
 10
2.645328
 20
4.298063
 10
2.64129
 20
4.296005
 10
2.637835
 20
4.29345
 10
2.634966
 20
4.290342
 10
2.632689
 20
4.286628
 10
2.631342
 20
4.28318
 10
2.630421
 20
4.27926
 10
2.629878
 20
4.274867
 10
2.629667
 20
4.270003
 10
2.630055
 20
4.258862
 10
2.631211
 20
4.245843
 10
2.63433
 20
4.214188
 10
2.635546
 20
4.195562
 10
2.636035
 20
4.175078
 10
2.635719
 20
4.163201
 10
2.63494
 20
4.152703
 10
2.632991
 20
4.132891
 10
2.632323
 20
4.1221
 10
2.632194
 20
4.109735
 10
2.632853
 20
4.095059
 10
2.634552
 20
4.077333
 10
2.635134
 20
4.075553
 10
2.636432
 20
4.073295
 10
2.638291
 20
4.070786
 10
2.640556
 20
4.068256
 10
2.643071
 20
4.065933
 10
2.645683
 20
4.064046
 10
2.648237
 20
4.062824
 10
2.650576
 20
4.062496
 10
2.683339
 20
4.065518
 10
2.712516
 20
4.068528
 10
2.738244
 20
4.071725
 10
2.760656
 20
4.075302
 10
2.770662
 20
4.077295
 10
2.77989
 20
4.079457
 10
2.788357
 20
4.081812
 10
2.796079
 20
4.084385
 10
2.803075
 20
4.0872
 10
2.80936
 20
4.090283
 10
2.814952
 20
4.093656
 10
2.819868
 20
4.097345
  0
LWPOLYLINE
  5
34
330
1F
100
AcDbEntity
  8
0
100
AcDbPolyline
 90
       81
 70
   128
 43
0.0
 10
3.141938
 20
4.144277
 10
3.145864
 20
4.151406
 10
3.149265
 20
4.158306
 10
3.152139
 20
4.16501
 10
3.154486
 20
4.171553
 10
3.156306
 20
4.177966
 10
3.157599
 20
4.184286
 10
3.158366
 20
4.190544
 10
3.158605
 20
4.196775
 10
3.158316
 20
4.203012
 10
3.1575
 20
4.209289
 10
3.156156
 20
4.215639
 10
3.154285
 20
4.222097
 10
3.151886
 20
4.228696
 10
3.148958
 20
4.235469
 10
3.145503
 20
4.242451
 10
3.141519
 20
4.249674
 10
3.134743
 20
4.260329
 10
3.127298
 20
4.270061
 10
3.11924
 20
4.278883
 10
3.11063
 20
4.286807
 10
3.101523
 20
4.293846
 10
3.09198
 20
4.300012
 10
3.082056
 20
4.305317
 10
3.071811
 20
4.309774
 10
3.061303
 20
4.313395
 10
3.050589
 20
4.316192
 10
3.039728
 20
4.318178
 10
3.028777
 20
4.319364
 10
3.017795
 20
4.319764
 10
3.006839
 20
4.319389
 10
2.995968
 20
4.318252
 10
2.98524
 20
4.316365
 10
2.974712
 20
4.313741
 10
2.964443
 20
4.310391
 10
2.954491
 20
4.306328
 10
2.944914
 20
4.301565
 10
2.935769
 20
4.296113
 10
2.927115
 20
4.289986
 10
2.91901
 20
4.283194
 10
2.911512
 20
4.275752
 10
2.904678
 20
4.26767
 10
2.898568
 20
4.258962
 10
2.893238
 20
4.249639
 10
2.888748
 20
4.239714
 10
2.885154
 20
4.229199
 10
2.882515
 20
4.218107
 10
2.880889
 20
4.20645
 10
2.880334
 20
4.19424
 10
2.880912
 20
4.183533
 10
2.882605
 20
4.173296
 10
2.885351
 20
4.163543
 10
2.889086
 20
4.154283
 10
2.893748
 20
4.145531
 10
2.899276
 20
4.137297
 10
2.905605
 20
4.129593
 10
2.912675
 20
4.122432
 10
2.920423
 20
4.115825
 10
2.928785
 20
4.109784
 10
2.9377
 20
4.104321
 10
2.947105
 20
4.099448
 10
2.956938
 20
4.095177
 10
2.967136
 20
4.091521
 10
2.977636
 20
4.08849
 10
2.988377
 20
4.086096
 10
2.999296
 20
4.084353
 10
3.01033
 20
4.083271
 10
3.021417
 20
4.082863
 10
3.032494
 20
4.08314
 10
3.0435
 20
4.084114
 10
3.05437
 20
4.085798
 10
3.065044
 20
4.088203
 10
3.075459
 20
4.091342
 10
3.085551
 20
4.095225
 10
3.095259
 20
4.099866
 10
3.10452
 20
4.105276
 10
3.113272
 20
4.111466
 10
3.121452
 20
4.11845
 10
3.128998
 20
4.126238
 10
3.135848
 20
4.134843
 10
3.141938
 20
4.144277
  0
LWPOLYLINE
  5
35
330
1F
100
AcDbEntity
  8
0
100
AcDbPolyline
 90
       54
 70
   128
 43
0.0
 10
2.730778
 20
4.116327
 10
2.740661
 20
4.117772
 10
2.750265
 20
4.119665
 10
2.759353
 20
4.121925
 10
2.767687
 20
4.124473
 10
2.775029
 20
4.127227
 10
2.781142
 20
4.130108
 10
2.785787
 20
4.133035
 10
2.787485
 20
4.134491
 10
2.788727
 20
4.135927
 10
2.791167
 20
4.139767
 10
2.792945
 20
4.14343
 10
2.794049
 20
4.146909
 10
2.79447
 20
4.150194
 10
2.794198
 20
4.153278
 10
2.793223
 20
4.156152
 10
2.791534
 20
4.158808
 10
2.789122
 20
4.161239
 10
2.785977
 20
4.163435
 10
2.782088
 20
4.165389
 10
2.777445
 20
4.167092
 10
2.772039
 20
4.168536
 10
2.765859
 20
4.169713
 10
2.758895
 20
4.170614
 10
2.751137
 20
4.171232
 10
2.742575
 20
4.171557
 10
2.735274
 20
4.171544
 10
2.728451
 20
4.17121
 10
2.722104
 20
4.170563
 10
2.716234
 20
4.169609
 10
2.710838
 20
4.168357
 10
2.705916
 20
4.166811
 10
2.701468
 20
4.164981
 10
2.697491
 20
4.162871
 10
2.693986
 20
4.160491
 10
2.690951
 20
4.157846
 10
2.688386
 20
4.154943
 10
2.686289
 20
4.15179
 10
2.68466
 20
4.148393
 10
2.683497
 20
4.144759
 10
2.6828
 20
4.140896
 10
2.682568
 20
4.13681
 10
2.682774
 20
4.128588
 10
2.683119
 20
4.125246
 10
2.683704
 20
4.122382
 10
2.684587
 20
4.119973
 10
2.685827
 20
4.117994
 10
2.687483
 20
4.116419
 10
2.689614
 20
4.115223
 10
2.692277
 20
4.114382
 10
2.695533
 20
4.11387
 10
2.704054
 20
4.113736
 10
2.715645
 20
4.114621
 10
2.730778
 20
4.116327
  0
LWPOLYLINE
  5
36
330
1F
100
AcDbEntity
  8
0
100
AcDbPolyline
 90
       73
 70
   128
 43
0.0
 10
3.021223
 20
4.123697
 10
3.028495
 20
4.123939
 10
3.035479
 20
4.124651
 10
3.042168
 20
4.12581
 10
3.048554
 20
4.127397
 10
3.054628
 20
4.129387
 10
3.060382
 20
4.13176
 10
3.065808
 20
4.134495
 10
3.070898
 20
4.137568
 10
3.075643
 20
4.140959
 10
3.080036
 20
4.144646
 10
3.084068
 20
4.148606
 10
3.087732
 20
4.152819
 10
3.091019
 20
4.157262
 10
3.09392
 20
4.161913
 10
3.096428
 20
4.166752
 10
3.098535
 20
4.171755
 10
3.100232
 20
4.176902
 10
3.101512
 20
4.182171
 10
3.102365
 20
4.187539
 10
3.102785
 20
4.192985
 10
3.102762
 20
4.198488
 10
3.102289
 20
4.204025
 10
3.101358
 20
4.209575
 10
3.09996
 20
4.215116
 10
3.098087
 20
4.220626
 10
3.095731
 20
4.226084
 10
3.092884
 20
4.231468
 10
3.089538
 20
4.236755
 10
3.085684
 20
4.241925
 10
3.081314
 20
4.246955
 10
3.076421
 20
4.251823
 10
3.070996
 20
4.256509
 10
3.063772
 20
4.261988
 10
3.05647
 20
4.266844
 10
3.049108
 20
4.271054
 10
3.041708
 20
4.274595
 10
3.034289
 20
4.277445
 10
3.026871
 20
4.27958
 10
3.019474
 20
4.280978
 10
3.012118
 20
4.281616
 10
3.004823
 20
4.281471
 10
2.997608
 20
4.28052
 10
2.990494
 20
4.27874
 10
2.983501
 20
4.276109
 10
2.976648
 20
4.272603
 10
2.969956
 20
4.2682
 10
2.963444
 20
4.262876
 10
2.957132
 20
4.25661
 10
2.948283
 20
4.246619
 10
2.941631
 20
4.238174
 10
2.936883
 20
4.230799
 10
2.933745
 20
4.224018
 10
2.931923
 20
4.217355
 10
2.931124
 20
4.210335
 10
2.931054
 20
4.202481
 10
2.931419
 20
4.193319
 10
2.932277
 20
4.185636
 10
2.934049
 20
4.178304
 10
2.936674
 20
4.171344
 10
2.940093
 20
4.164774
 10
2.944245
 20
4.158616
 10
2.949071
 20
4.152888
 10
2.954512
 20
4.147611
 10
2.960506
 20
4.142805
 10
2.966994
 20
4.138489
 10
2.973917
 20
4.134684
 10
2.981215
 20
4.13141
 10
2.988827
 20
4.128686
 10
2.996693
 20
4.126533
 10
3.004755
 20
4.124971
 10
3.012951
 20
4.124018
 10
3.021223
 20
4.123697
  0
LWPOLYLINE
  5
37
330
1F
100
AcDbEntity
  8
0
100
AcDbPolyline
 90
       51
 70
   128
 43
0.0
 10
2.464135
 20
4.162385
 10
2.474147
 20
4.163576
 10
2.483488
 20
4.165367
 10
2.492132
 20
4.167692
 10
2.500056
 20
4.170482
 10
2.507234
 20
4.17367
 10
2.513642
 20
4.177187
 10
2.519255
 20
4.180966
 10
2.524048
 20
4.18494
 10
2.527998
 20
4.18904
 10
2.531078
 20
4.193198
 10
2.533266
 20
4.197348
 10
2.534534
 20
4.20142
 10
2.53486
 20
4.205348
 10
2.534219
 20
4.209063
 10
2.532585
 20
4.212497
 10
2.529934
 20
4.215584
 10
2.526474
 20
4.218257
 10
2.522434
 20
4.220541
 10
2.517888
 20
4.222437
 10
2.512914
 20
4.223946
 10
2.507588
 20
4.225068
 10
2.501987
 20
4.225805
 10
2.496186
 20
4.226156
 10
2.490262
 20
4.226123
 10
2.484291
 20
4.225706
 10
2.478349
 20
4.224907
 10
2.472514
 20
4.223726
 10
2.466861
 20
4.222163
 10
2.461466
 20
4.22022
 10
2.456406
 20
4.217897
 10
2.451758
 20
4.215195
 10
2.447597
 20
4.212114
 10
2.445579
 20
4.209814
 10
2.444211
 20
4.207017
 10
2.443371
 20
4.203874
 10
2.442936
 20
4.200532
 10
2.442783
 20
4.193844
 10
2.442765
 20
4.188143
 10
2.442118
 20
4.182037
 10
2.441292
 20
4.176562
 10
2.440851
 20
4.171815
 10
2.440951
 20
4.169744
 10
2.441358
 20
4.167892
 10
2.442143
 20
4.16627
 10
2.443377
 20
4.16489
 10
2.445129
 20
4.163766
 10
2.44747
 20
4.162908
 10
2.450471
 20
4.162328
 10
2.454202
 20
4.16204
 10
2.464135
 20
4.162385
  0
LWPOLYLINE
  5
38
330
1F
100
AcDbEntity
  8
0
100
AcDbPolyline
 90
       51
 70
   128
 43
0.0
 10
3.307278
 20
4.193237
 10
3.317238
 20
4.195368
 10
3.325664
 20
4.197935
 10
3.33257
 20
4.200891
 10
3.337971
 20
4.204189
 10
3.341881
 20
4.207782
 10
3.343281
 20
4.209674
 10
3.344314
 20
4.211622
 10
3.344981
 20
4.213621
 10
3.345284
 20
4.215663
 10
3.345224
 20
4.217744
 10
3.344805
 20
4.219858
 10
3.344026
 20
4.221998
 10
3.342891
 20
4.224158
 10
3.339557
 20
4.228518
 10
3.334816
 20
4.232889
 10
3.328684
 20
4.237225
 10
3.321173
 20
4.241479
 10
3.312299
 20
4.245603
 10
3.302075
 20
4.249551
 10
3.290515
 20
4.253274
 10
3.283356
 20
4.255255
 10
3.276076
 20
4.256975
 10
3.268878
 20
4.258313
 10
3.261963
 20
4.259144
 10
3.255533
 20
4.259346
 10
3.249787
 20
4.258795
 10
3.247235
 20
4.258199
 10
3.244929
 20
4.257368
 10
3.242896
 20
4.256288
 10
3.24116
 20
4.254942
 10
3.240013
 20
4.253273
 10
3.239457
 20
4.251128
 10
3.239577
 20
4.245831
 10
3.24044
 20
4.239889
 10
3.240967
 20
4.234138
 10
3.240781
 20
4.224596
 10
3.240952
 20
4.215209
 10
3.241514
 20
4.210808
 10
3.242576
 20
4.206728
 10
3.244275
 20
4.203064
 10
3.246747
 20
4.199908
 10
3.248825
 20
4.198106
 10
3.251194
 20
4.196508
 10
3.256747
 20
4.193908
 10
3.263299
 20
4.192074
 10
3.270742
 20
4.190972
 10
3.278969
 20
4.190571
 10
3.287873
 20
4.190837
 10
3.297345
 20
4.191737
 10
3.307278
 20
4.193237
  0
LWPOLYLINE
  5
39
330
1F
100
AcDbEntity
  8
0
100
AcDbPolyline
 90
       53
 70
   128
 43
0.0
 10
2.712416
 20
4.20703
 10
2.719544
 20
4.207231
 10
2.726587
 20
4.207818
 10
2.733492
 20
4.208765
 10
2.740208
 20
4.21005
 10
2.746684
 20
4.211646
 10
2.752867
 20
4.213529
 10
2.758706
 20
4.215675
 10
2.76415
 20
4.218059
 10
2.769147
 20
4.220656
 10
2.773645
 20
4.223442
 10
2.777592
 20
4.226392
 10
2.780938
 20
4.229481
 10
2.78363
 20
4.232685
 10
2.785616
 20
4.235979
 10
2.786846
 20
4.239339
 10
2.787268
 20
4.24274
 10
2.787017
 20
4.246151
 10
2.786262
 20
4.24926
 10
2.784999
 20
4.252069
 10
2.783223
 20
4.254578
 10
2.780931
 20
4.256788
 10
2.778117
 20
4.258702
 10
2.774778
 20
4.260319
 10
2.770909
 20
4.261642
 10
2.766506
 20
4.262671
 10
2.761564
 20
4.263409
 10
2.756081
 20
4.263855
 10
2.75005
 20
4.264011
 10
2.736332
 20
4.263459
 10
2.720376
 20
4.261762
 10
2.709986
 20
4.26014
 10
2.701589
 20
4.25821
 10
2.694997
 20
4.255824
 10
2.69232
 20
4.254414
 10
2.690023
 20
4.252835
 10
2.688085
 20
4.251068
 10
2.686481
 20
4.249095
 10
2.685188
 20
4.246897
 10
2.684182
 20
4.244456
 10
2.68294
 20
4.23877
 10
2.682568
 20
4.231889
 10
2.682878
 20
4.225153
 10
2.683898
 20
4.219676
 10
2.684716
 20
4.217375
 10
2.685762
 20
4.215348
 10
2.687052
 20
4.213579
 10
2.688603
 20
4.212056
 10
2.690432
 20
4.210764
 10
2.692555
 20
4.20969
 10
2.697752
 20
4.208138
 10
2.704328
 20
4.207288
 10
2.712416
 20
4.20703
  0
LWPOLYLINE
  5
3A
330
1F
100
AcDbEntity
  8
0
100
AcDbPolyline
 90
      181
 70
   128
 43
0.0
 10
2.773726
 20
3.013476
 10
2.773004
 20
3.00465
 10
2.771807
 20
2.994225
 10
2.7708
 20
2.988972
 10
2.7694
 20
2.983989
 10
2.767513
 20
2.9795
 10
2.765049
 20
2.975728
 10
2.762385
 20
2.972822
 10
2.759512
 20
2.970198
 10
2.753323
 20
2.965739
 10
2.746846
 20
2.962232
 10
2.740447
 20
2.959559
 10
2.729343
 20
2.956242
 10
2.722931
 20
2.954843
 10
2.715086
 20
2.953479
 10
2.705136
 20
2.952634
 10
2.693488
 20
2.952294
 10
2.680547
 20
2.95245
 10
2.666719
 20
2.953087
 10
2.65241
 20
2.954195
 10
2.638026
 20
2.955761
 10
2.623972
 20
2.957773
 10
2.592047
 20
2.962737
 10
2.560317
 20
2.9672
 10
2.530035
 20
2.97091
 10
2.502452
 20
2.97361
 10
2.47882
 20
2.975045
 10
2.468877
 20
2.97521
 10
2.460391
 20
2.974962
 10
2.453518
 20
2.974271
 10
2.448415
 20
2.973105
 10
2.446576
 20
2.972334
 10
2.445239
 20
2.971432
 10
2.444422
 20
2.970395
 10
2.444145
 20
2.96922
 10
2.444317
 20
2.967111
 10
2.44483
 20
2.964948
 10
2.446858
 20
2.960476
 10
2.450194
 20
2.955845
 10
2.454799
 20
2.951098
 10
2.460637
 20
2.946275
 10
2.46767
 20
2.941418
 10
2.475862
 20
2.936568
 10
2.485175
 20
2.931768
 10
2.495572
 20
2.927059
 10
2.507016
 20
2.922481
 10
2.51947
 20
2.918078
 10
2.532896
 20
2.913889
 10
2.547257
 20
2.909957
 10
2.562517
 20
2.906324
 10
2.578638
 20
2.90303
 10
2.595583
 20
2.900118
 10
2.616132
 20
2.896651
 10
2.637309
 20
2.892604
 10
2.658507
 20
2.888124
 10
2.67912
 20
2.883357
 10
2.698541
 20
2.878449
 10
2.716162
 20
2.873548
 10
2.731376
 20
2.8688
 10
2.743577
 20
2.864352
 10
2.76355
 20
2.856412
 10
2.779482
 20
2.850622
 10
2.786231
 20
2.848511
 10
2.792329
 20
2.846912
 10
2.797894
 20
2.845815
 10
2.803046
 20
2.845213
 10
2.807905
 20
2.845097
 10
2.812591
 20
2.845458
 10
2.817222
 20
2.846288
 10
2.821919
 20
2.847577
 10
2.831987
 20
2.851503
 10
2.84375
 20
2.857166
 10
2.849626
 20
2.860585
 10
2.854949
 20
2.864626
 10
2.859682
 20
2.869232
 10
2.863784
 20
2.874348
 10
2.867216
 20
2.879919
 10
2.869938
 20
2.885888
 10
2.871913
 20
2.892199
 10
2.873099
 20
2.898798
 10
2.873402
 20
2.905217
 10
2.872984
 20
2.912535
 10
2.871906
 20
2.920499
 10
2.870226
 20
2.928853
 10
2.868004
 20
2.937341
 10
2.865298
 20
2.945708
 10
2.862168
 20
2.953698
 10
2.858673
 20
2.961057
 10
2.825381
 20
3.026191
 10
2.770239
 20
3.135417
 10
2.69954
 20
3.276042
 10
2.668505
 20
3.318805
 10
2.661405
 20
3.328125
 10
2.65432
 20
3.336441
 10
2.647174
 20
3.343773
 10
2.639889
 20
3.350139
 10
2.632388
 20
3.35556
 10
2.624596
 20
3.360056
 10
2.616434
 20
3.363646
 10
2.607826
 20
3.36635
 10
2.598696
 20
3.368187
 10
2.588966
 20
3.369178
 10
2.57856
 20
3.369341
 10
2.567401
 20
3.368697
 10
2.555411
 20
3.367265
 10
2.542514
 20
3.365065
 10
2.528634
 20
3.362116
 10
2.513693
 20
3.358438
 10
2.493237
 20
3.352716
 10
2.473981
 20
3.34651
 10
2.455916
 20
3.339816
 10
2.439035
 20
3.332628
 10
2.423332
 20
3.32494
 10
2.4088
 20
3.316745
 10
2.395431
 20
3.308039
 10
2.383217
 20
3.298815
 10
2.372153
 20
3.289068
 10
2.36223
 20
3.278791
 10
2.357694
 20
3.273452
 10
2.353441
 20
3.267979
 10
2.34947
 20
3.26237
 10
2.34578
 20
3.256625
 10
2.34237
 20
3.250744
 10
2.339239
 20
3.244725
 10
2.336387
 20
3.238568
 10
2.333811
 20
3.232272
 10
2.331512
 20
3.225837
 10
2.329489
 20
3.219261
 10
2.326265
 20
3.205685
 10
2.324249
 20
3.194946
 10
2.323006
 20
3.187032
 10
2.322676
 20
3.18177
 10
2.322896
 20
3.180082
 10
2.323397
 20
3.178992
 10
2.324194
 20
3.178481
 10
2.325307
 20
3.178526
 10
2.328544
 20
3.180201
 10
2.339556
 20
3.189293
 10
2.348128
 20
3.19655
 10
2.356734
 20
3.203168
 10
2.365395
 20
3.208992
 10
2.374135
 20
3.21387
 10
2.382978
 20
3.217648
 10
2.387446
 20
3.219076
 10
2.391947
 20
3.220172
 10
2.396486
 20
3.220916
 10
2.401065
 20
3.22129
 10
2.405688
 20
3.221273
 10
2.410356
 20
3.220848
 10
2.416173
 20
3.21978
 10
2.422067
 20
3.218156
 10
2.428042
 20
3.215995
 10
2.434102
 20
3.213312
 10
2.440251
 20
3.210127
 10
2.446494
 20
3.206455
 10
2.452834
 20
3.202315
 10
2.459276
 20
3.197724
 10
2.472481
 20
3.187259
 10
2.486144
 20
3.1752
 10
2.500297
 20
3.161686
 10
2.514975
 20
3.146856
 10
2.525996
 20
3.136178
 10
2.537723
 20
3.126215
 10
2.550274
 20
3.116895
 10
2.563768
 20
3.108146
 10
2.578325
 20
3.099896
 10
2.594063
 20
3.092073
 10
2.611101
 20
3.084604
 10
2.629558
 20
3.077417
 10
2.656357
 20
3.068032
 10
2.681181
 20
3.059959
 10
2.703763
 20
3.052742
 10
2.723838
 20
3.045923
 10
2.732851
 20
3.04252
 10
2.741138
 20
3.039044
 10
2.748665
 20
3.03544
 10
2.755397
 20
3.031649
 10
2.761303
 20
3.027614
 10
2.766349
 20
3.023278
 10
2.770501
 20
3.018585
 10
2.773726
 20
3.013476
  0
LWPOLYLINE
  5
3B
330
1F
100
AcDbEntity
  8
0
100
AcDbPolyline
 90
       63
 70
   128
 43
0.0
 10
2.737029
 20
3.017797
 10
2.730655
 20
3.021364
 10
2.727367
 20
3.02307
 10
2.723091
 20
3.024675
 10
2.717136
 20
3.026139
 10
2.708811
 20
3.027426
 10
2.697427
 20
3.028496
 10
2.682292
 20
3.029313
 10
2.6684
 20
3.030056
 10
2.653786
 20
3.031212
 10
2.638554
 20
3.03276
 10
2.62281
 20
3.034679
 10
2.590209
 20
3.039546
 10
2.556823
 20
3.045646
 10
2.523495
 20
3.052811
 10
2.491069
 20
3.060873
 10
2.475458
 20
3.065189
 10
2.460387
 20
3.069666
 10
2.445963
 20
3.074284
 10
2.432292
 20
3.079021
 10
2.426834
 20
3.080787
 10
2.423162
 20
3.081426
 10
2.422009
 20
3.081284
 10
2.421318
 20
3.080814
 10
2.421097
 20
3.080001
 10
2.42135
 20
3.078828
 10
2.4233
 20
3.075344
 10
2.427214
 20
3.070239
 10
2.441112
 20
3.054672
 10
2.4447
 20
3.051067
 10
2.448786
 20
3.04742
 10
2.458356
 20
3.040041
 10
2.469635
 20
3.032618
 10
2.482436
 20
3.025231
 10
2.496573
 20
3.017962
 10
2.511859
 20
3.010893
 10
2.528107
 20
3.004104
 10
2.54513
 20
2.997676
 10
2.562742
 20
2.991692
 10
2.580756
 20
2.986231
 10
2.598985
 20
2.981376
 10
2.617243
 20
2.977207
 10
2.635342
 20
2.973807
 10
2.653097
 20
2.971255
 10
2.67032
 20
2.969633
 10
2.686824
 20
2.969023
 10
2.697372
 20
2.969216
 10
2.706756
 20
2.969874
 10
2.714968
 20
2.970958
 10
2.721998
 20
2.972427
 10
2.72784
 20
2.974243
 10
2.732484
 20
2.976365
 10
2.735923
 20
2.978753
 10
2.738148
 20
2.981369
 10
2.739553
 20
2.984253
 10
2.740861
 20
2.988058
 10
2.7419
 20
2.992564
 10
2.742497
 20
2.997546
 10
2.74248
 20
3.002782
 10
2.741678
 20
3.008052
 10
2.739918
 20
3.013131
 10
2.738626
 20
3.015529
 10
2.737029
 20
3.017797
  0
LWPOLYLINE
  5
3C
330
1F
100
AcDbEntity
  8
0
100
AcDbPolyline
 90
      123
 70
   128
 43
0.0
 10
3.626289
 20
4.213204
 10
3.621115
 20
4.213964
 10
3.616708
 20
4.214332
 10
3.613004
 20
4.214249
 10
3.609937
 20
4.21366
 10
3.607443
 20
4.212505
 10
3.605456
 20
4.210728
 10
3.603912
 20
4.208271
 10
3.602745
 20
4.205076
 10
3.601891
 20
4.201085
 10
3.601284
 20
4.196241
 10
3.600551
 20
4.183765
 10
3.600029
 20
4.167185
 10
3.599195
 20
4.146041
 10
3.59798
 20
4.123335
 10
3.597315
 20
4.11443
 10
3.596515
 20
4.107163
 10
3.595511
 20
4.10154
 10
3.59423
 20
4.097566
 10
3.593463
 20
4.096199
 10
3.592601
 20
4.095247
 10
3.591634
 20
4.09471
 10
3.590554
 20
4.094589
 10
3.58935
 20
4.094883
 10
3.588016
 20
4.095596
 10
3.584916
 20
4.098274
 10
3.581184
 20
4.102628
 10
3.576747
 20
4.108665
 10
3.565477
 20
4.125805
 10
3.550535
 20
4.149738
 10
3.533951
 20
4.176076
 10
3.519026
 20
4.198875
 10
3.505678
 20
4.218134
 10
3.493826
 20
4.233848
 10
3.488435
 20
4.240374
 10
3.483389
 20
4.246013
 10
3.478675
 20
4.250764
 10
3.474285
 20
4.254626
 10
3.470208
 20
4.257598
 10
3.466434
 20
4.259682
 10
3.462953
 20
4.260875
 10
3.459754
 20
4.261178
 10
3.456828
 20
4.26059
 10
3.454164
 20
4.25911
 10
3.451752
 20
4.256739
 10
3.449583
 20
4.253475
 10
3.447645
 20
4.249318
 10
3.445929
 20
4.244268
 10
3.444425
 20
4.238324
 10
3.443122
 20
4.231486
 10
3.44108
 20
4.215125
 10
3.439722
 20
4.195181
 10
3.438967
 20
4.171651
 10
3.438733
 20
4.14453
 10
3.438733
 20
4.029947
 10
3.443598
 20
4.029947
 10
3.446896
 20
4.029463
 10
3.452277
 20
4.028145
 10
3.46631
 20
4.023814
 10
3.468954
 20
4.02306
 10
3.471352
 20
4.022734
 10
3.473519
 20
4.022881
 10
3.475472
 20
4.023548
 10
3.477224
 20
4.024781
 10
3.478792
 20
4.026626
 10
3.480189
 20
4.029129
 10
3.481432
 20
4.032338
 10
3.482535
 20
4.036297
 10
3.483514
 20
4.041053
 10
3.485159
 20
4.053142
 10
3.486487
 20
4.068974
 10
3.48762
 20
4.088919
 10
3.488851
 20
4.11229
 10
3.489524
 20
4.121465
 10
3.490329
 20
4.128963
 10
3.491339
 20
4.134781
 10
3.492624
 20
4.138918
 10
3.493392
 20
4.140355
 10
3.494256
 20
4.14137
 10
3.495224
 20
4.141964
 10
3.496306
 20
4.142136
 10
3.497511
 20
4.141885
 10
3.498846
 20
4.141212
 10
3.501947
 20
4.138596
 10
3.505681
 20
4.134287
 10
3.510118
 20
4.12828
 10
3.521389
 20
4.111167
 10
3.536331
 20
4.087238
 10
3.553941
 20
4.059572
 10
3.570289
 20
4.035362
 10
3.585287
 20
4.014746
 10
3.592252
 20
4.005829
 10
3.598847
 20
3.997862
 10
3.60506
 20
3.990862
 10
3.61088
 20
3.984846
 10
3.616296
 20
3.979832
 10
3.621298
 20
3.975838
 10
3.625873
 20
3.972879
 10
3.630012
 20
3.970974
 10
3.633703
 20
3.970139
 10
3.636936
 20
3.970392
 10
3.639464
 20
3.971591
 10
3.641602
 20
3.973714
 10
3.643382
 20
3.976745
 10
3.644835
 20
3.980667
 10
3.645992
 20
3.985464
 10
3.646884
 20
3.991118
 10
3.648001
 20
4.004936
 10
3.648434
 20
4.021988
 10
3.648433
 20
4.042142
 10
3.648133
 20
4.091232
 10
3.648785
 20
4.117211
 10
3.649871
 20
4.144448
 10
3.650169
 20
4.158688
 10
3.650088
 20
4.17342
 10
3.649463
 20
4.188704
 10
3.648133
 20
4.2046
 10
3.64738
 20
4.206712
 10
3.645736
 20
4.20838
 10
3.643364
 20
4.209678
 10
3.640427
 20
4.210679
 10
3.633509
 20
4.212089
 10
3.626289
 20
4.213204
  0
LWPOLYLINE
  5
3D
330
1F
100
AcDbEntity
  8
0
100
AcDbPolyline
 90
      144
 70
   128
 43
0.0
 10
1.923542
 20
3.744278
 10
1.923643
 20
3.767053
 10
1.923165
 20
3.818814
 10
1.921395
 20
3.995428
 10
1.920571
 20
4.105338
 10
1.921307
 20
4.106448
 10
1.923351
 20
4.108169
 10
1.930382
 20
4.113214
 10
1.939702
 20
4.120021
 10
1.944607
 20
4.123943
 10
1.949347
 20
4.128135
 10
1.954615
 20
4.132812
 10
1.959923
 20
4.137034
 10
1.970498
 20
4.144401
 10
1.980758
 20
4.150806
 10
1.990386
 20
4.156821
 10
2.00723
 20
4.167139
 10
2.025962
 20
4.177513
 10
2.045844
 20
4.187735
 10
2.066141
 20
4.197596
 10
2.105036
 20
4.215396
 10
2.136759
 20
4.229239
 10
2.173147
 20
4.244539
 10
2.208136
 20
4.258398
 10
2.241958
 20
4.270918
 10
2.274845
 20
4.282204
 10
2.307027
 20
4.292357
 10
2.338738
 20
4.301481
 10
2.370209
 20
4.309678
 10
2.401673
 20
4.317052
 10
2.43336
 20
4.323706
 10
2.465503
 20
4.329741
 10
2.498333
 20
4.335263
 10
2.532083
 20
4.340372
 10
2.566985
 20
4.345173
 10
2.60327
 20
4.349767
 10
2.680917
 20
4.358751
 10
2.726977
 20
4.363379
 10
2.773468
 20
4.367096
 10
2.820311
 20
4.369914
 10
2.867426
 20
4.37185
 10
2.914734
 20
4.372916
 10
2.962155
 20
4.373127
 10
3.009609
 20
4.372499
 10
3.057017
 20
4.371044
 10
3.104298
 20
4.368778
 10
3.151373
 20
4.365715
 10
3.198163
 20
4.361869
 10
3.244587
 20
4.357255
 10
3.290566
 20
4.351886
 10
3.336021
 20
4.345778
 10
3.380871
 20
4.338945
 10
3.425037
 20
4.3314
 10
3.468439
 20
4.323159
 10
3.510998
 20
4.314236
 10
3.552633
 20
4.304645
 10
3.593266
 20
4.2944
 10
3.632815
 20
4.283517
 10
3.671203
 20
4.272008
 10
3.708348
 20
4.259889
 10
3.744172
 20
4.247175
 10
3.778594
 20
4.233878
 10
3.811535
 20
4.220014
 10
3.842915
 20
4.205598
 10
3.857995
 20
4.198187
 10
3.872655
 20
4.190643
 10
3.886884
 20
4.182968
 10
3.900674
 20
4.175163
 10
3.914014
 20
4.167232
 10
3.926893
 20
4.159174
 10
3.939303
 20
4.150993
 10
3.951233
 20
4.142689
 10
3.962673
 20
4.134266
 10
3.973613
 20
4.125724
 10
4.021435
 20
4.087238
 10
4.023825
 20
3.89453
 10
4.024809
 20
3.833721
 10
4.025588
 20
3.792927
 10
4.025668
 20
3.761792
 10
4.025292
 20
3.746611
 10
4.024556
 20
3.72996
 10
4.021489
 20
3.732515
 10
4.01733
 20
3.735365
 10
4.005991
 20
3.741875
 10
3.991044
 20
3.74935
 10
3.972994
 20
3.75765
 10
3.929603
 20
3.776158
 10
3.879856
 20
3.796275
 10
3.777441
 20
3.836828
 10
3.73285
 20
3.855012
 10
3.713974
 20
3.863089
 10
3.698051
 20
3.870301
 10
3.678504
 20
3.879345
 10
3.658924
 20
3.888055
 10
3.639294
 20
3.896434
 10
3.619597
 20
3.904485
 10
3.599818
 20
3.912212
 10
3.57994
 20
3.919617
 10
3.559946
 20
3.926704
 10
3.53982
 20
3.933476
 10
3.519547
 20
3.939936
 10
3.499108
 20
3.946087
 10
3.478489
 20
3.951933
 10
3.457673
 20
3.957476
 10
3.436642
 20
3.962719
 10
3.415382
 20
3.967667
 10
3.393875
 20
3.972321
 10
3.372106
 20
3.976686
 10
3.350057
 20
3.980764
 10
3.327712
 20
3.984559
 10
3.305056
 20
3.988073
 10
3.282071
 20
3.99131
 10
3.258741
 20
3.994273
 10
3.235051
 20
3.996964
 10
3.18652
 20
4.001548
 10
3.136349
 20
4.005086
 10
3.084405
 20
4.007603
 10
3.030559
 20
4.009125
 10
2.974678
 20
4.009678
 10
2.804718
 20
4.009903
 10
2.717468
 20
3.998933
 10
2.667724
 20
3.992354
 10
2.621644
 20
3.985592
 10
2.578918
 20
3.978614
 10
2.539234
 20
3.97139
 10
2.502281
 20
3.963886
 10
2.467747
 20
3.956073
 10
2.435322
 20
3.947917
 10
2.404694
 20
3.939386
 10
2.375552
 20
3.93045
 10
2.347584
 20
3.921076
 10
2.32048
 20
3.911233
 10
2.293929
 20
3.900888
 10
2.267618
 20
3.89001
 10
2.241237
 20
3.878567
 10
2.18702
 20
3.853859
 10
2.132181
 20
3.829604
 10
2.044916
 20
3.792196
 10
2.000876
 20
3.773743
 10
1.962833
 20
3.758223
 10
1.935488
 20
3.74771
 10
1.927296
 20
3.74498
 10
1.924828
 20
3.744359
 10
1.923542
 20
3.744278
  0
LWPOLYLINE
  5
3E
330
1F
100
AcDbEntity
  8
0
100
AcDbPolyline
 90
      224
 70
   128
 43
0.0
 10
2.966444
 20
1.81028
 10
2.965517
 20
1.810445
 10
2.965205
 20
1.81086
 10
2.96617
 20
1.812446
 10
2.972695
 20
1.8187
 10
2.989855
 20
1.83505
 10
3.006125
 20
1.84988
 10
3.021574
 20
1.863272
 10
3.036272
 20
1.875311
 10
3.050288
 20
1.886081
 10
3.063691
 20
1.895665
 10
3.07655
 20
1.904146
 10
3.088936
 20
1.911609
 10
3.100917
 20
1.918137
 10
3.112562
 20
1.923814
 10
3.123941
 20
1.928723
 10
3.135123
 20
1.932948
 10
3.146177
 20
1.936572
 10
3.157173
 20
1.93968
 10
3.16818
 20
1.942355
 10
3.179268
 20
1.94468
 10
3.201961
 20
1.948617
 10
3.225807
 20
1.95216
 10
3.25136
 20
1.955979
 10
3.279174
 20
1.960742
 10
3.294103
 20
1.963687
 10
3.309805
 20
1.967119
 10
3.32635
 20
1.971122
 10
3.343806
 20
1.97578
 10
3.362244
 20
1.981175
 10
3.381732
 20
1.987392
 10
3.40234
 20
1.994515
 10
3.424137
 20
2.002626
 10
3.450611
 20
2.01122
 10
3.476549
 20
2.019701
 10
3.501848
 20
2.028557
 10
3.514225
 20
2.033279
 10
3.526404
 20
2.038278
 10
3.538371
 20
2.043616
 10
3.550113
 20
2.049355
 10
3.561619
 20
2.055554
 10
3.572874
 20
2.062276
 10
3.583866
 20
2.069582
 10
3.594583
 20
2.077532
 10
3.60501
 20
2.086189
 10
3.615135
 20
2.095613
 10
3.624946
 20
2.105865
 10
3.634429
 20
2.117007
 10
3.643571
 20
2.1291
 10
3.65236
 20
2.142206
 10
3.660782
 20
2.156384
 10
3.668825
 20
2.171697
 10
3.676476
 20
2.188206
 10
3.683722
 20
2.205972
 10
3.69055
 20
2.225056
 10
3.696947
 20
2.24552
 10
3.7029
 20
2.267424
 10
3.708396
 20
2.29083
 10
3.713423
 20
2.3158
 10
3.717967
 20
2.342393
 10
3.722015
 20
2.370672
 10
3.725555
 20
2.400698
 10
3.727127
 20
2.423681
 10
3.729104
 20
2.464353
 10
3.733381
 20
2.575566
 10
3.735237
 20
2.634508
 10
3.736607
 20
2.68794
 10
3.73727
 20
2.730064
 10
3.737266
 20
2.745073
 10
3.737002
 20
2.75508
 10
3.735367
 20
2.788114
 10
3.733941
 20
2.8237
 10
3.731715
 20
2.897496
 10
3.730311
 20
2.966402
 10
3.729718
 20
3.020352
 10
3.728736
 20
3.067925
 10
3.727231
 20
3.111112
 10
3.726748
 20
3.131425
 10
3.726692
 20
3.151078
 10
3.72725
 20
3.170218
 10
3.728609
 20
3.18899
 10
3.730955
 20
3.207539
 10
3.732556
 20
3.216776
 10
3.734473
 20
3.226012
 10
3.73673
 20
3.235264
 10
3.73935
 20
3.244553
 10
3.742357
 20
3.253895
 10
3.745773
 20
3.263309
 10
3.749622
 20
3.272813
 10
3.753927
 20
3.282425
 10
3.758712
 20
3.292164
 10
3.763999
 20
3.302047
 10
3.769813
 20
3.312094
 10
3.776176
 20
3.322321
 10
3.783111
 20
3.332748
 10
3.790642
 20
3.343392
 10
3.809329
 20
3.368208
 10
3.828281
 20
3.392546
 10
3.846645
 20
3.416491
 10
3.855339
 20
3.428342
 10
3.863566
 20
3.440126
 10
3.871219
 20
3.451853
 10
3.87819
 20
3.463534
 10
3.884375
 20
3.47518
 10
3.889664
 20
3.486801
 10
3.893953
 20
3.498406
 10
3.897133
 20
3.510008
 10
3.898275
 20
3.51581
 10
3.899099
 20
3.521616
 10
3.899594
 20
3.527425
 10
3.899744
 20
3.53324
 10
2.966444
 20
3.533817
 10
2.033145
 20
3.53324
 10
2.033295
 20
3.527425
 10
2.03379
 20
3.521616
 10
2.034614
 20
3.51581
 10
2.035755
 20
3.510008
 10
2.038936
 20
3.498406
 10
2.043225
 20
3.486801
 10
2.048514
 20
3.47518
 10
2.054699
 20
3.463534
 10
2.06167
 20
3.451853
 10
2.069323
 20
3.440126
 10
2.07755
 20
3.428342
 10
2.086244
 20
3.416491
 10
2.104608
 20
3.392546
 10
2.12356
 20
3.368208
 10
2.142247
 20
3.343392
 10
2.149778
 20
3.332748
 10
2.156713
 20
3.322321
 10
2.163076
 20
3.312094
 10
2.16889
 20
3.302047
 10
2.174177
 20
3.292164
 10
2.178962
 20
3.282425
 10
2.183267
 20
3.272813
 10
2.187116
 20
3.263309
 10
2.190532
 20
3.253895
 10
2.193539
 20
3.244553
 10
2.196159
 20
3.235264
 10
2.198416
 20
3.226012
 10
2.200333
 20
3.216776
 10
2.201934
 20
3.207539
 10
2.20428
 20
3.18899
 10
2.205639
 20
3.170218
 10
2.206197
 20
3.151078
 10
2.206141
 20
3.131425
 10
2.205658
 20
3.111112
 10
2.204153
 20
3.067925
 10
2.203503
 20
3.04476
 10
2.203171
 20
3.020352
 10
2.202578
 20
2.966402
 10
2.201174
 20
2.897496
 10
2.198948
 20
2.8237
 10
2.197522
 20
2.788114
 10
2.195887
 20
2.75508
 10
2.195623
 20
2.745073
 10
2.195619
 20
2.730064
 10
2.196281
 20
2.68794
 10
2.197652
 20
2.634508
 10
2.199508
 20
2.575566
 10
2.203785
 20
2.464353
 10
2.205762
 20
2.423681
 10
2.207333
 20
2.400698
 10
2.210874
 20
2.370672
 10
2.214922
 20
2.342393
 10
2.219466
 20
2.3158
 10
2.224493
 20
2.29083
 10
2.229989
 20
2.267424
 10
2.235942
 20
2.24552
 10
2.242339
 20
2.225056
 10
2.249167
 20
2.205972
 10
2.256413
 20
2.188206
 10
2.264063
 20
2.171697
 10
2.272107
 20
2.156384
 10
2.280529
 20
2.142206
 10
2.289318
 20
2.1291
 10
2.29846
 20
2.117007
 10
2.307943
 20
2.105865
 10
2.317754
 20
2.095613
 10
2.327879
 20
2.086189
 10
2.338306
 20
2.077532
 10
2.349023
 20
2.069582
 10
2.360015
 20
2.062276
 10
2.37127
 20
2.055554
 10
2.382775
 20
2.049355
 10
2.394518
 20
2.043616
 10
2.406485
 20
2.038278
 10
2.418664
 20
2.033279
 10
2.431041
 20
2.028557
 10
2.45634
 20
2.019701
 10
2.482278
 20
2.01122
 10
2.508752
 20
2.002626
 10
2.530549
 20
1.994515
 10
2.551157
 20
1.987392
 10
2.570645
 20
1.981175
 10
2.589083
 20
1.97578
 10
2.606539
 20
1.971122
 10
2.623084
 20
1.967119
 10
2.653715
 20
1.960742
 10
2.681529
 20
1.955979
 10
2.707082
 20
1.95216
 10
2.730928
 20
1.948617
 10
2.753621
 20
1.94468
 10
2.764708
 20
1.942355
 10
2.775716
 20
1.93968
 10
2.786712
 20
1.936572
 10
2.797766
 20
1.932948
 10
2.808948
 20
1.928723
 10
2.820327
 20
1.923814
 10
2.831972
 20
1.918137
 10
2.843953
 20
1.911609
 10
2.856339
 20
1.904146
 10
2.869198
 20
1.895665
 10
2.882601
 20
1.886081
 10
2.896617
 20
1.875311
 10
2.911315
 20
1.863272
 10
2.926764
 20
1.84988
 10
2.943034
 20
1.83505
 10
2.960194
 20
1.8187
 10
2.966719
 20
1.812446
 10
2.967446
 20
1.811526
 10
2.967684
 20
1.81086
 10
2.967372
 20
1.810445
 10
2.966444
 20
1.81028
  0
ENDSEC
  0
SECTION
  2
OBJECTS
  0
DICTIONARY
  5
C
330
0
100
AcDbDictionary
281
     1
  3
ACAD_GROUP
350
D
  3
ACAD_LAYOUT
350
1A
  3
ACAD_MLINESTYLE
350
17
  3
ACAD_PLOTSETTINGS
350
19
  3
ACAD_PLOTSTYLENAME
350
E
  0
DICTIONARY
  5
D
102
{ACAD_REACTORS
330
C
102
}
330
C
100
AcDbDictionary
281
     1
  0
DICTIONARY
  5
1A
102
{ACAD_REACTORS
330
C
102
}
330
C
100
AcDbDictionary
281
     1
  3
Layout1
350
1E
  3
Layout2
350
26
  3
Model
350
22
  0
DICTIONARY
  5
17
102
{ACAD_REACTORS
330
C
102
}
330
C
100
AcDbDictionary
281
     1
  3
Standard
350
18
  0
DICTIONARY
  5
19
102
{ACAD_REACTORS
330
C
102
}
330
C
100
AcDbDictionary
281
     1
  0
ACDBDICTIONARYWDFLT
  5
E
102
{ACAD_REACTORS
330
C
102
}
330
C
100
AcDbDictionary
281
     1
  3
Normal
350
F
100
AcDbDictionaryWithDefault
340
F
  0
LAYOUT
  5
1E
102
{ACAD_REACTORS
330
1A
102
}
330
1A
100
AcDbPlotSettings
  1

  2

  4

  6

 40
0.0
 41
0.0
 42
0.0
 43
0.0
 44
0.0
 45
0.0
 46
0.0
 47
0.0
 48
0.0
 49
0.0
140
0.0
141
0.0
142
1.0
143
1.0
 70
   688
 72
     0
 73
     0
 74
     5
  7

 75
    16
147
1.0
148
0.0
149
0.0
100
AcDbLayout
  1
Layout1
 70
     1
 71
     1
 10
0.0
 20
0.0
 11
420.0
 21
297.0
 12
0.0
 22
0.0
 32
0.0
 14
1.000000E+20
 24
1.000000E+20
 34
1.000000E+20
 15
-1.000000E+20
 25
-1.000000E+20
 35
-1.000000E+20
146
0.0
 13
0.0
 23
0.0
 33
0.0
 16
1.0
 26
0.0
 36
0.0
 17
0.0
 27
1.0
 37
0.0
 76
     0
330
1B
  0
LAYOUT
  5
26
102
{ACAD_REACTORS
330
1A
102
}
330
1A
100
AcDbPlotSettings
  1

  2

  4

  6

 40
0.0
 41
0.0
 42
0.0
 43
0.0
 44
0.0
 45
0.0
 46
0.0
 47
0.0
 48
0.0
 49
0.0
140
0.0
141
0.0
142
1.0
143
1.0
 70
   688
 72
     0
 73
     0
 74
     5
  7

 75
    16
147
1.0
148
0.0
149
0.0
100
AcDbLayout
  1
Layout2
 70
     1
 71
     2
 10
0.0
 20
0.0
 11
0.0
 21
0.0
 12
0.0
 22
0.0
 32
0.0
 14
0.0
 24
0.0
 34
0.0
 15
0.0
 25
0.0
 35
0.0
146
0.0
 13
0.0
 23
0.0
 33
0.0
 16
1.0
 26
0.0
 36
0.0
 17
0.0
 27
1.0
 37
0.0
 76
     0
330
23
  0
LAYOUT
  5
22
102
{ACAD_REACTORS
330
1A
102
}
330
1A
100
AcDbPlotSettings
  1

  2

  4

  6

 40
0.0
 41
0.0
 42
0.0
 43
0.0
 44
0.0
 45
0.0
 46
0.0
 47
0.0
 48
0.0
 49
0.0
140
0.0
141
0.0
142
1.0
143
1.0
 70
  1712
 72
     0
 73
     0
 74
     0
  7

 75
     0
147
1.0
148
0.0
149
0.0
100
AcDbLayout
  1
Model
 70
     1
 71
     0
 10
0.0
 20
0.0
 11
0.0
 21
0.0
 12
0.0
 22
0.0
 32
0.0
 14
0.0
 24
0.0
 34
0.0
 15
0.0
 25
0.0
 35
0.0
146
0.0
 13
0.0
 23
0.0
 33
0.0
 16
1.0
 26
0.0
 36
0.0
 17
0.0
 27
1.0
 37
0.0
 76
     0
330
1F
  0
MLINESTYLE
  5
18
102
{ACAD_REACTORS
330
17
102
}
330
17
100
AcDbMlineStyle
  2
Standard
 70
     0
  3

 62
   256
 51
90.0
 52
90.0
 71
     2
 49
1.0
 62
   256
  6
BYLAYER
 49
-1.0
 62
   256
  6
BYLAYER
  0
ACDBPLACEHOLDER
  5
F
102
{ACAD_REACTORS
330
E
102
}
330
E
  0
ENDSEC
  0
EOF
