  0
SECTION
  2
HEADER
  9
$ACADVER
  1
AC1009
  9
$EXTMIN
 10
0.03600269
 20
2.04615103
 30
0.0
  9
$EXTMAX
 10
7.96399731
 20
5.48211081
 30
0.0
  0
ENDSEC
  0
SECTION
  2
TABLES
  0
TABLE
  2
LAYER
 70
1
 0
LAYER
 2
Default_Layer
 70
0
 62
1
 6
CONTINUOUS
 0
ENDTAB
 0
ENDSEC
  0
SECTION
  2
ENTITIES
  0
POLYLINE
  8
Default_Layer
 66
   1
 39
0.000000
 70
    1
  0
VERTEX
  8
0
 10
0.73665321
 20
5.34337147
  0
VERTEX
  8
0
 10
0.71601615
 20
5.28101166
  0
VERTEX
  8
0
 10
0.69582773
 20
5.22807313
  0
VERTEX
  8
0
 10
0.70569762
 20
5.22134365
  0
VERTEX
  8
0
 10
0.72184836
 20
5.22582997
  0
VERTEX
  8
0
 10
0.72588605
 20
5.22672723
  0
VERTEX
  8
0
 10
0.72678331
 20
5.22268955
  0
VERTEX
  8
0
 10
0.71197847
 20
5.15808659
  0
VERTEX
  8
0
 10
0.70794078
 20
5.15494616
  0
VERTEX
  8
0
 10
0.59623149
 20
5.14956258
  0
VERTEX
  8
0
 10
0.59219381
 20
5.15045985
  0
VERTEX
  8
0
 10
0.59264244
 20
5.15449753
  0
VERTEX
  8
0
 10
0.60430686
 20
5.18231270
  0
VERTEX
  8
0
 10
0.56168686
 20
5.15494616
  0
VERTEX
  8
0
 10
0.51592642
 20
5.14417900
  0
VERTEX
  8
0
 10
0.48811126
 20
5.15158143
  0
VERTEX
  8
0
 10
0.46478241
 20
5.17378869
  0
VERTEX
  8
0
 10
0.44549125
 20
5.16840511
  0
VERTEX
  8
0
 10
0.42485419
 20
5.17603185
  0
VERTEX
  8
0
 10
0.40287124
 20
5.18276133
  0
VERTEX
  8
0
 10
0.39928219
 20
5.18500449
  0
VERTEX
  8
0
 10
0.40197398
 20
5.18904217
  0
VERTEX
  8
0
 10
0.41274114
 20
5.19128533
  0
VERTEX
  8
0
 10
0.42620009
 20
5.18904217
  0
VERTEX
  8
0
 10
0.44190220
 20
5.18679901
  0
VERTEX
  8
0
 10
0.45895020
 20
5.19218259
  0
VERTEX
  8
0
 10
0.47913863
 20
5.23973755
  0
VERTEX
  8
0
 10
0.45132346
 20
5.23300808
  0
VERTEX
  8
0
 10
0.42530283
 20
5.22762450
  0
VERTEX
  8
0
 10
0.41857335
 20
5.22807313
  0
VERTEX
  8
0
 10
0.41588156
 20
5.23211081
  0
VERTEX
  8
0
 10
0.41902198
 20
5.23480260
  0
VERTEX
  8
0
 10
0.44694930
 20
5.23984971
  0
VERTEX
  8
0
 10
0.45625841
 20
5.25499103
  0
VERTEX
  8
0
 10
0.44728578
 20
5.26306640
  0
VERTEX
  8
0
 10
0.43068641
 20
5.26037461
  0
VERTEX
  8
0
 10
0.41318977
 20
5.25768282
  0
VERTEX
  8
0
 10
0.40646030
 20
5.25858008
  0
VERTEX
  8
0
 10
0.40107672
 20
5.25947734
  0
VERTEX
  8
0
 10
0.39793629
 20
5.26306640
  0
VERTEX
  8
0
 10
0.40197398
 20
5.26575819
  0
VERTEX
  8
0
 10
0.43068641
 20
5.27248766
  0
VERTEX
  8
0
 10
0.45715568
 20
5.28056303
  0
VERTEX
  8
0
 10
0.48362494
 20
5.27428219
  0
VERTEX
  8
0
 10
0.51009421
 20
5.26755271
  0
VERTEX
  8
0
 10
0.56359354
 20
5.29177882
  0
VERTEX
  8
0
 10
0.62270076
 20
5.29985419
  0
VERTEX
  8
0
 10
0.60116644
 20
5.31645357
  0
VERTEX
  8
0
 10
0.54060117
 20
5.30254598
  0
VERTEX
  8
0
 10
0.53656348
 20
5.30209735
  0
VERTEX
  8
0
 10
0.53566622
 20
5.30613504
  0
VERTEX
  8
0
 10
0.53835801
 20
5.32722073
  0
VERTEX
  8
0
 10
0.52086137
 20
5.32587483
  0
VERTEX
  8
0
 10
0.47913863
 20
5.33170704
  0
VERTEX
  8
0
 10
0.47644684
 20
5.33529610
  0
VERTEX
  8
0
 10
0.47958726
 20
5.33798789
  0
VERTEX
  8
0
 10
0.52310453
 20
5.35010094
  0
VERTEX
  8
0
 10
0.50964558
 20
5.36400852
  0
VERTEX
  8
0
 10
0.48362494
 20
5.36580305
  0
VERTEX
  8
0
 10
0.46747420
 20
5.36266263
  0
VERTEX
  8
0
 10
0.46343652
 20
5.36490579
  0
VERTEX
  8
0
 10
0.46523105
 20
5.36894347
  0
VERTEX
  8
0
 10
0.50157021
 20
5.37612158
  0
VERTEX
  8
0
 10
0.52983401
 20
5.37342979
  0
VERTEX
  8
0
 10
0.55854643
 20
5.37118663
  0
VERTEX
  8
0
 10
0.61507402
 20
5.38285105
  0
VERTEX
  8
0
 10
0.68012562
 20
5.39496411
  0
VERTEX
  8
0
 10
0.71870794
 20
5.38150516
  0
VERTEX
  8
0
 10
0.73665321
 20
5.34337147
  0
SEQEND
  0
POLYLINE
  8
Default_Layer
 66
   1
 39
0.000000
 70
    1
  0
VERTEX
  8
0
 10
0.61058771
 20
5.26127187
  0
VERTEX
  8
0
 10
0.57065949
 20
5.24422387
  0
VERTEX
  8
0
 10
0.54957380
 20
5.21685734
  0
VERTEX
  8
0
 10
0.56482728
 20
5.20609017
  0
VERTEX
  8
0
 10
0.59533423
 20
5.21506281
  0
VERTEX
  8
0
 10
0.61058771
 20
5.26127187
  0
SEQEND
  0
POLYLINE
  8
Default_Layer
 66
   1
 39
0.000000
 70
    1
  0
VERTEX
  8
0
 10
1.32929565
 20
5.30748093
  0
VERTEX
  8
0
 10
1.30776133
 20
5.24063481
  0
VERTEX
  8
0
 10
1.25168237
 20
5.17423733
  0
VERTEX
  8
0
 10
1.17406909
 20
5.14417900
  0
VERTEX
  8
0
 10
1.11529834
 20
5.17019964
  0
VERTEX
  8
0
 10
1.10722297
 20
5.15404890
  0
VERTEX
  8
0
 10
1.10408255
 20
5.15225437
  0
VERTEX
  8
0
 10
0.99955137
 20
5.15225437
  0
VERTEX
  8
0
 10
0.99596231
 20
5.15449753
  0
VERTEX
  8
0
 10
0.99730821
 20
5.15853522
  0
VERTEX
  8
0
 10
1.00986990
 20
5.17244280
  0
VERTEX
  8
0
 10
1.03050695
 20
5.21281965
  0
VERTEX
  8
0
 10
1.01211306
 20
5.22268955
  0
VERTEX
  8
0
 10
0.99102737
 20
5.21999776
  0
VERTEX
  8
0
 10
0.98654105
 20
5.22313818
  0
VERTEX
  8
0
 10
0.98923284
 20
5.22627860
  0
VERTEX
  8
0
 10
1.01256169
 20
5.23659713
  0
VERTEX
  8
0
 10
1.03947959
 20
5.24422387
  0
VERTEX
  8
0
 10
1.05473306
 20
5.28594661
  0
VERTEX
  8
0
 10
1.04890085
 20
5.28594661
  0
VERTEX
  8
0
 10
1.03275011
 20
5.28190893
  0
VERTEX
  8
0
 10
1.01659937
 20
5.27831987
  0
VERTEX
  8
0
 10
0.99147600
 20
5.28370345
  0
VERTEX
  8
0
 10
0.96590399
 20
5.28953567
  0
VERTEX
  8
0
 10
0.95109915
 20
5.28594661
  0
VERTEX
  8
0
 10
0.94661283
 20
5.28908703
  0
VERTEX
  8
0
 10
0.94840736
 20
5.29222746
  0
VERTEX
  8
0
 10
0.97891431
 20
5.29895693
  0
VERTEX
  8
0
 10
0.98698968
 20
5.29761104
  0
VERTEX
  8
0
 10
0.99551368
 20
5.29626514
  0
VERTEX
  8
0
 10
1.01301032
 20
5.30030283
  0
VERTEX
  8
0
 10
1.02108569
 20
5.31106999
  0
VERTEX
  8
0
 10
0.99730821
 20
5.33125841
  0
VERTEX
  8
0
 10
0.96231494
 20
5.33709062
  0
VERTEX
  8
0
 10
0.96007178
 20
5.34112831
  0
VERTEX
  8
0
 10
0.96410947
 20
5.34337147
  0
VERTEX
  8
0
 10
0.98429789
 20
5.34247420
  0
VERTEX
  8
0
 10
1.00538358
 20
5.34426873
  0
VERTEX
  8
0
 10
1.03230148
 20
5.33529610
  0
VERTEX
  8
0
 10
1.05921938
 20
5.32632346
  0
VERTEX
  8
0
 10
1.06819201
 20
5.32766936
  0
VERTEX
  8
0
 10
1.10183939
 20
5.40393674
  0
VERTEX
  8
0
 10
1.08882907
 20
5.40214222
  0
VERTEX
  8
0
 10
1.06639749
 20
5.40079632
  0
VERTEX
  8
0
 10
1.02916106
 20
5.40573127
  0
VERTEX
  8
0
 10
1.02646927
 20
5.40932032
  0
VERTEX
  8
0
 10
1.03050695
 20
5.41201211
  0
VERTEX
  8
0
 10
1.07716465
 20
5.42188201
  0
VERTEX
  8
0
 10
1.11574697
 20
5.43758412
  0
VERTEX
  8
0
 10
1.13055182
 20
5.46853970
  0
VERTEX
  8
0
 10
1.13369224
 20
5.47033423
  0
VERTEX
  8
0
 10
1.23822342
 20
5.47885823
  0
VERTEX
  8
0
 10
1.24226110
 20
5.47885823
  0
VERTEX
  8
0
 10
1.24270974
 20
5.47482055
  0
VERTEX
  8
0
 10
1.20457604
 20
5.37836474
  0
VERTEX
  8
0
 10
1.23418573
 20
5.38554284
  0
VERTEX
  8
0
 10
1.26379542
 20
5.38599148
  0
VERTEX
  8
0
 10
1.31135038
 20
5.36131673
  0
VERTEX
  8
0
 10
1.32929565
 20
5.30748093
  0
SEQEND
  0
POLYLINE
  8
Default_Layer
 66
   1
 39
0.000000
 70
    1
  0
VERTEX
  8
0
 10
1.22296994
 20
5.29357335
  0
VERTEX
  8
0
 10
1.21624047
 20
5.31017272
  0
VERTEX
  8
0
 10
1.20008973
 20
5.31735083
  0
VERTEX
  8
0
 10
1.17003140
 20
5.30344325
  0
VERTEX
  8
0
 10
1.14042171
 20
5.22538134
  0
VERTEX
  8
0
 10
1.15612382
 20
5.22403544
  0
VERTEX
  8
0
 10
1.18797667
 20
5.23121355
  0
VERTEX
  8
0
 10
1.20323015
 20
5.24826155
  0
VERTEX
  8
0
 10
1.19964109
 20
5.25588829
  0
VERTEX
  8
0
 10
1.19201436
 20
5.25947734
  0
VERTEX
  8
0
 10
1.17362046
 20
5.25588829
  0
VERTEX
  8
0
 10
1.16913414
 20
5.25678555
  0
VERTEX
  8
0
 10
1.17003140
 20
5.26172050
  0
VERTEX
  8
0
 10
1.20143562
 20
5.27248766
  0
VERTEX
  8
0
 10
1.22296994
 20
5.29357335
  0
SEQEND
  0
POLYLINE
  8
Default_Layer
 66
   1
 39
0.000000
 70
    1
  0
VERTEX
  8
0
 10
2.44683715
 20
5.47257739
  0
VERTEX
  8
0
 10
2.38088829
 20
5.31286451
  0
VERTEX
  8
0
 10
2.35172723
 20
5.22717586
  0
VERTEX
  8
0
 10
2.33647376
 20
5.15988111
  0
VERTEX
  8
0
 10
2.33781965
 20
5.15045985
  0
VERTEX
  8
0
 10
2.33781965
 20
5.14731943
  0
VERTEX
  8
0
 10
2.33423060
 20
5.14642216
  0
VERTEX
  8
0
 10
2.23239121
 20
5.14642216
  0
VERTEX
  8
0
 10
2.22880215
 20
5.14731943
  0
VERTEX
  8
0
 10
2.22880215
 20
5.15045985
  0
VERTEX
  8
0
 10
2.23239121
 20
5.16436743
  0
VERTEX
  8
0
 10
2.16419919
 20
5.14238448
  0
VERTEX
  8
0
 10
2.11675639
 20
5.15752580
  0
VERTEX
  8
0
 10
2.08658591
 20
5.20294975
  0
VERTEX
  8
0
 10
2.06819201
 20
5.20698744
  0
VERTEX
  8
0
 10
2.04890085
 20
5.20519291
  0
VERTEX
  8
0
 10
2.02960969
 20
5.20564154
  0
VERTEX
  8
0
 10
2.02691790
 20
5.20923060
  0
VERTEX
  8
0
 10
2.03050695
 20
5.21192239
  0
VERTEX
  8
0
 10
2.05877075
 20
5.22358681
  0
VERTEX
  8
0
 10
2.08613728
 20
5.23928892
  0
VERTEX
  8
0
 10
2.09780170
 20
5.27697398
  0
VERTEX
  8
0
 10
2.07133244
 20
5.28504935
  0
VERTEX
  8
0
 10
2.04890085
 20
5.28594661
  0
VERTEX
  8
0
 10
2.04576043
 20
5.28908703
  0
VERTEX
  8
0
 10
2.04890085
 20
5.29222746
  0
VERTEX
  8
0
 10
2.07537012
 20
5.30030283
  0
VERTEX
  8
0
 10
2.10183939
 20
5.30613504
  0
VERTEX
  8
0
 10
2.11170929
 20
5.30523777
  0
VERTEX
  8
0
 10
2.11978466
 20
5.31645357
  0
VERTEX
  8
0
 10
2.07357559
 20
5.32452894
  0
VERTEX
  8
0
 10
2.03544190
 20
5.31869672
  0
VERTEX
  8
0
 10
2.03050695
 20
5.32183715
  0
VERTEX
  8
0
 10
2.03275011
 20
5.32497757
  0
VERTEX
  8
0
 10
2.08344549
 20
5.33439883
  0
VERTEX
  8
0
 10
2.11215792
 20
5.34471736
  0
VERTEX
  8
0
 10
2.10049349
 20
5.35548452
  0
VERTEX
  8
0
 10
2.08120233
 20
5.36490579
  0
VERTEX
  8
0
 10
2.07985644
 20
5.36759758
  0
VERTEX
  8
0
 10
2.08344549
 20
5.37073800
  0
VERTEX
  8
0
 10
2.08568865
 20
5.36984074
  0
VERTEX
  8
0
 10
2.10587707
 20
5.36355989
  0
VERTEX
  8
0
 10
2.12606550
 20
5.36580305
  0
VERTEX
  8
0
 10
2.14580529
 20
5.36849484
  0
VERTEX
  8
0
 10
2.17003140
 20
5.36086810
  0
VERTEX
  8
0
 10
2.24405563
 20
5.38688874
  0
VERTEX
  8
0
 10
2.30103185
 20
5.36759758
  0
VERTEX
  8
0
 10
2.31449080
 20
5.40842306
  0
VERTEX
  8
0
 10
2.28174069
 20
5.42143338
  0
VERTEX
  8
0
 10
2.26558995
 20
5.41919022
  0
VERTEX
  8
0
 10
2.24001795
 20
5.41874159
  0
VERTEX
  8
0
 10
2.23732616
 20
5.42233064
  0
VERTEX
  8
0
 10
2.24091521
 20
5.42502243
  0
VERTEX
  8
0
 10
2.24674742
 20
5.42457380
  0
VERTEX
  8
0
 10
2.27456258
 20
5.43220054
  0
VERTEX
  8
0
 10
2.30641543
 20
5.43982728
  0
VERTEX
  8
0
 10
2.32122028
 20
5.43982728
  0
VERTEX
  8
0
 10
2.32705249
 20
5.46405339
  0
VERTEX
  8
0
 10
2.33019291
 20
5.46584791
  0
VERTEX
  8
0
 10
2.44235083
 20
5.47751234
  0
VERTEX
  8
0
 10
2.44683715
 20
5.47706371
  0
VERTEX
  8
0
 10
2.44683715
 20
5.47257739
  0
SEQEND
  0
POLYLINE
  8
Default_Layer
 66
   1
 39
0.000000
 70
    1
  0
VERTEX
  8
0
 10
2.27052490
 20
5.30434051
  0
VERTEX
  8
0
 10
2.25616869
 20
5.31151862
  0
VERTEX
  8
0
 10
2.21310004
 20
5.29177882
  0
VERTEX
  8
0
 10
2.19470615
 20
5.25185061
  0
VERTEX
  8
0
 10
2.20098699
 20
5.23121355
  0
VERTEX
  8
0
 10
2.21848362
 20
5.22224092
  0
VERTEX
  8
0
 10
2.25033647
 20
5.23435397
  0
VERTEX
  8
0
 10
2.25616869
 20
5.25364513
  0
VERTEX
  8
0
 10
2.24136384
 20
5.26172050
  0
VERTEX
  8
0
 10
2.21893226
 20
5.25768282
  0
VERTEX
  8
0
 10
2.21444594
 20
5.25813145
  0
VERTEX
  8
0
 10
2.21444594
 20
5.26261777
  0
VERTEX
  8
0
 10
2.24270974
 20
5.27697398
  0
VERTEX
  8
0
 10
2.26469269
 20
5.28549798
  0
VERTEX
  8
0
 10
2.27052490
 20
5.30434051
  0
SEQEND
  0
POLYLINE
  8
Default_Layer
 66
   1
 39
0.000000
 70
    1
  0
VERTEX
  8
0
 10
2.91924630
 20
5.30837820
  0
VERTEX
  8
0
 10
2.91341409
 20
5.25229924
  0
VERTEX
  8
0
 10
2.91027367
 20
5.24915882
  0
VERTEX
  8
0
 10
2.76671153
 20
5.24915882
  0
VERTEX
  8
0
 10
2.77882459
 20
5.22582997
  0
VERTEX
  8
0
 10
2.80529385
 20
5.21910049
  0
VERTEX
  8
0
 10
2.87124271
 20
5.23839166
  0
VERTEX
  8
0
 10
2.87572903
 20
5.23884029
  0
VERTEX
  8
0
 10
2.87617766
 20
5.23390534
  0
VERTEX
  8
0
 10
2.86406460
 20
5.17019964
  0
VERTEX
  8
0
 10
2.86271871
 20
5.16750785
  0
VERTEX
  8
0
 10
2.82413638
 20
5.14799237
  0
VERTEX
  8
0
 10
2.77568416
 20
5.14148721
  0
VERTEX
  8
0
 10
2.70670704
 20
5.15494616
  0
VERTEX
  8
0
 10
2.67205025
 20
5.19532301
  0
VERTEX
  8
0
 10
2.62135487
 20
5.19846344
  0
VERTEX
  8
0
 10
2.61821445
 20
5.20205249
  0
VERTEX
  8
0
 10
2.62135487
 20
5.20474428
  0
VERTEX
  8
0
 10
2.64558098
 20
5.21461418
  0
VERTEX
  8
0
 10
2.65903993
 20
5.23659713
  0
VERTEX
  8
0
 10
2.64468371
 20
5.25499103
  0
VERTEX
  8
0
 10
2.61417676
 20
5.25992598
  0
VERTEX
  8
0
 10
2.58546433
 20
5.26800135
  0
VERTEX
  8
0
 10
2.58366981
 20
5.27203903
  0
VERTEX
  8
0
 10
2.58770749
 20
5.27383356
  0
VERTEX
  8
0
 10
2.59937192
 20
5.27248766
  0
VERTEX
  8
0
 10
2.62225213
 20
5.27787124
  0
VERTEX
  8
0
 10
2.64602961
 20
5.28370345
  0
VERTEX
  8
0
 10
2.66756393
 20
5.27966577
  0
VERTEX
  8
0
 10
2.68820099
 20
5.31690220
  0
VERTEX
  8
0
 10
2.64602961
 20
5.32228578
  0
VERTEX
  8
0
 10
2.64378645
 20
5.32542620
  0
VERTEX
  8
0
 10
2.64872140
 20
5.32856662
  0
VERTEX
  8
0
 10
2.65589951
 20
5.32722073
  0
VERTEX
  8
0
 10
2.66980709
 20
5.33080978
  0
VERTEX
  8
0
 10
2.67563930
 20
5.34112831
  0
VERTEX
  8
0
 10
2.65455361
 20
5.35279273
  0
VERTEX
  8
0
 10
2.64468371
 20
5.35189547
  0
VERTEX
  8
0
 10
2.63436519
 20
5.35144684
  0
VERTEX
  8
0
 10
2.61238223
 20
5.35369000
  0
VERTEX
  8
0
 10
2.60969044
 20
5.35727905
  0
VERTEX
  8
0
 10
2.61327950
 20
5.35997084
  0
VERTEX
  8
0
 10
2.64378645
 20
5.36445716
  0
VERTEX
  8
0
 10
2.67339614
 20
5.37118663
  0
VERTEX
  8
0
 10
2.69403320
 20
5.36445716
  0
VERTEX
  8
0
 10
2.71870794
 20
5.35683042
  0
VERTEX
  8
0
 10
2.83041723
 20
5.39496411
  0
VERTEX
  8
0
 10
2.89232840
 20
5.37253253
  0
VERTEX
  8
0
 10
2.91251682
 20
5.34438089
  0
VERTEX
  8
0
 10
2.91924630
 20
5.30837820
  0
SEQEND
  0
POLYLINE
  8
Default_Layer
 66
   1
 39
0.000000
 70
    1
  0
VERTEX
  8
0
 10
2.84253028
 20
5.31062135
  0
VERTEX
  8
0
 10
2.83804397
 20
5.32452894
  0
VERTEX
  8
0
 10
2.82637954
 20
5.33080978
  0
VERTEX
  8
0
 10
2.78241364
 20
5.30120009
  0
VERTEX
  8
0
 10
2.83938986
 20
5.30030283
  0
VERTEX
  8
0
 10
2.84253028
 20
5.31062135
  0
SEQEND
  0
POLYLINE
  8
Default_Layer
 66
   1
 39
0.000000
 70
    1
  0
VERTEX
  8
0
 10
3.45356662
 20
5.47709175
  0
VERTEX
  8
0
 10
3.41408703
 20
5.40617289
  0
VERTEX
  8
0
 10
3.41049798
 20
5.40438537
  0
VERTEX
  8
0
 10
3.40331987
 20
5.40438537
  0
VERTEX
  8
0
 10
3.37505608
 20
5.39731943
  0
VERTEX
  8
0
 10
3.35755944
 20
5.37612158
  0
VERTEX
  8
0
 10
3.39838493
 20
5.37612158
  0
VERTEX
  8
0
 10
3.40197398
 20
5.37477568
  0
VERTEX
  8
0
 10
3.40197398
 20
5.37118663
  0
VERTEX
  8
0
 10
3.36742934
 20
5.29985419
  0
VERTEX
  8
0
 10
3.36473755
 20
5.29761104
  0
VERTEX
  8
0
 10
3.32974428
 20
5.29761104
  0
VERTEX
  8
0
 10
3.30058322
 20
5.23525123
  0
VERTEX
  8
0
 10
3.28218932
 20
5.15270301
  0
VERTEX
  8
0
 10
3.28129206
 20
5.14956258
  0
VERTEX
  8
0
 10
3.27860027
 20
5.14911395
  0
VERTEX
  8
0
 10
3.20637057
 20
5.15360027
  0
VERTEX
  8
0
 10
3.16913414
 20
5.15180574
  0
VERTEX
  8
0
 10
3.16554509
 20
5.15315164
  0
VERTEX
  8
0
 10
3.16554509
 20
5.15674069
  0
VERTEX
  8
0
 10
3.19425751
 20
5.21281965
  0
VERTEX
  8
0
 10
3.17720951
 20
5.22538134
  0
VERTEX
  8
0
 10
3.15298340
 20
5.22627860
  0
VERTEX
  8
0
 10
3.12337371
 20
5.23659713
  0
VERTEX
  8
0
 10
3.12157918
 20
5.23928892
  0
VERTEX
  8
0
 10
3.12696276
 20
5.24198071
  0
VERTEX
  8
0
 10
3.14535666
 20
5.23659713
  0
VERTEX
  8
0
 10
3.17182593
 20
5.24242934
  0
VERTEX
  8
0
 10
3.19829520
 20
5.24826155
  0
VERTEX
  8
0
 10
3.20681920
 20
5.24736429
  0
VERTEX
  8
0
 10
3.22117541
 20
5.29312472
  0
VERTEX
  8
0
 10
3.19021983
 20
5.29312472
  0
VERTEX
  8
0
 10
3.18707941
 20
5.29805967
  0
VERTEX
  8
0
 10
3.19829520
 20
5.32542620
  0
VERTEX
  8
0
 10
3.17003140
 20
5.32228578
  0
VERTEX
  8
0
 10
3.13817856
 20
5.32766936
  0
VERTEX
  8
0
 10
3.13593540
 20
5.33170704
  0
VERTEX
  8
0
 10
3.13997308
 20
5.33395020
  0
VERTEX
  8
0
 10
3.15477793
 20
5.33260431
  0
VERTEX
  8
0
 10
3.17496635
 20
5.34292284
  0
VERTEX
  8
0
 10
3.16240467
 20
5.35234410
  0
VERTEX
  8
0
 10
3.14042171
 20
5.35234410
  0
VERTEX
  8
0
 10
3.11799013
 20
5.35952221
  0
VERTEX
  8
0
 10
3.11664424
 20
5.36355989
  0
VERTEX
  8
0
 10
3.11933603
 20
5.36580305
  0
VERTEX
  8
0
 10
3.12113055
 20
5.36535442
  0
VERTEX
  8
0
 10
3.13952445
 20
5.36131673
  0
VERTEX
  8
0
 10
3.16150740
 20
5.36355989
  0
VERTEX
  8
0
 10
3.18349035
 20
5.36580305
  0
VERTEX
  8
0
 10
3.20906236
 20
5.36131673
  0
VERTEX
  8
0
 10
3.21489457
 20
5.37354195
  0
VERTEX
  8
0
 10
3.21803499
 20
5.37522432
  0
VERTEX
  8
0
 10
3.24809332
 20
5.37522432
  0
VERTEX
  8
0
 10
3.26200090
 20
5.40842306
  0
VERTEX
  8
0
 10
3.24226110
 20
5.40573127
  0
VERTEX
  8
0
 10
3.21534320
 20
5.41560117
  0
VERTEX
  8
0
 10
3.21354868
 20
5.41829296
  0
VERTEX
  8
0
 10
3.21668910
 20
5.42143338
  0
VERTEX
  8
0
 10
3.21893226
 20
5.42098475
  0
VERTEX
  8
0
 10
3.23328847
 20
5.41829296
  0
VERTEX
  8
0
 10
3.25706595
 20
5.43085464
  0
VERTEX
  8
0
 10
3.24046658
 20
5.43893001
  0
VERTEX
  8
0
 10
3.22790489
 20
5.43758412
  0
VERTEX
  8
0
 10
3.21579183
 20
5.43623822
  0
VERTEX
  8
0
 10
3.18483625
 20
5.43937865
  0
VERTEX
  8
0
 10
3.18214446
 20
5.44296770
  0
VERTEX
  8
0
 10
3.18573351
 20
5.44565949
  0
VERTEX
  8
0
 10
3.20547331
 20
5.44476223
  0
VERTEX
  8
0
 10
3.23687752
 20
5.45238896
  0
VERTEX
  8
0
 10
3.26917900
 20
5.46046433
  0
VERTEX
  8
0
 10
3.29789143
 20
5.45238896
  0
VERTEX
  8
0
 10
3.38582324
 20
5.48065276
  0
VERTEX
  8
0
 10
3.40646030
 20
5.47796097
  0
VERTEX
  8
0
 10
3.42664872
 20
5.47526918
  0
VERTEX
  8
0
 10
3.44908031
 20
5.48155002
  0
VERTEX
  8
0
 10
3.45356662
 20
5.48110139
  0
VERTEX
  8
0
 10
3.45356662
 20
5.47706371
  0
VERTEX
  8
0
 10
3.45356662
 20
5.47709175
  0
SEQEND
  0
POLYLINE
  8
Default_Layer
 66
   1
 39
0.000000
 70
    1
  0
VERTEX
  8
0
 10
3.95917452
 20
5.37657021
  0
VERTEX
  8
0
 10
3.93315388
 20
5.31465904
  0
VERTEX
  8
0
 10
3.93046209
 20
5.31151862
  0
VERTEX
  8
0
 10
3.91161956
 20
5.30837820
  0
VERTEX
  8
0
 10
3.86541050
 20
5.24826155
  0
VERTEX
  8
0
 10
3.78734859
 20
5.22672723
  0
VERTEX
  8
0
 10
3.75190668
 20
5.23031629
  0
VERTEX
  8
0
 10
3.73037236
 20
5.21775460
  0
VERTEX
  8
0
 10
3.74203679
 20
5.21281965
  0
VERTEX
  8
0
 10
3.76312248
 20
5.21281965
  0
VERTEX
  8
0
 10
3.84656797
 20
5.19767833
  0
VERTEX
  8
0
 10
3.86742934
 20
5.17875168
  0
VERTEX
  8
0
 10
3.87438313
 20
5.15225437
  0
VERTEX
  8
0
 10
3.85823239
 20
5.10088605
  0
VERTEX
  8
0
 10
3.80978017
 20
5.06342530
  0
VERTEX
  8
0
 10
3.68506057
 20
5.03919919
  0
VERTEX
  8
0
 10
3.62270076
 20
5.05265814
  0
VERTEX
  8
0
 10
3.58636160
 20
5.09303499
  0
VERTEX
  8
0
 10
3.56303275
 20
5.09931584
  0
VERTEX
  8
0
 10
3.53521759
 20
5.10514805
  0
VERTEX
  8
0
 10
3.53297443
 20
5.10918573
  0
VERTEX
  8
0
 10
3.53656348
 20
5.11142889
  0
VERTEX
  8
0
 10
3.57290265
 20
5.11770974
  0
VERTEX
  8
0
 10
3.60789592
 20
5.12802826
  0
VERTEX
  8
0
 10
3.64423508
 20
5.15001122
  0
VERTEX
  8
0
 10
3.62359803
 20
5.17648048
  0
VERTEX
  8
0
 10
3.62853297
 20
5.19980933
  0
VERTEX
  8
0
 10
3.61327950
 20
5.18993943
  0
VERTEX
  8
0
 10
3.59757739
 20
5.18365859
  0
VERTEX
  8
0
 10
3.57963212
 20
5.18500449
  0
VERTEX
  8
0
 10
3.56303275
 20
5.18679901
  0
VERTEX
  8
0
 10
3.55002243
 20
5.18590175
  0
VERTEX
  8
0
 10
3.54598475
 20
5.18814491
  0
VERTEX
  8
0
 10
3.54822790
 20
5.19218259
  0
VERTEX
  8
0
 10
3.57783760
 20
5.19891207
  0
VERTEX
  8
0
 10
3.59847465
 20
5.21012786
  0
VERTEX
  8
0
 10
3.58501570
 20
5.21954913
  0
VERTEX
  8
0
 10
3.55540601
 20
5.23076492
  0
VERTEX
  8
0
 10
3.55361148
 20
5.23525123
  0
VERTEX
  8
0
 10
3.55764917
 20
5.23704576
  0
VERTEX
  8
0
 10
3.59174518
 20
5.23076492
  0
VERTEX
  8
0
 10
3.61821445
 20
5.23525123
  0
VERTEX
  8
0
 10
3.64468371
 20
5.24018618
  0
VERTEX
  8
0
 10
3.66846119
 20
5.23435397
  0
VERTEX
  8
0
 10
3.69717362
 20
5.24556976
  0
VERTEX
  8
0
 10
3.66711530
 20
5.27742261
  0
VERTEX
  8
0
 10
3.63077613
 20
5.28101166
  0
VERTEX
  8
0
 10
3.62808434
 20
5.28460072
  0
VERTEX
  8
0
 10
3.63122476
 20
5.28729251
  0
VERTEX
  8
0
 10
3.66038582
 20
5.29491925
  0
VERTEX
  8
0
 10
3.67339614
 20
5.32004262
  0
VERTEX
  8
0
 10
3.64692687
 20
5.33170704
  0
VERTEX
  8
0
 10
3.59847465
 20
5.33933378
  0
VERTEX
  8
0
 10
3.59668013
 20
5.34382010
  0
VERTEX
  8
0
 10
3.60071781
 20
5.34561463
  0
VERTEX
  8
0
 10
3.61911171
 20
5.34337147
  0
VERTEX
  8
0
 10
3.64917003
 20
5.35054957
  0
VERTEX
  8
0
 10
3.67967699
 20
5.35772768
  0
VERTEX
  8
0
 10
3.70345446
 20
5.35772768
  0
VERTEX
  8
0
 10
3.73665321
 20
5.37746747
  0
VERTEX
  8
0
 10
3.80439659
 20
5.39227232
  0
VERTEX
  8
0
 10
3.88066397
 20
5.37253253
  0
VERTEX
  8
0
 10
3.95648273
 20
5.38240242
  0
VERTEX
  8
0
 10
3.96052041
 20
5.38105653
  0
VERTEX
  8
0
 10
3.95917452
 20
5.37657021
  0
SEQEND
  0
POLYLINE
  8
Default_Layer
 66
   1
 39
0.000000
 70
    1
  0
VERTEX
  8
0
 10
3.82234186
 20
5.32632346
  0
VERTEX
  8
0
 10
3.80529385
 20
5.33709062
  0
VERTEX
  8
0
 10
3.77882459
 20
5.31914536
  0
VERTEX
  8
0
 10
3.76895469
 20
5.29447061
  0
VERTEX
  8
0
 10
3.78151638
 20
5.28460072
  0
VERTEX
  8
0
 10
3.79721848
 20
5.28863840
  0
VERTEX
  8
0
 10
3.80574249
 20
5.29716240
  0
VERTEX
  8
0
 10
3.79452669
 20
5.30030283
  0
VERTEX
  8
0
 10
3.79093764
 20
5.30299462
  0
VERTEX
  8
0
 10
3.79362943
 20
5.30658367
  0
VERTEX
  8
0
 10
3.81336922
 20
5.31331314
  0
VERTEX
  8
0
 10
3.82234186
 20
5.32632346
  0
SEQEND
  0
POLYLINE
  8
Default_Layer
 66
   1
 39
0.000000
 70
    1
  0
VERTEX
  8
0
 10
3.76850606
 20
5.12757963
  0
VERTEX
  8
0
 10
3.76312248
 20
5.13610363
  0
VERTEX
  8
0
 10
3.75100942
 20
5.13969269
  0
VERTEX
  8
0
 10
3.71265141
 20
5.13374832
  0
VERTEX
  8
0
 10
3.69986541
 20
5.11591521
  0
VERTEX
  8
0
 10
3.72543742
 20
5.10559668
  0
VERTEX
  8
0
 10
3.75459847
 20
5.11142889
  0
VERTEX
  8
0
 10
3.76850606
 20
5.12757963
  0
SEQEND
  0
POLYLINE
  8
Default_Layer
 66
   1
 39
0.000000
 70
    1
  0
VERTEX
  8
0
 10
4.51547779
 20
5.34696052
  0
VERTEX
  8
0
 10
4.50067295
 20
5.29312472
  0
VERTEX
  8
0
 10
4.47375505
 20
5.22807313
  0
VERTEX
  8
0
 10
4.45895020
 20
5.15494616
  0
VERTEX
  8
0
 10
4.45446389
 20
5.15180574
  0
VERTEX
  8
0
 10
4.42216240
 20
5.15404890
  0
VERTEX
  8
0
 10
4.38268282
 20
5.15539480
  0
VERTEX
  8
0
 10
4.34230597
 20
5.15360027
  0
VERTEX
  8
0
 10
4.33916555
 20
5.15449753
  0
VERTEX
  8
0
 10
4.33961418
 20
5.15808659
  0
VERTEX
  8
0
 10
4.39030956
 20
5.28863840
  0
VERTEX
  8
0
 10
4.38268282
 20
5.30209735
  0
VERTEX
  8
0
 10
4.35666218
 20
5.27562808
  0
VERTEX
  8
0
 10
4.33109017
 20
5.20429565
  0
VERTEX
  8
0
 10
4.32122028
 20
5.15404890
  0
VERTEX
  8
0
 10
4.31807986
 20
5.15045985
  0
VERTEX
  8
0
 10
4.20143562
 20
5.14956258
  0
VERTEX
  8
0
 10
4.19739794
 20
5.15225437
  0
VERTEX
  8
0
 10
4.19919246
 20
5.15629206
  0
VERTEX
  8
0
 10
4.21354868
 20
5.17737775
  0
VERTEX
  8
0
 10
4.19291162
 20
5.18590175
  0
VERTEX
  8
0
 10
4.17586362
 20
5.18410722
  0
VERTEX
  8
0
 10
4.15836698
 20
5.18276133
  0
VERTEX
  8
0
 10
4.13458950
 20
5.18814491
  0
VERTEX
  8
0
 10
4.13234634
 20
5.19218259
  0
VERTEX
  8
0
 10
4.13683266
 20
5.19442575
  0
VERTEX
  8
0
 10
4.15746972
 20
5.19173396
  0
VERTEX
  8
0
 10
4.18932257
 20
5.20115523
  0
VERTEX
  8
0
 10
4.22386721
 20
5.21371691
  0
VERTEX
  8
0
 10
4.23642889
 20
5.25319650
  0
VERTEX
  8
0
 10
4.18259309
 20
5.26710408
  0
VERTEX
  8
0
 10
4.17990130
 20
5.27024450
  0
VERTEX
  8
0
 10
4.18304172
 20
5.27338493
  0
VERTEX
  8
0
 10
4.21758636
 20
5.28190893
  0
VERTEX
  8
0
 10
4.24854195
 20
5.29357335
  0
VERTEX
  8
0
 10
4.26110363
 20
5.33350157
  0
VERTEX
  8
0
 10
4.25033647
 20
5.33529610
  0
VERTEX
  8
0
 10
4.22611036
 20
5.32901525
  0
VERTEX
  8
0
 10
4.20323015
 20
5.32318304
  0
VERTEX
  8
0
 10
4.17900404
 20
5.32497757
  0
VERTEX
  8
0
 10
4.15522656
 20
5.32677210
  0
VERTEX
  8
0
 10
4.14087035
 20
5.32452894
  0
VERTEX
  8
0
 10
4.13638403
 20
5.32766936
  0
VERTEX
  8
0
 10
4.13862719
 20
5.33080978
  0
VERTEX
  8
0
 10
4.19066846
 20
5.34157694
  0
VERTEX
  8
0
 10
4.21265141
 20
5.35279273
  0
VERTEX
  8
0
 10
4.18483625
 20
5.36894347
  0
VERTEX
  8
0
 10
4.17092867
 20
5.36759758
  0
VERTEX
  8
0
 10
4.16689098
 20
5.36984074
  0
VERTEX
  8
0
 10
4.16913414
 20
5.37387842
  0
VERTEX
  8
0
 10
4.21579183
 20
5.37926200
  0
VERTEX
  8
0
 10
4.23777479
 20
5.37387842
  0
VERTEX
  8
0
 10
4.25975774
 20
5.36849484
  0
VERTEX
  8
0
 10
4.27276806
 20
5.37298116
  0
VERTEX
  8
0
 10
4.28847017
 20
5.41335801
  0
VERTEX
  8
0
 10
4.24764468
 20
5.42816285
  0
VERTEX
  8
0
 10
4.20681920
 20
5.43623822
  0
VERTEX
  8
0
 10
4.20547331
 20
5.44027591
  0
VERTEX
  8
0
 10
4.20951099
 20
5.44207044
  0
VERTEX
  8
0
 10
4.22611036
 20
5.44117317
  0
VERTEX
  8
0
 10
4.25257963
 20
5.44790265
  0
VERTEX
  8
0
 10
4.27904890
 20
5.45508075
  0
VERTEX
  8
0
 10
4.30462091
 20
5.45104307
  0
VERTEX
  8
0
 10
4.31224764
 20
5.47212876
  0
VERTEX
  8
0
 10
4.31538807
 20
5.47437192
  0
VERTEX
  8
0
 10
4.38716913
 20
5.47123149
  0
VERTEX
  8
0
 10
4.42978914
 20
5.47302602
  0
VERTEX
  8
0
 10
4.43337820
 20
5.47168013
  0
VERTEX
  8
0
 10
4.43337820
 20
5.46809107
  0
VERTEX
  8
0
 10
4.41722746
 20
5.43623822
  0
VERTEX
  8
0
 10
4.38986092
 20
5.37118663
  0
VERTEX
  8
0
 10
4.46433378
 20
5.39586137
  0
VERTEX
  8
0
 10
4.49977568
 20
5.38240242
  0
VERTEX
  8
0
 10
4.51547779
 20
5.34696052
  0
SEQEND
  0
POLYLINE
  8
Default_Layer
 66
   1
 39
0.000000
 70
    1
  0
VERTEX
  8
0
 10
4.94930462
 20
5.46719381
  0
VERTEX
  8
0
 10
4.91924630
 20
5.39092642
  0
VERTEX
  8
0
 10
4.91610588
 20
5.38913190
  0
VERTEX
  8
0
 10
4.82637954
 20
5.39137506
  0
VERTEX
  8
0
 10
4.82323912
 20
5.39586137
  0
VERTEX
  8
0
 10
4.83400628
 20
5.42681696
  0
VERTEX
  8
0
 10
4.80619112
 20
5.43534096
  0
VERTEX
  8
0
 10
4.76581427
 20
5.43937865
  0
VERTEX
  8
0
 10
4.76312248
 20
5.44296770
  0
VERTEX
  8
0
 10
4.76626290
 20
5.44565949
  0
VERTEX
  8
0
 10
4.80170480
 20
5.45418349
  0
VERTEX
  8
0
 10
4.82862270
 20
5.45866981
  0
VERTEX
  8
0
 10
4.84567070
 20
5.45777254
  0
VERTEX
  8
0
 10
4.85060565
 20
5.46988560
  0
VERTEX
  8
0
 10
4.85374607
 20
5.47168013
  0
VERTEX
  8
0
 10
4.94616420
 20
5.47168013
  0
VERTEX
  8
0
 10
4.94930462
 20
5.46719381
  0
SEQEND
  0
POLYLINE
  8
Default_Layer
 66
   1
 39
0.000000
 70
    1
  0
VERTEX
  8
0
 10
4.91475998
 20
5.36804621
  0
VERTEX
  8
0
 10
4.88694482
 20
5.29985419
  0
VERTEX
  8
0
 10
4.83490354
 20
5.14911395
  0
VERTEX
  8
0
 10
4.83131449
 20
5.14731943
  0
VERTEX
  8
0
 10
4.72633468
 20
5.14821669
  0
VERTEX
  8
0
 10
4.72229699
 20
5.15045985
  0
VERTEX
  8
0
 10
4.72409152
 20
5.15449753
  0
VERTEX
  8
0
 10
4.74158816
 20
5.17648048
  0
VERTEX
  8
0
 10
4.73485868
 20
5.18635038
  0
VERTEX
  8
0
 10
4.72139973
 20
5.18859354
  0
VERTEX
  8
0
 10
4.71646478
 20
5.19173396
  0
VERTEX
  8
0
 10
4.71870794
 20
5.19487438
  0
VERTEX
  8
0
 10
4.73665321
 20
5.20025796
  0
VERTEX
  8
0
 10
4.74697174
 20
5.20564154
  0
VERTEX
  8
0
 10
4.76222521
 20
5.24646703
  0
VERTEX
  8
0
 10
4.74069089
 20
5.25409376
  0
VERTEX
  8
0
 10
4.70973531
 20
5.25947734
  0
VERTEX
  8
0
 10
4.70794078
 20
5.26351503
  0
VERTEX
  8
0
 10
4.71197847
 20
5.26575819
  0
VERTEX
  8
0
 10
4.74024226
 20
5.27159040
  0
VERTEX
  8
0
 10
4.76536563
 20
5.27921714
  0
VERTEX
  8
0
 10
4.77613279
 20
5.27831987
  0
VERTEX
  8
0
 10
4.78645132
 20
5.30837820
  0
VERTEX
  8
0
 10
4.76895469
 20
5.31510767
  0
VERTEX
  8
0
 10
4.75235532
 20
5.31914536
  0
VERTEX
  8
0
 10
4.73485868
 20
5.31645357
  0
VERTEX
  8
0
 10
4.73082100
 20
5.31869672
  0
VERTEX
  8
0
 10
4.73306415
 20
5.32273441
  0
VERTEX
  8
0
 10
4.74383131
 20
5.32632346
  0
VERTEX
  8
0
 10
4.75549574
 20
5.32856662
  0
VERTEX
  8
0
 10
4.77613279
 20
5.33350157
  0
VERTEX
  8
0
 10
4.75908479
 20
5.34023105
  0
VERTEX
  8
0
 10
4.72050247
 20
5.35593315
  0
VERTEX
  8
0
 10
4.71870794
 20
5.35907358
  0
VERTEX
  8
0
 10
4.72184836
 20
5.36221400
  0
VERTEX
  8
0
 10
4.73171826
 20
5.35952221
  0
VERTEX
  8
0
 10
4.74338268
 20
5.35638179
  0
VERTEX
  8
0
 10
4.75729026
 20
5.35548452
  0
VERTEX
  8
0
 10
4.76895469
 20
5.35727905
  0
VERTEX
  8
0
 10
4.78151638
 20
5.35907358
  0
VERTEX
  8
0
 10
4.80574249
 20
5.35324136
  0
VERTEX
  8
0
 10
4.81381786
 20
5.37253253
  0
VERTEX
  8
0
 10
4.81695828
 20
5.37432705
  0
VERTEX
  8
0
 10
4.91161956
 20
5.37253253
  0
VERTEX
  8
0
 10
4.91475998
 20
5.36804621
  0
SEQEND
  0
POLYLINE
  8
Default_Layer
 66
   1
 39
0.000000
 70
    1
  0
VERTEX
  8
0
 10
5.39120682
 20
5.47078286
  0
VERTEX
  8
0
 10
5.35980260
 20
5.39137506
  0
VERTEX
  8
0
 10
5.35666218
 20
5.38958053
  0
VERTEX
  8
0
 10
5.26244953
 20
5.39227232
  0
VERTEX
  8
0
 10
5.25930911
 20
5.39675864
  0
VERTEX
  8
0
 10
5.26693585
 20
5.41919022
  0
VERTEX
  8
0
 10
5.26200090
 20
5.42053611
  0
VERTEX
  8
0
 10
5.25347690
 20
5.41919022
  0
VERTEX
  8
0
 10
5.24540153
 20
5.41784432
  0
VERTEX
  8
0
 10
5.20412741
 20
5.41919022
  0
VERTEX
  8
0
 10
5.20143562
 20
5.42233064
  0
VERTEX
  8
0
 10
5.20502467
 20
5.42547106
  0
VERTEX
  8
0
 10
5.24001795
 20
5.43534096
  0
VERTEX
  8
0
 10
5.22476447
 20
5.44431359
  0
VERTEX
  8
0
 10
5.19605204
 20
5.45194033
  0
VERTEX
  8
0
 10
5.19380888
 20
5.45552939
  0
VERTEX
  8
0
 10
5.19874383
 20
5.45822118
  0
VERTEX
  8
0
 10
5.22521310
 20
5.45328623
  0
VERTEX
  8
0
 10
5.24405563
 20
5.45866981
  0
VERTEX
  8
0
 10
5.26289816
 20
5.46405339
  0
VERTEX
  8
0
 10
5.28532974
 20
5.46001570
  0
VERTEX
  8
0
 10
5.29071332
 20
5.47437192
  0
VERTEX
  8
0
 10
5.29385375
 20
5.47616644
  0
VERTEX
  8
0
 10
5.38806640
 20
5.47526918
  0
VERTEX
  8
0
 10
5.39120682
 20
5.47078286
  0
SEQEND
  0
POLYLINE
  8
Default_Layer
 66
   1
 39
0.000000
 70
    1
  0
VERTEX
  8
0
 10
5.35576492
 20
5.36984074
  0
VERTEX
  8
0
 10
5.25527142
 20
5.11681247
  0
VERTEX
  8
0
 10
5.21702557
 20
5.06398609
  0
VERTEX
  8
0
 10
5.15791835
 20
5.04637730
  0
VERTEX
  8
0
 10
5.09825034
 20
5.05400404
  0
VERTEX
  8
0
 10
5.09645581
 20
5.05849035
  0
VERTEX
  8
0
 10
5.09959623
 20
5.06925751
  0
VERTEX
  8
0
 10
5.08748318
 20
5.06925751
  0
VERTEX
  8
0
 10
5.06460296
 20
5.07419246
  0
VERTEX
  8
0
 10
5.04262001
 20
5.07912741
  0
VERTEX
  8
0
 10
5.03903096
 20
5.08181920
  0
VERTEX
  8
0
 10
5.04172275
 20
5.08540825
  0
VERTEX
  8
0
 10
5.04934948
 20
5.08585689
  0
VERTEX
  8
0
 10
5.06011664
 20
5.08495962
  0
VERTEX
  8
0
 10
5.07043517
 20
5.08451099
  0
VERTEX
  8
0
 10
5.08120233
 20
5.09303499
  0
VERTEX
  8
0
 10
5.06415433
 20
5.10380215
  0
VERTEX
  8
0
 10
5.02512337
 20
5.10783984
  0
VERTEX
  8
0
 10
5.02288022
 20
5.11187752
  0
VERTEX
  8
0
 10
5.02646927
 20
5.11412068
  0
VERTEX
  8
0
 10
5.03454464
 20
5.11322342
  0
VERTEX
  8
0
 10
5.06370570
 20
5.11905563
  0
VERTEX
  8
0
 10
5.09510991
 20
5.12488784
  0
VERTEX
  8
0
 10
5.12471961
 20
5.11681247
  0
VERTEX
  8
0
 10
5.14670256
 20
5.12578511
  0
VERTEX
  8
0
 10
5.17676088
 20
5.17199417
  0
VERTEX
  8
0
 10
5.15208614
 20
5.18051817
  0
VERTEX
  8
0
 10
5.13683266
 20
5.17962091
  0
VERTEX
  8
0
 10
5.12202782
 20
5.17872364
  0
VERTEX
  8
0
 10
5.09376402
 20
5.18724764
  0
VERTEX
  8
0
 10
5.09152086
 20
5.19128533
  0
VERTEX
  8
0
 10
5.09600718
 20
5.19307986
  0
VERTEX
  8
0
 10
5.11754150
 20
5.18949080
  0
VERTEX
  8
0
 10
5.14939435
 20
5.19980933
  0
VERTEX
  8
0
 10
5.18977120
 20
5.20743607
  0
VERTEX
  8
0
 10
5.20547331
 20
5.24960745
  0
VERTEX
  8
0
 10
5.18528488
 20
5.25319650
  0
VERTEX
  8
0
 10
5.15477793
 20
5.25633692
  0
VERTEX
  8
0
 10
5.15208614
 20
5.25947734
  0
VERTEX
  8
0
 10
5.15567519
 20
5.26261777
  0
VERTEX
  8
0
 10
5.18932257
 20
5.27293629
  0
VERTEX
  8
0
 10
5.21579183
 20
5.28011440
  0
VERTEX
  8
0
 10
5.22611036
 20
5.30703230
  0
VERTEX
  8
0
 10
5.19919246
 20
5.30523777
  0
VERTEX
  8
0
 10
5.15253477
 20
5.31017272
  0
VERTEX
  8
0
 10
5.14984298
 20
5.31376178
  0
VERTEX
  8
0
 10
5.15388066
 20
5.31645357
  0
VERTEX
  8
0
 10
5.20008973
 20
5.32408031
  0
VERTEX
  8
0
 10
5.18797667
 20
5.32946389
  0
VERTEX
  8
0
 10
5.17227456
 20
5.32901525
  0
VERTEX
  8
0
 10
5.12786003
 20
5.34202557
  0
VERTEX
  8
0
 10
5.12606550
 20
5.34516599
  0
VERTEX
  8
0
 10
5.12920592
 20
5.34830642
  0
VERTEX
  8
0
 10
5.13100045
 20
5.34785778
  0
VERTEX
  8
0
 10
5.16913414
 20
5.33933378
  0
VERTEX
  8
0
 10
5.19694930
 20
5.34651189
  0
VERTEX
  8
0
 10
5.22476447
 20
5.35413863
  0
VERTEX
  8
0
 10
5.24315837
 20
5.35099821
  0
VERTEX
  8
0
 10
5.25168237
 20
5.37253253
  0
VERTEX
  8
0
 10
5.25482279
 20
5.37432705
  0
VERTEX
  8
0
 10
5.35262450
 20
5.37432705
  0
VERTEX
  8
0
 10
5.35576492
 20
5.36984074
  0
SEQEND
  0
POLYLINE
  8
Default_Layer
 66
   1
 39
0.000000
 70
    1
  0
VERTEX
  8
0
 10
5.97622252
 20
5.36849484
  0
VERTEX
  8
0
 10
5.86182144
 20
5.26889861
  0
VERTEX
  8
0
 10
5.90623598
 20
5.15539480
  0
VERTEX
  8
0
 10
5.90668461
 20
5.15180574
  0
VERTEX
  8
0
 10
5.90309556
 20
5.15045985
  0
VERTEX
  8
0
 10
5.80753701
 20
5.15674069
  0
VERTEX
  8
0
 10
5.75684163
 20
5.15449753
  0
VERTEX
  8
0
 10
5.75280395
 20
5.15629206
  0
VERTEX
  8
0
 10
5.75370121
 20
5.15988111
  0
VERTEX
  8
0
 10
5.77030058
 20
5.18769628
  0
VERTEX
  8
0
 10
5.76087932
 20
5.23794302
  0
VERTEX
  8
0
 10
5.73037236
 20
5.15584343
  0
VERTEX
  8
0
 10
5.72723194
 20
5.15270301
  0
VERTEX
  8
0
 10
5.60610139
 20
5.15360027
  0
VERTEX
  8
0
 10
5.60206371
 20
5.15629206
  0
VERTEX
  8
0
 10
5.60475550
 20
5.16032974
  0
VERTEX
  8
0
 10
5.61641992
 20
5.16975101
  0
VERTEX
  8
0
 10
5.63974877
 20
5.21730597
  0
VERTEX
  8
0
 10
5.62718708
 20
5.22089502
  0
VERTEX
  8
0
 10
5.61552266
 20
5.21910049
  0
VERTEX
  8
0
 10
5.60340960
 20
5.21775460
  0
VERTEX
  8
0
 10
5.58142665
 20
5.22268955
  0
VERTEX
  8
0
 10
5.55989233
 20
5.22582997
  0
VERTEX
  8
0
 10
5.55630328
 20
5.22807313
  0
VERTEX
  8
0
 10
5.55899507
 20
5.23211081
  0
VERTEX
  8
0
 10
5.58860476
 20
5.23480260
  0
VERTEX
  8
0
 10
5.60026918
 20
5.24287797
  0
VERTEX
  8
0
 10
5.58142665
 20
5.25319650
  0
VERTEX
  8
0
 10
5.54508748
 20
5.26037461
  0
VERTEX
  8
0
 10
5.54329296
 20
5.26486092
  0
VERTEX
  8
0
 10
5.54733064
 20
5.26665545
  0
VERTEX
  8
0
 10
5.56123822
 20
5.26441229
  0
VERTEX
  8
0
 10
5.57424854
 20
5.26575819
  0
VERTEX
  8
0
 10
5.58725886
 20
5.26755271
  0
VERTEX
  8
0
 10
5.62494392
 20
5.25813145
  0
VERTEX
  8
0
 10
5.65275908
 20
5.24960745
  0
VERTEX
  8
0
 10
5.66890983
 20
5.28998430
  0
VERTEX
  8
0
 10
5.64917003
 20
5.30254598
  0
VERTEX
  8
0
 10
5.61866308
 20
5.31017272
  0
VERTEX
  8
0
 10
5.61686855
 20
5.31421041
  0
VERTEX
  8
0
 10
5.62090624
 20
5.31645357
  0
VERTEX
  8
0
 10
5.64737550
 20
5.32093988
  0
VERTEX
  8
0
 10
5.67025572
 20
5.32632346
  0
VERTEX
  8
0
 10
5.68550920
 20
5.32452894
  0
VERTEX
  8
0
 10
5.69358457
 20
5.34740915
  0
VERTEX
  8
0
 10
5.65096456
 20
5.36176537
  0
VERTEX
  8
0
 10
5.61238223
 20
5.37567295
  0
VERTEX
  8
0
 10
5.59264244
 20
5.37073800
  0
VERTEX
  8
0
 10
5.58860476
 20
5.37298116
  0
VERTEX
  8
0
 10
5.59039928
 20
5.37701884
  0
VERTEX
  8
0
 10
5.61552266
 20
5.38285105
  0
VERTEX
  8
0
 10
5.64692687
 20
5.37881337
  0
VERTEX
  8
0
 10
5.67788246
 20
5.37477568
  0
VERTEX
  8
0
 10
5.70749215
 20
5.38509421
  0
VERTEX
  8
0
 10
5.71511889
 20
5.40932032
  0
VERTEX
  8
0
 10
5.68416330
 20
5.42188201
  0
VERTEX
  8
0
 10
5.67833109
 20
5.42188201
  0
VERTEX
  8
0
 10
5.67205025
 20
5.42188201
  0
VERTEX
  8
0
 10
5.64109466
 20
5.42861148
  0
VERTEX
  8
0
 10
5.63930013
 20
5.43309780
  0
VERTEX
  8
0
 10
5.64333782
 20
5.43489233
  0
VERTEX
  8
0
 10
5.65859130
 20
5.43309780
  0
VERTEX
  8
0
 10
5.68416330
 20
5.43982728
  0
VERTEX
  8
0
 10
5.71197847
 20
5.44700538
  0
VERTEX
  8
0
 10
5.72768057
 20
5.44655675
  0
VERTEX
  8
0
 10
5.73844773
 20
5.47212876
  0
VERTEX
  8
0
 10
5.74158816
 20
5.47392328
  0
VERTEX
  8
0
 10
5.84522207
 20
5.47571781
  0
VERTEX
  8
0
 10
5.84836249
 20
5.47482055
  0
VERTEX
  8
0
 10
5.84836249
 20
5.47123149
  0
VERTEX
  8
0
 10
5.82996860
 20
5.42950875
  0
VERTEX
  8
0
 10
5.78420817
 20
5.31106999
  0
VERTEX
  8
0
 10
5.84342755
 20
5.35952221
  0
VERTEX
  8
0
 10
5.83445491
 20
5.36625168
  0
VERTEX
  8
0
 10
5.83131449
 20
5.36939210
  0
VERTEX
  8
0
 10
5.83445491
 20
5.37253253
  0
VERTEX
  8
0
 10
5.86765366
 20
5.37926200
  0
VERTEX
  8
0
 10
5.90489009
 20
5.37522432
  0
VERTEX
  8
0
 10
5.94167788
 20
5.37118663
  0
VERTEX
  8
0
 10
5.97397936
 20
5.37477568
  0
VERTEX
  8
0
 10
5.97801705
 20
5.37253253
  0
VERTEX
  8
0
 10
5.97622252
 20
5.36849484
  0
SEQEND
  0
POLYLINE
  8
Default_Layer
 66
   1
 39
0.000000
 70
    1
  0
VERTEX
  8
0
 10
6.43965904
 20
5.47346063
  0
VERTEX
  8
0
 10
6.38806640
 20
5.34112831
  0
VERTEX
  8
0
 10
6.34813818
 20
5.23480260
  0
VERTEX
  8
0
 10
6.32750112
 20
5.15763795
  0
VERTEX
  8
0
 10
6.32794975
 20
5.15225437
  0
VERTEX
  8
0
 10
6.32750112
 20
5.14911395
  0
VERTEX
  8
0
 10
6.32480933
 20
5.14821669
  0
VERTEX
  8
0
 10
6.26379542
 20
5.15001122
  0
VERTEX
  8
0
 10
6.20188425
 20
5.14821669
  0
VERTEX
  8
0
 10
6.19829520
 20
5.15045985
  0
VERTEX
  8
0
 10
6.20008973
 20
5.15404890
  0
VERTEX
  8
0
 10
6.21399731
 20
5.16930238
  0
VERTEX
  8
0
 10
6.23463437
 20
5.21640870
  0
VERTEX
  8
0
 10
6.21758636
 20
5.21461418
  0
VERTEX
  8
0
 10
6.20457604
 20
5.21326828
  0
VERTEX
  8
0
 10
6.18573351
 20
5.21685734
  0
VERTEX
  8
0
 10
6.16240467
 20
5.22403544
  0
VERTEX
  8
0
 10
6.16016151
 20
5.22762450
  0
VERTEX
  8
0
 10
6.16375056
 20
5.23031629
  0
VERTEX
  8
0
 10
6.17317183
 20
5.22986765
  0
VERTEX
  8
0
 10
6.21085689
 20
5.23928892
  0
VERTEX
  8
0
 10
6.24181247
 20
5.24826155
  0
VERTEX
  8
0
 10
6.25616869
 20
5.28729251
  0
VERTEX
  8
0
 10
6.23283984
 20
5.29043293
  0
VERTEX
  8
0
 10
6.21668910
 20
5.29267609
  0
VERTEX
  8
0
 10
6.21399731
 20
5.29626514
  0
VERTEX
  8
0
 10
6.21758636
 20
5.29895693
  0
VERTEX
  8
0
 10
6.24136384
 20
5.30568641
  0
VERTEX
  8
0
 10
6.26424406
 20
5.31241588
  0
VERTEX
  8
0
 10
6.27231943
 20
5.33753926
  0
VERTEX
  8
0
 10
6.25078511
 20
5.33978241
  0
VERTEX
  8
0
 10
6.23328847
 20
5.33843652
  0
VERTEX
  8
0
 10
6.21399731
 20
5.33753926
  0
VERTEX
  8
0
 10
6.19066846
 20
5.33933378
  0
VERTEX
  8
0
 10
6.16958277
 20
5.34157694
  0
VERTEX
  8
0
 10
6.15522656
 20
5.33978241
  0
VERTEX
  8
0
 10
6.15118887
 20
5.34202557
  0
VERTEX
  8
0
 10
6.15343203
 20
5.34606326
  0
VERTEX
  8
0
 10
6.19829520
 20
5.35054957
  0
VERTEX
  8
0
 10
6.22027815
 20
5.36445716
  0
VERTEX
  8
0
 10
6.20995962
 20
5.37298116
  0
VERTEX
  8
0
 10
6.18932257
 20
5.37432705
  0
VERTEX
  8
0
 10
6.18573351
 20
5.37701884
  0
VERTEX
  8
0
 10
6.18797667
 20
5.38060790
  0
VERTEX
  8
0
 10
6.20726783
 20
5.38329969
  0
VERTEX
  8
0
 10
6.23777479
 20
5.37657021
  0
VERTEX
  8
0
 10
6.26828174
 20
5.36984074
  0
VERTEX
  8
0
 10
6.28532974
 20
5.37342979
  0
VERTEX
  8
0
 10
6.29430238
 20
5.40348811
  0
VERTEX
  8
0
 10
6.26917900
 20
5.41201211
  0
VERTEX
  8
0
 10
6.24405563
 20
5.41829296
  0
VERTEX
  8
0
 10
6.22745626
 20
5.41649843
  0
VERTEX
  8
0
 10
6.22341857
 20
5.41829296
  0
VERTEX
  8
0
 10
6.22521310
 20
5.42277927
  0
VERTEX
  8
0
 10
6.26020637
 20
5.43264917
  0
VERTEX
  8
0
 10
6.27680574
 20
5.43175191
  0
VERTEX
  8
0
 10
6.29250785
 20
5.43175191
  0
VERTEX
  8
0
 10
6.30955585
 20
5.43578959
  0
VERTEX
  8
0
 10
6.32480933
 20
5.47302602
  0
VERTEX
  8
0
 10
6.32839838
 20
5.47482055
  0
VERTEX
  8
0
 10
6.43651862
 20
5.47840960
  0
VERTEX
  8
0
 10
6.44010767
 20
5.47661507
  0
VERTEX
  8
0
 10
6.43965904
 20
5.47302602
  0
VERTEX
  8
0
 10
6.43965904
 20
5.47346063
  0
SEQEND
  0
POLYLINE
  8
Default_Layer
 66
   1
 39
0.000000
 70
    1
  0
VERTEX
  8
0
 10
7.03454464
 20
5.33798789
  0
VERTEX
  8
0
 10
7.00897263
 20
5.25095334
  0
VERTEX
  8
0
 10
6.98340063
 20
5.16930238
  0
VERTEX
  8
0
 10
6.98654105
 20
5.15763795
  0
VERTEX
  8
0
 10
6.98654105
 20
5.15449753
  0
VERTEX
  8
0
 10
6.98295200
 20
5.15360027
  0
VERTEX
  8
0
 10
6.92507851
 20
5.15584343
  0
VERTEX
  8
0
 10
6.87797218
 20
5.15360027
  0
VERTEX
  8
0
 10
6.87393450
 20
5.15539480
  0
VERTEX
  8
0
 10
6.87528039
 20
5.16077838
  0
VERTEX
  8
0
 10
6.90085240
 20
5.21551144
  0
VERTEX
  8
0
 10
6.92104083
 20
5.28415209
  0
VERTEX
  8
0
 10
6.91790040
 20
5.29133019
  0
VERTEX
  8
0
 10
6.91161956
 20
5.29491925
  0
VERTEX
  8
0
 10
6.87483176
 20
5.23749439
  0
VERTEX
  8
0
 10
6.84656797
 20
5.15404890
  0
VERTEX
  8
0
 10
6.84297891
 20
5.15180574
  0
VERTEX
  8
0
 10
6.79676985
 20
5.15584343
  0
VERTEX
  8
0
 10
6.73979363
 20
5.15360027
  0
VERTEX
  8
0
 10
6.73575594
 20
5.15494616
  0
VERTEX
  8
0
 10
6.73710184
 20
5.15898385
  0
VERTEX
  8
0
 10
6.77209511
 20
5.22807313
  0
VERTEX
  8
0
 10
6.79362943
 20
5.29133019
  0
VERTEX
  8
0
 10
6.78151638
 20
5.29850830
  0
VERTEX
  8
0
 10
6.76155227
 20
5.28482503
  0
VERTEX
  8
0
 10
6.74113952
 20
5.24377524
  0
VERTEX
  8
0
 10
6.71197847
 20
5.15404890
  0
VERTEX
  8
0
 10
6.70838941
 20
5.15180574
  0
VERTEX
  8
0
 10
6.67384477
 20
5.15584343
  0
VERTEX
  8
0
 10
6.60251234
 20
5.15180574
  0
VERTEX
  8
0
 10
6.59847465
 20
5.15270301
  0
VERTEX
  8
0
 10
6.59937192
 20
5.15674069
  0
VERTEX
  8
0
 10
6.61731718
 20
5.18545312
  0
VERTEX
  8
0
 10
6.59533423
 20
5.19711754
  0
VERTEX
  8
0
 10
6.57694033
 20
5.19577165
  0
VERTEX
  8
0
 10
6.57245402
 20
5.19711754
  0
VERTEX
  8
0
 10
6.57335128
 20
5.20115523
  0
VERTEX
  8
0
 10
6.60385823
 20
5.21281965
  0
VERTEX
  8
0
 10
6.63346792
 20
5.22268955
  0
VERTEX
  8
0
 10
6.64558098
 20
5.25543966
  0
VERTEX
  8
0
 10
6.62494392
 20
5.26216913
  0
VERTEX
  8
0
 10
6.59084791
 20
5.26037461
  0
VERTEX
  8
0
 10
6.58725886
 20
5.26306640
  0
VERTEX
  8
0
 10
6.58995065
 20
5.26665545
  0
VERTEX
  8
0
 10
6.61013908
 20
5.26979587
  0
VERTEX
  8
0
 10
6.62225213
 20
5.27921714
  0
VERTEX
  8
0
 10
6.60744729
 20
5.28594661
  0
VERTEX
  8
0
 10
6.57290265
 20
5.29940556
  0
VERTEX
  8
0
 10
6.57110812
 20
5.30209735
  0
VERTEX
  8
0
 10
6.57469717
 20
5.30568641
  0
VERTEX
  8
0
 10
6.58411844
 20
5.30120009
  0
VERTEX
  8
0
 10
6.60206371
 20
5.29671377
  0
VERTEX
  8
0
 10
6.62449529
 20
5.30030283
  0
VERTEX
  8
0
 10
6.64647824
 20
5.30434051
  0
VERTEX
  8
0
 10
6.66038582
 20
5.30344325
  0
VERTEX
  8
0
 10
6.66532077
 20
5.31645357
  0
VERTEX
  8
0
 10
6.64019740
 20
5.33664199
  0
VERTEX
  8
0
 10
6.60475550
 20
5.34651189
  0
VERTEX
  8
0
 10
6.60116644
 20
5.34875505
  0
VERTEX
  8
0
 10
6.60296097
 20
5.35279273
  0
VERTEX
  8
0
 10
6.62404666
 20
5.35817631
  0
VERTEX
  8
0
 10
6.64019740
 20
5.35548452
  0
VERTEX
  8
0
 10
6.65679677
 20
5.35324136
  0
VERTEX
  8
0
 10
6.68326604
 20
5.36535442
  0
VERTEX
  8
0
 10
6.69134141
 20
5.39002916
  0
VERTEX
  8
0
 10
6.69448183
 20
5.39227232
  0
VERTEX
  8
0
 10
6.74786900
 20
5.38958053
  0
VERTEX
  8
0
 10
6.79766712
 20
5.39406685
  0
VERTEX
  8
0
 10
6.80170480
 20
5.39316958
  0
VERTEX
  8
0
 10
6.80170480
 20
5.38958053
  0
VERTEX
  8
0
 10
6.78734859
 20
5.36221400
  0
VERTEX
  8
0
 10
6.82951996
 20
5.37836474
  0
VERTEX
  8
0
 10
6.87483176
 20
5.38599148
  0
VERTEX
  8
0
 10
6.90309556
 20
5.37881337
  0
VERTEX
  8
0
 10
6.91520861
 20
5.35862494
  0
VERTEX
  8
0
 10
6.91520861
 20
5.34606326
  0
VERTEX
  8
0
 10
6.99596231
 20
5.38060790
  0
VERTEX
  8
0
 10
7.02288022
 20
5.36759758
  0
VERTEX
  8
0
 10
7.03454464
 20
5.33798789
  0
SEQEND
  0
POLYLINE
  8
Default_Layer
 66
   1
 39
0.000000
 70
    1
  0
VERTEX
  8
0
 10
7.60206371
 20
5.35234410
  0
VERTEX
  8
0
 10
7.57559444
 20
5.25229924
  0
VERTEX
  8
0
 10
7.54329296
 20
5.15629206
  0
VERTEX
  8
0
 10
7.54015253
 20
5.15360027
  0
VERTEX
  8
0
 10
7.42889188
 20
5.15180574
  0
VERTEX
  8
0
 10
7.42530283
 20
5.15360027
  0
VERTEX
  8
0
 10
7.42664872
 20
5.15718932
  0
VERTEX
  8
0
 10
7.45984747
 20
5.22986765
  0
VERTEX
  8
0
 10
7.48048452
 20
5.29581651
  0
VERTEX
  8
0
 10
7.47554957
 20
5.30568641
  0
VERTEX
  8
0
 10
7.45558546
 20
5.29043293
  0
VERTEX
  8
0
 10
7.43248093
 20
5.24467250
  0
VERTEX
  8
0
 10
7.40152535
 20
5.15404890
  0
VERTEX
  8
0
 10
7.39793629
 20
5.15180574
  0
VERTEX
  8
0
 10
7.33826828
 20
5.15360027
  0
VERTEX
  8
0
 10
7.28577838
 20
5.15001122
  0
VERTEX
  8
0
 10
7.28218932
 20
5.15180574
  0
VERTEX
  8
0
 10
7.28398385
 20
5.15629206
  0
VERTEX
  8
0
 10
7.29026469
 20
5.16122701
  0
VERTEX
  8
0
 10
7.29834006
 20
5.17558322
  0
VERTEX
  8
0
 10
7.28577838
 20
5.18231270
  0
VERTEX
  8
0
 10
7.27411395
 20
5.18141543
  0
VERTEX
  8
0
 10
7.26200090
 20
5.18096680
  0
VERTEX
  8
0
 10
7.22207268
 20
5.18949080
  0
VERTEX
  8
0
 10
7.21982952
 20
5.19352849
  0
VERTEX
  8
0
 10
7.22386721
 20
5.19577165
  0
VERTEX
  8
0
 10
7.24360700
 20
5.19352849
  0
VERTEX
  8
0
 10
7.27321669
 20
5.20339838
  0
VERTEX
  8
0
 10
7.31045312
 20
5.21461418
  0
VERTEX
  8
0
 10
7.32256617
 20
5.24287797
  0
VERTEX
  8
0
 10
7.29968596
 20
5.25454240
  0
VERTEX
  8
0
 10
7.27411395
 20
5.25947734
  0
VERTEX
  8
0
 10
7.27187079
 20
5.26261777
  0
VERTEX
  8
0
 10
7.27501122
 20
5.26530956
  0
VERTEX
  8
0
 10
7.30551817
 20
5.27428219
  0
VERTEX
  8
0
 10
7.33781965
 20
5.28594661
  0
VERTEX
  8
0
 10
7.34813818
 20
5.31421041
  0
VERTEX
  8
0
 10
7.33243607
 20
5.32004262
  0
VERTEX
  8
0
 10
7.30865859
 20
5.31600493
  0
VERTEX
  8
0
 10
7.28532974
 20
5.31196725
  0
VERTEX
  8
0
 10
7.25123374
 20
5.31735083
  0
VERTEX
  8
0
 10
7.24899058
 20
5.32138852
  0
VERTEX
  8
0
 10
7.25347690
 20
5.32363167
  0
VERTEX
  8
0
 10
7.26962764
 20
5.32138852
  0
VERTEX
  8
0
 10
7.29564827
 20
5.33664199
  0
VERTEX
  8
0
 10
7.28757290
 20
5.34112831
  0
VERTEX
  8
0
 10
7.28129206
 20
5.34112831
  0
VERTEX
  8
0
 10
7.27366532
 20
5.34067968
  0
VERTEX
  8
0
 10
7.23777479
 20
5.34651189
  0
VERTEX
  8
0
 10
7.23553163
 20
5.35054957
  0
VERTEX
  8
0
 10
7.23956931
 20
5.35279273
  0
VERTEX
  8
0
 10
7.25302826
 20
5.35144684
  0
VERTEX
  8
0
 10
7.28129206
 20
5.35997084
  0
VERTEX
  8
0
 10
7.30910722
 20
5.36894347
  0
VERTEX
  8
0
 10
7.33243607
 20
5.36266263
  0
VERTEX
  8
0
 10
7.35576492
 20
5.35683042
  0
VERTEX
  8
0
 10
7.36563481
 20
5.35772768
  0
VERTEX
  8
0
 10
7.37685061
 20
5.38733737
  0
VERTEX
  8
0
 10
7.37999103
 20
5.38913190
  0
VERTEX
  8
0
 10
7.48183042
 20
5.39047779
  0
VERTEX
  8
0
 10
7.48497084
 20
5.38913190
  0
VERTEX
  8
0
 10
7.48497084
 20
5.38599148
  0
VERTEX
  8
0
 10
7.47779273
 20
5.36714895
  0
VERTEX
  8
0
 10
7.52041274
 20
5.38554284
  0
VERTEX
  8
0
 10
7.56707044
 20
5.39406685
  0
VERTEX
  8
0
 10
7.59129655
 20
5.38105653
  0
VERTEX
  8
0
 10
7.60206371
 20
5.35234410
  0
SEQEND
  0
POLYLINE
  8
Default_Layer
 66
   1
 39
0.000000
 70
    1
  0
VERTEX
  8
0
 10
0.76342156
 20
4.77854419
  0
VERTEX
  8
0
 10
0.74884103
 20
4.71506281
  0
VERTEX
  8
0
 10
0.70509945
 20
4.65920817
  0
VERTEX
  8
0
 10
0.64363691
 20
4.62017721
  0
VERTEX
  8
0
 10
0.57499626
 20
4.60716689
  0
VERTEX
  8
0
 10
0.52441304
 20
4.62129879
  0
VERTEX
  8
0
 10
0.48751309
 20
4.66369448
  0
VERTEX
  8
0
 10
0.47854045
 20
4.66593764
  0
VERTEX
  8
0
 10
0.45790339
 20
4.65965680
  0
VERTEX
  8
0
 10
0.43322865
 20
4.65382459
  0
VERTEX
  8
0
 10
0.42470465
 20
4.65517048
  0
VERTEX
  8
0
 10
0.41528339
 20
4.65786227
  0
VERTEX
  8
0
 10
0.41304023
 20
4.66100269
  0
VERTEX
  8
0
 10
0.41752654
 20
4.66414311
  0
VERTEX
  8
0
 10
0.42425602
 20
4.66324585
  0
VERTEX
  8
0
 10
0.44354718
 20
4.66773217
  0
VERTEX
  8
0
 10
0.45431434
 20
4.68163975
  0
VERTEX
  8
0
 10
0.44893076
 20
4.69106101
  0
VERTEX
  8
0
 10
0.43681771
 20
4.69465007
  0
VERTEX
  8
0
 10
0.41887244
 20
4.69285554
  0
VERTEX
  8
0
 10
0.40092717
 20
4.69240691
  0
VERTEX
  8
0
 10
0.39823538
 20
4.69599596
  0
VERTEX
  8
0
 10
0.40182444
 20
4.69868775
  0
VERTEX
  8
0
 10
0.42919097
 20
4.70631449
  0
VERTEX
  8
0
 10
0.46597876
 20
4.71528712
  0
VERTEX
  8
0
 10
0.48168087
 20
4.71394123
  0
VERTEX
  8
0
 10
0.48930761
 20
4.73412965
  0
VERTEX
  8
0
 10
0.45027666
 20
4.74624271
  0
VERTEX
  8
0
 10
0.41034844
 20
4.75656124
  0
VERTEX
  8
0
 10
0.40900254
 20
4.76104755
  0
VERTEX
  8
0
 10
0.41348886
 20
4.76194482
  0
VERTEX
  8
0
 10
0.42963960
 20
4.75745850
  0
VERTEX
  8
0
 10
0.46238971
 20
4.76777703
  0
VERTEX
  8
0
 10
0.49513982
 20
4.77854419
  0
VERTEX
  8
0
 10
0.51129056
 20
4.77719830
  0
VERTEX
  8
0
 10
0.53103036
 20
4.79962988
  0
VERTEX
  8
0
 10
0.52385225
 20
4.80277030
  0
VERTEX
  8
0
 10
0.50994467
 20
4.80052714
  0
VERTEX
  8
0
 10
0.49603709
 20
4.79828398
  0
VERTEX
  8
0
 10
0.48123224
 20
4.80007851
  0
VERTEX
  8
0
 10
0.47854045
 20
4.80366756
  0
VERTEX
  8
0
 10
0.48212951
 20
4.80635935
  0
VERTEX
  8
0
 10
0.50545835
 20
4.81039704
  0
VERTEX
  8
0
 10
0.51981457
 20
4.82071557
  0
VERTEX
  8
0
 10
0.50456109
 20
4.82699641
  0
VERTEX
  8
0
 10
0.48526993
 20
4.82654778
  0
VERTEX
  8
0
 10
0.47001645
 20
4.82923957
  0
VERTEX
  8
0
 10
0.46777329
 20
4.83282862
  0
VERTEX
  8
0
 10
0.47181098
 20
4.83552041
  0
VERTEX
  8
0
 10
0.48302677
 20
4.83507178
  0
VERTEX
  8
0
 10
0.52788994
 20
4.84359578
  0
VERTEX
  8
0
 10
0.55346194
 20
4.85211978
  0
VERTEX
  8
0
 10
0.56961268
 20
4.84673620
  0
VERTEX
  8
0
 10
0.58441753
 20
4.84045536
  0
VERTEX
  8
0
 10
0.66831165
 20
4.86243831
  0
VERTEX
  8
0
 10
0.73470914
 20
4.83821220
  0
VERTEX
  8
0
 10
0.75624346
 20
4.81140646
  0
VERTEX
  8
0
 10
0.76342156
 20
4.77854419
  0
SEQEND
  0
POLYLINE
  8
Default_Layer
 66
   1
 39
0.000000
 70
    1
  0
VERTEX
  8
0
 10
0.65844175
 20
4.77316061
  0
VERTEX
  8
0
 10
0.65036638
 20
4.78168461
  0
VERTEX
  8
0
 10
0.60954090
 20
4.76015029
  0
VERTEX
  8
0
 10
0.58800658
 20
4.71259533
  0
VERTEX
  8
0
 10
0.59204426
 20
4.69779049
  0
VERTEX
  8
0
 10
0.60326006
 20
4.69106101
  0
VERTEX
  8
0
 10
0.63017796
 20
4.70407133
  0
VERTEX
  8
0
 10
0.64273964
 20
4.72515702
  0
VERTEX
  8
0
 10
0.63870196
 20
4.73054060
  0
VERTEX
  8
0
 10
0.62793480
 20
4.72919471
  0
VERTEX
  8
0
 10
0.62344848
 20
4.72829744
  0
VERTEX
  8
0
 10
0.61582174
 20
4.73592418
  0
VERTEX
  8
0
 10
0.61941080
 20
4.74220502
  0
VERTEX
  8
0
 10
0.64408554
 20
4.75162629
  0
VERTEX
  8
0
 10
0.65844175
 20
4.77316061
  0
SEQEND
  0
POLYLINE
  8
Default_Layer
 66
   1
 39
0.000000
 70
    1
  0
VERTEX
  8
0
 10
1.33722147
 20
4.78706819
  0
VERTEX
  8
0
 10
1.31523852
 20
4.70990354
  0
VERTEX
  8
0
 10
1.25601914
 20
4.63767384
  0
VERTEX
  8
0
 10
1.21429640
 20
4.61378421
  0
VERTEX
  8
0
 10
1.17077912
 20
4.60582100
  0
VERTEX
  8
0
 10
1.12187827
 20
4.62511216
  0
VERTEX
  8
0
 10
1.09047405
 20
4.52058098
  0
VERTEX
  8
0
 10
1.08733363
 20
4.51788919
  0
VERTEX
  8
0
 10
0.96710034
 20
4.51878645
  0
VERTEX
  8
0
 10
0.96395992
 20
4.52192687
  0
VERTEX
  8
0
 10
0.96440855
 20
4.52417003
  0
VERTEX
  8
0
 10
0.98414835
 20
4.55243383
  0
VERTEX
  8
0
 10
0.96530582
 20
4.55512562
  0
VERTEX
  8
0
 10
0.94960371
 20
4.56095783
  0
VERTEX
  8
0
 10
0.92717213
 20
4.56679004
  0
VERTEX
  8
0
 10
0.92403170
 20
4.56948183
  0
VERTEX
  8
0
 10
0.92672349
 20
4.57307088
  0
VERTEX
  8
0
 10
0.95094960
 20
4.57621131
  0
VERTEX
  8
0
 10
0.97472708
 20
4.57980036
  0
VERTEX
  8
0
 10
0.99760730
 20
4.59774563
  0
VERTEX
  8
0
 10
1.01106625
 20
4.63318753
  0
VERTEX
  8
0
 10
0.99356961
 20
4.64619785
  0
VERTEX
  8
0
 10
0.97831614
 20
4.64395469
  0
VERTEX
  8
0
 10
0.97427845
 20
4.64395469
  0
VERTEX
  8
0
 10
0.97382982
 20
4.64754374
  0
VERTEX
  8
0
 10
0.99985046
 20
4.65965680
  0
VERTEX
  8
0
 10
1.02631972
 20
4.67356438
  0
VERTEX
  8
0
 10
1.03484373
 20
4.69958502
  0
VERTEX
  8
0
 10
1.00478540
 20
4.69330417
  0
VERTEX
  8
0
 10
0.98728877
 20
4.69509870
  0
VERTEX
  8
0
 10
0.96710034
 20
4.69734186
  0
VERTEX
  8
0
 10
0.94780918
 20
4.69330417
  0
VERTEX
  8
0
 10
0.94242560
 20
4.69644459
  0
VERTEX
  8
0
 10
0.94422013
 20
4.69913638
  0
VERTEX
  8
0
 10
0.98190519
 20
4.70990354
  0
VERTEX
  8
0
 10
1.00119635
 20
4.72201660
  0
VERTEX
  8
0
 10
0.98549424
 20
4.73098923
  0
VERTEX
  8
0
 10
0.95139824
 20
4.74265366
  0
VERTEX
  8
0
 10
0.95050097
 20
4.74669134
  0
VERTEX
  8
0
 10
0.95498729
 20
4.74758860
  0
VERTEX
  8
0
 10
0.97203529
 20
4.74310229
  0
VERTEX
  8
0
 10
0.98908330
 20
4.74534545
  0
VERTEX
  8
0
 10
1.00702856
 20
4.74758860
  0
VERTEX
  8
0
 10
1.02317930
 20
4.74444818
  0
VERTEX
  8
0
 10
1.04067594
 20
4.74130776
  0
VERTEX
  8
0
 10
1.04785405
 20
4.74175639
  0
VERTEX
  8
0
 10
1.06131300
 20
4.78392777
  0
VERTEX
  8
0
 10
1.04964857
 20
4.79918125
  0
VERTEX
  8
0
 10
1.03215194
 20
4.80770525
  0
VERTEX
  8
0
 10
1.00927172
 20
4.80456483
  0
VERTEX
  8
0
 10
1.00747719
 20
4.80411620
  0
VERTEX
  8
0
 10
1.00433677
 20
4.80725662
  0
VERTEX
  8
0
 10
1.00613130
 20
4.80994841
  0
VERTEX
  8
0
 10
1.04561089
 20
4.82026694
  0
VERTEX
  8
0
 10
1.06086436
 20
4.81892104
  0
VERTEX
  8
0
 10
1.07656647
 20
4.82026694
  0
VERTEX
  8
0
 10
1.09137132
 20
4.85705473
  0
VERTEX
  8
0
 10
1.09451174
 20
4.85884926
  0
VERTEX
  8
0
 10
1.19679976
 20
4.85974652
  0
VERTEX
  8
0
 10
1.19994018
 20
4.85884926
  0
VERTEX
  8
0
 10
1.19994018
 20
4.85570884
  0
VERTEX
  8
0
 10
1.19410797
 20
4.83686631
  0
VERTEX
  8
0
 10
1.23269029
 20
4.85032526
  0
VERTEX
  8
0
 10
1.27531030
 20
4.85705473
  0
VERTEX
  8
0
 10
1.31927621
 20
4.83641768
  0
VERTEX
  8
0
 10
1.33722147
 20
4.78706819
  0
SEQEND
  0
POLYLINE
  8
Default_Layer
 66
   1
 39
0.000000
 70
    1
  0
VERTEX
  8
0
 10
1.22775535
 20
4.75790713
  0
VERTEX
  8
0
 10
1.22024077
 20
4.77102961
  0
VERTEX
  8
0
 10
1.19769702
 20
4.77540377
  0
VERTEX
  8
0
 10
1.17122776
 20
4.76732840
  0
VERTEX
  8
0
 10
1.14789891
 20
4.70631449
  0
VERTEX
  8
0
 10
1.17122776
 20
4.69734186
  0
VERTEX
  8
0
 10
1.19679976
 20
4.70407133
  0
VERTEX
  8
0
 10
1.20936145
 20
4.71842755
  0
VERTEX
  8
0
 10
1.20442650
 20
4.72381113
  0
VERTEX
  8
0
 10
1.19679976
 20
4.72291386
  0
VERTEX
  8
0
 10
1.18603260
 20
4.72201660
  0
VERTEX
  8
0
 10
1.17750860
 20
4.72291386
  0
VERTEX
  8
0
 10
1.17391955
 20
4.72605428
  0
VERTEX
  8
0
 10
1.17750860
 20
4.72919471
  0
VERTEX
  8
0
 10
1.20128608
 20
4.73816734
  0
VERTEX
  8
0
 10
1.22461492
 20
4.74713997
  0
VERTEX
  8
0
 10
1.22775535
 20
4.75790713
  0
SEQEND
  0
POLYLINE
  8
Default_Layer
 66
   1
 39
0.000000
 70
    1
  0
VERTEX
  8
0
 10
1.90429191
 20
4.84314715
  0
VERTEX
  8
0
 10
1.83654853
 20
4.67715343
  0
VERTEX
  8
0
 10
1.79437715
 20
4.54525572
  0
VERTEX
  8
0
 10
1.79841483
 20
4.52775908
  0
VERTEX
  8
0
 10
1.79841483
 20
4.52461866
  0
VERTEX
  8
0
 10
1.79482578
 20
4.52372140
  0
VERTEX
  8
0
 10
1.74996261
 20
4.52596456
  0
VERTEX
  8
0
 10
1.68401376
 20
4.52372140
  0
VERTEX
  8
0
 10
1.68087334
 20
4.52910498
  0
VERTEX
  8
0
 10
1.69343502
 20
4.55333109
  0
VERTEX
  8
0
 10
1.68221923
 20
4.55871467
  0
VERTEX
  8
0
 10
1.67279797
 20
4.55826604
  0
VERTEX
  8
0
 10
1.66337670
 20
4.55781741
  0
VERTEX
  8
0
 10
1.64049649
 20
4.56409825
  0
VERTEX
  8
0
 10
1.61761627
 20
4.57037909
  0
VERTEX
  8
0
 10
1.59428742
 20
4.56499551
  0
VERTEX
  8
0
 10
1.58935247
 20
4.56813594
  0
VERTEX
  8
0
 10
1.59114700
 20
4.57127636
  0
VERTEX
  8
0
 10
1.61851353
 20
4.58204352
  0
VERTEX
  8
0
 10
1.63601017
 20
4.58294078
  0
VERTEX
  8
0
 10
1.65440407
 20
4.58428668
  0
VERTEX
  8
0
 10
1.67234933
 20
4.58742710
  0
VERTEX
  8
0
 10
1.68715418
 20
4.59101615
  0
VERTEX
  8
0
 10
1.70599671
 20
4.58922162
  0
VERTEX
  8
0
 10
1.71855840
 20
4.62735532
  0
VERTEX
  8
0
 10
1.64991775
 20
4.60941005
  0
VERTEX
  8
0
 10
1.60550322
 20
4.62286900
  0
VERTEX
  8
0
 10
1.58127710
 20
4.65831090
  0
VERTEX
  8
0
 10
1.56692089
 20
4.66010543
  0
VERTEX
  8
0
 10
1.53955436
 20
4.65561911
  0
VERTEX
  8
0
 10
1.51263646
 20
4.65158143
  0
VERTEX
  8
0
 10
1.49783161
 20
4.65382459
  0
VERTEX
  8
0
 10
1.49513982
 20
4.65741364
  0
VERTEX
  8
0
 10
1.49872888
 20
4.66010543
  0
VERTEX
  8
0
 10
1.50545835
 20
4.65965680
  0
VERTEX
  8
0
 10
1.53192762
 20
4.66504038
  0
VERTEX
  8
0
 10
1.54583520
 20
4.67580754
  0
VERTEX
  8
0
 10
1.52968446
 20
4.68478017
  0
VERTEX
  8
0
 10
1.51308509
 20
4.68253701
  0
VERTEX
  8
0
 10
1.50815014
 20
4.68567743
  0
VERTEX
  8
0
 10
1.51039330
 20
4.68881786
  0
VERTEX
  8
0
 10
1.53641394
 20
4.69509870
  0
VERTEX
  8
0
 10
1.54493794
 20
4.69509870
  0
VERTEX
  8
0
 10
1.55301331
 20
4.69465007
  0
VERTEX
  8
0
 10
1.58127710
 20
4.70676312
  0
VERTEX
  8
0
 10
1.59249290
 20
4.74355092
  0
VERTEX
  8
0
 10
1.57454763
 20
4.75431808
  0
VERTEX
  8
0
 10
1.55884552
 20
4.76059892
  0
VERTEX
  8
0
 10
1.54673247
 20
4.75970166
  0
VERTEX
  8
0
 10
1.54224615
 20
4.76194482
  0
VERTEX
  8
0
 10
1.54404068
 20
4.76598250
  0
VERTEX
  8
0
 10
1.56288321
 20
4.77136608
  0
VERTEX
  8
0
 10
1.57544489
 20
4.77046882
  0
VERTEX
  8
0
 10
1.58800658
 20
4.76957156
  0
VERTEX
  8
0
 10
1.61088680
 20
4.77944145
  0
VERTEX
  8
0
 10
1.62658890
 20
4.80411620
  0
VERTEX
  8
0
 10
1.61761627
 20
4.81936967
  0
VERTEX
  8
0
 10
1.59742785
 20
4.82565052
  0
VERTEX
  8
0
 10
1.57858531
 20
4.82295873
  0
VERTEX
  8
0
 10
1.57365037
 20
4.82609915
  0
VERTEX
  8
0
 10
1.57544489
 20
4.82879094
  0
VERTEX
  8
0
 10
1.60460595
 20
4.83462315
  0
VERTEX
  8
0
 10
1.63197248
 20
4.83148273
  0
VERTEX
  8
0
 10
1.65754449
 20
4.82879094
  0
VERTEX
  8
0
 10
1.69522955
 20
4.84808210
  0
VERTEX
  8
0
 10
1.74861672
 20
4.86198968
  0
VERTEX
  8
0
 10
1.80200389
 20
4.83910947
  0
VERTEX
  8
0
 10
1.80738747
 20
4.85256842
  0
VERTEX
  8
0
 10
1.81052789
 20
4.85436294
  0
VERTEX
  8
0
 10
1.84372663
 20
4.84987663
  0
VERTEX
  8
0
 10
1.87782264
 20
4.84539031
  0
VERTEX
  8
0
 10
1.90070286
 20
4.84808210
  0
VERTEX
  8
0
 10
1.90429191
 20
4.84718484
  0
VERTEX
  8
0
 10
1.90429191
 20
4.84314715
  0
SEQEND
  0
POLYLINE
  8
Default_Layer
 66
   1
 39
0.000000
 70
    1
  0
VERTEX
  8
0
 10
1.76207567
 20
4.76059892
  0
VERTEX
  8
0
 10
1.74368177
 20
4.77316061
  0
VERTEX
  8
0
 10
1.70644534
 20
4.74938313
  0
VERTEX
  8
0
 10
1.68850007
 20
4.69958502
  0
VERTEX
  8
0
 10
1.70195902
 20
4.69240691
  0
VERTEX
  8
0
 10
1.73381187
 20
4.70362270
  0
VERTEX
  8
0
 10
1.74951398
 20
4.72650292
  0
VERTEX
  8
0
 10
1.74009272
 20
4.73278376
  0
VERTEX
  8
0
 10
1.72663377
 20
4.73054060
  0
VERTEX
  8
0
 10
1.72439061
 20
4.73009197
  0
VERTEX
  8
0
 10
1.72125019
 20
4.73278376
  0
VERTEX
  8
0
 10
1.72259608
 20
4.73592418
  0
VERTEX
  8
0
 10
1.74233588
 20
4.74758860
  0
VERTEX
  8
0
 10
1.76207567
 20
4.76059892
  0
SEQEND
  0
POLYLINE
  8
Default_Layer
 66
   1
 39
0.000000
 70
    1
  0
VERTEX
  8
0
 10
2.40989981
 20
4.85570884
  0
VERTEX
  8
0
 10
2.38298191
 20
4.80770525
  0
VERTEX
  8
0
 10
2.35426948
 20
4.75162629
  0
VERTEX
  8
0
 10
2.34843727
 20
4.75297218
  0
VERTEX
  8
0
 10
2.34081053
 20
4.75880440
  0
VERTEX
  8
0
 10
2.30716315
 20
4.74758860
  0
VERTEX
  8
0
 10
2.28293704
 20
4.73098923
  0
VERTEX
  8
0
 10
2.26229999
 20
4.67401301
  0
VERTEX
  8
0
 10
2.25108419
 20
4.63229026
  0
VERTEX
  8
0
 10
2.25512188
 20
4.62107447
  0
VERTEX
  8
0
 10
2.25512188
 20
4.61748542
  0
VERTEX
  8
0
 10
2.25108419
 20
4.61658816
  0
VERTEX
  8
0
 10
2.19500523
 20
4.62107447
  0
VERTEX
  8
0
 10
2.13174817
 20
4.62107447
  0
VERTEX
  8
0
 10
2.12815911
 20
4.62242037
  0
VERTEX
  8
0
 10
2.12815911
 20
4.62600942
  0
VERTEX
  8
0
 10
2.14745028
 20
4.66324585
  0
VERTEX
  8
0
 10
2.13937491
 20
4.66907806
  0
VERTEX
  8
0
 10
2.13219680
 20
4.66818080
  0
VERTEX
  8
0
 10
2.12501869
 20
4.66728354
  0
VERTEX
  8
0
 10
2.10348437
 20
4.67087259
  0
VERTEX
  8
0
 10
2.08284732
 20
4.67491027
  0
VERTEX
  8
0
 10
2.06804247
 20
4.67042396
  0
VERTEX
  8
0
 10
2.06624794
 20
4.66997533
  0
VERTEX
  8
0
 10
2.06310752
 20
4.67221848
  0
VERTEX
  8
0
 10
2.06445342
 20
4.67580754
  0
VERTEX
  8
0
 10
2.08733363
 20
4.68657470
  0
VERTEX
  8
0
 10
2.11649469
 20
4.68747196
  0
VERTEX
  8
0
 10
2.13713175
 20
4.69150965
  0
VERTEX
  8
0
 10
2.16090923
 20
4.69465007
  0
VERTEX
  8
0
 10
2.17526544
 20
4.73233513
  0
VERTEX
  8
0
 10
2.17033049
 20
4.73233513
  0
VERTEX
  8
0
 10
2.15552565
 20
4.72964334
  0
VERTEX
  8
0
 10
2.14072080
 20
4.72740018
  0
VERTEX
  8
0
 10
2.11559743
 20
4.73009197
  0
VERTEX
  8
0
 10
2.11245701
 20
4.73323239
  0
VERTEX
  8
0
 10
2.11559743
 20
4.73637281
  0
VERTEX
  8
0
 10
2.12905638
 20
4.73816734
  0
VERTEX
  8
0
 10
2.14116943
 20
4.74310229
  0
VERTEX
  8
0
 10
2.18827576
 20
4.76553387
  0
VERTEX
  8
0
 10
2.19410797
 20
4.78258188
  0
VERTEX
  8
0
 10
2.16225512
 20
4.79693809
  0
VERTEX
  8
0
 10
2.15059070
 20
4.79559219
  0
VERTEX
  8
0
 10
2.13892627
 20
4.79424630
  0
VERTEX
  8
0
 10
2.11739195
 20
4.79693809
  0
VERTEX
  8
0
 10
2.09630627
 20
4.79962988
  0
VERTEX
  8
0
 10
2.08284732
 20
4.79693809
  0
VERTEX
  8
0
 10
2.07836100
 20
4.79918125
  0
VERTEX
  8
0
 10
2.08060416
 20
4.80321893
  0
VERTEX
  8
0
 10
2.09630627
 20
4.80635935
  0
VERTEX
  8
0
 10
2.11021385
 20
4.80456483
  0
VERTEX
  8
0
 10
2.12367280
 20
4.80321893
  0
VERTEX
  8
0
 10
2.14655301
 20
4.81757515
  0
VERTEX
  8
0
 10
2.13264543
 20
4.82744504
  0
VERTEX
  8
0
 10
2.12546732
 20
4.82654778
  0
VERTEX
  8
0
 10
2.11828922
 20
4.82609915
  0
VERTEX
  8
0
 10
2.09540900
 20
4.83013683
  0
VERTEX
  8
0
 10
2.09316584
 20
4.83417452
  0
VERTEX
  8
0
 10
2.09765216
 20
4.83641768
  0
VERTEX
  8
0
 10
2.11245701
 20
4.83372589
  0
VERTEX
  8
0
 10
2.13488859
 20
4.83731494
  0
VERTEX
  8
0
 10
2.15687154
 20
4.84090399
  0
VERTEX
  8
0
 10
2.17840586
 20
4.83282862
  0
VERTEX
  8
0
 10
2.20397787
 20
4.82161283
  0
VERTEX
  8
0
 10
2.21250187
 20
4.84539031
  0
VERTEX
  8
0
 10
2.21070734
 20
4.85436294
  0
VERTEX
  8
0
 10
2.21070734
 20
4.85795200
  0
VERTEX
  8
0
 10
2.21429640
 20
4.85884926
  0
VERTEX
  8
0
 10
2.32017347
 20
4.85840063
  0
VERTEX
  8
0
 10
2.32331389
 20
4.85750336
  0
VERTEX
  8
0
 10
2.32331389
 20
4.85436294
  0
VERTEX
  8
0
 10
2.31523852
 20
4.82879094
  0
VERTEX
  8
0
 10
2.40810528
 20
4.86109242
  0
VERTEX
  8
0
 10
2.41124570
 20
4.85929789
  0
VERTEX
  8
0
 10
2.40989981
 20
4.85570884
  0
SEQEND
  0
POLYLINE
  8
Default_Layer
 66
   1
 39
0.000000
 70
    1
  0
VERTEX
  8
0
 10
2.91057275
 20
4.85077389
  0
VERTEX
  8
0
 10
2.86346643
 20
4.77046882
  0
VERTEX
  8
0
 10
2.85853148
 20
4.76957156
  0
VERTEX
  8
0
 10
2.81411694
 20
4.78213324
  0
VERTEX
  8
0
 10
2.78944220
 20
4.77540377
  0
VERTEX
  8
0
 10
2.80738747
 20
4.75611261
  0
VERTEX
  8
0
 10
2.84148348
 20
4.74041050
  0
VERTEX
  8
0
 10
2.85942874
 20
4.70003365
  0
VERTEX
  8
0
 10
2.84653058
 20
4.66032974
  0
VERTEX
  8
0
 10
2.80783610
 20
4.62914984
  0
VERTEX
  8
0
 10
2.72035292
 20
4.60716689
  0
VERTEX
  8
0
 10
2.67190070
 20
4.61075594
  0
VERTEX
  8
0
 10
2.62703754
 20
4.61255047
  0
VERTEX
  8
0
 10
2.62299985
 20
4.61434500
  0
VERTEX
  8
0
 10
2.62389711
 20
4.61793405
  0
VERTEX
  8
0
 10
2.63017796
 20
4.62466353
  0
VERTEX
  8
0
 10
2.63915059
 20
4.64216016
  0
VERTEX
  8
0
 10
2.59832511
 20
4.65023553
  0
VERTEX
  8
0
 10
2.59428742
 20
4.65247869
  0
VERTEX
  8
0
 10
2.59563332
 20
4.65651638
  0
VERTEX
  8
0
 10
2.61671901
 20
4.66145132
  0
VERTEX
  8
0
 10
2.62883206
 20
4.66952669
  0
VERTEX
  8
0
 10
2.62210259
 20
4.67356438
  0
VERTEX
  8
0
 10
2.60550322
 20
4.67132122
  0
VERTEX
  8
0
 10
2.58800658
 20
4.66907806
  0
VERTEX
  8
0
 10
2.55660236
 20
4.67984522
  0
VERTEX
  8
0
 10
2.55435920
 20
4.68343428
  0
VERTEX
  8
0
 10
2.55839689
 20
4.68567743
  0
VERTEX
  8
0
 10
2.57185584
 20
4.68433154
  0
VERTEX
  8
0
 10
2.60101690
 20
4.69375280
  0
VERTEX
  8
0
 10
2.63242112
 20
4.70317407
  0
VERTEX
  8
0
 10
2.67145207
 20
4.69509870
  0
VERTEX
  8
0
 10
2.70958576
 20
4.68702333
  0
VERTEX
  8
0
 10
2.73605503
 20
4.69958502
  0
VERTEX
  8
0
 10
2.70061313
 20
4.72022207
  0
VERTEX
  8
0
 10
2.64588007
 20
4.72829744
  0
VERTEX
  8
0
 10
2.64229101
 20
4.73054060
  0
VERTEX
  8
0
 10
2.64453417
 20
4.73457829
  0
VERTEX
  8
0
 10
2.67279797
 20
4.74220502
  0
VERTEX
  8
0
 10
2.66517123
 20
4.76463661
  0
VERTEX
  8
0
 10
2.65395544
 20
4.76373934
  0
VERTEX
  8
0
 10
2.64318828
 20
4.76598250
  0
VERTEX
  8
0
 10
2.63197248
 20
4.76867429
  0
VERTEX
  8
0
 10
2.61851353
 20
4.76553387
  0
VERTEX
  8
0
 10
2.61627038
 20
4.76508524
  0
VERTEX
  8
0
 10
2.61357859
 20
4.76687977
  0
VERTEX
  8
0
 10
2.61447585
 20
4.77091745
  0
VERTEX
  8
0
 10
2.63825333
 20
4.78213324
  0
VERTEX
  8
0
 10
2.65216091
 20
4.78975998
  0
VERTEX
  8
0
 10
2.63645880
 20
4.79783535
  0
VERTEX
  8
0
 10
2.60370869
 20
4.80456483
  0
VERTEX
  8
0
 10
2.60146553
 20
4.80860251
  0
VERTEX
  8
0
 10
2.60595185
 20
4.81039704
  0
VERTEX
  8
0
 10
2.62075669
 20
4.80815388
  0
VERTEX
  8
0
 10
2.65574996
 20
4.81981830
  0
VERTEX
  8
0
 10
2.69029460
 20
4.83193136
  0
VERTEX
  8
0
 10
2.70330492
 20
4.83013683
  0
VERTEX
  8
0
 10
2.75758935
 20
4.85570884
  0
VERTEX
  8
0
 10
2.81680873
 20
4.86333558
  0
VERTEX
  8
0
 10
2.85314790
 20
4.85929789
  0
VERTEX
  8
0
 10
2.88993570
 20
4.85526021
  0
VERTEX
  8
0
 10
2.90922686
 20
4.85705473
  0
VERTEX
  8
0
 10
2.91281591
 20
4.85481157
  0
VERTEX
  8
0
 10
2.91057275
 20
4.85077389
  0
SEQEND
  0
POLYLINE
  8
Default_Layer
 66
   1
 39
0.000000
 70
    1
  0
VERTEX
  8
0
 10
3.38567370
 20
4.86513010
  0
VERTEX
  8
0
 10
3.34619411
 20
4.77719830
  0
VERTEX
  8
0
 10
3.34350232
 20
4.77495514
  0
VERTEX
  8
0
 10
3.31164947
 20
4.77495514
  0
VERTEX
  8
0
 10
3.29505010
 20
4.72650292
  0
VERTEX
  8
0
 10
3.29953641
 20
4.71753028
  0
VERTEX
  8
0
 10
3.30940631
 20
4.71349260
  0
VERTEX
  8
0
 10
3.33767011
 20
4.71932481
  0
VERTEX
  8
0
 10
3.34170779
 20
4.71932481
  0
VERTEX
  8
0
 10
3.34215642
 20
4.71528712
  0
VERTEX
  8
0
 10
3.30716315
 20
4.63004711
  0
VERTEX
  8
0
 10
3.30536863
 20
4.62825258
  0
VERTEX
  8
0
 10
3.23313893
 20
4.61165321
  0
VERTEX
  8
0
 10
3.18838792
 20
4.62163526
  0
VERTEX
  8
0
 10
3.16988186
 20
4.65158143
  0
VERTEX
  8
0
 10
3.12771048
 20
4.66234859
  0
VERTEX
  8
0
 10
3.12367280
 20
4.66414311
  0
VERTEX
  8
0
 10
3.12546732
 20
4.66818080
  0
VERTEX
  8
0
 10
3.15507702
 20
4.68029385
  0
VERTEX
  8
0
 10
3.17077912
 20
4.69375280
  0
VERTEX
  8
0
 10
3.15776881
 20
4.70810902
  0
VERTEX
  8
0
 10
3.13264543
 20
4.70990354
  0
VERTEX
  8
0
 10
3.12053238
 20
4.70900628
  0
VERTEX
  8
0
 10
3.10841932
 20
4.70855765
  0
VERTEX
  8
0
 10
3.08912816
 20
4.71618439
  0
VERTEX
  8
0
 10
3.08733363
 20
4.72067070
  0
VERTEX
  8
0
 10
3.09137132
 20
4.72246523
  0
VERTEX
  8
0
 10
3.10303574
 20
4.72067070
  0
VERTEX
  8
0
 10
3.14251533
 20
4.73368102
  0
VERTEX
  8
0
 10
3.18513534
 20
4.74534545
  0
VERTEX
  8
0
 10
3.19545387
 20
4.77226335
  0
VERTEX
  8
0
 10
3.16584418
 20
4.77226335
  0
VERTEX
  8
0
 10
3.16270375
 20
4.77674966
  0
VERTEX
  8
0
 10
3.17436818
 20
4.81622925
  0
VERTEX
  8
0
 10
3.11694332
 20
4.82609915
  0
VERTEX
  8
0
 10
3.10438164
 20
4.82475325
  0
VERTEX
  8
0
 10
3.10034395
 20
4.82654778
  0
VERTEX
  8
0
 10
3.10213848
 20
4.83103410
  0
VERTEX
  8
0
 10
3.14341259
 20
4.84045536
  0
VERTEX
  8
0
 10
3.16270375
 20
4.84987663
  0
VERTEX
  8
0
 10
3.14789891
 20
4.85840063
  0
VERTEX
  8
0
 10
3.12681322
 20
4.87051368
  0
VERTEX
  8
0
 10
3.12636459
 20
4.87455137
  0
VERTEX
  8
0
 10
3.12995364
 20
4.87544863
  0
VERTEX
  8
0
 10
3.13937491
 20
4.87365410
  0
VERTEX
  8
0
 10
3.15014207
 20
4.87410274
  0
VERTEX
  8
0
 10
3.16090923
 20
4.87500000
  0
VERTEX
  8
0
 10
3.17750860
 20
4.87006505
  0
VERTEX
  8
0
 10
3.19365934
 20
4.86557873
  0
VERTEX
  8
0
 10
3.22954987
 20
4.86557873
  0
VERTEX
  8
0
 10
3.24300882
 20
4.89653432
  0
VERTEX
  8
0
 10
3.23179303
 20
4.89922611
  0
VERTEX
  8
0
 10
3.22506356
 20
4.89877748
  0
VERTEX
  8
0
 10
3.21788545
 20
4.89877748
  0
VERTEX
  8
0
 10
3.20218334
 20
4.90191790
  0
VERTEX
  8
0
 10
3.20038881
 20
4.90550695
  0
VERTEX
  8
0
 10
3.20352924
 20
4.90819874
  0
VERTEX
  8
0
 10
3.22820398
 20
4.91672275
  0
VERTEX
  8
0
 10
3.25512188
 20
4.92165769
  0
VERTEX
  8
0
 10
3.25960820
 20
4.93332212
  0
VERTEX
  8
0
 10
3.26274862
 20
4.93511664
  0
VERTEX
  8
0
 10
3.36324211
 20
4.93421938
  0
VERTEX
  8
0
 10
3.36638253
 20
4.92973306
  0
VERTEX
  8
0
 10
3.34260505
 20
4.87096231
  0
VERTEX
  8
0
 10
3.38298191
 20
4.86961642
  0
VERTEX
  8
0
 10
3.38567370
 20
4.86513010
  0
SEQEND
  0
POLYLINE
  8
Default_Layer
 66
   1
 39
0.000000
 70
    1
  0
VERTEX
  8
0
 10
3.96351129
 20
4.84897936
  0
VERTEX
  8
0
 10
3.92627486
 20
4.75207492
  0
VERTEX
  8
0
 10
3.90249738
 20
4.68163975
  0
VERTEX
  8
0
 10
3.88993570
 20
4.62690668
  0
VERTEX
  8
0
 10
3.89128159
 20
4.61883131
  0
VERTEX
  8
0
 10
3.89128159
 20
4.61479363
  0
VERTEX
  8
0
 10
3.88724391
 20
4.61389637
  0
VERTEX
  8
0
 10
3.84282937
 20
4.61972858
  0
VERTEX
  8
0
 10
3.77912367
 20
4.61075594
  0
VERTEX
  8
0
 10
3.77508599
 20
4.61120458
  0
VERTEX
  8
0
 10
3.77508599
 20
4.61524226
  0
VERTEX
  8
0
 10
3.78316136
 20
4.63408479
  0
VERTEX
  8
0
 10
3.74592493
 20
4.61748542
  0
VERTEX
  8
0
 10
3.70913713
 20
4.60941005
  0
VERTEX
  8
0
 10
3.67234933
 20
4.62600942
  0
VERTEX
  8
0
 10
3.65799312
 20
4.66504038
  0
VERTEX
  8
0
 10
3.61806490
 20
4.66638627
  0
VERTEX
  8
0
 10
3.61402722
 20
4.66907806
  0
VERTEX
  8
0
 10
3.61671901
 20
4.67266712
  0
VERTEX
  8
0
 10
3.64004785
 20
4.68343428
  0
VERTEX
  8
0
 10
3.66337670
 20
4.69509870
  0
VERTEX
  8
0
 10
3.66876028
 20
4.71169807
  0
VERTEX
  8
0
 10
3.63511291
 20
4.70766039
  0
VERTEX
  8
0
 10
3.61582174
 20
4.71304397
  0
VERTEX
  8
0
 10
3.61312995
 20
4.71663302
  0
VERTEX
  8
0
 10
3.61671901
 20
4.71932481
  0
VERTEX
  8
0
 10
3.63017796
 20
4.72022207
  0
VERTEX
  8
0
 10
3.63690743
 20
4.72605428
  0
VERTEX
  8
0
 10
3.61447585
 20
4.73368102
  0
VERTEX
  8
0
 10
3.56467773
 20
4.74041050
  0
VERTEX
  8
0
 10
3.56243457
 20
4.74399955
  0
VERTEX
  8
0
 10
3.56602363
 20
4.74669134
  0
VERTEX
  8
0
 10
3.57499626
 20
4.74624271
  0
VERTEX
  8
0
 10
3.60415732
 20
4.75162629
  0
VERTEX
  8
0
 10
3.63331838
 20
4.75700987
  0
VERTEX
  8
0
 10
3.65664723
 20
4.75745850
  0
VERTEX
  8
0
 10
3.68042470
 20
4.75745850
  0
VERTEX
  8
0
 10
3.69164050
 20
4.78661956
  0
VERTEX
  8
0
 10
3.65664723
 20
4.78392777
  0
VERTEX
  8
0
 10
3.62972933
 20
4.78886272
  0
VERTEX
  8
0
 10
3.60640048
 20
4.79334904
  0
VERTEX
  8
0
 10
3.60236279
 20
4.79604083
  0
VERTEX
  8
0
 10
3.60505458
 20
4.79962988
  0
VERTEX
  8
0
 10
3.62255122
 20
4.80142441
  0
VERTEX
  8
0
 10
3.63915059
 20
4.80007851
  0
VERTEX
  8
0
 10
3.66741439
 20
4.81443472
  0
VERTEX
  8
0
 10
3.65395544
 20
4.82879094
  0
VERTEX
  8
0
 10
3.63017796
 20
4.83237999
  0
VERTEX
  8
0
 10
3.62614027
 20
4.83507178
  0
VERTEX
  8
0
 10
3.62838343
 20
4.83866083
  0
VERTEX
  8
0
 10
3.64498280
 20
4.84180126
  0
VERTEX
  8
0
 10
3.67773291
 20
4.83552041
  0
VERTEX
  8
0
 10
3.70823987
 20
4.82789367
  0
VERTEX
  8
0
 10
3.71541798
 20
4.84853073
  0
VERTEX
  8
0
 10
3.71855840
 20
4.85077389
  0
VERTEX
  8
0
 10
3.81007926
 20
4.85167115
  0
VERTEX
  8
0
 10
3.81321968
 20
4.85077389
  0
VERTEX
  8
0
 10
3.81321968
 20
4.84763347
  0
VERTEX
  8
0
 10
3.77015104
 20
4.73368102
  0
VERTEX
  8
0
 10
3.76745925
 20
4.71842755
  0
VERTEX
  8
0
 10
3.77149693
 20
4.70586586
  0
VERTEX
  8
0
 10
3.78226409
 20
4.70093091
  0
VERTEX
  8
0
 10
3.80604157
 20
4.72560565
  0
VERTEX
  8
0
 10
3.81680873
 20
4.75431808
  0
VERTEX
  8
0
 10
3.81142515
 20
4.76015029
  0
VERTEX
  8
0
 10
3.79751757
 20
4.75745850
  0
VERTEX
  8
0
 10
3.79347989
 20
4.75745850
  0
VERTEX
  8
0
 10
3.79347989
 20
4.76194482
  0
VERTEX
  8
0
 10
3.81142515
 20
4.77360924
  0
VERTEX
  8
0
 10
3.82802453
 20
4.78303051
  0
VERTEX
  8
0
 10
3.85000748
 20
4.83821220
  0
VERTEX
  8
0
 10
3.84731569
 20
4.84090399
  0
VERTEX
  8
0
 10
3.84282937
 20
4.84269852
  0
VERTEX
  8
0
 10
3.84327800
 20
4.84897936
  0
VERTEX
  8
0
 10
3.87199043
 20
4.85346568
  0
VERTEX
  8
0
 10
3.90025422
 20
4.85122252
  0
VERTEX
  8
0
 10
3.92896665
 20
4.84897936
  0
VERTEX
  8
0
 10
3.95992224
 20
4.85346568
  0
VERTEX
  8
0
 10
3.96351129
 20
4.85256842
  0
VERTEX
  8
0
 10
3.96351129
 20
4.84897936
  0
SEQEND
  0
POLYLINE
  8
Default_Layer
 66
   1
 39
0.000000
 70
    1
  0
VERTEX
  8
0
 10
4.52474951
 20
4.85122252
  0
VERTEX
  8
0
 10
4.45880066
 20
4.77271198
  0
VERTEX
  8
0
 10
4.40137580
 20
4.68747196
  0
VERTEX
  8
0
 10
4.37131748
 20
4.62825258
  0
VERTEX
  8
0
 10
4.37221475
 20
4.62286900
  0
VERTEX
  8
0
 10
4.37266338
 20
4.61972858
  0
VERTEX
  8
0
 10
4.36952295
 20
4.61838268
  0
VERTEX
  8
0
 10
4.33722147
 20
4.61927995
  0
VERTEX
  8
0
 10
4.24973830
 20
4.61613952
  0
VERTEX
  8
0
 10
4.24659788
 20
4.61883131
  0
VERTEX
  8
0
 10
4.24570061
 20
4.63587932
  0
VERTEX
  8
0
 10
4.21564229
 20
4.64440332
  0
VERTEX
  8
0
 10
4.19007029
 20
4.63901974
  0
VERTEX
  8
0
 10
4.18782713
 20
4.63857111
  0
VERTEX
  8
0
 10
4.18468671
 20
4.64171153
  0
VERTEX
  8
0
 10
4.18603260
 20
4.64440332
  0
VERTEX
  8
0
 10
4.20577239
 20
4.65786227
  0
VERTEX
  8
0
 10
4.24345745
 20
4.66773217
  0
VERTEX
  8
0
 10
4.24166293
 20
4.70317407
  0
VERTEX
  8
0
 10
4.21743682
 20
4.70182817
  0
VERTEX
  8
0
 10
4.20083745
 20
4.70317407
  0
VERTEX
  8
0
 10
4.18423807
 20
4.70496860
  0
VERTEX
  8
0
 10
4.14565575
 20
4.69644459
  0
VERTEX
  8
0
 10
4.14027217
 20
4.69958502
  0
VERTEX
  8
0
 10
4.14206670
 20
4.70227681
  0
VERTEX
  8
0
 10
4.19096755
 20
4.71618439
  0
VERTEX
  8
0
 10
4.21923134
 20
4.72964334
  0
VERTEX
  8
0
 10
4.20577239
 20
4.73816734
  0
VERTEX
  8
0
 10
4.18648123
 20
4.73816734
  0
VERTEX
  8
0
 10
4.16853597
 20
4.74130776
  0
VERTEX
  8
0
 10
4.16584418
 20
4.74489681
  0
VERTEX
  8
0
 10
4.16943323
 20
4.74758860
  0
VERTEX
  8
0
 10
4.21160461
 20
4.75431808
  0
VERTEX
  8
0
 10
4.24256019
 20
4.76508524
  0
VERTEX
  8
0
 10
4.24256019
 20
4.78661956
  0
VERTEX
  8
0
 10
4.20532376
 20
4.80366756
  0
VERTEX
  8
0
 10
4.16853597
 20
4.81622925
  0
VERTEX
  8
0
 10
4.15238523
 20
4.81353746
  0
VERTEX
  8
0
 10
4.14789891
 20
4.81578062
  0
VERTEX
  8
0
 10
4.15014207
 20
4.81981830
  0
VERTEX
  8
0
 10
4.17302228
 20
4.82475325
  0
VERTEX
  8
0
 10
4.19949155
 20
4.82116420
  0
VERTEX
  8
0
 10
4.22596082
 20
4.81802378
  0
VERTEX
  8
0
 10
4.24121430
 20
4.82430462
  0
VERTEX
  8
0
 10
4.24031703
 20
4.84539031
  0
VERTEX
  8
0
 10
4.24256019
 20
4.84853073
  0
VERTEX
  8
0
 10
4.27037536
 20
4.85211978
  0
VERTEX
  8
0
 10
4.29594736
 20
4.84942799
  0
VERTEX
  8
0
 10
4.32151937
 20
4.84718484
  0
VERTEX
  8
0
 10
4.35023179
 20
4.85032526
  0
VERTEX
  8
0
 10
4.35292358
 20
4.84942799
  0
VERTEX
  8
0
 10
4.35382085
 20
4.84673620
  0
VERTEX
  8
0
 10
4.34350232
 20
4.75970166
  0
VERTEX
  8
0
 10
4.39195454
 20
4.83148273
  0
VERTEX
  8
0
 10
4.38926275
 20
4.83507178
  0
VERTEX
  8
0
 10
4.38387917
 20
4.83776357
  0
VERTEX
  8
0
 10
4.38522506
 20
4.84359578
  0
VERTEX
  8
0
 10
4.43367728
 20
4.85211978
  0
VERTEX
  8
0
 10
4.45431434
 20
4.85122252
  0
VERTEX
  8
0
 10
4.47540003
 20
4.85032526
  0
VERTEX
  8
0
 10
4.52160909
 20
4.85660610
  0
VERTEX
  8
0
 10
4.52564678
 20
4.85526021
  0
VERTEX
  8
0
 10
4.52474951
 20
4.85122252
  0
SEQEND
  0
POLYLINE
  8
Default_Layer
 66
   1
 39
0.000000
 70
    1
  0
VERTEX
  8
0
 10
5.21295050
 20
4.84760543
  0
VERTEX
  8
0
 10
5.13085090
 20
4.73951323
  0
VERTEX
  8
0
 10
5.06624794
 20
4.62107447
  0
VERTEX
  8
0
 10
5.06310752
 20
4.61793405
  0
VERTEX
  8
0
 10
5.03349783
 20
4.61793405
  0
VERTEX
  8
0
 10
4.93390160
 20
4.61793405
  0
VERTEX
  8
0
 10
4.93165844
 20
4.62376626
  0
VERTEX
  8
0
 10
4.94242560
 20
4.64619785
  0
VERTEX
  8
0
 10
4.93793929
 20
4.68522880
  0
VERTEX
  8
0
 10
4.89352475
 20
4.62062584
  0
VERTEX
  8
0
 10
4.89083296
 20
4.61883131
  0
VERTEX
  8
0
 10
4.77912367
 20
4.61793405
  0
VERTEX
  8
0
 10
4.77598325
 20
4.62152310
  0
VERTEX
  8
0
 10
4.77553462
 20
4.63722521
  0
VERTEX
  8
0
 10
4.76072977
 20
4.64126290
  0
VERTEX
  8
0
 10
4.73291461
 20
4.64933827
  0
VERTEX
  8
0
 10
4.70465082
 20
4.65786227
  0
VERTEX
  8
0
 10
4.68401376
 20
4.65651638
  0
VERTEX
  8
0
 10
4.66158217
 20
4.65561911
  0
VERTEX
  8
0
 10
4.65844175
 20
4.65875953
  0
VERTEX
  8
0
 10
4.66203081
 20
4.66145132
  0
VERTEX
  8
0
 10
4.69119186
 20
4.66773217
  0
VERTEX
  8
0
 10
4.71766113
 20
4.67491027
  0
VERTEX
  8
0
 10
4.73112008
 20
4.67311575
  0
VERTEX
  8
0
 10
4.74592493
 20
4.67132122
  0
VERTEX
  8
0
 10
4.77418872
 20
4.68343428
  0
VERTEX
  8
0
 10
4.77418872
 20
4.70900628
  0
VERTEX
  8
0
 10
4.76342156
 20
4.70810902
  0
VERTEX
  8
0
 10
4.74233588
 20
4.71573576
  0
VERTEX
  8
0
 10
4.72125019
 20
4.72336249
  0
VERTEX
  8
0
 10
4.71048303
 20
4.71977344
  0
VERTEX
  8
0
 10
4.70509945
 20
4.72291386
  0
VERTEX
  8
0
 10
4.70734261
 20
4.72650292
  0
VERTEX
  8
0
 10
4.74278451
 20
4.73412965
  0
VERTEX
  8
0
 10
4.77418872
 20
4.74175639
  0
VERTEX
  8
0
 10
4.77418872
 20
4.77764693
  0
VERTEX
  8
0
 10
4.75938388
 20
4.78123598
  0
VERTEX
  8
0
 10
4.73515777
 20
4.77495514
  0
VERTEX
  8
0
 10
4.71182892
 20
4.76867429
  0
VERTEX
  8
0
 10
4.69208913
 20
4.77271198
  0
VERTEX
  8
0
 10
4.67369523
 20
4.77674966
  0
VERTEX
  8
0
 10
4.66831165
 20
4.77630103
  0
VERTEX
  8
0
 10
4.66472260
 20
4.77854419
  0
VERTEX
  8
0
 10
4.66696575
 20
4.78213324
  0
VERTEX
  8
0
 10
4.68132197
 20
4.78392777
  0
VERTEX
  8
0
 10
4.69208913
 20
4.78258188
  0
VERTEX
  8
0
 10
4.70375355
 20
4.78168461
  0
VERTEX
  8
0
 10
4.71900703
 20
4.78617093
  0
VERTEX
  8
0
 10
4.72618514
 20
4.79783535
  0
VERTEX
  8
0
 10
4.71766113
 20
4.80994841
  0
VERTEX
  8
0
 10
4.69881860
 20
4.80815388
  0
VERTEX
  8
0
 10
4.69478092
 20
4.81039704
  0
VERTEX
  8
0
 10
4.69612681
 20
4.81443472
  0
VERTEX
  8
0
 10
4.72304471
 20
4.81981830
  0
VERTEX
  8
0
 10
4.74098998
 20
4.81667788
  0
VERTEX
  8
0
 10
4.75848662
 20
4.81398609
  0
VERTEX
  8
0
 10
4.77463736
 20
4.82251009
  0
VERTEX
  8
0
 10
4.77015104
 20
4.84224989
  0
VERTEX
  8
0
 10
4.77194557
 20
4.84718484
  0
VERTEX
  8
0
 10
4.80918199
 20
4.85077389
  0
VERTEX
  8
0
 10
4.83385674
 20
4.84853073
  0
VERTEX
  8
0
 10
4.85853148
 20
4.84673620
  0
VERTEX
  8
0
 10
4.88410348
 20
4.84987663
  0
VERTEX
  8
0
 10
4.88679527
 20
4.84942799
  0
VERTEX
  8
0
 10
4.88769254
 20
4.84673620
  0
VERTEX
  8
0
 10
4.87961717
 20
4.76239345
  0
VERTEX
  8
0
 10
4.88365485
 20
4.76149619
  0
VERTEX
  8
0
 10
4.92268581
 20
4.82609915
  0
VERTEX
  8
0
 10
4.91371317
 20
4.83462315
  0
VERTEX
  8
0
 10
4.91416181
 20
4.84045536
  0
VERTEX
  8
0
 10
4.97607298
 20
4.84897936
  0
VERTEX
  8
0
 10
5.03933004
 20
4.85211978
  0
VERTEX
  8
0
 10
5.04247047
 20
4.85167115
  0
VERTEX
  8
0
 10
5.04291910
 20
4.84853073
  0
VERTEX
  8
0
 10
5.03260057
 20
4.74983176
  0
VERTEX
  8
0
 10
5.07208016
 20
4.80007851
  0
VERTEX
  8
0
 10
5.09137132
 20
4.83058546
  0
VERTEX
  8
0
 10
5.08912816
 20
4.83417452
  0
VERTEX
  8
0
 10
5.08464184
 20
4.83731494
  0
VERTEX
  8
0
 10
5.08643637
 20
4.84269852
  0
VERTEX
  8
0
 10
5.13085090
 20
4.84897936
  0
VERTEX
  8
0
 10
5.15193659
 20
4.84808210
  0
VERTEX
  8
0
 10
5.17302228
 20
4.84763347
  0
VERTEX
  8
0
 10
5.20981008
 20
4.85211978
  0
VERTEX
  8
0
 10
5.21339913
 20
4.85032526
  0
VERTEX
  8
0
 10
5.21295050
 20
4.84718484
  0
VERTEX
  8
0
 10
5.21295050
 20
4.84760543
  0
SEQEND
  0
POLYLINE
  8
Default_Layer
 66
   1
 39
0.000000
 70
    1
  0
VERTEX
  8
0
 10
5.76701062
 20
4.85077389
  0
VERTEX
  8
0
 10
5.65530133
 20
4.73143786
  0
VERTEX
  8
0
 10
5.66831165
 20
4.67715343
  0
VERTEX
  8
0
 10
5.68894871
 20
4.62600942
  0
VERTEX
  8
0
 10
5.69029460
 20
4.62197174
  0
VERTEX
  8
0
 10
5.68625692
 20
4.62062584
  0
VERTEX
  8
0
 10
5.64408554
 20
4.62197174
  0
VERTEX
  8
0
 10
5.56736952
 20
4.62062584
  0
VERTEX
  8
0
 10
5.56378047
 20
4.62107447
  0
VERTEX
  8
0
 10
5.56378047
 20
4.62466353
  0
VERTEX
  8
0
 10
5.56961268
 20
4.63901974
  0
VERTEX
  8
0
 10
5.56378047
 20
4.66593764
  0
VERTEX
  8
0
 10
5.52160909
 20
4.61927995
  0
VERTEX
  8
0
 10
5.51936593
 20
4.61793405
  0
VERTEX
  8
0
 10
5.40945117
 20
4.61927995
  0
VERTEX
  8
0
 10
5.40586212
 20
4.62152310
  0
VERTEX
  8
0
 10
5.40720802
 20
4.62511216
  0
VERTEX
  8
0
 10
5.42919097
 20
4.64754374
  0
VERTEX
  8
0
 10
5.38477643
 20
4.66145132
  0
VERTEX
  8
0
 10
5.38208464
 20
4.66504038
  0
VERTEX
  8
0
 10
5.38522506
 20
4.66773217
  0
VERTEX
  8
0
 10
5.40720802
 20
4.67176985
  0
VERTEX
  8
0
 10
5.42829370
 20
4.67670480
  0
VERTEX
  8
0
 10
5.44713623
 20
4.67356438
  0
VERTEX
  8
0
 10
5.47450277
 20
4.69958502
  0
VERTEX
  8
0
 10
5.45880066
 20
4.70048228
  0
VERTEX
  8
0
 10
5.44399581
 20
4.69823912
  0
VERTEX
  8
0
 10
5.42963960
 20
4.69644459
  0
VERTEX
  8
0
 10
5.42246149
 20
4.69689323
  0
VERTEX
  8
0
 10
5.41887244
 20
4.70003365
  0
VERTEX
  8
0
 10
5.42156423
 20
4.70317407
  0
VERTEX
  8
0
 10
5.43367728
 20
4.70631449
  0
VERTEX
  8
0
 10
5.43995813
 20
4.71304397
  0
VERTEX
  8
0
 10
5.42515328
 20
4.72067070
  0
VERTEX
  8
0
 10
5.41034844
 20
4.71977344
  0
VERTEX
  8
0
 10
5.39419770
 20
4.71887618
  0
VERTEX
  8
0
 10
5.37445790
 20
4.72291386
  0
VERTEX
  8
0
 10
5.37266338
 20
4.72740018
  0
VERTEX
  8
0
 10
5.37714969
 20
4.72919471
  0
VERTEX
  8
0
 10
5.38612233
 20
4.72829744
  0
VERTEX
  8
0
 10
5.40989981
 20
4.73188650
  0
VERTEX
  8
0
 10
5.43636907
 20
4.73547555
  0
VERTEX
  8
0
 10
5.46687603
 20
4.72919471
  0
VERTEX
  8
0
 10
5.49693435
 20
4.72470839
  0
VERTEX
  8
0
 10
5.50635562
 20
4.73592418
  0
VERTEX
  8
0
 10
5.49334530
 20
4.77674966
  0
VERTEX
  8
0
 10
5.48212951
 20
4.77764693
  0
VERTEX
  8
0
 10
5.46014655
 20
4.77181472
  0
VERTEX
  8
0
 10
5.43861223
 20
4.76643114
  0
VERTEX
  8
0
 10
5.42201286
 20
4.76867429
  0
VERTEX
  8
0
 10
5.40496486
 20
4.77136608
  0
VERTEX
  8
0
 10
5.38477643
 20
4.77002019
  0
VERTEX
  8
0
 10
5.38073875
 20
4.77136608
  0
VERTEX
  8
0
 10
5.38163601
 20
4.77540377
  0
VERTEX
  8
0
 10
5.41932107
 20
4.78392777
  0
VERTEX
  8
0
 10
5.44534171
 20
4.79379767
  0
VERTEX
  8
0
 10
5.42291012
 20
4.80994841
  0
VERTEX
  8
0
 10
5.41976970
 20
4.81308883
  0
VERTEX
  8
0
 10
5.42291012
 20
4.81622925
  0
VERTEX
  8
0
 10
5.43008823
 20
4.81667788
  0
VERTEX
  8
0
 10
5.44713623
 20
4.81353746
  0
VERTEX
  8
0
 10
5.46553013
 20
4.81084567
  0
VERTEX
  8
0
 10
5.48437266
 20
4.82071557
  0
VERTEX
  8
0
 10
5.47764319
 20
4.84359578
  0
VERTEX
  8
0
 10
5.48078361
 20
4.84763347
  0
VERTEX
  8
0
 10
5.59608195
 20
4.84897936
  0
VERTEX
  8
0
 10
5.59922237
 20
4.84673620
  0
VERTEX
  8
0
 10
5.60684911
 20
4.81219157
  0
VERTEX
  8
0
 10
5.63421564
 20
4.84539031
  0
VERTEX
  8
0
 10
5.63690743
 20
4.84853073
  0
VERTEX
  8
0
 10
5.66965754
 20
4.85167115
  0
VERTEX
  8
0
 10
5.69612681
 20
4.84987663
  0
VERTEX
  8
0
 10
5.72304471
 20
4.84853073
  0
VERTEX
  8
0
 10
5.76387020
 20
4.85660610
  0
VERTEX
  8
0
 10
5.76835651
 20
4.85570884
  0
VERTEX
  8
0
 10
5.76701062
 20
4.85077389
  0
SEQEND
  0
POLYLINE
  8
Default_Layer
 66
   1
 39
0.000000
 70
    1
  0
VERTEX
  8
0
 10
6.47540003
 20
4.84760543
  0
VERTEX
  8
0
 10
6.39330043
 20
4.73951323
  0
VERTEX
  8
0
 10
6.32869747
 20
4.62107447
  0
VERTEX
  8
0
 10
6.32555705
 20
4.61793405
  0
VERTEX
  8
0
 10
6.29594736
 20
4.61793405
  0
VERTEX
  8
0
 10
6.19635113
 20
4.61793405
  0
VERTEX
  8
0
 10
6.19410797
 20
4.62376626
  0
VERTEX
  8
0
 10
6.20487513
 20
4.64619785
  0
VERTEX
  8
0
 10
6.20038881
 20
4.68522880
  0
VERTEX
  8
0
 10
6.15597428
 20
4.62062584
  0
VERTEX
  8
0
 10
6.15328249
 20
4.61883131
  0
VERTEX
  8
0
 10
6.04157320
 20
4.61793405
  0
VERTEX
  8
0
 10
6.03843278
 20
4.62152310
  0
VERTEX
  8
0
 10
6.03798415
 20
4.63722521
  0
VERTEX
  8
0
 10
6.02317930
 20
4.64126290
  0
VERTEX
  8
0
 10
5.99536414
 20
4.64933827
  0
VERTEX
  8
0
 10
5.96710034
 20
4.65786227
  0
VERTEX
  8
0
 10
5.94646329
 20
4.65651638
  0
VERTEX
  8
0
 10
5.92403170
 20
4.65561911
  0
VERTEX
  8
0
 10
5.92089128
 20
4.65875953
  0
VERTEX
  8
0
 10
5.92448033
 20
4.66145132
  0
VERTEX
  8
0
 10
5.95364139
 20
4.66773217
  0
VERTEX
  8
0
 10
5.98011066
 20
4.67491027
  0
VERTEX
  8
0
 10
5.99356961
 20
4.67311575
  0
VERTEX
  8
0
 10
6.00837446
 20
4.67132122
  0
VERTEX
  8
0
 10
6.03663825
 20
4.68343428
  0
VERTEX
  8
0
 10
6.03663825
 20
4.70900628
  0
VERTEX
  8
0
 10
6.02587109
 20
4.70810902
  0
VERTEX
  8
0
 10
6.00478540
 20
4.71573576
  0
VERTEX
  8
0
 10
5.98369972
 20
4.72336249
  0
VERTEX
  8
0
 10
5.97293256
 20
4.71977344
  0
VERTEX
  8
0
 10
5.96754898
 20
4.72291386
  0
VERTEX
  8
0
 10
5.96979213
 20
4.72650292
  0
VERTEX
  8
0
 10
6.00523404
 20
4.73412965
  0
VERTEX
  8
0
 10
6.03663825
 20
4.74175639
  0
VERTEX
  8
0
 10
6.03663825
 20
4.77764693
  0
VERTEX
  8
0
 10
6.02183341
 20
4.78123598
  0
VERTEX
  8
0
 10
5.99760730
 20
4.77495514
  0
VERTEX
  8
0
 10
5.97427845
 20
4.76867429
  0
VERTEX
  8
0
 10
5.95453866
 20
4.77271198
  0
VERTEX
  8
0
 10
5.93614476
 20
4.77674966
  0
VERTEX
  8
0
 10
5.93076118
 20
4.77630103
  0
VERTEX
  8
0
 10
5.92717213
 20
4.77854419
  0
VERTEX
  8
0
 10
5.92941528
 20
4.78213324
  0
VERTEX
  8
0
 10
5.94377150
 20
4.78392777
  0
VERTEX
  8
0
 10
5.95453866
 20
4.78258188
  0
VERTEX
  8
0
 10
5.96620308
 20
4.78168461
  0
VERTEX
  8
0
 10
5.98145656
 20
4.78617093
  0
VERTEX
  8
0
 10
5.98863466
 20
4.79783535
  0
VERTEX
  8
0
 10
5.98011066
 20
4.80994841
  0
VERTEX
  8
0
 10
5.96126813
 20
4.80815388
  0
VERTEX
  8
0
 10
5.95723045
 20
4.81039704
  0
VERTEX
  8
0
 10
5.95857634
 20
4.81443472
  0
VERTEX
  8
0
 10
5.98549424
 20
4.81981830
  0
VERTEX
  8
0
 10
6.00343951
 20
4.81667788
  0
VERTEX
  8
0
 10
6.02093614
 20
4.81398609
  0
VERTEX
  8
0
 10
6.03708689
 20
4.82251009
  0
VERTEX
  8
0
 10
6.03260057
 20
4.84224989
  0
VERTEX
  8
0
 10
6.03439509
 20
4.84718484
  0
VERTEX
  8
0
 10
6.07163152
 20
4.85077389
  0
VERTEX
  8
0
 10
6.09630627
 20
4.84853073
  0
VERTEX
  8
0
 10
6.12098101
 20
4.84673620
  0
VERTEX
  8
0
 10
6.14655301
 20
4.84987663
  0
VERTEX
  8
0
 10
6.14924480
 20
4.84942799
  0
VERTEX
  8
0
 10
6.15014207
 20
4.84673620
  0
VERTEX
  8
0
 10
6.14206670
 20
4.76239345
  0
VERTEX
  8
0
 10
6.14610438
 20
4.76149619
  0
VERTEX
  8
0
 10
6.18513534
 20
4.82609915
  0
VERTEX
  8
0
 10
6.17616270
 20
4.83462315
  0
VERTEX
  8
0
 10
6.17661134
 20
4.84045536
  0
VERTEX
  8
0
 10
6.23852251
 20
4.84897936
  0
VERTEX
  8
0
 10
6.30177957
 20
4.85211978
  0
VERTEX
  8
0
 10
6.30491999
 20
4.85167115
  0
VERTEX
  8
0
 10
6.30536863
 20
4.84853073
  0
VERTEX
  8
0
 10
6.29505010
 20
4.74983176
  0
VERTEX
  8
0
 10
6.33452968
 20
4.80007851
  0
VERTEX
  8
0
 10
6.35382085
 20
4.83058546
  0
VERTEX
  8
0
 10
6.35157769
 20
4.83417452
  0
VERTEX
  8
0
 10
6.34709137
 20
4.83731494
  0
VERTEX
  8
0
 10
6.34888590
 20
4.84269852
  0
VERTEX
  8
0
 10
6.39330043
 20
4.84897936
  0
VERTEX
  8
0
 10
6.41438612
 20
4.84808210
  0
VERTEX
  8
0
 10
6.43547181
 20
4.84763347
  0
VERTEX
  8
0
 10
6.47225961
 20
4.85211978
  0
VERTEX
  8
0
 10
6.47584866
 20
4.85032526
  0
VERTEX
  8
0
 10
6.47540003
 20
4.84718484
  0
VERTEX
  8
0
 10
6.47540003
 20
4.84760543
  0
SEQEND
  0
POLYLINE
  8
Default_Layer
 66
   1
 39
0.000000
 70
    1
  0
VERTEX
  8
0
 10
6.97113803
 20
4.85169919
  0
VERTEX
  8
0
 10
6.96216540
 20
4.83462315
  0
VERTEX
  8
0
 10
6.94870645
 20
4.78975998
  0
VERTEX
  8
0
 10
6.94780918
 20
4.78751682
  0
VERTEX
  8
0
 10
6.84417527
 20
4.70451996
  0
VERTEX
  8
0
 10
6.85359653
 20
4.70451996
  0
VERTEX
  8
0
 10
6.87019590
 20
4.70586586
  0
VERTEX
  8
0
 10
6.88679527
 20
4.70721175
  0
VERTEX
  8
0
 10
6.92358307
 20
4.71394123
  0
VERTEX
  8
0
 10
6.92717213
 20
4.71349260
  0
VERTEX
  8
0
 10
6.92717213
 20
4.70900628
  0
VERTEX
  8
0
 10
6.88858980
 20
4.62063285
  0
VERTEX
  8
0
 10
6.88544938
 20
4.61883131
  0
VERTEX
  8
0
 10
6.81277105
 20
4.62107447
  0
VERTEX
  8
0
 10
6.68311649
 20
4.61883131
  0
VERTEX
  8
0
 10
6.67997607
 20
4.61927995
  0
VERTEX
  8
0
 10
6.67952744
 20
4.62286900
  0
VERTEX
  8
0
 10
6.68491102
 20
4.64530058
  0
VERTEX
  8
0
 10
6.67414386
 20
4.64933827
  0
VERTEX
  8
0
 10
6.64722596
 20
4.64440332
  0
VERTEX
  8
0
 10
6.61985943
 20
4.63991700
  0
VERTEX
  8
0
 10
6.59967100
 20
4.64350606
  0
VERTEX
  8
0
 10
6.59742785
 20
4.64664648
  0
VERTEX
  8
0
 10
6.60191416
 20
4.64978690
  0
VERTEX
  8
0
 10
6.60954090
 20
4.64888964
  0
VERTEX
  8
0
 10
6.63107522
 20
4.65382459
  0
VERTEX
  8
0
 10
6.64139375
 20
4.66189996
  0
VERTEX
  8
0
 10
6.62120532
 20
4.66773217
  0
VERTEX
  8
0
 10
6.57813668
 20
4.68074249
  0
VERTEX
  8
0
 10
6.57679079
 20
4.68433154
  0
VERTEX
  8
0
 10
6.57948258
 20
4.68657470
  0
VERTEX
  8
0
 10
6.58127710
 20
4.68612607
  0
VERTEX
  8
0
 10
6.60864364
 20
4.67894796
  0
VERTEX
  8
0
 10
6.62614027
 20
4.68074249
  0
VERTEX
  8
0
 10
6.64408554
 20
4.68298564
  0
VERTEX
  8
0
 10
6.66651712
 20
4.67849933
  0
VERTEX
  8
0
 10
6.69164050
 20
4.67446164
  0
VERTEX
  8
0
 10
6.69567818
 20
4.68522880
  0
VERTEX
  8
0
 10
6.73112008
 20
4.71483849
  0
VERTEX
  8
0
 10
6.69567818
 20
4.72650292
  0
VERTEX
  8
0
 10
6.67100344
 20
4.73816734
  0
VERTEX
  8
0
 10
6.64632870
 20
4.74534545
  0
VERTEX
  8
0
 10
6.63017796
 20
4.74489681
  0
VERTEX
  8
0
 10
6.62614027
 20
4.74713997
  0
VERTEX
  8
0
 10
6.62838343
 20
4.75117766
  0
VERTEX
  8
0
 10
6.64722596
 20
4.75521534
  0
VERTEX
  8
0
 10
6.67324660
 20
4.75028039
  0
VERTEX
  8
0
 10
6.69971587
 20
4.74534545
  0
VERTEX
  8
0
 10
6.72125019
 20
4.74938313
  0
VERTEX
  8
0
 10
6.74233588
 20
4.75342082
  0
VERTEX
  8
0
 10
6.76970241
 20
4.74579408
  0
VERTEX
  8
0
 10
6.80110662
 20
4.77002019
  0
VERTEX
  8
0
 10
6.73426051
 20
4.77046882
  0
VERTEX
  8
0
 10
6.73112008
 20
4.77540377
  0
VERTEX
  8
0
 10
6.74188724
 20
4.79783535
  0
VERTEX
  8
0
 10
6.73112008
 20
4.79738672
  0
VERTEX
  8
0
 10
6.71945566
 20
4.79738672
  0
VERTEX
  8
0
 10
6.70554808
 20
4.80187304
  0
VERTEX
  8
0
 10
6.70330492
 20
4.80546209
  0
VERTEX
  8
0
 10
6.70689397
 20
4.80770525
  0
VERTEX
  8
0
 10
6.72618514
 20
4.81443472
  0
VERTEX
  8
0
 10
6.70868850
 20
4.82161283
  0
VERTEX
  8
0
 10
6.68221923
 20
4.81802378
  0
VERTEX
  8
0
 10
6.67728428
 20
4.82071557
  0
VERTEX
  8
0
 10
6.69029460
 20
4.82923957
  0
VERTEX
  8
0
 10
6.70734261
 20
4.83282862
  0
VERTEX
  8
0
 10
6.72439061
 20
4.83193136
  0
VERTEX
  8
0
 10
6.74009272
 20
4.83148273
  0
VERTEX
  8
0
 10
6.75579483
 20
4.83507178
  0
VERTEX
  8
0
 10
6.76297293
 20
4.85481157
  0
VERTEX
  8
0
 10
6.76656199
 20
4.85660610
  0
VERTEX
  8
0
 10
6.82847316
 20
4.85077389
  0
VERTEX
  8
0
 10
6.89890833
 20
4.85346568
  0
VERTEX
  8
0
 10
6.96799761
 20
4.85660610
  0
VERTEX
  8
0
 10
6.97113803
 20
4.85167115
  0
VERTEX
  8
0
 10
6.97113803
 20
4.85169919
  0
SEQEND
  0
POLYLINE
  8
Default_Layer
 66
   1
 39
0.000000
 70
    1
  0
VERTEX
  8
0
 10
1.59803775
 20
5.19197927
  0
VERTEX
  8
0
 10
1.56707044
 20
5.19173396
  0
VERTEX
  8
0
 10
1.56348138
 20
5.19487438
  0
VERTEX
  8
0
 10
1.56662180
 20
5.19846344
  0
VERTEX
  8
0
 10
1.60789592
 20
5.21865186
  0
VERTEX
  8
0
 10
1.60699865
 20
5.25633692
  0
VERTEX
  8
0
 10
1.56437865
 20
5.26306640
  0
VERTEX
  8
0
 10
1.55181696
 20
5.26261777
  0
VERTEX
  8
0
 10
1.54777927
 20
5.26530956
  0
VERTEX
  8
0
 10
1.55091969
 20
5.26889861
  0
VERTEX
  8
0
 10
1.58591297
 20
5.27966577
  0
VERTEX
  8
0
 10
1.61552266
 20
5.28818977
  0
VERTEX
  8
0
 10
1.63660834
 20
5.31959399
  0
VERTEX
  8
0
 10
1.60969044
 20
5.33036115
  0
VERTEX
  8
0
 10
1.60699865
 20
5.33395020
  0
VERTEX
  8
0
 10
1.61013908
 20
5.33664199
  0
VERTEX
  8
0
 10
1.63840287
 20
5.34516599
  0
VERTEX
  8
0
 10
1.61956034
 20
5.35548452
  0
VERTEX
  8
0
 10
1.61148497
 20
5.35458726
  0
VERTEX
  8
0
 10
1.60340960
 20
5.35413863
  0
VERTEX
  8
0
 10
1.59039928
 20
5.35638179
  0
VERTEX
  8
0
 10
1.58815612
 20
5.35997084
  0
VERTEX
  8
0
 10
1.59219381
 20
5.36266263
  0
VERTEX
  8
0
 10
1.61956034
 20
5.36714895
  0
VERTEX
  8
0
 10
1.64737550
 20
5.37298116
  0
VERTEX
  8
0
 10
1.66756393
 20
5.36939210
  0
VERTEX
  8
0
 10
1.68640646
 20
5.36176537
  0
VERTEX
  8
0
 10
1.73082100
 20
5.38430911
  0
VERTEX
  8
0
 10
1.78061911
 20
5.39182369
  0
VERTEX
  8
0
 10
1.81471512
 20
5.38599148
  0
VERTEX
  8
0
 10
1.83400628
 20
5.38060790
  0
VERTEX
  8
0
 10
1.84791386
 20
5.38329969
  0
VERTEX
  8
0
 10
1.85374607
 20
5.38015926
  0
VERTEX
  8
0
 10
1.85195155
 20
5.37746747
  0
VERTEX
  8
0
 10
1.80484522
 20
5.30568641
  0
VERTEX
  8
0
 10
1.80035891
 20
5.30389188
  0
VERTEX
  8
0
 10
1.77344100
 20
5.30882683
  0
VERTEX
  8
0
 10
1.72678331
 20
5.29312472
  0
VERTEX
  8
0
 10
1.70569762
 20
5.25678555
  0
VERTEX
  8
0
 10
1.71422162
 20
5.23345671
  0
VERTEX
  8
0
 10
1.73575594
 20
5.22403544
  0
VERTEX
  8
0
 10
1.78510543
 20
5.23973755
  0
VERTEX
  8
0
 10
1.79004038
 20
5.23928892
  0
VERTEX
  8
0
 10
1.79004038
 20
5.23480260
  0
VERTEX
  8
0
 10
1.75818753
 20
5.15494616
  0
VERTEX
  8
0
 10
1.75639300
 20
5.15270301
  0
VERTEX
  8
0
 10
1.69268730
 20
5.14417900
  0
VERTEX
  8
0
 10
1.65545087
 20
5.15427322
  0
VERTEX
  8
0
 10
1.62090624
 20
5.18455585
  0
VERTEX
  8
0
 10
1.59803775
 20
5.19197927
  0
SEQEND
  0
POLYLINE
  8
Default_Layer
 66
   1
 39
0.000000
 70
    1
  0
VERTEX
  8
0
 10
0.75874832
 20
3.12107952
  0
VERTEX
  8
0
 10
0.76144011
 20
3.11793209
  0
VERTEX
  8
0
 10
0.75695379
 20
3.11479167
  0
VERTEX
  8
0
 10
0.69279946
 20
3.12196978
  0
VERTEX
  8
0
 10
0.60980260
 20
3.12241841
  0
VERTEX
  8
0
 10
0.53757290
 20
3.11927799
  0
VERTEX
  8
0
 10
0.53353522
 20
3.12196978
  0
VERTEX
  8
0
 10
0.53667564
 20
3.12555883
  0
VERTEX
  8
0
 10
0.57794975
 20
3.13318557
  0
VERTEX
  8
0
 10
0.60385823
 20
3.15225242
  0
VERTEX
  8
0
 10
0.61159713
 20
3.18253505
  0
VERTEX
  8
0
 10
0.51603858
 20
3.18253505
  0
VERTEX
  8
0
 10
0.50213100
 20
3.16458979
  0
VERTEX
  8
0
 10
0.49495289
 20
3.14395273
  0
VERTEX
  8
0
 10
0.50213100
 20
3.12780199
  0
VERTEX
  8
0
 10
0.50347690
 20
3.12376430
  0
VERTEX
  8
0
 10
0.49943921
 20
3.12196978
  0
VERTEX
  8
0
 10
0.31819201
 20
3.12062388
  0
VERTEX
  8
0
 10
0.31460296
 20
3.12331567
  0
VERTEX
  8
0
 10
0.31729475
 20
3.12735336
  0
VERTEX
  8
0
 10
0.35868102
 20
3.14238252
  0
VERTEX
  8
0
 10
0.37247645
 20
3.16055210
  0
VERTEX
  8
0
 10
0.35542844
 20
3.15382263
  0
VERTEX
  8
0
 10
0.31550022
 20
3.16638431
  0
VERTEX
  8
0
 10
0.27512337
 20
3.17939463
  0
VERTEX
  8
0
 10
0.24327052
 20
3.17176789
  0
VERTEX
  8
0
 10
0.23923284
 20
3.17221653
  0
VERTEX
  8
0
 10
0.23923284
 20
3.17625421
  0
VERTEX
  8
0
 10
0.30428443
 20
3.19509674
  0
VERTEX
  8
0
 10
0.35722297
 20
3.21304201
  0
VERTEX
  8
0
 10
0.34690444
 20
3.22515506
  0
VERTEX
  8
0
 10
0.32447286
 20
3.23009001
  0
VERTEX
  8
0
 10
0.28005832
 20
3.22066875
  0
VERTEX
  8
0
 10
0.23564379
 20
3.21124748
  0
VERTEX
  8
0
 10
0.17642441
 20
3.22784685
  0
VERTEX
  8
0
 10
0.11810229
 20
3.24444622
  0
VERTEX
  8
0
 10
0.09028712
 20
3.23547359
  0
VERTEX
  8
0
 10
0.08849260
 20
3.23502496
  0
VERTEX
  8
0
 10
0.08490354
 20
3.23816538
  0
VERTEX
  8
0
 10
0.08624944
 20
3.24085717
  0
VERTEX
  8
0
 10
0.13918798
 20
3.25655928
  0
VERTEX
  8
0
 10
0.18360251
 20
3.25162433
  0
VERTEX
  8
0
 10
0.22667115
 20
3.24668938
  0
VERTEX
  8
0
 10
0.24192463
 20
3.25162433
  0
VERTEX
  8
0
 10
0.24955137
 20
3.26418602
  0
VERTEX
  8
0
 10
0.22745626
 20
3.29312276
  0
VERTEX
  8
0
 10
0.16117093
 20
3.30276834
  0
VERTEX
  8
0
 10
0.13066397
 20
3.30187108
  0
VERTEX
  8
0
 10
0.10105428
 20
3.30142245
  0
VERTEX
  8
0
 10
0.03689996
 20
3.31757319
  0
VERTEX
  8
0
 10
0.03600269
 20
3.31936771
  0
VERTEX
  8
0
 10
0.03959175
 20
3.32340540
  0
VERTEX
  8
0
 10
0.04183490
 20
3.32205950
  0
VERTEX
  8
0
 10
0.06157470
 20
3.31174098
  0
VERTEX
  8
0
 10
0.09297891
 20
3.30770329
  0
VERTEX
  8
0
 10
0.14995514
 20
3.32116224
  0
VERTEX
  8
0
 10
0.21590399
 20
3.33462119
  0
VERTEX
  8
0
 10
0.29934948
 20
3.31622729
  0
VERTEX
  8
0
 10
0.38279498
 20
3.29783339
  0
VERTEX
  8
0
 10
0.41330193
 20
3.30321697
  0
VERTEX
  8
0
 10
0.42900404
 20
3.32071361
  0
VERTEX
  8
0
 10
0.39804845
 20
3.33237803
  0
VERTEX
  8
0
 10
0.37606550
 20
3.33013487
  0
VERTEX
  8
0
 10
0.35183939
 20
3.32789172
  0
VERTEX
  8
0
 10
0.27243158
 20
3.35705277
  0
VERTEX
  8
0
 10
0.19436967
 20
3.38621383
  0
VERTEX
  8
0
 10
0.15937640
 20
3.37768983
  0
VERTEX
  8
0
 10
0.15533872
 20
3.37948436
  0
VERTEX
  8
0
 10
0.15713324
 20
3.38352204
  0
VERTEX
  8
0
 10
0.23654105
 20
3.40281321
  0
VERTEX
  8
0
 10
0.29262001
 20
3.38890562
  0
VERTEX
  8
0
 10
0.34600718
 20
3.37499804
  0
VERTEX
  8
0
 10
0.35767160
 20
3.37858710
  0
VERTEX
  8
0
 10
0.36350381
 20
3.38711110
  0
VERTEX
  8
0
 10
0.33165096
 20
3.42345026
  0
VERTEX
  8
0
 10
0.26973979
 20
3.44498458
  0
VERTEX
  8
0
 10
0.25000000
 20
3.44319006
  0
VERTEX
  8
0
 10
0.24596231
 20
3.44498458
  0
VERTEX
  8
0
 10
0.24775684
 20
3.44947090
  0
VERTEX
  8
0
 10
0.28185285
 20
3.45485448
  0
VERTEX
  8
0
 10
0.36036339
 20
3.43915237
  0
VERTEX
  8
0
 10
0.42676088
 20
3.40954268
  0
VERTEX
  8
0
 10
0.47969942
 20
3.39384057
  0
VERTEX
  8
0
 10
0.49585016
 20
3.39832689
  0
VERTEX
  8
0
 10
0.50347690
 20
3.41133721
  0
VERTEX
  8
0
 10
0.48912068
 20
3.42614205
  0
VERTEX
  8
0
 10
0.46713773
 20
3.43062837
  0
VERTEX
  8
0
 10
0.44246299
 20
3.42434753
  0
VERTEX
  8
0
 10
0.43752804
 20
3.42748795
  0
VERTEX
  8
0
 10
0.43977120
 20
3.43062837
  0
VERTEX
  8
0
 10
0.53891880
 20
3.45216269
  0
VERTEX
  8
0
 10
0.60486765
 20
3.44184416
  0
VERTEX
  8
0
 10
0.67261104
 20
3.43152563
  0
VERTEX
  8
0
 10
0.73811126
 20
3.45216269
  0
VERTEX
  8
0
 10
0.74259758
 20
3.45216269
  0
VERTEX
  8
0
 10
0.74259758
 20
3.44722774
  0
VERTEX
  8
0
 10
0.72442799
 20
3.40281321
  0
VERTEX
  8
0
 10
0.71837147
 20
3.34224793
  0
VERTEX
  8
0
 10
0.72106326
 20
3.19330221
  0
VERTEX
  8
0
 10
0.73384926
 20
3.14227124
  0
VERTEX
  8
0
 10
0.75874832
 20
3.12107952
  0
SEQEND
  0
POLYLINE
  8
Default_Layer
 66
   1
 39
0.000000
 70
    1
  0
VERTEX
  8
0
 10
0.61384029
 20
3.32071361
  0
VERTEX
  8
0
 10
0.61384029
 20
3.34449109
  0
VERTEX
  8
0
 10
0.55955585
 20
3.25745654
  0
VERTEX
  8
0
 10
0.60890534
 20
3.25745654
  0
VERTEX
  8
0
 10
0.60890534
 20
3.27046686
  0
VERTEX
  8
0
 10
0.59813818
 20
3.27943950
  0
VERTEX
  8
0
 10
0.58826828
 20
3.27719634
  0
VERTEX
  8
0
 10
0.58467923
 20
3.27764497
  0
VERTEX
  8
0
 10
0.58512786
 20
3.28123402
  0
VERTEX
  8
0
 10
0.60262450
 20
3.29648750
  0
VERTEX
  8
0
 10
0.61384029
 20
3.32071361
  0
SEQEND
  0
POLYLINE
  8
Default_Layer
 66
   1
 39
0.000000
 70
    1
  0
VERTEX
  8
0
 10
1.64703903
 20
3.37903573
  0
VERTEX
  8
0
 10
1.62819650
 20
3.33047135
  0
VERTEX
  8
0
 10
1.57166891
 20
3.28796350
  0
VERTEX
  8
0
 10
1.60834455
 20
3.25790518
  0
VERTEX
  8
0
 10
1.62056976
 20
3.21618243
  0
VERTEX
  8
0
 10
1.61069987
 20
3.17692716
  0
VERTEX
  8
0
 10
1.58109017
 20
3.14619589
  0
VERTEX
  8
0
 10
1.49315837
 20
3.12196978
  0
VERTEX
  8
0
 10
1.27960969
 20
3.12062388
  0
VERTEX
  8
0
 10
1.27646927
 20
3.12331567
  0
VERTEX
  8
0
 10
1.27916106
 20
3.12690473
  0
VERTEX
  8
0
 10
1.30473306
 20
3.15920621
  0
VERTEX
  8
0
 10
1.26839390
 20
3.14081231
  0
VERTEX
  8
0
 10
1.23429789
 20
3.12645609
  0
VERTEX
  8
0
 10
1.20737999
 20
3.13139104
  0
VERTEX
  8
0
 10
1.18135935
 20
3.13632599
  0
VERTEX
  8
0
 10
1.16431135
 20
3.13139104
  0
VERTEX
  8
0
 10
1.15982503
 20
3.13498010
  0
VERTEX
  8
0
 10
1.16206819
 20
3.13812052
  0
VERTEX
  8
0
 10
1.19302378
 20
3.14484999
  0
VERTEX
  8
0
 10
1.22196052
 20
3.14967278
  0
VERTEX
  8
0
 10
1.23160610
 20
3.16414116
  0
VERTEX
  8
0
 10
1.22128757
 20
3.17760011
  0
VERTEX
  8
0
 10
1.20289367
 20
3.18163779
  0
VERTEX
  8
0
 10
1.15847914
 20
3.17176789
  0
VERTEX
  8
0
 10
1.11451323
 20
3.16234663
  0
VERTEX
  8
0
 10
1.04811575
 20
3.17760011
  0
VERTEX
  8
0
 10
1.04587259
 20
3.18074053
  0
VERTEX
  8
0
 10
1.05035891
 20
3.18432958
  0
VERTEX
  8
0
 10
1.08445491
 20
3.17984326
  0
VERTEX
  8
0
 10
1.15758188
 20
3.20406937
  0
VERTEX
  8
0
 10
1.23115747
 20
3.22829548
  0
VERTEX
  8
0
 10
1.25000000
 20
3.22694959
  0
VERTEX
  8
0
 10
1.26839390
 20
3.22560369
  0
VERTEX
  8
0
 10
1.29306864
 20
3.23816538
  0
VERTEX
  8
0
 10
1.28140422
 20
3.25498907
  0
VERTEX
  8
0
 10
1.24641095
 20
3.26059697
  0
VERTEX
  8
0
 10
1.16700314
 20
3.24130580
  0
VERTEX
  8
0
 10
1.08490354
 20
3.22246327
  0
VERTEX
  8
0
 10
1.02164648
 20
3.23547359
  0
VERTEX
  8
0
 10
0.95883804
 20
3.24848391
  0
VERTEX
  8
0
 10
0.91487214
 20
3.23861401
  0
VERTEX
  8
0
 10
0.91083445
 20
3.24040854
  0
VERTEX
  8
0
 10
0.91307761
 20
3.24489486
  0
VERTEX
  8
0
 10
1.02299237
 20
3.26508328
  0
VERTEX
  8
0
 10
1.04991027
 20
3.26328876
  0
VERTEX
  8
0
 10
1.07637954
 20
3.26194286
  0
VERTEX
  8
0
 10
1.11473755
 20
3.26912097
  0
VERTEX
  8
0
 10
1.12752355
 20
3.29065529
  0
VERTEX
  8
0
 10
1.11451323
 20
3.30994645
  0
VERTEX
  8
0
 10
1.08804397
 20
3.31533003
  0
VERTEX
  8
0
 10
1.04811575
 20
3.30860055
  0
VERTEX
  8
0
 10
1.00818753
 20
3.30231971
  0
VERTEX
  8
0
 10
0.95749215
 20
3.31622729
  0
VERTEX
  8
0
 10
0.95569762
 20
3.32071361
  0
VERTEX
  8
0
 10
0.95973531
 20
3.32250814
  0
VERTEX
  8
0
 10
0.99652310
 20
3.31308687
  0
VERTEX
  8
0
 10
1.05619112
 20
3.33058351
  0
VERTEX
  8
0
 10
1.12617766
 20
3.34852877
  0
VERTEX
  8
0
 10
1.19481830
 20
3.33417256
  0
VERTEX
  8
0
 10
1.26345895
 20
3.32026498
  0
VERTEX
  8
0
 10
1.31056528
 20
3.32161087
  0
VERTEX
  8
0
 10
1.33613728
 20
3.34135067
  0
VERTEX
  8
0
 10
1.31550022
 20
3.35480962
  0
VERTEX
  8
0
 10
1.29486317
 20
3.35211783
  0
VERTEX
  8
0
 10
1.27422611
 20
3.34942604
  0
VERTEX
  8
0
 10
1.21141768
 20
3.36961446
  0
VERTEX
  8
0
 10
1.14950651
 20
3.38980289
  0
VERTEX
  8
0
 10
1.12258860
 20
3.38845699
  0
VERTEX
  8
0
 10
1.11899955
 20
3.39114878
  0
VERTEX
  8
0
 10
1.12124271
 20
3.39473784
  0
VERTEX
  8
0
 10
1.16072230
 20
3.40146731
  0
VERTEX
  8
0
 10
1.21231494
 20
3.39563510
  0
VERTEX
  8
0
 10
1.26435621
 20
3.38980289
  0
VERTEX
  8
0
 10
1.29430238
 20
3.39428920
  0
VERTEX
  8
0
 10
1.30428443
 20
3.40774815
  0
VERTEX
  8
0
 10
1.29161059
 20
3.42692716
  0
VERTEX
  8
0
 10
1.25358905
 20
3.43332016
  0
VERTEX
  8
0
 10
1.23295200
 20
3.43242290
  0
VERTEX
  8
0
 10
1.21231494
 20
3.43197426
  0
VERTEX
  8
0
 10
1.19526694
 20
3.43332016
  0
VERTEX
  8
0
 10
1.19212651
 20
3.43646058
  0
VERTEX
  8
0
 10
1.19526694
 20
3.43960100
  0
VERTEX
  8
0
 10
1.30293854
 20
3.44947090
  0
VERTEX
  8
0
 10
1.36215792
 20
3.44543321
  0
VERTEX
  8
0
 10
1.42092867
 20
3.44184416
  0
VERTEX
  8
0
 10
1.53174069
 20
3.44184416
  0
VERTEX
  8
0
 10
1.61473755
 20
3.42973111
  0
VERTEX
  8
0
 10
1.63896366
 20
3.40965484
  0
VERTEX
  8
0
 10
1.64703903
 20
3.37903573
  0
SEQEND
  0
POLYLINE
  8
Default_Layer
 66
   1
 39
0.000000
 70
    1
  0
VERTEX
  8
0
 10
1.09701660
 20
3.38352204
  0
VERTEX
  8
0
 10
1.05529385
 20
3.37320352
  0
VERTEX
  8
0
 10
1.02388964
 20
3.38217615
  0
VERTEX
  8
0
 10
0.99024226
 20
3.39159741
  0
VERTEX
  8
0
 10
0.97364289
 20
3.38980289
  0
VERTEX
  8
0
 10
0.96960520
 20
3.39159741
  0
VERTEX
  8
0
 10
0.97050247
 20
3.39518647
  0
VERTEX
  8
0
 10
1.01671153
 20
3.40774815
  0
VERTEX
  8
0
 10
1.04811575
 20
3.39742963
  0
VERTEX
  8
0
 10
1.07772544
 20
3.38755973
  0
VERTEX
  8
0
 10
1.09522207
 20
3.38890562
  0
VERTEX
  8
0
 10
1.09836249
 20
3.38711110
  0
VERTEX
  8
0
 10
1.09701660
 20
3.38352204
  0
SEQEND
  0
POLYLINE
  8
Default_Layer
 66
   1
 39
0.000000
 70
    1
  0
VERTEX
  8
0
 10
1.53039480
 20
3.34677631
  0
VERTEX
  8
0
 10
1.52041274
 20
3.36569419
  0
VERTEX
  8
0
 10
1.49046658
 20
3.37320352
  0
VERTEX
  8
0
 10
1.47117541
 20
3.31533003
  0
VERTEX
  8
0
 10
1.50930911
 20
3.31936771
  0
VERTEX
  8
0
 10
1.53039480
 20
3.34673425
  0
VERTEX
  8
0
 10
1.53039480
 20
3.34677631
  0
SEQEND
  0
POLYLINE
  8
Default_Layer
 66
   1
 39
0.000000
 70
    1
  0
VERTEX
  8
0
 10
1.49540153
 20
3.23816538
  0
VERTEX
  8
0
 10
1.48407358
 20
3.25274591
  0
VERTEX
  8
0
 10
1.45008973
 20
3.25611065
  0
VERTEX
  8
0
 10
1.42541498
 20
3.19150769
  0
VERTEX
  8
0
 10
1.45502467
 20
3.19150769
  0
VERTEX
  8
0
 10
1.47745626
 20
3.20182622
  0
VERTEX
  8
0
 10
1.46624047
 20
3.21214474
  0
VERTEX
  8
0
 10
1.45592194
 20
3.20945295
  0
VERTEX
  8
0
 10
1.45098699
 20
3.21035022
  0
VERTEX
  8
0
 10
1.45188425
 20
3.21483653
  0
VERTEX
  8
0
 10
1.47925079
 20
3.22560369
  0
VERTEX
  8
0
 10
1.49540153
 20
3.23816538
  0
SEQEND
  0
POLYLINE
  8
Default_Layer
 66
   1
 39
0.000000
 70
    1
  0
VERTEX
  8
0
 10
2.47296994
 20
3.43735784
  0
VERTEX
  8
0
 10
2.41554509
 20
3.32609719
  0
VERTEX
  8
0
 10
2.41016151
 20
3.32519993
  0
VERTEX
  8
0
 10
2.36440108
 20
3.34269656
  0
VERTEX
  8
0
 10
2.29800359
 20
3.31891908
  0
VERTEX
  8
0
 10
2.27545985
 20
3.29155255
  0
VERTEX
  8
0
 10
2.26794527
 20
3.25969970
  0
VERTEX
  8
0
 10
2.28813369
 20
3.22605233
  0
VERTEX
  8
0
 10
2.33120233
 20
3.21483653
  0
VERTEX
  8
0
 10
2.38772992
 20
3.23457633
  0
VERTEX
  8
0
 10
2.39266487
 20
3.23547359
  0
VERTEX
  8
0
 10
2.39356214
 20
3.23053864
  0
VERTEX
  8
0
 10
2.35453118
 20
3.13183967
  0
VERTEX
  8
0
 10
2.35228802
 20
3.13004515
  0
VERTEX
  8
0
 10
2.27916106
 20
3.11568893
  0
VERTEX
  8
0
 10
2.19122925
 20
3.13273694
  0
VERTEX
  8
0
 10
2.13739345
 20
3.16414116
  0
VERTEX
  8
0
 10
2.10374607
 20
3.18118916
  0
VERTEX
  8
0
 10
2.06561238
 20
3.17042200
  0
VERTEX
  8
0
 10
2.02792732
 20
3.16010347
  0
VERTEX
  8
0
 10
1.99383131
 20
3.16458979
  0
VERTEX
  8
0
 10
1.96377299
 20
3.16952474
  0
VERTEX
  8
0
 10
1.94134141
 20
3.16503842
  0
VERTEX
  8
0
 10
1.93595783
 20
3.16817884
  0
VERTEX
  8
0
 10
1.93820099
 20
3.17131926
  0
VERTEX
  8
0
 10
1.97095110
 20
3.17625421
  0
VERTEX
  8
0
 10
1.98351279
 20
3.17625421
  0
VERTEX
  8
0
 10
1.99517721
 20
3.17580558
  0
VERTEX
  8
0
 10
2.03555406
 20
3.18836727
  0
VERTEX
  8
0
 10
2.05439659
 20
3.21618243
  0
VERTEX
  8
0
 10
2.03600269
 20
3.23009001
  0
VERTEX
  8
0
 10
2.01671153
 20
3.22560369
  0
VERTEX
  8
0
 10
1.98530731
 20
3.22111738
  0
VERTEX
  8
0
 10
1.92205025
 20
3.24085717
  0
VERTEX
  8
0
 10
1.87539255
 20
3.26059697
  0
VERTEX
  8
0
 10
1.84309107
 20
3.25566202
  0
VERTEX
  8
0
 10
1.83860476
 20
3.25880244
  0
VERTEX
  8
0
 10
1.84084791
 20
3.26194286
  0
VERTEX
  8
0
 10
1.87853297
 20
3.26956960
  0
VERTEX
  8
0
 10
1.92519067
 20
3.26373739
  0
VERTEX
  8
0
 10
1.97095110
 20
3.25835381
  0
VERTEX
  8
0
 10
1.98889637
 20
3.26373739
  0
VERTEX
  8
0
 10
1.99742037
 20
3.27854223
  0
VERTEX
  8
0
 10
1.97050247
 20
3.29873066
  0
VERTEX
  8
0
 10
1.92115298
 20
3.30366561
  0
VERTEX
  8
0
 10
1.81393001
 20
3.31847045
  0
VERTEX
  8
0
 10
1.81168686
 20
3.32250814
  0
VERTEX
  8
0
 10
1.81617317
 20
3.32475129
  0
VERTEX
  8
0
 10
1.84353970
 20
3.32071361
  0
VERTEX
  8
0
 10
1.90500224
 20
3.32923761
  0
VERTEX
  8
0
 10
1.96601615
 20
3.33821024
  0
VERTEX
  8
0
 10
2.03241364
 20
3.32295677
  0
VERTEX
  8
0
 10
2.09925976
 20
3.30770329
  0
VERTEX
  8
0
 10
2.12707492
 20
3.31218961
  0
VERTEX
  8
0
 10
2.14143114
 20
3.32564856
  0
VERTEX
  8
0
 10
2.12483176
 20
3.33551845
  0
VERTEX
  8
0
 10
2.10868102
 20
3.33506982
  0
VERTEX
  8
0
 10
2.08714670
 20
3.33462119
  0
VERTEX
  8
0
 10
2.01850606
 20
3.35929593
  0
VERTEX
  8
0
 10
1.94358457
 20
3.38441931
  0
VERTEX
  8
0
 10
1.90006729
 20
3.37320352
  0
VERTEX
  8
0
 10
1.89558098
 20
3.37589531
  0
VERTEX
  8
0
 10
1.89737550
 20
3.37858710
  0
VERTEX
  8
0
 10
1.97095110
 20
3.39832689
  0
VERTEX
  8
0
 10
2.01716016
 20
3.39114878
  0
VERTEX
  8
0
 10
2.06336922
 20
3.38397068
  0
VERTEX
  8
0
 10
2.07682817
 20
3.38980289
  0
VERTEX
  8
0
 10
2.08400628
 20
3.40281321
  0
VERTEX
  8
0
 10
2.05978017
 20
3.42973111
  0
VERTEX
  8
0
 10
2.00773890
 20
3.44139553
  0
VERTEX
  8
0
 10
1.96018394
 20
3.45530311
  0
VERTEX
  8
0
 10
1.95838941
 20
3.45844353
  0
VERTEX
  8
0
 10
1.96377299
 20
3.46158395
  0
VERTEX
  8
0
 10
2.00370121
 20
3.45126543
  0
VERTEX
  8
0
 10
2.03331090
 20
3.45305995
  0
VERTEX
  8
0
 10
2.06292059
 20
3.45530311
  0
VERTEX
  8
0
 10
2.12976671
 20
3.44049827
  0
VERTEX
  8
0
 10
2.19706146
 20
3.42569342
  0
VERTEX
  8
0
 10
2.27916106
 20
3.43556332
  0
VERTEX
  8
0
 10
2.36170929
 20
3.44588185
  0
VERTEX
  8
0
 10
2.40343203
 20
3.44139553
  0
VERTEX
  8
0
 10
2.44560341
 20
3.43690921
  0
VERTEX
  8
0
 10
2.46803499
 20
3.44184416
  0
VERTEX
  8
0
 10
2.47252131
 20
3.44139553
  0
VERTEX
  8
0
 10
2.47296994
 20
3.43735784
  0
SEQEND
  0
POLYLINE
  8
Default_Layer
 66
   1
 39
0.000000
 70
    1
  0
VERTEX
  8
0
 10
3.38010319
 20
3.34628561
  0
VERTEX
  8
0
 10
3.37135487
 20
3.29480513
  0
VERTEX
  8
0
 10
3.34510991
 20
3.24085717
  0
VERTEX
  8
0
 10
3.25986990
 20
3.15337400
  0
VERTEX
  8
0
 10
3.20603410
 20
3.12578315
  0
VERTEX
  8
0
 10
3.15309556
 20
3.11658620
  0
VERTEX
  8
0
 10
3.07009870
 20
3.12152115
  0
VERTEX
  8
0
 10
2.98665321
 20
3.12645609
  0
VERTEX
  8
0
 10
2.96108120
 20
3.12511020
  0
VERTEX
  8
0
 10
2.95704352
 20
3.12690473
  0
VERTEX
  8
0
 10
2.95883804
 20
3.13094241
  0
VERTEX
  8
0
 10
2.97364289
 20
3.14215820
  0
VERTEX
  8
0
 10
2.99383131
 20
3.16862747
  0
VERTEX
  8
0
 10
2.90903993
 20
3.15068221
  0
VERTEX
  8
0
 10
2.82290265
 20
3.13094241
  0
VERTEX
  8
0
 10
2.77400179
 20
3.13812052
  0
VERTEX
  8
0
 10
2.72599821
 20
3.14529863
  0
VERTEX
  8
0
 10
2.68248093
 20
3.13273694
  0
VERTEX
  8
0
 10
2.68068641
 20
3.13228831
  0
VERTEX
  8
0
 10
2.67754598
 20
3.13542873
  0
VERTEX
  8
0
 10
2.67934051
 20
3.13856915
  0
VERTEX
  8
0
 10
2.74753253
 20
3.15651442
  0
VERTEX
  8
0
 10
2.77131000
 20
3.15965484
  0
VERTEX
  8
0
 10
2.78297443
 20
3.16862747
  0
VERTEX
  8
0
 10
2.74304621
 20
3.20362074
  0
VERTEX
  8
0
 10
2.66947061
 20
3.21797696
  0
VERTEX
  8
0
 10
2.62281292
 20
3.21214474
  0
VERTEX
  8
0
 10
2.61832660
 20
3.21438790
  0
VERTEX
  8
0
 10
2.62056976
 20
3.21842559
  0
VERTEX
  8
0
 10
2.66902198
 20
3.22470643
  0
VERTEX
  8
0
 10
2.74708389
 20
3.21393927
  0
VERTEX
  8
0
 10
2.82290265
 20
3.20317211
  0
VERTEX
  8
0
 10
2.84847465
 20
3.20855569
  0
VERTEX
  8
0
 10
2.86193360
 20
3.22156601
  0
VERTEX
  8
0
 10
2.83142665
 20
3.24848391
  0
VERTEX
  8
0
 10
2.78880664
 20
3.25476475
  0
VERTEX
  8
0
 10
2.76592642
 20
3.24893254
  0
VERTEX
  8
0
 10
2.76144011
 20
3.25252160
  0
VERTEX
  8
0
 10
2.76323463
 20
3.25521339
  0
VERTEX
  8
0
 10
2.81213549
 20
3.26508328
  0
VERTEX
  8
0
 10
2.86911171
 20
3.25700791
  0
VERTEX
  8
0
 10
2.92608793
 20
3.24893254
  0
VERTEX
  8
0
 10
2.97218484
 20
3.25689575
  0
VERTEX
  8
0
 10
2.98755047
 20
3.28078539
  0
VERTEX
  8
0
 10
2.97454015
 20
3.30142245
  0
VERTEX
  8
0
 10
2.94762225
 20
3.30860055
  0
VERTEX
  8
0
 10
2.91218035
 20
3.30366561
  0
VERTEX
  8
0
 10
2.87494392
 20
3.29873066
  0
VERTEX
  8
0
 10
2.81213549
 20
3.31398413
  0
VERTEX
  8
0
 10
2.74932705
 20
3.32923761
  0
VERTEX
  8
0
 10
2.68158367
 20
3.31443277
  0
VERTEX
  8
0
 10
2.67709735
 20
3.31757319
  0
VERTEX
  8
0
 10
2.67889188
 20
3.32026498
  0
VERTEX
  8
0
 10
2.73676537
 20
3.34135067
  0
VERTEX
  8
0
 10
2.79777927
 20
3.34763151
  0
VERTEX
  8
0
 10
2.82469717
 20
3.34583698
  0
VERTEX
  8
0
 10
2.85251234
 20
3.34404246
  0
VERTEX
  8
0
 10
2.87976671
 20
3.34886525
  0
VERTEX
  8
0
 10
2.88885150
 20
3.36333362
  0
VERTEX
  8
0
 10
2.86283087
 20
3.38711110
  0
VERTEX
  8
0
 10
2.80495738
 20
3.39922415
  0
VERTEX
  8
0
 10
2.74663526
 20
3.41851531
  0
VERTEX
  8
0
 10
2.74484074
 20
3.42300163
  0
VERTEX
  8
0
 10
2.74932705
 20
3.42479616
  0
VERTEX
  8
0
 10
2.80316285
 20
3.41672079
  0
VERTEX
  8
0
 10
2.83636160
 20
3.41851531
  0
VERTEX
  8
0
 10
2.86866308
 20
3.42030984
  0
VERTEX
  8
0
 10
2.93057425
 20
3.40460773
  0
VERTEX
  8
0
 10
2.97229699
 20
3.37589531
  0
VERTEX
  8
0
 10
3.01671153
 20
3.36019320
  0
VERTEX
  8
0
 10
3.03106774
 20
3.36467951
  0
VERTEX
  8
0
 10
3.03779722
 20
3.37679257
  0
VERTEX
  8
0
 10
3.02759085
 20
3.40124299
  0
VERTEX
  8
0
 10
2.99697174
 20
3.42075847
  0
VERTEX
  8
0
 10
2.93371467
 20
3.43421742
  0
VERTEX
  8
0
 10
2.92653656
 20
3.43376879
  0
VERTEX
  8
0
 10
2.92249888
 20
3.43646058
  0
VERTEX
  8
0
 10
2.92519067
 20
3.44004963
  0
VERTEX
  8
0
 10
2.96646478
 20
3.44543321
  0
VERTEX
  8
0
 10
3.01850606
 20
3.43960100
  0
VERTEX
  8
0
 10
3.07054733
 20
3.43376879
  0
VERTEX
  8
0
 10
3.14502019
 20
3.43735784
  0
VERTEX
  8
0
 10
3.21814715
 20
3.44094690
  0
VERTEX
  8
0
 10
3.33120233
 20
3.42614205
  0
VERTEX
  8
0
 10
3.36787797
 20
3.39585941
  0
VERTEX
  8
0
 10
3.38010319
 20
3.34628561
  0
SEQEND
  0
POLYLINE
  8
Default_Layer
 66
   1
 39
0.000000
 70
    1
  0
VERTEX
  8
0
 10
3.25044863
 20
3.32744308
  0
VERTEX
  8
0
 10
3.23968147
 20
3.34718288
  0
VERTEX
  8
0
 10
3.21590399
 20
3.35525825
  0
VERTEX
  8
0
 10
3.18988336
 20
3.35436098
  0
VERTEX
  8
0
 10
3.13245850
 20
3.22066875
  0
VERTEX
  8
0
 10
3.15489009
 20
3.21932285
  0
VERTEX
  8
0
 10
3.19661283
 20
3.23143591
  0
VERTEX
  8
0
 10
3.21724989
 20
3.25835381
  0
VERTEX
  8
0
 10
3.21276357
 20
3.26642918
  0
VERTEX
  8
0
 10
3.20334231
 20
3.27001823
  0
VERTEX
  8
0
 10
3.18180799
 20
3.26687781
  0
VERTEX
  8
0
 10
3.17597577
 20
3.26956960
  0
VERTEX
  8
0
 10
3.17732167
 20
3.27181276
  0
VERTEX
  8
0
 10
3.20423957
 20
3.28347718
  0
VERTEX
  8
0
 10
3.23564379
 20
3.29648750
  0
VERTEX
  8
0
 10
3.25044863
 20
3.32744308
  0
SEQEND
  0
POLYLINE
  8
Default_Layer
 66
   1
 39
0.000000
 70
    1
  0
VERTEX
  8
0
 10
4.35722297
 20
3.44184416
  0
VERTEX
  8
0
 10
4.30742485
 20
3.34852877
  0
VERTEX
  8
0
 10
4.30428443
 20
3.34673425
  0
VERTEX
  8
0
 10
4.26973979
 20
3.35077193
  0
VERTEX
  8
0
 10
4.19392104
 20
3.34808014
  0
VERTEX
  8
0
 10
4.17821893
 20
3.31712456
  0
VERTEX
  8
0
 10
4.28005832
 20
3.32430266
  0
VERTEX
  8
0
 10
4.28409601
 20
3.32295677
  0
VERTEX
  8
0
 10
4.28319874
 20
3.31891908
  0
VERTEX
  8
0
 10
4.26839390
 20
3.29469297
  0
VERTEX
  8
0
 10
4.24596231
 20
3.23367906
  0
VERTEX
  8
0
 10
4.24192463
 20
3.23098727
  0
VERTEX
  8
0
 10
4.18360251
 20
3.23771675
  0
VERTEX
  8
0
 10
4.14681472
 20
3.23592222
  0
VERTEX
  8
0
 10
4.12931808
 20
3.20227485
  0
VERTEX
  8
0
 10
4.17148946
 20
3.20092895
  0
VERTEX
  8
0
 10
4.27153432
 20
3.21573380
  0
VERTEX
  8
0
 10
4.27557201
 20
3.21573380
  0
VERTEX
  8
0
 10
4.27602064
 20
3.21124748
  0
VERTEX
  8
0
 10
4.25044863
 20
3.11479167
  0
VERTEX
  8
0
 10
4.24641095
 20
3.11165125
  0
VERTEX
  8
0
 10
4.07593091
 20
3.12241841
  0
VERTEX
  8
0
 10
4.02703006
 20
3.11927799
  0
VERTEX
  8
0
 10
3.97633468
 20
3.11658620
  0
VERTEX
  8
0
 10
3.97274563
 20
3.11882936
  0
VERTEX
  8
0
 10
3.97454015
 20
3.12286704
  0
VERTEX
  8
0
 10
3.98216689
 20
3.13094241
  0
VERTEX
  8
0
 10
3.99652310
 20
3.15337400
  0
VERTEX
  8
0
 10
3.96736205
 20
3.14799042
  0
VERTEX
  8
0
 10
3.91173172
 20
3.16100073
  0
VERTEX
  8
0
 10
3.85610139
 20
3.17401105
  0
VERTEX
  8
0
 10
3.82110812
 20
3.16907610
  0
VERTEX
  8
0
 10
3.78611485
 20
3.16414116
  0
VERTEX
  8
0
 10
3.69863167
 20
3.18567548
  0
VERTEX
  8
0
 10
3.69683715
 20
3.18836727
  0
VERTEX
  8
0
 10
3.70132346
 20
3.19150769
  0
VERTEX
  8
0
 10
3.74394347
 20
3.18074053
  0
VERTEX
  8
0
 10
3.81258412
 20
3.20631253
  0
VERTEX
  8
0
 10
3.88122476
 20
3.23188454
  0
VERTEX
  8
0
 10
3.91532077
 20
3.22784685
  0
VERTEX
  8
0
 10
3.94851952
 20
3.22380917
  0
VERTEX
  8
0
 10
3.97768057
 20
3.23861401
  0
VERTEX
  8
0
 10
3.96478241
 20
3.25409181
  0
VERTEX
  8
0
 10
3.92608793
 20
3.25925107
  0
VERTEX
  8
0
 10
3.85251234
 20
3.24444622
  0
VERTEX
  8
0
 10
3.77803948
 20
3.22964138
  0
VERTEX
  8
0
 10
3.69728578
 20
3.24668938
  0
VERTEX
  8
0
 10
3.62281292
 20
3.26373739
  0
VERTEX
  8
0
 10
3.56942575
 20
3.24982981
  0
VERTEX
  8
0
 10
3.56493943
 20
3.25297023
  0
VERTEX
  8
0
 10
3.56673396
 20
3.25566202
  0
VERTEX
  8
0
 10
3.69010767
 20
3.27943950
  0
VERTEX
  8
0
 10
3.71882010
 20
3.27719634
  0
VERTEX
  8
0
 10
3.74753253
 20
3.27495318
  0
VERTEX
  8
0
 10
3.77882459
 20
3.28000029
  0
VERTEX
  8
0
 10
3.78925527
 20
3.29514160
  0
VERTEX
  8
0
 10
3.77904890
 20
3.30994645
  0
VERTEX
  8
0
 10
3.74842979
 20
3.31488140
  0
VERTEX
  8
0
 10
3.71612831
 20
3.31084371
  0
VERTEX
  8
0
 10
3.68472409
 20
3.30680603
  0
VERTEX
  8
0
 10
3.61877524
 20
3.32385403
  0
VERTEX
  8
0
 10
3.61698071
 20
3.32789172
  0
VERTEX
  8
0
 10
3.62101839
 20
3.32968624
  0
VERTEX
  8
0
 10
3.65152535
 20
3.32161087
  0
VERTEX
  8
0
 10
3.71523105
 20
3.34045340
  0
VERTEX
  8
0
 10
3.78252580
 20
3.35929593
  0
VERTEX
  8
0
 10
3.85699865
 20
3.33686435
  0
VERTEX
  8
0
 10
3.93147151
 20
3.31443277
  0
VERTEX
  8
0
 10
3.96276357
 20
3.32015282
  0
VERTEX
  8
0
 10
3.97319426
 20
3.33731298
  0
VERTEX
  8
0
 10
3.94403320
 20
3.36871720
  0
VERTEX
  8
0
 10
3.89109466
 20
3.37589531
  0
VERTEX
  8
0
 10
3.81179901
 20
3.38329773
  0
VERTEX
  8
0
 10
3.74080305
 20
3.40550500
  0
VERTEX
  8
0
 10
3.73900852
 20
3.40819679
  0
VERTEX
  8
0
 10
3.74349484
 20
3.41088858
  0
VERTEX
  8
0
 10
3.80047106
 20
3.39653236
  0
VERTEX
  8
0
 10
3.85206371
 20
3.40550500
  0
VERTEX
  8
0
 10
3.90365635
 20
3.41492626
  0
VERTEX
  8
0
 10
3.96287573
 20
3.40057005
  0
VERTEX
  8
0
 10
4.01940332
 20
3.38621383
  0
VERTEX
  8
0
 10
4.04228354
 20
3.39832689
  0
VERTEX
  8
0
 10
4.03162853
 20
3.41346821
  0
VERTEX
  8
0
 10
3.99966353
 20
3.42300163
  0
VERTEX
  8
0
 10
3.93192014
 20
3.43107700
  0
VERTEX
  8
0
 10
3.92922835
 20
3.43466605
  0
VERTEX
  8
0
 10
3.93281741
 20
3.43735784
  0
VERTEX
  8
0
 10
3.95300583
 20
3.43466605
  0
VERTEX
  8
0
 10
3.99024226
 20
3.44049827
  0
VERTEX
  8
0
 10
4.02747869
 20
3.44633048
  0
VERTEX
  8
0
 10
4.10733513
 20
3.44184416
  0
VERTEX
  8
0
 10
4.24013010
 20
3.43735784
  0
VERTEX
  8
0
 10
4.35363392
 20
3.44633048
  0
VERTEX
  8
0
 10
4.35722297
 20
3.44543321
  0
VERTEX
  8
0
 10
4.35722297
 20
3.44184416
  0
SEQEND
  0
POLYLINE
  8
Default_Layer
 66
   1
 39
0.000000
 70
    1
  0
VERTEX
  8
0
 10
5.26839390
 20
3.44139553
  0
VERTEX
  8
0
 10
5.24955137
 20
3.41223447
  0
VERTEX
  8
0
 10
5.21859578
 20
3.34359382
  0
VERTEX
  8
0
 10
5.21545536
 20
3.34135067
  0
VERTEX
  8
0
 10
5.10105428
 20
3.33731298
  0
VERTEX
  8
0
 10
5.09118439
 20
3.31488140
  0
VERTEX
  8
0
 10
5.19167788
 20
3.31533003
  0
VERTEX
  8
0
 10
5.19571557
 20
3.31398413
  0
VERTEX
  8
0
 10
5.19526694
 20
3.31039508
  0
VERTEX
  8
0
 10
5.18001346
 20
3.28257992
  0
VERTEX
  8
0
 10
5.15578735
 20
3.21887422
  0
VERTEX
  8
0
 10
5.15219830
 20
3.21663106
  0
VERTEX
  8
0
 10
5.09342755
 20
3.21977148
  0
VERTEX
  8
0
 10
5.05439659
 20
3.21797696
  0
VERTEX
  8
0
 10
5.02613279
 20
3.13722326
  0
VERTEX
  8
0
 10
5.03286227
 20
3.12196978
  0
VERTEX
  8
0
 10
5.03286227
 20
3.11838072
  0
VERTEX
  8
0
 10
5.02972185
 20
3.11703483
  0
VERTEX
  8
0
 10
4.87270076
 20
3.11793209
  0
VERTEX
  8
0
 10
4.86956034
 20
3.12062388
  0
VERTEX
  8
0
 10
4.87225213
 20
3.12421294
  0
VERTEX
  8
0
 10
4.89513235
 20
3.13632599
  0
VERTEX
  8
0
 10
4.90545087
 20
3.15965484
  0
VERTEX
  8
0
 10
4.87359803
 20
3.17401105
  0
VERTEX
  8
0
 10
4.81213549
 20
3.15786031
  0
VERTEX
  8
0
 10
4.75067295
 20
3.14170957
  0
VERTEX
  8
0
 10
4.70715568
 20
3.14754178
  0
VERTEX
  8
0
 10
4.66453567
 20
3.15337400
  0
VERTEX
  8
0
 10
4.61922387
 20
3.13991505
  0
VERTEX
  8
0
 10
4.61428892
 20
3.14260684
  0
VERTEX
  8
0
 10
4.61653208
 20
3.14529863
  0
VERTEX
  8
0
 10
4.67261104
 20
3.16279526
  0
VERTEX
  8
0
 10
4.72061463
 20
3.16683295
  0
VERTEX
  8
0
 10
4.74663526
 20
3.19464811
  0
VERTEX
  8
0
 10
4.73194258
 20
3.21281769
  0
VERTEX
  8
0
 10
4.68786451
 20
3.21887422
  0
VERTEX
  8
0
 10
4.65870345
 20
3.21842559
  0
VERTEX
  8
0
 10
4.63313145
 20
3.21797696
  0
VERTEX
  8
0
 10
4.57794975
 20
3.22470643
  0
VERTEX
  8
0
 10
4.52501122
 20
3.24489486
  0
VERTEX
  8
0
 10
4.52321669
 20
3.24893254
  0
VERTEX
  8
0
 10
4.52725437
 20
3.25072707
  0
VERTEX
  8
0
 10
4.57839838
 20
3.23816538
  0
VERTEX
  8
0
 10
4.64344998
 20
3.25072707
  0
VERTEX
  8
0
 10
4.70939883
 20
3.26328876
  0
VERTEX
  8
0
 10
4.77489906
 20
3.25790518
  0
VERTEX
  8
0
 10
4.84039928
 20
3.25252160
  0
VERTEX
  8
0
 10
4.87438313
 20
3.25846596
  0
VERTEX
  8
0
 10
4.88571108
 20
3.27629907
  0
VERTEX
  8
0
 10
4.86283087
 20
3.30501150
  0
VERTEX
  8
0
 10
4.81707044
 20
3.31218961
  0
VERTEX
  8
0
 10
4.75785105
 20
3.30501150
  0
VERTEX
  8
0
 10
4.69773441
 20
3.29783339
  0
VERTEX
  8
0
 10
4.62146703
 20
3.30904919
  0
VERTEX
  8
0
 10
4.61922387
 20
3.31263824
  0
VERTEX
  8
0
 10
4.62281292
 20
3.31533003
  0
VERTEX
  8
0
 10
4.65376851
 20
3.31353550
  0
VERTEX
  8
0
 10
4.70323015
 20
3.32105008
  0
VERTEX
  8
0
 10
4.71971736
 20
3.34359382
  0
VERTEX
  8
0
 10
4.70861373
 20
3.35974457
  0
VERTEX
  8
0
 10
4.67530283
 20
3.36512815
  0
VERTEX
  8
0
 10
4.60262450
 20
3.35436098
  0
VERTEX
  8
0
 10
4.52770301
 20
3.34583698
  0
VERTEX
  8
0
 10
4.52501122
 20
3.34897740
  0
VERTEX
  8
0
 10
4.52815164
 20
3.35211783
  0
VERTEX
  8
0
 10
4.59544639
 20
3.36378225
  0
VERTEX
  8
0
 10
4.64389861
 20
3.38621383
  0
VERTEX
  8
0
 10
4.70042620
 20
3.39877552
  0
VERTEX
  8
0
 10
4.79643338
 20
3.37993299
  0
VERTEX
  8
0
 10
4.89333782
 20
3.36109046
  0
VERTEX
  8
0
 10
4.93102288
 20
3.36378225
  0
VERTEX
  8
0
 10
4.95210857
 20
3.38486794
  0
VERTEX
  8
0
 10
4.94212651
 20
3.39967278
  0
VERTEX
  8
0
 10
4.91218035
 20
3.40460773
  0
VERTEX
  8
0
 10
4.89244056
 20
3.40371047
  0
VERTEX
  8
0
 10
4.87270076
 20
3.40281321
  0
VERTEX
  8
0
 10
4.82335128
 20
3.41043994
  0
VERTEX
  8
0
 10
4.77848811
 20
3.43287153
  0
VERTEX
  8
0
 10
4.77624495
 20
3.43646058
  0
VERTEX
  8
0
 10
4.78162853
 20
3.43915237
  0
VERTEX
  8
0
 10
4.82335128
 20
3.42748795
  0
VERTEX
  8
0
 10
4.87225213
 20
3.43690921
  0
VERTEX
  8
0
 10
4.92115298
 20
3.44633048
  0
VERTEX
  8
0
 10
4.99248542
 20
3.44094690
  0
VERTEX
  8
0
 10
5.06292059
 20
3.43556332
  0
VERTEX
  8
0
 10
5.26480485
 20
3.44633048
  0
VERTEX
  8
0
 10
5.26884253
 20
3.44543321
  0
VERTEX
  8
0
 10
5.26839390
 20
3.44139553
  0
SEQEND
  0
POLYLINE
  8
Default_Layer
 66
   1
 39
0.000000
 70
    1
  0
VERTEX
  8
0
 10
6.10195155
 20
3.43376879
  0
VERTEX
  8
0
 10
6.05529385
 20
3.33596709
  0
VERTEX
  8
0
 10
6.05125617
 20
3.33417256
  0
VERTEX
  8
0
 10
5.99786900
 20
3.34179930
  0
VERTEX
  8
0
 10
5.91576940
 20
3.32071361
  0
VERTEX
  8
0
 10
5.88178555
 20
3.29390787
  0
VERTEX
  8
0
 10
5.87045760
 20
3.26194286
  0
VERTEX
  8
0
 10
5.88470166
 20
3.22885627
  0
VERTEX
  8
0
 10
5.92743383
 20
3.20945295
  0
VERTEX
  8
0
 10
5.93326604
 20
3.22829548
  0
VERTEX
  8
0
 10
5.92608793
 20
3.23906264
  0
VERTEX
  8
0
 10
5.91128309
 20
3.24220307
  0
VERTEX
  8
0
 10
5.90814266
 20
3.24489486
  0
VERTEX
  8
0
 10
5.91083445
 20
3.24848391
  0
VERTEX
  8
0
 10
5.93236878
 20
3.25207296
  0
VERTEX
  8
0
 10
5.94493046
 20
3.26328876
  0
VERTEX
  8
0
 10
5.91621803
 20
3.27943950
  0
VERTEX
  8
0
 10
5.89872140
 20
3.27764497
  0
VERTEX
  8
0
 10
5.89468371
 20
3.27988813
  0
VERTEX
  8
0
 10
5.89692687
 20
3.28392581
  0
VERTEX
  8
0
 10
5.94717362
 20
3.29244981
  0
VERTEX
  8
0
 10
5.98351279
 20
3.29020666
  0
VERTEX
  8
0
 10
6.02030058
 20
3.28841213
  0
VERTEX
  8
0
 10
6.06650965
 20
3.29738476
  0
VERTEX
  8
0
 10
6.07099596
 20
3.29648750
  0
VERTEX
  8
0
 10
6.07054733
 20
3.29244981
  0
VERTEX
  8
0
 10
6.02523553
 20
3.20620037
  0
VERTEX
  8
0
 10
6.00594437
 20
3.11882936
  0
VERTEX
  8
0
 10
6.00190668
 20
3.11568893
  0
VERTEX
  8
0
 10
5.93864962
 20
3.12645609
  0
VERTEX
  8
0
 10
5.88167340
 20
3.11972662
  0
VERTEX
  8
0
 10
5.82559444
 20
3.11299714
  0
VERTEX
  8
0
 10
5.76861821
 20
3.13273694
  0
VERTEX
  8
0
 10
5.74304621
 20
3.16952474
  0
VERTEX
  8
0
 10
5.72599821
 20
3.18926453
  0
VERTEX
  8
0
 10
5.66902198
 20
3.17221653
  0
VERTEX
  8
0
 10
5.59410049
 20
3.15516852
  0
VERTEX
  8
0
 10
5.52276806
 20
3.16997337
  0
VERTEX
  8
0
 10
5.52052490
 20
3.17266516
  0
VERTEX
  8
0
 10
5.52545985
 20
3.17580558
  0
VERTEX
  8
0
 10
5.57166891
 20
3.16907610
  0
VERTEX
  8
0
 10
5.59993271
 20
3.17670284
  0
VERTEX
  8
0
 10
5.61249439
 20
3.19823716
  0
VERTEX
  8
0
 10
5.59802602
 20
3.21775264
  0
VERTEX
  8
0
 10
5.55462091
 20
3.22425780
  0
VERTEX
  8
0
 10
5.53174069
 20
3.22336054
  0
VERTEX
  8
0
 10
5.50886048
 20
3.22246327
  0
VERTEX
  8
0
 10
5.42003140
 20
3.23995991
  0
VERTEX
  8
0
 10
5.41823688
 20
3.24265170
  0
VERTEX
  8
0
 10
5.42362046
 20
3.24624075
  0
VERTEX
  8
0
 10
5.45412741
 20
3.23726812
  0
VERTEX
  8
0
 10
5.50975774
 20
3.25117570
  0
VERTEX
  8
0
 10
5.57166891
 20
3.26508328
  0
VERTEX
  8
0
 10
5.62550471
 20
3.25745654
  0
VERTEX
  8
0
 10
5.67934051
 20
3.24982981
  0
VERTEX
  8
0
 10
5.71388515
 20
3.25835381
  0
VERTEX
  8
0
 10
5.73183042
 20
3.28437444
  0
VERTEX
  8
0
 10
5.72139973
 20
3.29783339
  0
VERTEX
  8
0
 10
5.69010767
 20
3.30231971
  0
VERTEX
  8
0
 10
5.63627187
 20
3.29469297
  0
VERTEX
  8
0
 10
5.58243607
 20
3.28706623
  0
VERTEX
  8
0
 10
5.53308659
 20
3.29603887
  0
VERTEX
  8
0
 10
5.48463437
 20
3.30501150
  0
VERTEX
  8
0
 10
5.45323015
 20
3.30097382
  0
VERTEX
  8
0
 10
5.44919246
 20
3.30321697
  0
VERTEX
  8
0
 10
5.45143562
 20
3.30725466
  0
VERTEX
  8
0
 10
5.49270974
 20
3.31353550
  0
VERTEX
  8
0
 10
5.51917900
 20
3.31174098
  0
VERTEX
  8
0
 10
5.54564827
 20
3.30994645
  0
VERTEX
  8
0
 10
5.57346344
 20
3.31443277
  0
VERTEX
  8
0
 10
5.58737102
 20
3.33103214
  0
VERTEX
  8
0
 10
5.56796770
 20
3.35929593
  0
VERTEX
  8
0
 10
5.50975774
 20
3.36871720
  0
VERTEX
  8
0
 10
5.47925079
 20
3.36288499
  0
VERTEX
  8
0
 10
5.47521310
 20
3.36467951
  0
VERTEX
  8
0
 10
5.47700763
 20
3.36871720
  0
VERTEX
  8
0
 10
5.53936743
 20
3.38531657
  0
VERTEX
  8
0
 10
5.59634365
 20
3.37544667
  0
VERTEX
  8
0
 10
5.65152535
 20
3.36557678
  0
VERTEX
  8
0
 10
5.68606999
 20
3.37948436
  0
VERTEX
  8
0
 10
5.66184388
 20
3.40191594
  0
VERTEX
  8
0
 10
5.61025123
 20
3.40954268
  0
VERTEX
  8
0
 10
5.56224764
 20
3.41672079
  0
VERTEX
  8
0
 10
5.56000449
 20
3.42075847
  0
VERTEX
  8
0
 10
5.56449080
 20
3.42300163
  0
VERTEX
  8
0
 10
5.59140870
 20
3.41851531
  0
VERTEX
  8
0
 10
5.63043966
 20
3.42255300
  0
VERTEX
  8
0
 10
5.66947061
 20
3.42659068
  0
VERTEX
  8
0
 10
5.73541947
 20
3.41223447
  0
VERTEX
  8
0
 10
5.79329296
 20
3.39787826
  0
VERTEX
  8
0
 10
5.80047106
 20
3.40146731
  0
VERTEX
  8
0
 10
5.80361148
 20
3.40909405
  0
VERTEX
  8
0
 10
5.77848811
 20
3.43152563
  0
VERTEX
  8
0
 10
5.74170031
 20
3.44004963
  0
VERTEX
  8
0
 10
5.73855989
 20
3.44319006
  0
VERTEX
  8
0
 10
5.74170031
 20
3.44633048
  0
VERTEX
  8
0
 10
5.75650516
 20
3.44812500
  0
VERTEX
  8
0
 10
5.81393001
 20
3.44004963
  0
VERTEX
  8
0
 10
5.87135487
 20
3.43197426
  0
VERTEX
  8
0
 10
5.91666667
 20
3.43646058
  0
VERTEX
  8
0
 10
5.96197847
 20
3.44094690
  0
VERTEX
  8
0
 10
6.00818753
 20
3.43735784
  0
VERTEX
  8
0
 10
6.05484522
 20
3.43376879
  0
VERTEX
  8
0
 10
6.09836249
 20
3.43825511
  0
VERTEX
  8
0
 10
6.10195155
 20
3.43735784
  0
VERTEX
  8
0
 10
6.10195155
 20
3.43376879
  0
SEQEND
  0
POLYLINE
  8
Default_Layer
 66
   1
 39
0.000000
 70
    1
  0
VERTEX
  8
0
 10
7.05574249
 20
3.44319006
  0
VERTEX
  8
0
 10
7.01222521
 20
3.36288499
  0
VERTEX
  8
0
 10
6.97095110
 20
3.23188454
  0
VERTEX
  8
0
 10
6.95255720
 20
3.15247673
  0
VERTEX
  8
0
 10
6.95973531
 20
3.12286704
  0
VERTEX
  8
0
 10
6.95973531
 20
3.11972662
  0
VERTEX
  8
0
 10
6.95614625
 20
3.11882936
  0
VERTEX
  8
0
 10
6.87673845
 20
3.12107251
  0
VERTEX
  8
0
 10
6.80495738
 20
3.12107251
  0
VERTEX
  8
0
 10
6.80136833
 20
3.12196978
  0
VERTEX
  8
0
 10
6.80181696
 20
3.12555883
  0
VERTEX
  8
0
 10
6.81976223
 20
3.15920621
  0
VERTEX
  8
0
 10
6.84219381
 20
3.23188454
  0
VERTEX
  8
0
 10
6.79822790
 20
3.23278180
  0
VERTEX
  8
0
 10
6.76727232
 20
3.14440136
  0
VERTEX
  8
0
 10
6.77041274
 20
3.12286704
  0
VERTEX
  8
0
 10
6.76996411
 20
3.11972662
  0
VERTEX
  8
0
 10
6.76682369
 20
3.11882936
  0
VERTEX
  8
0
 10
6.66947061
 20
3.12107251
  0
VERTEX
  8
0
 10
6.61967250
 20
3.11882936
  0
VERTEX
  8
0
 10
6.61563481
 20
3.12062388
  0
VERTEX
  8
0
 10
6.61698071
 20
3.12421294
  0
VERTEX
  8
0
 10
6.63672050
 20
3.15023357
  0
VERTEX
  8
0
 10
6.59903544
 20
3.14395273
  0
VERTEX
  8
0
 10
6.56090175
 20
3.14978494
  0
VERTEX
  8
0
 10
6.52321669
 20
3.15741168
  0
VERTEX
  8
0
 10
6.49091521
 20
3.14754178
  0
VERTEX
  8
0
 10
6.48912068
 20
3.14709315
  0
VERTEX
  8
0
 10
6.48598026
 20
3.15023357
  0
VERTEX
  8
0
 10
6.48777479
 20
3.15337400
  0
VERTEX
  8
0
 10
6.53353522
 20
3.16593568
  0
VERTEX
  8
0
 10
6.58064154
 20
3.17311379
  0
VERTEX
  8
0
 10
6.60262450
 20
3.19419948
  0
VERTEX
  8
0
 10
6.59499776
 20
3.20496664
  0
VERTEX
  8
0
 10
6.58109017
 20
3.20586390
  0
VERTEX
  8
0
 10
6.53174069
 20
3.19644264
  0
VERTEX
  8
0
 10
6.48194258
 20
3.18702137
  0
VERTEX
  8
0
 10
6.42631225
 20
3.20317211
  0
VERTEX
  8
0
 10
6.36978466
 20
3.21932285
  0
VERTEX
  8
0
 10
6.33120233
 20
3.21438790
  0
VERTEX
  8
0
 10
6.32671602
 20
3.21663106
  0
VERTEX
  8
0
 10
6.32895917
 20
3.22066875
  0
VERTEX
  8
0
 10
6.38144908
 20
3.23053864
  0
VERTEX
  8
0
 10
6.41823688
 20
3.22784685
  0
VERTEX
  8
0
 10
6.45502467
 20
3.22560369
  0
VERTEX
  8
0
 10
6.48126963
 20
3.23009001
  0
VERTEX
  8
0
 10
6.49001795
 20
3.24354896
  0
VERTEX
  8
0
 10
6.47173620
 20
3.26575623
  0
VERTEX
  8
0
 10
6.41689098
 20
3.27315865
  0
VERTEX
  8
0
 10
6.39266487
 20
3.27226139
  0
VERTEX
  8
0
 10
6.36754150
 20
3.27181276
  0
VERTEX
  8
0
 10
6.29082548
 20
3.28886076
  0
VERTEX
  8
0
 10
6.28903096
 20
3.29155255
  0
VERTEX
  8
0
 10
6.29172275
 20
3.29469297
  0
VERTEX
  8
0
 10
6.29351727
 20
3.29424434
  0
VERTEX
  8
0
 10
6.32537012
 20
3.28661760
  0
VERTEX
  8
0
 10
6.38952445
 20
3.30187108
  0
VERTEX
  8
0
 10
6.45457604
 20
3.31757319
  0
VERTEX
  8
0
 10
6.53622701
 20
3.29828203
  0
VERTEX
  8
0
 10
6.61742934
 20
3.27899086
  0
VERTEX
  8
0
 10
6.65746972
 20
3.28583250
  0
VERTEX
  8
0
 10
6.67081651
 20
3.30635740
  0
VERTEX
  8
0
 10
6.63941229
 20
3.31981635
  0
VERTEX
  8
0
 10
6.61025123
 20
3.31622729
  0
VERTEX
  8
0
 10
6.58153881
 20
3.31308687
  0
VERTEX
  8
0
 10
6.51738448
 20
3.33596709
  0
VERTEX
  8
0
 10
6.44874383
 20
3.35884730
  0
VERTEX
  8
0
 10
6.40836698
 20
3.35301509
  0
VERTEX
  8
0
 10
6.37157918
 20
3.34269656
  0
VERTEX
  8
0
 10
6.36754150
 20
3.34538835
  0
VERTEX
  8
0
 10
6.37023329
 20
3.34897740
  0
VERTEX
  8
0
 10
6.41554509
 20
3.36512815
  0
VERTEX
  8
0
 10
6.46848362
 20
3.37768983
  0
VERTEX
  8
0
 10
6.48553163
 20
3.37679257
  0
VERTEX
  8
0
 10
6.50437416
 20
3.37589531
  0
VERTEX
  8
0
 10
6.53847017
 20
3.38890562
  0
VERTEX
  8
0
 10
6.52007627
 20
3.41088858
  0
VERTEX
  8
0
 10
6.48373710
 20
3.41986121
  0
VERTEX
  8
0
 10
6.46624047
 20
3.41582352
  0
VERTEX
  8
0
 10
6.46220278
 20
3.41761805
  0
VERTEX
  8
0
 10
6.46399731
 20
3.42210437
  0
VERTEX
  8
0
 10
6.50257963
 20
3.42838521
  0
VERTEX
  8
0
 10
6.58109017
 20
3.40595363
  0
VERTEX
  8
0
 10
6.66094661
 20
3.38352204
  0
VERTEX
  8
0
 10
6.68786451
 20
3.39428920
  0
VERTEX
  8
0
 10
6.66801256
 20
3.41851531
  0
VERTEX
  8
0
 10
6.60845671
 20
3.42659068
  0
VERTEX
  8
0
 10
6.59724092
 20
3.42479616
  0
VERTEX
  8
0
 10
6.59365186
 20
3.42748795
  0
VERTEX
  8
0
 10
6.59634365
 20
3.43107700
  0
VERTEX
  8
0
 10
6.66498430
 20
3.44004963
  0
VERTEX
  8
0
 10
6.72151189
 20
3.43825511
  0
VERTEX
  8
0
 10
6.77803948
 20
3.43646058
  0
VERTEX
  8
0
 10
6.86283087
 20
3.44184416
  0
VERTEX
  8
0
 10
6.86641992
 20
3.44049827
  0
VERTEX
  8
0
 10
6.86641992
 20
3.43690921
  0
VERTEX
  8
0
 10
6.82918349
 20
3.33327530
  0
VERTEX
  8
0
 10
6.87628982
 20
3.33462119
  0
VERTEX
  8
0
 10
6.88346792
 20
3.35615551
  0
VERTEX
  8
0
 10
6.87584118
 20
3.36198772
  0
VERTEX
  8
0
 10
6.86641992
 20
3.36019320
  0
VERTEX
  8
0
 10
6.86193360
 20
3.35884730
  0
VERTEX
  8
0
 10
6.85879318
 20
3.36198772
  0
VERTEX
  8
0
 10
6.86058771
 20
3.36467951
  0
VERTEX
  8
0
 10
6.89221624
 20
3.38643815
  0
VERTEX
  8
0
 10
6.90275908
 20
3.41313173
  0
VERTEX
  8
0
 10
6.89602961
 20
3.42703932
  0
VERTEX
  8
0
 10
6.89513235
 20
3.43107700
  0
VERTEX
  8
0
 10
6.89917003
 20
3.43242290
  0
VERTEX
  8
0
 10
6.93236878
 20
3.43152563
  0
VERTEX
  8
0
 10
7.05215343
 20
3.44947090
  0
VERTEX
  8
0
 10
7.05753701
 20
3.44588185
  0
VERTEX
  8
0
 10
7.05574249
 20
3.44319006
  0
SEQEND
  0
POLYLINE
  8
Default_Layer
 66
   1
 39
0.000000
 70
    1
  0
VERTEX
  8
0
 10
7.83097802
 20
3.43151161
  0
VERTEX
  8
0
 10
7.79149843
 20
3.37185762
  0
VERTEX
  8
0
 10
7.76054284
 20
3.28392581
  0
VERTEX
  8
0
 10
7.73452221
 20
3.21304201
  0
VERTEX
  8
0
 10
7.72240915
 20
3.15427126
  0
VERTEX
  8
0
 10
7.73227905
 20
3.12152115
  0
VERTEX
  8
0
 10
7.73227905
 20
3.11793209
  0
VERTEX
  8
0
 10
7.72913863
 20
3.11703483
  0
VERTEX
  8
0
 10
7.65421714
 20
3.11927799
  0
VERTEX
  8
0
 10
7.57077165
 20
3.11703483
  0
VERTEX
  8
0
 10
7.56718259
 20
3.11838072
  0
VERTEX
  8
0
 10
7.56763122
 20
3.12196978
  0
VERTEX
  8
0
 10
7.59320323
 20
3.15516852
  0
VERTEX
  8
0
 10
7.58423060
 20
3.15606579
  0
VERTEX
  8
0
 10
7.54340511
 20
3.14664452
  0
VERTEX
  8
0
 10
7.50257963
 20
3.13722326
  0
VERTEX
  8
0
 10
7.47655900
 20
3.14036368
  0
VERTEX
  8
0
 10
7.45008973
 20
3.14350410
  0
VERTEX
  8
0
 10
7.43259309
 20
3.14081231
  0
VERTEX
  8
0
 10
7.42855541
 20
3.14305547
  0
VERTEX
  8
0
 10
7.43079856
 20
3.14664452
  0
VERTEX
  8
0
 10
7.44246299
 20
3.15023357
  0
VERTEX
  8
0
 10
7.45412741
 20
3.15247673
  0
VERTEX
  8
0
 10
7.48014805
 20
3.15427126
  0
VERTEX
  8
0
 10
7.49540153
 20
3.16907610
  0
VERTEX
  8
0
 10
7.46893226
 20
3.18298369
  0
VERTEX
  8
0
 10
7.43259309
 20
3.17625421
  0
VERTEX
  8
0
 10
7.39535666
 20
3.16952474
  0
VERTEX
  8
0
 10
7.32581875
 20
3.18208642
  0
VERTEX
  8
0
 10
7.32357559
 20
3.18612411
  0
VERTEX
  8
0
 10
7.32716465
 20
3.18836727
  0
VERTEX
  8
0
 10
7.35004486
 20
3.18477821
  0
VERTEX
  8
0
 10
7.42586362
 20
3.20676116
  0
VERTEX
  8
0
 10
7.50302826
 20
3.22874412
  0
VERTEX
  8
0
 10
7.53847017
 20
3.22515506
  0
VERTEX
  8
0
 10
7.57122028
 20
3.22201464
  0
VERTEX
  8
0
 10
7.59589502
 20
3.23367906
  0
VERTEX
  8
0
 10
7.58378197
 20
3.25016628
  0
VERTEX
  8
0
 10
7.54744280
 20
3.25566202
  0
VERTEX
  8
0
 10
7.46579183
 20
3.24175443
  0
VERTEX
  8
0
 10
7.38189771
 20
3.22829548
  0
VERTEX
  8
0
 10
7.31460296
 20
3.24175443
  0
VERTEX
  8
0
 10
7.24865410
 20
3.25566202
  0
VERTEX
  8
0
 10
7.18539704
 20
3.23726812
  0
VERTEX
  8
0
 10
7.18001346
 20
3.24040854
  0
VERTEX
  8
0
 10
7.18180799
 20
3.24310033
  0
VERTEX
  8
0
 10
7.23564379
 20
3.26642918
  0
VERTEX
  8
0
 10
7.29306864
 20
3.27450455
  0
VERTEX
  8
0
 10
7.33344549
 20
3.27226139
  0
VERTEX
  8
0
 10
7.37337371
 20
3.27001823
  0
VERTEX
  8
0
 10
7.40791835
 20
3.27764497
  0
VERTEX
  8
0
 10
7.42451772
 20
3.30231971
  0
VERTEX
  8
0
 10
7.41229251
 20
3.32015282
  0
VERTEX
  8
0
 10
7.37561687
 20
3.32609719
  0
VERTEX
  8
0
 10
7.34062360
 20
3.32295677
  0
VERTEX
  8
0
 10
7.30518170
 20
3.32026498
  0
VERTEX
  8
0
 10
7.25897263
 20
3.33103214
  0
VERTEX
  8
0
 10
7.25672948
 20
3.33506982
  0
VERTEX
  8
0
 10
7.26076716
 20
3.33731298
  0
VERTEX
  8
0
 10
7.30697622
 20
3.33058351
  0
VERTEX
  8
0
 10
7.36933603
 20
3.34538835
  0
VERTEX
  8
0
 10
7.43079856
 20
3.36109046
  0
VERTEX
  8
0
 10
7.50616869
 20
3.34000477
  0
VERTEX
  8
0
 10
7.57884702
 20
3.31891908
  0
VERTEX
  8
0
 10
7.61384029
 20
3.32407835
  0
VERTEX
  8
0
 10
7.62550471
 20
3.33955614
  0
VERTEX
  8
0
 10
7.61630776
 20
3.35469746
  0
VERTEX
  8
0
 10
7.58871691
 20
3.35974457
  0
VERTEX
  8
0
 10
7.56493943
 20
3.35750141
  0
VERTEX
  8
0
 10
7.54026469
 20
3.35570688
  0
VERTEX
  8
0
 10
7.48194258
 20
3.37544667
  0
VERTEX
  8
0
 10
7.42272319
 20
3.39473784
  0
VERTEX
  8
0
 10
7.40208614
 20
3.39339194
  0
VERTEX
  8
0
 10
7.39804845
 20
3.39563510
  0
VERTEX
  8
0
 10
7.40029161
 20
3.39967278
  0
VERTEX
  8
0
 10
7.44470615
 20
3.40864542
  0
VERTEX
  8
0
 10
7.49450426
 20
3.39967278
  0
VERTEX
  8
0
 10
7.54430238
 20
3.39070015
  0
VERTEX
  8
0
 10
7.56785554
 20
3.39507431
  0
VERTEX
  8
0
 10
7.57570659
 20
3.40819679
  0
VERTEX
  8
0
 10
7.56269628
 20
3.42659068
  0
VERTEX
  8
0
 10
7.53622701
 20
3.43152563
  0
VERTEX
  8
0
 10
7.51155227
 20
3.42973111
  0
VERTEX
  8
0
 10
7.48642889
 20
3.42793658
  0
VERTEX
  8
0
 10
7.44784657
 20
3.43646058
  0
VERTEX
  8
0
 10
7.44560341
 20
3.44004963
  0
VERTEX
  8
0
 10
7.44829520
 20
3.44274142
  0
VERTEX
  8
0
 10
7.45008973
 20
3.44229279
  0
VERTEX
  8
0
 10
7.47566173
 20
3.43556332
  0
VERTEX
  8
0
 10
7.52770301
 20
3.44453595
  0
VERTEX
  8
0
 10
7.58064154
 20
3.45350858
  0
VERTEX
  8
0
 10
7.65780619
 20
3.44229279
  0
VERTEX
  8
0
 10
7.73407358
 20
3.43107700
  0
VERTEX
  8
0
 10
7.82873486
 20
3.43735784
  0
VERTEX
  8
0
 10
7.83277254
 20
3.43511469
  0
VERTEX
  8
0
 10
7.83097802
 20
3.43107700
  0
VERTEX
  8
0
 10
7.83097802
 20
3.43151161
  0
SEQEND
  0
POLYLINE
  8
Default_Layer
 66
   1
 39
0.000000
 70
    1
  0
VERTEX
  8
0
 10
7.37606550
 20
3.38755973
  0
VERTEX
  8
0
 10
7.33434275
 20
3.37724120
  0
VERTEX
  8
0
 10
7.30293854
 20
3.38576520
  0
VERTEX
  8
0
 10
7.26929116
 20
3.39473784
  0
VERTEX
  8
0
 10
7.25269179
 20
3.39473784
  0
VERTEX
  8
0
 10
7.24865410
 20
3.39608373
  0
VERTEX
  8
0
 10
7.24955137
 20
3.39967278
  0
VERTEX
  8
0
 10
7.29576043
 20
3.41178584
  0
VERTEX
  8
0
 10
7.32716465
 20
3.40146731
  0
VERTEX
  8
0
 10
7.35677434
 20
3.39159741
  0
VERTEX
  8
0
 10
7.37427097
 20
3.39294331
  0
VERTEX
  8
0
 10
7.37741140
 20
3.39114878
  0
VERTEX
  8
0
 10
7.37606550
 20
3.38755973
  0
SEQEND
  0
POLYLINE
  8
Default_Layer
 66
   1
 39
0.000000
 70
    1
  0
VERTEX
  8
0
 10
0.66453567
 20
2.90707521
  0
VERTEX
  8
0
 10
0.63358008
 20
2.84336951
  0
VERTEX
  8
0
 10
0.60172723
 20
2.73883833
  0
VERTEX
  8
0
 10
0.57458502
 20
2.67434753
  0
VERTEX
  8
0
 10
0.53802153
 20
2.62443725
  0
VERTEX
  8
0
 10
0.48743831
 20
2.58809809
  0
VERTEX
  8
0
 10
0.42900404
 20
2.57598503
  0
VERTEX
  8
0
 10
0.33658591
 20
2.60155704
  0
VERTEX
  8
0
 10
0.24506505
 20
2.62712904
  0
VERTEX
  8
0
 10
0.19033199
 20
2.61501599
  0
VERTEX
  8
0
 10
0.18629430
 20
2.61636188
  0
VERTEX
  8
0
 10
0.18764020
 20
2.62084820
  0
VERTEX
  8
0
 10
0.24955137
 20
2.64372841
  0
VERTEX
  8
0
 10
0.30607896
 20
2.65135515
  0
VERTEX
  8
0
 10
0.33075370
 20
2.67199221
  0
VERTEX
  8
0
 10
0.32211754
 20
2.68747000
  0
VERTEX
  8
0
 10
0.29620906
 20
2.69262927
  0
VERTEX
  8
0
 10
0.25628084
 20
2.68365663
  0
VERTEX
  8
0
 10
0.21635262
 20
2.67468400
  0
VERTEX
  8
0
 10
0.15937640
 20
2.69666695
  0
VERTEX
  8
0
 10
0.10150292
 20
2.71909854
  0
VERTEX
  8
0
 10
0.07548228
 20
2.71371496
  0
VERTEX
  8
0
 10
0.07144459
 20
2.71550948
  0
VERTEX
  8
0
 10
0.07368775
 20
2.71999580
  0
VERTEX
  8
0
 10
0.10105428
 20
2.72717391
  0
VERTEX
  8
0
 10
0.14950651
 20
2.71640675
  0
VERTEX
  8
0
 10
0.19885599
 20
2.70563959
  0
VERTEX
  8
0
 10
0.22106326
 20
2.71001374
  0
VERTEX
  8
0
 10
0.22846568
 20
2.72313622
  0
VERTEX
  8
0
 10
0.20838941
 20
2.74500701
  0
VERTEX
  8
0
 10
0.14816061
 20
2.75229728
  0
VERTEX
  8
0
 10
0.08411844
 20
2.76250365
  0
VERTEX
  8
0
 10
0.03734859
 20
2.79312276
  0
VERTEX
  8
0
 10
0.03600269
 20
2.79581455
  0
VERTEX
  8
0
 10
0.03914311
 20
2.79895497
  0
VERTEX
  8
0
 10
0.04183490
 20
2.79760908
  0
VERTEX
  8
0
 10
0.10195155
 20
2.77742065
  0
VERTEX
  8
0
 10
0.16834904
 20
2.78459876
  0
VERTEX
  8
0
 10
0.23609242
 20
2.79222550
  0
VERTEX
  8
0
 10
0.30742485
 20
2.77158844
  0
VERTEX
  8
0
 10
0.36484971
 20
2.73390338
  0
VERTEX
  8
0
 10
0.41554509
 20
2.71326632
  0
VERTEX
  8
0
 10
0.44694930
 20
2.72896843
  0
VERTEX
  8
0
 10
0.46848362
 20
2.76575623
  0
VERTEX
  8
0
 10
0.45278152
 20
2.76710212
  0
VERTEX
  8
0
 10
0.42586362
 20
2.76441033
  0
VERTEX
  8
0
 10
0.39984298
 20
2.76171854
  0
VERTEX
  8
0
 10
0.35722297
 20
2.77383160
  0
VERTEX
  8
0
 10
0.32267833
 20
2.80254403
  0
VERTEX
  8
0
 10
0.32133244
 20
2.80523582
  0
VERTEX
  8
0
 10
0.32447286
 20
2.80837624
  0
VERTEX
  8
0
 10
0.32716465
 20
2.80747898
  0
VERTEX
  8
0
 10
0.36754150
 20
2.78908508
  0
VERTEX
  8
0
 10
0.38638403
 20
2.80119813
  0
VERTEX
  8
0
 10
0.36260655
 20
2.82228382
  0
VERTEX
  8
0
 10
0.30966801
 20
2.83349961
  0
VERTEX
  8
0
 10
0.25269179
 20
2.85952025
  0
VERTEX
  8
0
 10
0.25134590
 20
2.86221204
  0
VERTEX
  8
0
 10
0.25493495
 20
2.86580109
  0
VERTEX
  8
0
 10
0.25672948
 20
2.86535246
  0
VERTEX
  8
0
 10
0.32895917
 20
2.84426677
  0
VERTEX
  8
0
 10
0.35722297
 20
2.84650993
  0
VERTEX
  8
0
 10
0.38548677
 20
2.84920172
  0
VERTEX
  8
0
 10
0.42855541
 20
2.83529414
  0
VERTEX
  8
0
 10
0.46982952
 20
2.82183519
  0
VERTEX
  8
0
 10
0.48732616
 20
2.83439688
  0
VERTEX
  8
0
 10
0.45995962
 20
2.86221204
  0
VERTEX
  8
0
 10
0.40029161
 20
2.87567099
  0
VERTEX
  8
0
 10
0.34062360
 20
2.90707521
  0
VERTEX
  8
0
 10
0.33972633
 20
2.91201015
  0
VERTEX
  8
0
 10
0.34421265
 20
2.91290742
  0
VERTEX
  8
0
 10
0.39849708
 20
2.89585941
  0
VERTEX
  8
0
 10
0.45412741
 20
2.90348615
  0
VERTEX
  8
0
 10
0.51065500
 20
2.91111289
  0
VERTEX
  8
0
 10
0.55506954
 20
2.90707521
  0
VERTEX
  8
0
 10
0.59948407
 20
2.90303752
  0
VERTEX
  8
0
 10
0.66139524
 20
2.91290742
  0
VERTEX
  8
0
 10
0.66588156
 20
2.91156152
  0
VERTEX
  8
0
 10
0.66453567
 20
2.90707521
  0
SEQEND
  0
POLYLINE
  8
Default_Layer
 66
   1
 39
0.000000
 70
    1
  0
VERTEX
  8
0
 10
1.63672050
 20
2.91021563
  0
VERTEX
  8
0
 10
1.48598026
 20
2.75409181
  0
VERTEX
  8
0
 10
1.51469269
 20
2.66391684
  0
VERTEX
  8
0
 10
1.55192912
 20
2.59258440
  0
VERTEX
  8
0
 10
1.55327501
 20
2.58899535
  0
VERTEX
  8
0
 10
1.54968596
 20
2.58720082
  0
VERTEX
  8
0
 10
1.46489457
 20
2.58899535
  0
VERTEX
  8
0
 10
1.38234634
 20
2.58944398
  0
VERTEX
  8
0
 10
1.37920592
 20
2.59482756
  0
VERTEX
  8
0
 10
1.39356214
 20
2.63610168
  0
VERTEX
  8
0
 10
1.37068192
 20
2.71954717
  0
VERTEX
  8
0
 10
1.34331539
 20
2.59617346
  0
VERTEX
  8
0
 10
1.34017497
 20
2.59213577
  0
VERTEX
  8
0
 10
1.19751009
 20
2.59213577
  0
VERTEX
  8
0
 10
1.19392104
 20
2.59437893
  0
VERTEX
  8
0
 10
1.19571557
 20
2.59841662
  0
VERTEX
  8
0
 10
1.21500673
 20
2.61725915
  0
VERTEX
  8
0
 10
1.22487663
 20
2.63744757
  0
VERTEX
  8
0
 10
1.21366083
 20
2.64148526
  0
VERTEX
  8
0
 10
1.17014356
 20
2.62668041
  0
VERTEX
  8
0
 10
1.12348587
 20
2.59976251
  0
VERTEX
  8
0
 10
1.05843428
 20
2.58720082
  0
VERTEX
  8
0
 10
1.05529385
 20
2.58944398
  0
VERTEX
  8
0
 10
1.05708838
 20
2.59303304
  0
VERTEX
  8
0
 10
1.08086586
 20
2.60155704
  0
VERTEX
  8
0
 10
1.09297891
 20
2.61636188
  0
VERTEX
  8
0
 10
1.06875280
 20
2.62892357
  0
VERTEX
  8
0
 10
1.03510543
 20
2.62892357
  0
VERTEX
  8
0
 10
0.99293405
 20
2.63565304
  0
VERTEX
  8
0
 10
0.95569762
 20
2.65673873
  0
VERTEX
  8
0
 10
0.92249888
 20
2.67558126
  0
VERTEX
  8
0
 10
0.87987887
 20
2.68365663
  0
VERTEX
  8
0
 10
0.84039928
 20
2.67602989
  0
VERTEX
  8
0
 10
0.83636160
 20
2.67782442
  0
VERTEX
  8
0
 10
0.83860476
 20
2.68231074
  0
VERTEX
  8
0
 10
0.88750561
 20
2.69307790
  0
VERTEX
  8
0
 10
0.96063257
 20
2.68275937
  0
VERTEX
  8
0
 10
1.03061911
 20
2.67244084
  0
VERTEX
  8
0
 10
1.04362943
 20
2.67558126
  0
VERTEX
  8
0
 10
1.04991027
 20
2.68545116
  0
VERTEX
  8
0
 10
1.03286227
 20
2.70922864
  0
VERTEX
  8
0
 10
0.99562584
 20
2.71820127
  0
VERTEX
  8
0
 10
0.96511889
 20
2.71371496
  0
VERTEX
  8
0
 10
0.96063257
 20
2.71595811
  0
VERTEX
  8
0
 10
0.96287573
 20
2.72044443
  0
VERTEX
  8
0
 10
0.98216689
 20
2.72582801
  0
VERTEX
  8
0
 10
1.00549574
 20
2.72807117
  0
VERTEX
  8
0
 10
1.05843428
 20
2.71775264
  0
VERTEX
  8
0
 10
1.11047555
 20
2.70743411
  0
VERTEX
  8
0
 10
1.13156124
 20
2.71685538
  0
VERTEX
  8
0
 10
1.11989681
 20
2.73345475
  0
VERTEX
  8
0
 10
1.09522207
 20
2.74018422
  0
VERTEX
  8
0
 10
1.08310902
 20
2.73883833
  0
VERTEX
  8
0
 10
1.07907133
 20
2.74108149
  0
VERTEX
  8
0
 10
1.08086586
 20
2.74511917
  0
VERTEX
  8
0
 10
1.11496187
 20
2.75498907
  0
VERTEX
  8
0
 10
1.14546882
 20
2.75095138
  0
VERTEX
  8
0
 10
1.17597577
 20
2.74691370
  0
VERTEX
  8
0
 10
1.18898609
 20
2.75005412
  0
VERTEX
  8
0
 10
1.19526694
 20
2.75992402
  0
VERTEX
  8
0
 10
1.18438762
 20
2.77271002
  0
VERTEX
  8
0
 10
1.15174966
 20
2.77697202
  0
VERTEX
  8
0
 10
1.10509197
 20
2.76844802
  0
VERTEX
  8
0
 10
1.05843428
 20
2.75992402
  0
VERTEX
  8
0
 10
0.98889637
 20
2.78145834
  0
VERTEX
  8
0
 10
0.92833109
 20
2.80299266
  0
VERTEX
  8
0
 10
0.87449529
 20
2.78639329
  0
VERTEX
  8
0
 10
0.86911171
 20
2.78998234
  0
VERTEX
  8
0
 10
0.87090624
 20
2.79267413
  0
VERTEX
  8
0
 10
0.91128309
 20
2.81241392
  0
VERTEX
  8
0
 10
0.95524899
 20
2.81959203
  0
VERTEX
  8
0
 10
0.99697174
 20
2.81510571
  0
VERTEX
  8
0
 10
1.03689996
 20
2.81061940
  0
VERTEX
  8
0
 10
1.05798564
 20
2.81690024
  0
VERTEX
  8
0
 10
1.06695828
 20
2.83349961
  0
VERTEX
  8
0
 10
1.04407806
 20
2.85548256
  0
VERTEX
  8
0
 10
0.99293405
 20
2.86221204
  0
VERTEX
  8
0
 10
0.94134141
 20
2.88329773
  0
VERTEX
  8
0
 10
0.94044415
 20
2.88554089
  0
VERTEX
  8
0
 10
0.94358457
 20
2.88912994
  0
VERTEX
  8
0
 10
0.94582773
 20
2.88823268
  0
VERTEX
  8
0
 10
0.98216689
 20
2.87701688
  0
VERTEX
  8
0
 10
1.01895469
 20
2.88240046
  0
VERTEX
  8
0
 10
1.05663975
 20
2.88778404
  0
VERTEX
  8
0
 10
1.14232840
 20
2.86041751
  0
VERTEX
  8
0
 10
1.22532526
 20
2.83305098
  0
VERTEX
  8
0
 10
1.25089726
 20
2.84247225
  0
VERTEX
  8
0
 10
1.23833558
 20
2.85548256
  0
VERTEX
  8
0
 10
1.21500673
 20
2.86939015
  0
VERTEX
  8
0
 10
1.14995514
 20
2.90393478
  0
VERTEX
  8
0
 10
1.12886945
 20
2.90258889
  0
VERTEX
  8
0
 10
1.12483176
 20
2.90528068
  0
VERTEX
  8
0
 10
1.12707492
 20
2.90886973
  0
VERTEX
  8
0
 10
1.14995514
 20
2.91290742
  0
VERTEX
  8
0
 10
1.20737999
 20
2.90348615
  0
VERTEX
  8
0
 10
1.26570211
 20
2.89406489
  0
VERTEX
  8
0
 10
1.31998654
 20
2.90124299
  0
VERTEX
  8
0
 10
1.37786003
 20
2.90886973
  0
VERTEX
  8
0
 10
1.41823688
 20
2.90662657
  0
VERTEX
  8
0
 10
1.42137730
 20
2.90258889
  0
VERTEX
  8
0
 10
1.39401077
 20
2.80164676
  0
VERTEX
  8
0
 10
1.45233288
 20
2.83619140
  0
VERTEX
  8
0
 10
1.48059668
 20
2.87297920
  0
VERTEX
  8
0
 10
1.45457604
 20
2.89406489
  0
VERTEX
  8
0
 10
1.45143562
 20
2.89720531
  0
VERTEX
  8
0
 10
1.45457604
 20
2.90034573
  0
VERTEX
  8
0
 10
1.49719605
 20
2.90483205
  0
VERTEX
  8
0
 10
1.52725437
 20
2.90303752
  0
VERTEX
  8
0
 10
1.55731270
 20
2.90124299
  0
VERTEX
  8
0
 10
1.63358008
 20
2.91559921
  0
VERTEX
  8
0
 10
1.63761777
 20
2.91470195
  0
VERTEX
  8
0
 10
1.63672050
 20
2.91021563
  0
SEQEND
  0
POLYLINE
  8
Default_Layer
 66
   1
 39
0.000000
 70
    1
  0
VERTEX
  8
0
 10
2.42765814
 20
2.70561856
  0
VERTEX
  8
0
 10
2.38526245
 20
2.64995055
  0
VERTEX
  8
0
 10
2.36754150
 20
2.59527619
  0
VERTEX
  8
0
 10
2.36440108
 20
2.59168714
  0
VERTEX
  8
0
 10
2.10240018
 20
2.59078988
  0
VERTEX
  8
0
 10
2.09881113
 20
2.59258440
  0
VERTEX
  8
0
 10
2.10015702
 20
2.59662209
  0
VERTEX
  8
0
 10
2.12438313
 20
2.62668041
  0
VERTEX
  8
0
 10
2.06830417
 20
2.61277283
  0
VERTEX
  8
0
 10
2.00504711
 20
2.62982083
  0
VERTEX
  8
0
 10
1.94268730
 20
2.64686884
  0
VERTEX
  8
0
 10
1.91487214
 20
2.64283115
  0
VERTEX
  8
0
 10
1.91038582
 20
2.64507431
  0
VERTEX
  8
0
 10
1.91262898
 20
2.64911199
  0
VERTEX
  8
0
 10
1.96601615
 20
2.65987915
  0
VERTEX
  8
0
 10
2.00325258
 20
2.65539284
  0
VERTEX
  8
0
 10
2.03869448
 20
2.65090652
  0
VERTEX
  8
0
 10
2.05574249
 20
2.65539284
  0
VERTEX
  8
0
 10
2.06336922
 20
2.66750589
  0
VERTEX
  8
0
 10
2.05473306
 20
2.68298369
  0
VERTEX
  8
0
 10
2.02882459
 20
2.68814295
  0
VERTEX
  8
0
 10
1.99113952
 20
2.67872168
  0
VERTEX
  8
0
 10
1.98934500
 20
2.67827305
  0
VERTEX
  8
0
 10
1.98575594
 20
2.68231074
  0
VERTEX
  8
0
 10
1.98755047
 20
2.68500253
  0
VERTEX
  8
0
 10
2.05305070
 20
2.70115327
  0
VERTEX
  8
0
 10
2.08310902
 20
2.69801285
  0
VERTEX
  8
0
 10
2.11047555
 20
2.69487243
  0
VERTEX
  8
0
 10
2.13503813
 20
2.69924658
  0
VERTEX
  8
0
 10
2.14322566
 20
2.71236906
  0
VERTEX
  8
0
 10
2.13279498
 20
2.72784685
  0
VERTEX
  8
0
 10
2.10150292
 20
2.73300612
  0
VERTEX
  8
0
 10
2.02747869
 20
2.71506085
  0
VERTEX
  8
0
 10
1.95165994
 20
2.69711558
  0
VERTEX
  8
0
 10
1.88481382
 20
2.70653685
  0
VERTEX
  8
0
 10
1.81796770
 20
2.71595811
  0
VERTEX
  8
0
 10
1.76368327
 20
2.70115327
  0
VERTEX
  8
0
 10
1.76188874
 20
2.70070464
  0
VERTEX
  8
0
 10
1.75874832
 20
2.70384506
  0
VERTEX
  8
0
 10
1.76054284
 20
2.70698548
  0
VERTEX
  8
0
 10
1.82671602
 20
2.73356691
  0
VERTEX
  8
0
 10
1.91756393
 20
2.74242738
  0
VERTEX
  8
0
 10
1.95569762
 20
2.74467054
  0
VERTEX
  8
0
 10
1.97633468
 20
2.76441033
  0
VERTEX
  8
0
 10
1.96646478
 20
2.77966381
  0
VERTEX
  8
0
 10
1.94448183
 20
2.78504739
  0
VERTEX
  8
0
 10
1.91487214
 20
2.78056107
  0
VERTEX
  8
0
 10
1.88526245
 20
2.77607476
  0
VERTEX
  8
0
 10
1.80271422
 20
2.80074950
  0
VERTEX
  8
0
 10
1.80091969
 20
2.80433855
  0
VERTEX
  8
0
 10
1.80406012
 20
2.80703034
  0
VERTEX
  8
0
 10
1.80585464
 20
2.80658171
  0
VERTEX
  8
0
 10
1.86238223
 20
2.79446866
  0
VERTEX
  8
0
 10
1.92653656
 20
2.80972213
  0
VERTEX
  8
0
 10
1.99113952
 20
2.82856466
  0
VERTEX
  8
0
 10
2.06830417
 20
2.81196529
  0
VERTEX
  8
0
 10
2.14008524
 20
2.79446866
  0
VERTEX
  8
0
 10
2.16565725
 20
2.80927350
  0
VERTEX
  8
0
 10
2.14816061
 20
2.82452698
  0
VERTEX
  8
0
 10
2.11585913
 20
2.82542424
  0
VERTEX
  8
0
 10
2.05753701
 20
2.84247225
  0
VERTEX
  8
0
 10
1.99652310
 20
2.85952025
  0
VERTEX
  8
0
 10
1.96332436
 20
2.85279077
  0
VERTEX
  8
0
 10
1.95883804
 20
2.85503393
  0
VERTEX
  8
0
 10
1.96108120
 20
2.85907162
  0
VERTEX
  8
0
 10
2.01446837
 20
2.86894151
  0
VERTEX
  8
0
 10
2.06426649
 20
2.86445520
  0
VERTEX
  8
0
 10
2.11316734
 20
2.85996888
  0
VERTEX
  8
0
 10
2.15219830
 20
2.87567099
  0
VERTEX
  8
0
 10
2.13559892
 20
2.89451352
  0
VERTEX
  8
0
 10
2.10329744
 20
2.89989710
  0
VERTEX
  8
0
 10
2.07279049
 20
2.89720531
  0
VERTEX
  8
0
 10
2.04228354
 20
2.89406489
  0
VERTEX
  8
0
 10
2.03869448
 20
2.89720531
  0
VERTEX
  8
0
 10
2.04183490
 20
2.90034573
  0
VERTEX
  8
0
 10
2.08894123
 20
2.90886973
  0
VERTEX
  8
0
 10
2.14008524
 20
2.91559921
  0
VERTEX
  8
0
 10
2.22218484
 20
2.90976700
  0
VERTEX
  8
0
 10
2.30248991
 20
2.90393478
  0
VERTEX
  8
0
 10
2.36305518
 20
2.91201015
  0
VERTEX
  8
0
 10
2.36709287
 20
2.91021563
  0
VERTEX
  8
0
 10
2.36574697
 20
2.90617794
  0
VERTEX
  8
0
 10
2.31056528
 20
2.80478719
  0
VERTEX
  8
0
 10
2.27198295
 20
2.69666695
  0
VERTEX
  8
0
 10
2.30697622
 20
2.69487243
  0
VERTEX
  8
0
 10
2.42451772
 20
2.71102317
  0
VERTEX
  8
0
 10
2.42900404
 20
2.70922864
  0
VERTEX
  8
0
 10
2.42765814
 20
2.70519095
  0
VERTEX
  8
0
 10
2.42765814
 20
2.70561856
  0
SEQEND
  0
POLYLINE
  8
Default_Layer
 66
   1
 39
0.000000
 70
    1
  0
VERTEX
  8
0
 10
1.94313594
 20
2.85054762
  0
VERTEX
  8
0
 10
1.90141319
 20
2.84022909
  0
VERTEX
  8
0
 10
1.87000897
 20
2.84920172
  0
VERTEX
  8
0
 10
1.83636160
 20
2.85862299
  0
VERTEX
  8
0
 10
1.81976223
 20
2.85682846
  0
VERTEX
  8
0
 10
1.81572454
 20
2.85862299
  0
VERTEX
  8
0
 10
1.81662180
 20
2.86221204
  0
VERTEX
  8
0
 10
1.86283087
 20
2.87477373
  0
VERTEX
  8
0
 10
1.89423508
 20
2.86445520
  0
VERTEX
  8
0
 10
1.92384477
 20
2.85458530
  0
VERTEX
  8
0
 10
1.94134141
 20
2.85593120
  0
VERTEX
  8
0
 10
1.94448183
 20
2.85413667
  0
VERTEX
  8
0
 10
1.94313594
 20
2.85054762
  0
SEQEND
  0
POLYLINE
  8
Default_Layer
 66
   1
 39
0.000000
 70
    1
  0
VERTEX
  8
0
 10
3.48194258
 20
2.90303051
  0
VERTEX
  8
0
 10
3.42137730
 20
2.77113981
  0
VERTEX
  8
0
 10
3.38458950
 20
2.61815641
  0
VERTEX
  8
0
 10
3.39356214
 20
2.59168714
  0
VERTEX
  8
0
 10
3.39087035
 20
2.58720082
  0
VERTEX
  8
0
 10
3.23340063
 20
2.58585493
  0
VERTEX
  8
0
 10
3.22981157
 20
2.58809809
  0
VERTEX
  8
0
 10
3.23115747
 20
2.59168714
  0
VERTEX
  8
0
 10
3.24596231
 20
2.61187557
  0
VERTEX
  8
0
 10
3.28454464
 20
2.68410526
  0
VERTEX
  8
0
 10
3.28050695
 20
2.68634842
  0
VERTEX
  8
0
 10
3.18270525
 20
2.58585493
  0
VERTEX
  8
0
 10
3.18046209
 20
2.58450903
  0
VERTEX
  8
0
 10
3.11227008
 20
2.58450903
  0
VERTEX
  8
0
 10
3.10912965
 20
2.58989261
  0
VERTEX
  8
0
 10
3.12348587
 20
2.62398862
  0
VERTEX
  8
0
 10
3.11361597
 20
2.69397516
  0
VERTEX
  8
0
 10
3.07727681
 20
2.60783788
  0
VERTEX
  8
0
 10
3.08221175
 20
2.58944398
  0
VERTEX
  8
0
 10
3.07907133
 20
2.58450903
  0
VERTEX
  8
0
 10
2.92563930
 20
2.58450903
  0
VERTEX
  8
0
 10
2.92205025
 20
2.58764946
  0
VERTEX
  8
0
 10
2.92474204
 20
2.59123851
  0
VERTEX
  8
0
 10
2.94459399
 20
2.60245430
  0
VERTEX
  8
0
 10
2.95121131
 20
2.62353999
  0
VERTEX
  8
0
 10
2.94582773
 20
2.63206399
  0
VERTEX
  8
0
 10
2.93371467
 20
2.63565304
  0
VERTEX
  8
0
 10
2.88840287
 20
2.61995094
  0
VERTEX
  8
0
 10
2.84039928
 20
2.60424883
  0
VERTEX
  8
0
 10
2.80989233
 20
2.61142693
  0
VERTEX
  8
0
 10
2.77938537
 20
2.61860504
  0
VERTEX
  8
0
 10
2.73272768
 20
2.60245430
  0
VERTEX
  8
0
 10
2.73093315
 20
2.60200567
  0
VERTEX
  8
0
 10
2.72734410
 20
2.60514609
  0
VERTEX
  8
0
 10
2.72913863
 20
2.60783788
  0
VERTEX
  8
0
 10
2.80630328
 20
2.63340989
  0
VERTEX
  8
0
 10
2.83894123
 20
2.63935426
  0
VERTEX
  8
0
 10
2.84982055
 20
2.65718736
  0
VERTEX
  8
0
 10
2.83669807
 20
2.67602989
  0
VERTEX
  8
0
 10
2.79733064
 20
2.68231074
  0
VERTEX
  8
0
 10
2.76099148
 20
2.67961895
  0
VERTEX
  8
0
 10
2.72465231
 20
2.67692716
  0
VERTEX
  8
0
 10
2.63851503
 20
2.70160190
  0
VERTEX
  8
0
 10
2.63627187
 20
2.70474232
  0
VERTEX
  8
0
 10
2.64165545
 20
2.70788274
  0
VERTEX
  8
0
 10
2.69145357
 20
2.69532106
  0
VERTEX
  8
0
 10
2.75605653
 20
2.71147180
  0
VERTEX
  8
0
 10
2.82155675
 20
2.72762254
  0
VERTEX
  8
0
 10
2.87449529
 20
2.72134169
  0
VERTEX
  8
0
 10
2.92743383
 20
2.71506085
  0
VERTEX
  8
0
 10
2.94807088
 20
2.71999580
  0
VERTEX
  8
0
 10
2.95928668
 20
2.73524928
  0
VERTEX
  8
0
 10
2.93909825
 20
2.76082128
  0
VERTEX
  8
0
 10
2.89872140
 20
2.76755076
  0
VERTEX
  8
0
 10
2.85430686
 20
2.76171854
  0
VERTEX
  8
0
 10
2.80989233
 20
2.75588633
  0
VERTEX
  8
0
 10
2.77669358
 20
2.76037265
  0
VERTEX
  8
0
 10
2.74349484
 20
2.76485897
  0
VERTEX
  8
0
 10
2.72285778
 20
2.76082128
  0
VERTEX
  8
0
 10
2.71837147
 20
2.76396170
  0
VERTEX
  8
0
 10
2.72106326
 20
2.76710212
  0
VERTEX
  8
0
 10
2.73586810
 20
2.77113981
  0
VERTEX
  8
0
 10
2.75157021
 20
2.77338297
  0
VERTEX
  8
0
 10
2.76772095
 20
2.77248570
  0
VERTEX
  8
0
 10
2.78387169
 20
2.77158844
  0
VERTEX
  8
0
 10
2.81796770
 20
2.77876655
  0
VERTEX
  8
0
 10
2.83456707
 20
2.80344129
  0
VERTEX
  8
0
 10
2.82368775
 20
2.82026498
  0
VERTEX
  8
0
 10
2.79104980
 20
2.82587287
  0
VERTEX
  8
0
 10
2.72958726
 20
2.81375982
  0
VERTEX
  8
0
 10
2.66812472
 20
2.80164676
  0
VERTEX
  8
0
 10
2.62056976
 20
2.80927350
  0
VERTEX
  8
0
 10
2.61832660
 20
2.81331119
  0
VERTEX
  8
0
 10
2.62191566
 20
2.81555435
  0
VERTEX
  8
0
 10
2.64479587
 20
2.81196529
  0
VERTEX
  8
0
 10
2.69235083
 20
2.82587287
  0
VERTEX
  8
0
 10
2.74528937
 20
2.85099625
  0
VERTEX
  8
0
 10
2.80630328
 20
2.86490383
  0
VERTEX
  8
0
 10
2.88750561
 20
2.84830446
  0
VERTEX
  8
0
 10
2.96870794
 20
2.83170509
  0
VERTEX
  8
0
 10
2.99069089
 20
2.83619140
  0
VERTEX
  8
0
 10
3.00235532
 20
2.85279077
  0
VERTEX
  8
0
 10
2.98306415
 20
2.86759562
  0
VERTEX
  8
0
 10
2.94986541
 20
2.86894151
  0
VERTEX
  8
0
 10
2.90275908
 20
2.88015731
  0
VERTEX
  8
0
 10
2.86372813
 20
2.90348615
  0
VERTEX
  8
0
 10
2.86193360
 20
2.90617794
  0
VERTEX
  8
0
 10
2.86641992
 20
2.90931836
  0
VERTEX
  8
0
 10
2.93640646
 20
2.89541078
  0
VERTEX
  8
0
 10
2.98351279
 20
2.90528068
  0
VERTEX
  8
0
 10
3.03061911
 20
2.91515058
  0
VERTEX
  8
0
 10
3.09701660
 20
2.90662657
  0
VERTEX
  8
0
 10
3.18808883
 20
2.90079436
  0
VERTEX
  8
0
 10
3.19167788
 20
2.89810257
  0
VERTEX
  8
0
 10
3.21724989
 20
2.77113981
  0
VERTEX
  8
0
 10
3.24102737
 20
2.79446866
  0
VERTEX
  8
0
 10
3.25269179
 20
2.81420845
  0
VERTEX
  8
0
 10
3.23474652
 20
2.82811603
  0
VERTEX
  8
0
 10
3.22532526
 20
2.82677014
  0
VERTEX
  8
0
 10
3.22128757
 20
2.82811603
  0
VERTEX
  8
0
 10
3.22308210
 20
2.83260235
  0
VERTEX
  8
0
 10
3.24955137
 20
2.83888319
  0
VERTEX
  8
0
 10
3.28633917
 20
2.85458530
  0
VERTEX
  8
0
 10
3.26031853
 20
2.87342783
  0
VERTEX
  8
0
 10
3.22263347
 20
2.88598952
  0
VERTEX
  8
0
 10
3.22128757
 20
2.89002720
  0
VERTEX
  8
0
 10
3.22397936
 20
2.89227036
  0
VERTEX
  8
0
 10
3.23340063
 20
2.88957857
  0
VERTEX
  8
0
 10
3.24820547
 20
2.88733541
  0
VERTEX
  8
0
 10
3.29620906
 20
2.89675668
  0
VERTEX
  8
0
 10
3.34421265
 20
2.90617794
  0
VERTEX
  8
0
 10
3.38279498
 20
2.90348615
  0
VERTEX
  8
0
 10
3.41464782
 20
2.90079436
  0
VERTEX
  8
0
 10
3.47969942
 20
2.90931836
  0
VERTEX
  8
0
 10
3.48373710
 20
2.90752384
  0
VERTEX
  8
0
 10
3.48194258
 20
2.90258889
  0
VERTEX
  8
0
 10
3.48194258
 20
2.90303051
  0
SEQEND
  0
POLYLINE
  8
Default_Layer
 66
   1
 39
0.000000
 70
    1
  0
VERTEX
  8
0
 10
4.42451772
 20
2.90439744
  0
VERTEX
  8
0
 10
4.34869897
 20
2.74377328
  0
VERTEX
  8
0
 10
4.31415433
 20
2.62309136
  0
VERTEX
  8
0
 10
4.32357559
 20
2.59572483
  0
VERTEX
  8
0
 10
4.32043517
 20
2.59168714
  0
VERTEX
  8
0
 10
4.15668461
 20
2.59168714
  0
VERTEX
  8
0
 10
4.15354419
 20
2.59258440
  0
VERTEX
  8
0
 10
4.15354419
 20
2.59617346
  0
VERTEX
  8
0
 10
4.15937640
 20
2.61546462
  0
VERTEX
  8
0
 10
4.15085240
 20
2.65359831
  0
VERTEX
  8
0
 10
4.13380440
 20
2.69666695
  0
VERTEX
  8
0
 10
4.11496187
 20
2.64642020
  0
VERTEX
  8
0
 10
4.10509197
 20
2.60469746
  0
VERTEX
  8
0
 10
4.11092418
 20
2.59303304
  0
VERTEX
  8
0
 10
4.11092418
 20
2.58899535
  0
VERTEX
  8
0
 10
4.10733513
 20
2.58809809
  0
VERTEX
  8
0
 10
4.04318080
 20
2.59168714
  0
VERTEX
  8
0
 10
3.95838941
 20
2.58361177
  0
VERTEX
  8
0
 10
3.95480036
 20
2.58495767
  0
VERTEX
  8
0
 10
3.95569762
 20
2.58899535
  0
VERTEX
  8
0
 10
3.96736205
 20
2.60335156
  0
VERTEX
  8
0
 10
3.98710184
 20
2.63475578
  0
VERTEX
  8
0
 10
3.97588605
 20
2.63610168
  0
VERTEX
  8
0
 10
3.93909825
 20
2.62533452
  0
VERTEX
  8
0
 10
3.89961866
 20
2.61456736
  0
VERTEX
  8
0
 10
3.84264244
 20
2.62937220
  0
VERTEX
  8
0
 10
3.78566622
 20
2.64417705
  0
VERTEX
  8
0
 10
3.77220727
 20
2.64372841
  0
VERTEX
  8
0
 10
3.76816958
 20
2.64642020
  0
VERTEX
  8
0
 10
3.77086137
 20
2.65000926
  0
VERTEX
  8
0
 10
3.79598475
 20
2.65449557
  0
VERTEX
  8
0
 10
3.83411844
 20
2.64776610
  0
VERTEX
  8
0
 10
3.87180350
 20
2.64103662
  0
VERTEX
  8
0
 10
3.89558098
 20
2.64642020
  0
VERTEX
  8
0
 10
3.90634814
 20
2.66257094
  0
VERTEX
  8
0
 10
3.88301929
 20
2.67423537
  0
VERTEX
  8
0
 10
3.84219381
 20
2.66526273
  0
VERTEX
  8
0
 10
3.84039928
 20
2.66481410
  0
VERTEX
  8
0
 10
3.83725886
 20
2.66840316
  0
VERTEX
  8
0
 10
3.83905339
 20
2.67154358
  0
VERTEX
  8
0
 10
3.94044415
 20
2.70070464
  0
VERTEX
  8
0
 10
3.95659489
 20
2.69935874
  0
VERTEX
  8
0
 10
3.97229699
 20
2.69846148
  0
VERTEX
  8
0
 10
3.99831763
 20
2.71281769
  0
VERTEX
  8
0
 10
3.99091521
 20
2.72594017
  0
VERTEX
  8
0
 10
3.96870794
 20
2.73031433
  0
VERTEX
  8
0
 10
3.90275908
 20
2.71550948
  0
VERTEX
  8
0
 10
3.82963212
 20
2.70070464
  0
VERTEX
  8
0
 10
3.74663526
 20
2.71506085
  0
VERTEX
  8
0
 10
3.68696725
 20
2.72941706
  0
VERTEX
  8
0
 10
3.62056976
 20
2.71102317
  0
VERTEX
  8
0
 10
3.61653208
 20
2.71236906
  0
VERTEX
  8
0
 10
3.61787797
 20
2.71685538
  0
VERTEX
  8
0
 10
3.66408703
 20
2.73614654
  0
VERTEX
  8
0
 10
3.72869000
 20
2.74242738
  0
VERTEX
  8
0
 10
3.75964558
 20
2.73973559
  0
VERTEX
  8
0
 10
3.79060117
 20
2.73749243
  0
VERTEX
  8
0
 10
3.83198744
 20
2.74410975
  0
VERTEX
  8
0
 10
3.84578286
 20
2.76396170
  0
VERTEX
  8
0
 10
3.83366981
 20
2.78100971
  0
VERTEX
  8
0
 10
3.81034096
 20
2.78549602
  0
VERTEX
  8
0
 10
3.76278600
 20
2.78056107
  0
VERTEX
  8
0
 10
3.71478241
 20
2.77562613
  0
VERTEX
  8
0
 10
3.65690893
 20
2.78953371
  0
VERTEX
  8
0
 10
3.65466577
 20
2.79267413
  0
VERTEX
  8
0
 10
3.65915209
 20
2.79581455
  0
VERTEX
  8
0
 10
3.70670704
 20
2.78729055
  0
VERTEX
  8
0
 10
3.77893674
 20
2.80747898
  0
VERTEX
  8
0
 10
3.85116644
 20
2.82766740
  0
VERTEX
  8
0
 10
3.92877972
 20
2.81061940
  0
VERTEX
  8
0
 10
4.00549574
 20
2.79402002
  0
VERTEX
  8
0
 10
4.02792732
 20
2.79805771
  0
VERTEX
  8
0
 10
4.04093764
 20
2.81420845
  0
VERTEX
  8
0
 10
4.01087932
 20
2.82811603
  0
VERTEX
  8
0
 10
3.99338268
 20
2.82632151
  0
VERTEX
  8
0
 10
3.97588605
 20
2.82452698
  0
VERTEX
  8
0
 10
3.91890983
 20
2.84381814
  0
VERTEX
  8
0
 10
3.86193360
 20
2.86355793
  0
VERTEX
  8
0
 10
3.81796770
 20
2.85682846
  0
VERTEX
  8
0
 10
3.81348138
 20
2.85862299
  0
VERTEX
  8
0
 10
3.81527591
 20
2.86310930
  0
VERTEX
  8
0
 10
3.86417676
 20
2.87746552
  0
VERTEX
  8
0
 10
3.91352624
 20
2.86894151
  0
VERTEX
  8
0
 10
3.96108120
 20
2.86086614
  0
VERTEX
  8
0
 10
3.97992373
 20
2.86580109
  0
VERTEX
  8
0
 10
3.98844773
 20
2.87881141
  0
VERTEX
  8
0
 10
3.95255720
 20
2.89496215
  0
VERTEX
  8
0
 10
3.89558098
 20
2.91201015
  0
VERTEX
  8
0
 10
3.89378645
 20
2.91649647
  0
VERTEX
  8
0
 10
3.89647824
 20
2.91873963
  0
VERTEX
  8
0
 10
3.91173172
 20
2.91380468
  0
VERTEX
  8
0
 10
3.93461193
 20
2.90931836
  0
VERTEX
  8
0
 10
3.96870794
 20
2.91649647
  0
VERTEX
  8
0
 10
4.00280395
 20
2.92367458
  0
VERTEX
  8
0
 10
4.07593091
 20
2.91021563
  0
VERTEX
  8
0
 10
4.15264693
 20
2.89675668
  0
VERTEX
  8
0
 10
4.20827725
 20
2.89944847
  0
VERTEX
  8
0
 10
4.21052041
 20
2.89899984
  0
VERTEX
  8
0
 10
4.21141768
 20
2.89630805
  0
VERTEX
  8
0
 10
4.23923284
 20
2.78415013
  0
VERTEX
  8
0
 10
4.27153432
 20
2.87297920
  0
VERTEX
  8
0
 10
4.26166442
 20
2.88284910
  0
VERTEX
  8
0
 10
4.24282189
 20
2.88688678
  0
VERTEX
  8
0
 10
4.23968147
 20
2.89002720
  0
VERTEX
  8
0
 10
4.24237326
 20
2.89316762
  0
VERTEX
  8
0
 10
4.32671602
 20
2.89944847
  0
VERTEX
  8
0
 10
4.42092867
 20
2.90931836
  0
VERTEX
  8
0
 10
4.42496635
 20
2.90842110
  0
VERTEX
  8
0
 10
4.42451772
 20
2.90438342
  0
VERTEX
  8
0
 10
4.42451772
 20
2.90439744
  0
SEQEND
  0
POLYLINE
  8
Default_Layer
 66
   1
 39
0.000000
 70
    1
  0
VERTEX
  8
0
 10
5.24282189
 20
2.79716045
  0
VERTEX
  8
0
 10
5.22611036
 20
2.71629459
  0
VERTEX
  8
0
 10
5.17597577
 20
2.64417705
  0
VERTEX
  8
0
 10
5.10610139
 20
2.59370598
  0
VERTEX
  8
0
 10
5.03017048
 20
2.57688229
  0
VERTEX
  8
0
 10
4.96063257
 20
2.59751935
  0
VERTEX
  8
0
 10
4.92249888
 20
2.63565304
  0
VERTEX
  8
0
 10
4.88840287
 20
2.65629010
  0
VERTEX
  8
0
 10
4.84353970
 20
2.64372841
  0
VERTEX
  8
0
 10
4.79957380
 20
2.63116673
  0
VERTEX
  8
0
 10
4.76951548
 20
2.63385852
  0
VERTEX
  8
0
 10
4.74170031
 20
2.63655031
  0
VERTEX
  8
0
 10
4.72375505
 20
2.63520441
  0
VERTEX
  8
0
 10
4.71926873
 20
2.63879347
  0
VERTEX
  8
0
 10
4.72196052
 20
2.64193389
  0
VERTEX
  8
0
 10
4.76188874
 20
2.64776610
  0
VERTEX
  8
0
 10
4.80316285
 20
2.65673873
  0
VERTEX
  8
0
 10
4.82245402
 20
2.68814295
  0
VERTEX
  8
0
 10
4.81258412
 20
2.69532106
  0
VERTEX
  8
0
 10
4.79194706
 20
2.69218064
  0
VERTEX
  8
0
 10
4.76996411
 20
2.68904021
  0
VERTEX
  8
0
 10
4.70356662
 20
2.70833138
  0
VERTEX
  8
0
 10
4.63761777
 20
2.72807117
  0
VERTEX
  8
0
 10
4.59993271
 20
2.71730401
  0
VERTEX
  8
0
 10
4.59499776
 20
2.72044443
  0
VERTEX
  8
0
 10
4.59724092
 20
2.72358485
  0
VERTEX
  8
0
 10
4.66184388
 20
2.74153012
  0
VERTEX
  8
0
 10
4.70446389
 20
2.73614654
  0
VERTEX
  8
0
 10
4.74573800
 20
2.73076296
  0
VERTEX
  8
0
 10
4.77265590
 20
2.74511917
  0
VERTEX
  8
0
 10
4.76009421
 20
2.76362523
  0
VERTEX
  8
0
 10
4.72240915
 20
2.76979391
  0
VERTEX
  8
0
 10
4.70177210
 20
2.76799939
  0
VERTEX
  8
0
 10
4.68068641
 20
2.76620486
  0
VERTEX
  8
0
 10
4.62550471
 20
2.77293434
  0
VERTEX
  8
0
 10
4.57391207
 20
2.79671181
  0
VERTEX
  8
0
 10
4.57211754
 20
2.79985224
  0
VERTEX
  8
0
 10
4.57480933
 20
2.80344129
  0
VERTEX
  8
0
 10
4.57660386
 20
2.80299266
  0
VERTEX
  8
0
 10
4.62685061
 20
2.78818781
  0
VERTEX
  8
0
 10
4.68113504
 20
2.79985224
  0
VERTEX
  8
0
 10
4.73497084
 20
2.81196529
  0
VERTEX
  8
0
 10
4.80854643
 20
2.78863644
  0
VERTEX
  8
0
 10
4.87628982
 20
2.76575623
  0
VERTEX
  8
0
 10
4.89244056
 20
2.77158844
  0
VERTEX
  8
0
 10
4.89961866
 20
2.78549602
  0
VERTEX
  8
0
 10
4.88122476
 20
2.80209540
  0
VERTEX
  8
0
 10
4.84847465
 20
2.80299266
  0
VERTEX
  8
0
 10
4.79149843
 20
2.81645161
  0
VERTEX
  8
0
 10
4.75246747
 20
2.84202361
  0
VERTEX
  8
0
 10
4.70580978
 20
2.85548256
  0
VERTEX
  8
0
 10
4.67709735
 20
2.85234214
  0
VERTEX
  8
0
 10
4.67216240
 20
2.85548256
  0
VERTEX
  8
0
 10
4.67530283
 20
2.85862299
  0
VERTEX
  8
0
 10
4.72196052
 20
2.86983878
  0
VERTEX
  8
0
 10
4.77265590
 20
2.85952025
  0
VERTEX
  8
0
 10
4.82065949
 20
2.84920172
  0
VERTEX
  8
0
 10
4.83097802
 20
2.85279077
  0
VERTEX
  8
0
 10
4.83591297
 20
2.86041751
  0
VERTEX
  8
0
 10
4.80450875
 20
2.88554089
  0
VERTEX
  8
0
 10
4.75201884
 20
2.91021563
  0
VERTEX
  8
0
 10
4.75067295
 20
2.91290742
  0
VERTEX
  8
0
 10
4.75426200
 20
2.91604784
  0
VERTEX
  8
0
 10
4.75695379
 20
2.91470195
  0
VERTEX
  8
0
 10
4.78611485
 20
2.89989710
  0
VERTEX
  8
0
 10
4.81931359
 20
2.89855120
  0
VERTEX
  8
0
 10
4.87539255
 20
2.88060594
  0
VERTEX
  8
0
 10
4.91846119
 20
2.86310930
  0
VERTEX
  8
0
 10
4.93326604
 20
2.87477373
  0
VERTEX
  8
0
 10
4.91935846
 20
2.89227036
  0
VERTEX
  8
0
 10
4.89154329
 20
2.90258889
  0
VERTEX
  8
0
 10
4.87718708
 20
2.90214026
  0
VERTEX
  8
0
 10
4.87314939
 20
2.90528068
  0
VERTEX
  8
0
 10
4.87628982
 20
2.90842110
  0
VERTEX
  8
0
 10
4.89692687
 20
2.91066426
  0
VERTEX
  8
0
 10
4.94717362
 20
2.89944847
  0
VERTEX
  8
0
 10
4.99742037
 20
2.88823268
  0
VERTEX
  8
0
 10
5.03331090
 20
2.89720531
  0
VERTEX
  8
0
 10
5.07099596
 20
2.91380468
  0
VERTEX
  8
0
 10
5.13290713
 20
2.92277732
  0
VERTEX
  8
0
 10
5.18180799
 20
2.91335605
  0
VERTEX
  8
0
 10
5.21724989
 20
2.88509225
  0
VERTEX
  8
0
 10
5.23642889
 20
2.84650993
  0
VERTEX
  8
0
 10
5.24282189
 20
2.79716045
  0
SEQEND
  0
POLYLINE
  8
Default_Layer
 66
   1
 39
0.000000
 70
    1
  0
VERTEX
  8
0
 10
4.70401525
 20
2.63296125
  0
VERTEX
  8
0
 10
4.66229251
 20
2.62264273
  0
VERTEX
  8
0
 10
4.63088829
 20
2.63161536
  0
VERTEX
  8
0
 10
4.59724092
 20
2.64103662
  0
VERTEX
  8
0
 10
4.58064154
 20
2.63924210
  0
VERTEX
  8
0
 10
4.57660386
 20
2.64103662
  0
VERTEX
  8
0
 10
4.57750112
 20
2.64462568
  0
VERTEX
  8
0
 10
4.62371018
 20
2.65718736
  0
VERTEX
  8
0
 10
4.65511440
 20
2.64686884
  0
VERTEX
  8
0
 10
4.68472409
 20
2.63699894
  0
VERTEX
  8
0
 10
4.70222073
 20
2.63834483
  0
VERTEX
  8
0
 10
4.70536115
 20
2.63655031
  0
VERTEX
  8
0
 10
4.70401525
 20
2.63296125
  0
SEQEND
  0
POLYLINE
  8
Default_Layer
 66
   1
 39
0.000000
 70
    1
  0
VERTEX
  8
0
 10
5.12707492
 20
2.79536592
  0
VERTEX
  8
0
 10
5.12034545
 20
2.81196529
  0
VERTEX
  8
0
 10
5.10509197
 20
2.81959203
  0
VERTEX
  8
0
 10
5.05125617
 20
2.78549602
  0
VERTEX
  8
0
 10
5.02568416
 20
2.72179033
  0
VERTEX
  8
0
 10
5.03331090
 20
2.70205053
  0
VERTEX
  8
0
 10
5.05305070
 20
2.69352653
  0
VERTEX
  8
0
 10
5.07144459
 20
2.70294780
  0
VERTEX
  8
0
 10
5.05933154
 20
2.70878001
  0
VERTEX
  8
0
 10
5.05619112
 20
2.71147180
  0
VERTEX
  8
0
 10
5.05753701
 20
2.71550948
  0
VERTEX
  8
0
 10
5.09522207
 20
2.72358485
  0
VERTEX
  8
0
 10
5.11630776
 20
2.74601644
  0
VERTEX
  8
0
 10
5.09208165
 20
2.75857812
  0
VERTEX
  8
0
 10
5.07144459
 20
2.75947539
  0
VERTEX
  8
0
 10
5.06381786
 20
2.75992402
  0
VERTEX
  8
0
 10
5.06067743
 20
2.76261581
  0
VERTEX
  8
0
 10
5.06426649
 20
2.76620486
  0
VERTEX
  8
0
 10
5.09836249
 20
2.77113981
  0
VERTEX
  8
0
 10
5.12707492
 20
2.79536592
  0
SEQEND
  0
POLYLINE
  8
Default_Layer
 66
   1
 39
0.000000
 70
    1
  0
VERTEX
  8
0
 10
6.20693136
 20
2.81555435
  0
VERTEX
  8
0
 10
6.18730372
 20
2.75543770
  0
VERTEX
  8
0
 10
6.12842082
 20
2.70878001
  0
VERTEX
  8
0
 10
6.06090175
 20
2.68444174
  0
VERTEX
  8
0
 10
5.99203679
 20
2.67961895
  0
VERTEX
  8
0
 10
5.97274563
 20
2.60828651
  0
VERTEX
  8
0
 10
5.98126963
 20
2.58406040
  0
VERTEX
  8
0
 10
5.98126963
 20
2.58047135
  0
VERTEX
  8
0
 10
5.97768057
 20
2.57912545
  0
VERTEX
  8
0
 10
5.86238223
 20
2.58406040
  0
VERTEX
  8
0
 10
5.79284432
 20
2.58271451
  0
VERTEX
  8
0
 10
5.78925527
 20
2.58540630
  0
VERTEX
  8
0
 10
5.79194706
 20
2.58899535
  0
VERTEX
  8
0
 10
5.82828623
 20
2.60368804
  0
VERTEX
  8
0
 10
5.84039928
 20
2.62712904
  0
VERTEX
  8
0
 10
5.81841633
 20
2.63969073
  0
VERTEX
  8
0
 10
5.74125168
 20
2.61411872
  0
VERTEX
  8
0
 10
5.66049798
 20
2.58809809
  0
VERTEX
  8
0
 10
5.62640197
 20
2.59078988
  0
VERTEX
  8
0
 10
5.59410049
 20
2.59393030
  0
VERTEX
  8
0
 10
5.56942575
 20
2.58899535
  0
VERTEX
  8
0
 10
5.55506954
 20
2.58406040
  0
VERTEX
  8
0
 10
5.55237775
 20
2.58764946
  0
VERTEX
  8
0
 10
5.55417227
 20
2.59078988
  0
VERTEX
  8
0
 10
5.60576492
 20
2.60335156
  0
VERTEX
  8
0
 10
5.65601166
 20
2.61322146
  0
VERTEX
  8
0
 10
5.67889188
 20
2.63969073
  0
VERTEX
  8
0
 10
5.66408703
 20
2.65629010
  0
VERTEX
  8
0
 10
5.63537461
 20
2.66122505
  0
VERTEX
  8
0
 10
5.59454913
 20
2.65808463
  0
VERTEX
  8
0
 10
5.55192912
 20
2.65494421
  0
VERTEX
  8
0
 10
5.47521310
 20
2.67333810
  0
VERTEX
  8
0
 10
5.47296994
 20
2.67647853
  0
VERTEX
  8
0
 10
5.47790489
 20
2.67961895
  0
VERTEX
  8
0
 10
5.52231943
 20
2.66705726
  0
VERTEX
  8
0
 10
5.59140870
 20
2.68320800
  0
VERTEX
  8
0
 10
5.66139524
 20
2.69935874
  0
VERTEX
  8
0
 10
5.69055630
 20
2.69801285
  0
VERTEX
  8
0
 10
5.71971736
 20
2.69666695
  0
VERTEX
  8
0
 10
5.77792732
 20
2.70463016
  0
VERTEX
  8
0
 10
5.79733064
 20
2.72851980
  0
VERTEX
  8
0
 10
5.78297443
 20
2.75005412
  0
VERTEX
  8
0
 10
5.75381337
 20
2.75633496
  0
VERTEX
  8
0
 10
5.70356662
 20
2.74332465
  0
VERTEX
  8
0
 10
5.65331987
 20
2.73031433
  0
VERTEX
  8
0
 10
5.61025123
 20
2.73749243
  0
VERTEX
  8
0
 10
5.56628533
 20
2.74467054
  0
VERTEX
  8
0
 10
5.54519964
 20
2.74108149
  0
VERTEX
  8
0
 10
5.53174069
 20
2.73749243
  0
VERTEX
  8
0
 10
5.52904890
 20
2.74108149
  0
VERTEX
  8
0
 10
5.53084343
 20
2.74422191
  0
VERTEX
  8
0
 10
5.57391207
 20
2.75498907
  0
VERTEX
  8
0
 10
5.58557649
 20
2.75454044
  0
VERTEX
  8
0
 10
5.59679228
 20
2.75409181
  0
VERTEX
  8
0
 10
5.63346792
 20
2.76070912
  0
VERTEX
  8
0
 10
5.64569314
 20
2.78056107
  0
VERTEX
  8
0
 10
5.63571108
 20
2.79603887
  0
VERTEX
  8
0
 10
5.60576492
 20
2.80119813
  0
VERTEX
  8
0
 10
5.55237775
 20
2.78729055
  0
VERTEX
  8
0
 10
5.49899058
 20
2.77338297
  0
VERTEX
  8
0
 10
5.42810677
 20
2.78190697
  0
VERTEX
  8
0
 10
5.42586362
 20
2.78594465
  0
VERTEX
  8
0
 10
5.42990130
 20
2.78818781
  0
VERTEX
  8
0
 10
5.46130552
 20
2.78370150
  0
VERTEX
  8
0
 10
5.55506954
 20
2.80882487
  0
VERTEX
  8
0
 10
5.65511440
 20
2.83394824
  0
VERTEX
  8
0
 10
5.73586810
 20
2.82318108
  0
VERTEX
  8
0
 10
5.80495738
 20
2.81241392
  0
VERTEX
  8
0
 10
5.82021086
 20
2.81645161
  0
VERTEX
  8
0
 10
5.82873486
 20
2.82811603
  0
VERTEX
  8
0
 10
5.81482728
 20
2.84247225
  0
VERTEX
  8
0
 10
5.78790938
 20
2.84426677
  0
VERTEX
  8
0
 10
5.72465231
 20
2.86176341
  0
VERTEX
  8
0
 10
5.68023777
 20
2.87926004
  0
VERTEX
  8
0
 10
5.66677882
 20
2.87701688
  0
VERTEX
  8
0
 10
5.66184388
 20
2.88060594
  0
VERTEX
  8
0
 10
5.67171377
 20
2.88643815
  0
VERTEX
  8
0
 10
5.68472409
 20
2.88868131
  0
VERTEX
  8
0
 10
5.72375505
 20
2.87836278
  0
VERTEX
  8
0
 10
5.76368327
 20
2.86804425
  0
VERTEX
  8
0
 10
5.81482728
 20
2.88060594
  0
VERTEX
  8
0
 10
5.86597129
 20
2.89316762
  0
VERTEX
  8
0
 10
5.91397488
 20
2.87656825
  0
VERTEX
  8
0
 10
5.91487214
 20
2.90124299
  0
VERTEX
  8
0
 10
5.91801256
 20
2.90483205
  0
VERTEX
  8
0
 10
5.97678331
 20
2.90662657
  0
VERTEX
  8
0
 10
6.04362943
 20
2.90931836
  0
VERTEX
  8
0
 10
6.15758188
 20
2.89137310
  0
VERTEX
  8
0
 10
6.19459399
 20
2.86120262
  0
VERTEX
  8
0
 10
6.20693136
 20
2.81555435
  0
SEQEND
  0
POLYLINE
  8
Default_Layer
 66
   1
 39
0.000000
 70
    1
  0
VERTEX
  8
0
 10
5.64479587
 20
2.87028741
  0
VERTEX
  8
0
 10
5.60307313
 20
2.85996888
  0
VERTEX
  8
0
 10
5.57166891
 20
2.86894151
  0
VERTEX
  8
0
 10
5.53802153
 20
2.87836278
  0
VERTEX
  8
0
 10
5.52142216
 20
2.87656825
  0
VERTEX
  8
0
 10
5.51738448
 20
2.87836278
  0
VERTEX
  8
0
 10
5.51828174
 20
2.88195183
  0
VERTEX
  8
0
 10
5.56449080
 20
2.89451352
  0
VERTEX
  8
0
 10
5.59589502
 20
2.88419499
  0
VERTEX
  8
0
 10
5.62550471
 20
2.87432509
  0
VERTEX
  8
0
 10
5.64300135
 20
2.87567099
  0
VERTEX
  8
0
 10
5.64614177
 20
2.87387646
  0
VERTEX
  8
0
 10
5.64479587
 20
2.87028741
  0
SEQEND
  0
POLYLINE
  8
Default_Layer
 66
   1
 39
0.000000
 70
    1
  0
VERTEX
  8
0
 10
6.07413638
 20
2.81869477
  0
VERTEX
  8
0
 10
6.04138627
 20
2.83484551
  0
VERTEX
  8
0
 10
6.02747869
 20
2.83439688
  0
VERTEX
  8
0
 10
6.01132795
 20
2.77876655
  0
VERTEX
  8
0
 10
6.03106774
 20
2.77786928
  0
VERTEX
  8
0
 10
6.05888291
 20
2.79087960
  0
VERTEX
  8
0
 10
6.04856438
 20
2.79940360
  0
VERTEX
  8
0
 10
6.04721848
 20
2.80568445
  0
VERTEX
  8
0
 10
6.06471512
 20
2.80972213
  0
VERTEX
  8
0
 10
6.07413638
 20
2.81869477
  0
SEQEND
  0
POLYLINE
  8
Default_Layer
 66
   1
 39
0.000000
 70
    1
  0
VERTEX
  8
0
 10
7.10598923
 20
2.83899535
  0
VERTEX
  8
0
 10
7.09668013
 20
2.79795957
  0
VERTEX
  8
0
 10
7.06875280
 20
2.76037265
  0
VERTEX
  8
0
 10
6.99383131
 20
2.71775264
  0
VERTEX
  8
0
 10
7.05753701
 20
2.59617346
  0
VERTEX
  8
0
 10
7.05888291
 20
2.59258440
  0
VERTEX
  8
0
 10
7.05484522
 20
2.59078988
  0
VERTEX
  8
0
 10
6.90679677
 20
2.59168013
  0
VERTEX
  8
0
 10
6.90320772
 20
2.59303304
  0
VERTEX
  8
0
 10
6.90455361
 20
2.59707072
  0
VERTEX
  8
0
 10
6.91218035
 20
2.60380020
  0
VERTEX
  8
0
 10
6.91621803
 20
2.61097830
  0
VERTEX
  8
0
 10
6.88930013
 20
2.68051621
  0
VERTEX
  8
0
 10
6.87270076
 20
2.61097830
  0
VERTEX
  8
0
 10
6.87763571
 20
2.59437893
  0
VERTEX
  8
0
 10
6.87449529
 20
2.58989261
  0
VERTEX
  8
0
 10
6.72913863
 20
2.58809809
  0
VERTEX
  8
0
 10
6.72554957
 20
2.59034125
  0
VERTEX
  8
0
 10
6.72689547
 20
2.59393030
  0
VERTEX
  8
0
 10
6.73811126
 20
2.60514609
  0
VERTEX
  8
0
 10
6.75471063
 20
2.63520441
  0
VERTEX
  8
0
 10
6.73586810
 20
2.63924210
  0
VERTEX
  8
0
 10
6.69683715
 20
2.62668041
  0
VERTEX
  8
0
 10
6.65421714
 20
2.60469746
  0
VERTEX
  8
0
 10
6.60441902
 20
2.59482756
  0
VERTEX
  8
0
 10
6.60172723
 20
2.59796798
  0
VERTEX
  8
0
 10
6.60486765
 20
2.60110841
  0
VERTEX
  8
0
 10
6.64210408
 20
2.61008104
  0
VERTEX
  8
0
 10
6.66408703
 20
2.63610168
  0
VERTEX
  8
0
 10
6.66004935
 20
2.64327978
  0
VERTEX
  8
0
 10
6.65197398
 20
2.64642020
  0
VERTEX
  8
0
 10
6.61294302
 20
2.63655031
  0
VERTEX
  8
0
 10
6.57122028
 20
2.62668041
  0
VERTEX
  8
0
 10
6.53039480
 20
2.63475578
  0
VERTEX
  8
0
 10
6.49001795
 20
2.64283115
  0
VERTEX
  8
0
 10
6.47252131
 20
2.64103662
  0
VERTEX
  8
0
 10
6.46848362
 20
2.64327978
  0
VERTEX
  8
0
 10
6.47072678
 20
2.64731747
  0
VERTEX
  8
0
 10
6.53353522
 20
2.65404694
  0
VERTEX
  8
0
 10
6.59948407
 20
2.66436547
  0
VERTEX
  8
0
 10
6.64300135
 20
2.68365663
  0
VERTEX
  8
0
 10
6.69279946
 20
2.69397516
  0
VERTEX
  8
0
 10
6.70625841
 20
2.69352653
  0
VERTEX
  8
0
 10
6.72061463
 20
2.69307790
  0
VERTEX
  8
0
 10
6.74887842
 20
2.70878001
  0
VERTEX
  8
0
 10
6.73900852
 20
2.72156601
  0
VERTEX
  8
0
 10
6.70939883
 20
2.72582801
  0
VERTEX
  8
0
 10
6.63806640
 20
2.71057453
  0
VERTEX
  8
0
 10
6.56628533
 20
2.69576969
  0
VERTEX
  8
0
 10
6.50123374
 20
2.70833138
  0
VERTEX
  8
0
 10
6.43618214
 20
2.72089306
  0
VERTEX
  8
0
 10
6.38369224
 20
2.70878001
  0
VERTEX
  8
0
 10
6.37875729
 20
2.71192043
  0
VERTEX
  8
0
 10
6.38100045
 20
2.71506085
  0
VERTEX
  8
0
 10
6.42451772
 20
2.73524928
  0
VERTEX
  8
0
 10
6.47072678
 20
2.74242738
  0
VERTEX
  8
0
 10
6.50302826
 20
2.74108149
  0
VERTEX
  8
0
 10
6.53622701
 20
2.73973559
  0
VERTEX
  8
0
 10
6.57492149
 20
2.74478270
  0
VERTEX
  8
0
 10
6.58781965
 20
2.75992402
  0
VERTEX
  8
0
 10
6.55372364
 20
2.77652339
  0
VERTEX
  8
0
 10
6.52680574
 20
2.77428023
  0
VERTEX
  8
0
 10
6.50078511
 20
2.77248570
  0
VERTEX
  8
0
 10
6.43304172
 20
2.78639329
  0
VERTEX
  8
0
 10
6.43079856
 20
2.79087960
  0
VERTEX
  8
0
 10
6.43483625
 20
2.79267413
  0
VERTEX
  8
0
 10
6.46534320
 20
2.78504739
  0
VERTEX
  8
0
 10
6.52366532
 20
2.80030087
  0
VERTEX
  8
0
 10
6.58602512
 20
2.81600298
  0
VERTEX
  8
0
 10
6.65915209
 20
2.80119813
  0
VERTEX
  8
0
 10
6.73138179
 20
2.78639329
  0
VERTEX
  8
0
 10
6.76099148
 20
2.78773918
  0
VERTEX
  8
0
 10
6.77714222
 20
2.80209540
  0
VERTEX
  8
0
 10
6.76188874
 20
2.81734887
  0
VERTEX
  8
0
 10
6.73362494
 20
2.81869477
  0
VERTEX
  8
0
 10
6.67395693
 20
2.83619140
  0
VERTEX
  8
0
 10
6.61473755
 20
2.85368804
  0
VERTEX
  8
0
 10
6.57794975
 20
2.85144488
  0
VERTEX
  8
0
 10
6.57391207
 20
2.85413667
  0
VERTEX
  8
0
 10
6.57615523
 20
2.85772572
  0
VERTEX
  8
0
 10
6.63806640
 20
2.86804425
  0
VERTEX
  8
0
 10
6.68023777
 20
2.86355793
  0
VERTEX
  8
0
 10
6.72061463
 20
2.85952025
  0
VERTEX
  8
0
 10
6.75157021
 20
2.86423088
  0
VERTEX
  8
0
 10
6.76188874
 20
2.87836278
  0
VERTEX
  8
0
 10
6.75134590
 20
2.89585941
  0
VERTEX
  8
0
 10
6.71971736
 20
2.90169163
  0
VERTEX
  8
0
 10
6.69863167
 20
2.89944847
  0
VERTEX
  8
0
 10
6.67709735
 20
2.89720531
  0
VERTEX
  8
0
 10
6.64703903
 20
2.90034573
  0
VERTEX
  8
0
 10
6.64479587
 20
2.90393478
  0
VERTEX
  8
0
 10
6.64838493
 20
2.90662657
  0
VERTEX
  8
0
 10
6.65331987
 20
2.90528068
  0
VERTEX
  8
0
 10
6.66049798
 20
2.90438342
  0
VERTEX
  8
0
 10
6.70042620
 20
2.91380468
  0
VERTEX
  8
0
 10
6.74035442
 20
2.92367458
  0
VERTEX
  8
0
 10
6.80720054
 20
2.91470195
  0
VERTEX
  8
0
 10
6.93192014
 20
2.90572931
  0
VERTEX
  8
0
 10
7.04587259
 20
2.89944847
  0
VERTEX
  8
0
 10
7.09096007
 20
2.87757767
  0
VERTEX
  8
0
 10
7.10598923
 20
2.83888319
  0
VERTEX
  8
0
 10
7.10598923
 20
2.83899535
  0
SEQEND
  0
POLYLINE
  8
Default_Layer
 66
   1
 39
0.000000
 70
    1
  0
VERTEX
  8
0
 10
6.54968596
 20
2.84650993
  0
VERTEX
  8
0
 10
6.50796321
 20
2.83619140
  0
VERTEX
  8
0
 10
6.47655900
 20
2.84516404
  0
VERTEX
  8
0
 10
6.44291162
 20
2.85458530
  0
VERTEX
  8
0
 10
6.42631225
 20
2.85279077
  0
VERTEX
  8
0
 10
6.42227456
 20
2.85458530
  0
VERTEX
  8
0
 10
6.42317183
 20
2.85817435
  0
VERTEX
  8
0
 10
6.46938089
 20
2.87073604
  0
VERTEX
  8
0
 10
6.50078511
 20
2.86041751
  0
VERTEX
  8
0
 10
6.53039480
 20
2.85054762
  0
VERTEX
  8
0
 10
6.54789143
 20
2.85189351
  0
VERTEX
  8
0
 10
6.55103185
 20
2.85009898
  0
VERTEX
  8
0
 10
6.54968596
 20
2.84650993
  0
SEQEND
  0
POLYLINE
  8
Default_Layer
 66
   1
 39
0.000000
 70
    1
  0
VERTEX
  8
0
 10
6.97364289
 20
2.81690024
  0
VERTEX
  8
0
 10
6.94582773
 20
2.83125645
  0
VERTEX
  8
0
 10
6.92922835
 20
2.83035919
  0
VERTEX
  8
0
 10
6.91532077
 20
2.78235560
  0
VERTEX
  8
0
 10
6.95906236
 20
2.79188902
  0
VERTEX
  8
0
 10
6.97364289
 20
2.81690024
  0
SEQEND
  0
POLYLINE
  8
Default_Layer
 66
   1
 39
0.000000
 70
    1
  0
VERTEX
  8
0
 10
7.96287573
 20
2.90662657
  0
VERTEX
  8
0
 10
7.89602961
 20
2.79985224
  0
VERTEX
  8
0
 10
7.89064603
 20
2.79895497
  0
VERTEX
  8
0
 10
7.84353970
 20
2.81779750
  0
VERTEX
  8
0
 10
7.81931359
 20
2.81308687
  0
VERTEX
  8
0
 10
7.81123822
 20
2.79895497
  0
VERTEX
  8
0
 10
7.83232391
 20
2.77966381
  0
VERTEX
  8
0
 10
7.87180350
 20
2.75319454
  0
VERTEX
  8
0
 10
7.89288919
 20
2.70698548
  0
VERTEX
  8
0
 10
7.88144908
 20
2.65135515
  0
VERTEX
  8
0
 10
7.84712876
 20
2.61187557
  0
VERTEX
  8
0
 10
7.80159264
 20
2.59168714
  0
VERTEX
  8
0
 10
7.74304621
 20
2.58495767
  0
VERTEX
  8
0
 10
7.65466577
 20
2.59437893
  0
VERTEX
  8
0
 10
7.56314491
 20
2.60424883
  0
VERTEX
  8
0
 10
7.51783311
 20
2.59931388
  0
VERTEX
  8
0
 10
7.47207268
 20
2.59482756
  0
VERTEX
  8
0
 10
7.43349035
 20
2.60065977
  0
VERTEX
  8
0
 10
7.43124720
 20
2.60469746
  0
VERTEX
  8
0
 10
7.43483625
 20
2.60694062
  0
VERTEX
  8
0
 10
7.45323015
 20
2.60424883
  0
VERTEX
  8
0
 10
7.51020637
 20
2.61860504
  0
VERTEX
  8
0
 10
7.56583670
 20
2.63879347
  0
VERTEX
  8
0
 10
7.60980260
 20
2.64148526
  0
VERTEX
  8
0
 10
7.63358008
 20
2.65539284
  0
VERTEX
  8
0
 10
7.62460745
 20
2.67154358
  0
VERTEX
  8
0
 10
7.60441902
 20
2.67782442
  0
VERTEX
  8
0
 10
7.56493943
 20
2.66885179
  0
VERTEX
  8
0
 10
7.56314491
 20
2.66840316
  0
VERTEX
  8
0
 10
7.55955585
 20
2.67199221
  0
VERTEX
  8
0
 10
7.56135038
 20
2.67468400
  0
VERTEX
  8
0
 10
7.62281292
 20
2.69262927
  0
VERTEX
  8
0
 10
7.66184388
 20
2.68769432
  0
VERTEX
  8
0
 10
7.69997757
 20
2.68320800
  0
VERTEX
  8
0
 10
7.71433378
 20
2.68724569
  0
VERTEX
  8
0
 10
7.72106326
 20
2.69846148
  0
VERTEX
  8
0
 10
7.70737999
 20
2.71663106
  0
VERTEX
  8
0
 10
7.66633019
 20
2.72268759
  0
VERTEX
  8
0
 10
7.58692239
 20
2.70070464
  0
VERTEX
  8
0
 10
7.50751458
 20
2.67917032
  0
VERTEX
  8
0
 10
7.43034993
 20
2.69801285
  0
VERTEX
  8
0
 10
7.35408255
 20
2.71730401
  0
VERTEX
  8
0
 10
7.29620906
 20
2.70339643
  0
VERTEX
  8
0
 10
7.29172275
 20
2.70653685
  0
VERTEX
  8
0
 10
7.29351727
 20
2.70922864
  0
VERTEX
  8
0
 10
7.37427097
 20
2.72986570
  0
VERTEX
  8
0
 10
7.41061014
 20
2.72717391
  0
VERTEX
  8
0
 10
7.44605204
 20
2.72448212
  0
VERTEX
  8
0
 10
7.46982952
 20
2.72986570
  0
VERTEX
  8
0
 10
7.48059668
 20
2.74601644
  0
VERTEX
  8
0
 10
7.46646478
 20
2.76654133
  0
VERTEX
  8
0
 10
7.42406909
 20
2.77338297
  0
VERTEX
  8
0
 10
7.39131898
 20
2.77069118
  0
VERTEX
  8
0
 10
7.35856886
 20
2.76799939
  0
VERTEX
  8
0
 10
7.28050695
 20
2.78773918
  0
VERTEX
  8
0
 10
7.27871243
 20
2.79043097
  0
VERTEX
  8
0
 10
7.28409601
 20
2.79402002
  0
VERTEX
  8
0
 10
7.32761328
 20
2.78190697
  0
VERTEX
  8
0
 10
7.39311350
 20
2.79671181
  0
VERTEX
  8
0
 10
7.45951099
 20
2.81196529
  0
VERTEX
  8
0
 10
7.53263795
 20
2.79312276
  0
VERTEX
  8
0
 10
7.60397039
 20
2.77472886
  0
VERTEX
  8
0
 10
7.63043966
 20
2.77966381
  0
VERTEX
  8
0
 10
7.64389861
 20
2.79671181
  0
VERTEX
  8
0
 10
7.61787797
 20
2.80972213
  0
VERTEX
  8
0
 10
7.59768955
 20
2.80837624
  0
VERTEX
  8
0
 10
7.57211754
 20
2.80747898
  0
VERTEX
  8
0
 10
7.50347690
 20
2.83215372
  0
VERTEX
  8
0
 10
7.42855541
 20
2.85727709
  0
VERTEX
  8
0
 10
7.38503813
 20
2.84606130
  0
VERTEX
  8
0
 10
7.38055182
 20
2.84875309
  0
VERTEX
  8
0
 10
7.38234634
 20
2.85144488
  0
VERTEX
  8
0
 10
7.45592194
 20
2.87118467
  0
VERTEX
  8
0
 10
7.50213100
 20
2.86400657
  0
VERTEX
  8
0
 10
7.54834006
 20
2.85682846
  0
VERTEX
  8
0
 10
7.56179901
 20
2.86266067
  0
VERTEX
  8
0
 10
7.56897712
 20
2.87567099
  0
VERTEX
  8
0
 10
7.54475101
 20
2.90258889
  0
VERTEX
  8
0
 10
7.49270974
 20
2.91425331
  0
VERTEX
  8
0
 10
7.44515478
 20
2.92816090
  0
VERTEX
  8
0
 10
7.44336025
 20
2.93130132
  0
VERTEX
  8
0
 10
7.44874383
 20
2.93444174
  0
VERTEX
  8
0
 10
7.48867205
 20
2.92412321
  0
VERTEX
  8
0
 10
7.51828174
 20
2.92591774
  0
VERTEX
  8
0
 10
7.54789143
 20
2.92816090
  0
VERTEX
  8
0
 10
7.61967250
 20
2.90124299
  0
VERTEX
  8
0
 10
7.69324809
 20
2.87477373
  0
VERTEX
  8
0
 10
7.70760431
 20
2.87926004
  0
VERTEX
  8
0
 10
7.71433378
 20
2.89092447
  0
VERTEX
  8
0
 10
7.69593988
 20
2.90707521
  0
VERTEX
  8
0
 10
7.68741588
 20
2.90617794
  0
VERTEX
  8
0
 10
7.67754598
 20
2.90528068
  0
VERTEX
  8
0
 10
7.62505608
 20
2.91784237
  0
VERTEX
  8
0
 10
7.62326155
 20
2.92053416
  0
VERTEX
  8
0
 10
7.62640197
 20
2.92412321
  0
VERTEX
  8
0
 10
7.62819650
 20
2.92367458
  0
VERTEX
  8
0
 10
7.65915209
 20
2.91515058
  0
VERTEX
  8
0
 10
7.70042620
 20
2.92143142
  0
VERTEX
  8
0
 10
7.74259758
 20
2.92816090
  0
VERTEX
  8
0
 10
7.81527591
 20
2.91604784
  0
VERTEX
  8
0
 10
7.88795424
 20
2.90438342
  0
VERTEX
  8
0
 10
7.95973531
 20
2.91201015
  0
VERTEX
  8
0
 10
7.96377299
 20
2.91066426
  0
VERTEX
  8
0
 10
7.96287573
 20
2.90662657
  0
SEQEND
  0
POLYLINE
  8
Default_Layer
 66
   1
 39
0.000000
 70
    1
  0
VERTEX
  8
0
 10
0.89558098
 20
2.37230625
  0
VERTEX
  8
0
 10
0.83770749
 20
2.26687781
  0
VERTEX
  8
0
 10
0.83232391
 20
2.26508328
  0
VERTEX
  8
0
 10
0.79822790
 20
2.26956960
  0
VERTEX
  8
0
 10
0.76816958
 20
2.26912097
  0
VERTEX
  8
0
 10
0.72016599
 20
2.16055210
  0
VERTEX
  8
0
 10
0.70087483
 20
2.08159293
  0
VERTEX
  8
0
 10
0.70491252
 20
2.05646955
  0
VERTEX
  8
0
 10
0.70491252
 20
2.05288050
  0
VERTEX
  8
0
 10
0.70132346
 20
2.05198324
  0
VERTEX
  8
0
 10
0.64434724
 20
2.05467503
  0
VERTEX
  8
0
 10
0.55596680
 20
2.05198324
  0
VERTEX
  8
0
 10
0.55192912
 20
2.05377776
  0
VERTEX
  8
0
 10
0.55327501
 20
2.05736682
  0
VERTEX
  8
0
 10
0.57794975
 20
2.09280872
  0
VERTEX
  8
0
 10
0.56090175
 20
2.09819230
  0
VERTEX
  8
0
 10
0.53532974
 20
2.09236009
  0
VERTEX
  8
0
 10
0.50975774
 20
2.08652788
  0
VERTEX
  8
0
 10
0.47027815
 20
2.09684640
  0
VERTEX
  8
0
 10
0.43214446
 20
2.10761356
  0
VERTEX
  8
0
 10
0.41330193
 20
2.10581904
  0
VERTEX
  8
0
 10
0.40926424
 20
2.10761356
  0
VERTEX
  8
0
 10
0.41105877
 20
2.11209988
  0
VERTEX
  8
0
 10
0.43304172
 20
2.11793209
  0
VERTEX
  8
0
 10
0.45861373
 20
2.11479167
  0
VERTEX
  8
0
 10
0.47969942
 20
2.11165125
  0
VERTEX
  8
0
 10
0.50022432
 20
2.11681051
  0
VERTEX
  8
0
 10
0.50706595
 20
2.13228831
  0
VERTEX
  8
0
 10
0.49955137
 20
2.14709315
  0
VERTEX
  8
0
 10
0.47700763
 20
2.15202810
  0
VERTEX
  8
0
 10
0.39759982
 20
2.17849737
  0
VERTEX
  8
0
 10
0.39625393
 20
2.18118916
  0
VERTEX
  8
0
 10
0.40163751
 20
2.18432958
  0
VERTEX
  8
0
 10
0.43528488
 20
2.17535695
  0
VERTEX
  8
0
 10
0.47162405
 20
2.18118916
  0
VERTEX
  8
0
 10
0.50841184
 20
2.18747000
  0
VERTEX
  8
0
 10
0.53532974
 20
2.18208642
  0
VERTEX
  8
0
 10
0.56135038
 20
2.17715147
  0
VERTEX
  8
0
 10
0.57480933
 20
2.18657274
  0
VERTEX
  8
0
 10
0.55058322
 20
2.21079885
  0
VERTEX
  8
0
 10
0.49988784
 20
2.21842559
  0
VERTEX
  8
0
 10
0.48239121
 20
2.21618243
  0
VERTEX
  8
0
 10
0.47790489
 20
2.21842559
  0
VERTEX
  8
0
 10
0.48014805
 20
2.22246327
  0
VERTEX
  8
0
 10
0.53308659
 20
2.23323043
  0
VERTEX
  8
0
 10
0.56718259
 20
2.22919275
  0
VERTEX
  8
0
 10
0.60082997
 20
2.22515506
  0
VERTEX
  8
0
 10
0.60666218
 20
2.22470643
  0
VERTEX
  8
0
 10
0.61204576
 20
2.22470643
  0
VERTEX
  8
0
 10
0.61698071
 20
2.22739822
  0
VERTEX
  8
0
 10
0.63492598
 20
2.26284012
  0
VERTEX
  8
0
 10
0.59679228
 20
2.26508328
  0
VERTEX
  8
0
 10
0.51738448
 20
2.25431612
  0
VERTEX
  8
0
 10
0.46444594
 20
2.23457633
  0
VERTEX
  8
0
 10
0.41061014
 20
2.22380917
  0
VERTEX
  8
0
 10
0.35094213
 20
2.23816538
  0
VERTEX
  8
0
 10
0.29172275
 20
2.25252160
  0
VERTEX
  8
0
 10
0.25269179
 20
2.24579212
  0
VERTEX
  8
0
 10
0.24775684
 20
2.24938117
  0
VERTEX
  8
0
 10
0.25000000
 20
2.25207296
  0
VERTEX
  8
0
 10
0.31415433
 20
2.26642918
  0
VERTEX
  8
0
 10
0.33748318
 20
2.26463465
  0
VERTEX
  8
0
 10
0.35901750
 20
2.26284012
  0
VERTEX
  8
0
 10
0.37202782
 20
2.26687781
  0
VERTEX
  8
0
 10
0.37830866
 20
2.27764497
  0
VERTEX
  8
0
 10
0.36036339
 20
2.30546013
  0
VERTEX
  8
0
 10
0.31998654
 20
2.31667592
  0
VERTEX
  8
0
 10
0.28544190
 20
2.31129234
  0
VERTEX
  8
0
 10
0.28364738
 20
2.31084371
  0
VERTEX
  8
0
 10
0.28095559
 20
2.31398413
  0
VERTEX
  8
0
 10
0.28275011
 20
2.31667592
  0
VERTEX
  8
0
 10
0.33658591
 20
2.32878898
  0
VERTEX
  8
0
 10
0.39984298
 20
2.31533003
  0
VERTEX
  8
0
 10
0.45995962
 20
2.30187108
  0
VERTEX
  8
0
 10
0.48912068
 20
2.31667592
  0
VERTEX
  8
0
 10
0.46534320
 20
2.33776161
  0
VERTEX
  8
0
 10
0.41464782
 20
2.35211783
  0
VERTEX
  8
0
 10
0.36754150
 20
2.37768983
  0
VERTEX
  8
0
 10
0.36619560
 20
2.38038162
  0
VERTEX
  8
0
 10
0.36933603
 20
2.38352204
  0
VERTEX
  8
0
 10
0.37202782
 20
2.38262478
  0
VERTEX
  8
0
 10
0.43393899
 20
2.36019320
  0
VERTEX
  8
0
 10
0.49181247
 20
2.37230625
  0
VERTEX
  8
0
 10
0.55058322
 20
2.38486794
  0
VERTEX
  8
0
 10
0.60486765
 20
2.37634394
  0
VERTEX
  8
0
 10
0.69638852
 20
2.36781994
  0
VERTEX
  8
0
 10
0.89199192
 20
2.37768983
  0
VERTEX
  8
0
 10
0.89647824
 20
2.37634394
  0
VERTEX
  8
0
 10
0.89558098
 20
2.37230625
  0
SEQEND
  0
POLYLINE
  8
Default_Layer
 66
   1
 39
0.000000
 70
    1
  0
VERTEX
  8
0
 10
1.80809780
 20
2.37589531
  0
VERTEX
  8
0
 10
1.78039480
 20
2.33776161
  0
VERTEX
  8
0
 10
1.75471063
 20
2.26553191
  0
VERTEX
  8
0
 10
1.69818304
 20
2.12376430
  0
VERTEX
  8
0
 10
1.63402871
 20
2.07093793
  0
VERTEX
  8
0
 10
1.54385375
 20
2.05332913
  0
VERTEX
  8
0
 10
1.47431584
 20
2.06723671
  0
VERTEX
  8
0
 10
1.42765814
 20
2.10806220
  0
VERTEX
  8
0
 10
1.38189771
 20
2.12107251
  0
VERTEX
  8
0
 10
1.33748318
 20
2.12780199
  0
VERTEX
  8
0
 10
1.28275011
 20
2.11389441
  0
VERTEX
  8
0
 10
1.20872589
 20
2.09998683
  0
VERTEX
  8
0
 10
1.16475998
 20
2.10402451
  0
VERTEX
  8
0
 10
1.16161956
 20
2.10761356
  0
VERTEX
  8
0
 10
1.16520861
 20
2.11030535
  0
VERTEX
  8
0
 10
1.18674293
 20
2.10851083
  0
VERTEX
  8
0
 10
1.26480485
 20
2.13542873
  0
VERTEX
  8
0
 10
1.34286676
 20
2.16234663
  0
VERTEX
  8
0
 10
1.35856886
 20
2.16189800
  0
VERTEX
  8
0
 10
1.37427097
 20
2.16144937
  0
VERTEX
  8
0
 10
1.40029161
 20
2.17670284
  0
VERTEX
  8
0
 10
1.38683266
 20
2.18926453
  0
VERTEX
  8
0
 10
1.36170929
 20
2.19016179
  0
VERTEX
  8
0
 10
1.28813369
 20
2.17087063
  0
VERTEX
  8
0
 10
1.21321220
 20
2.15157947
  0
VERTEX
  8
0
 10
1.14546882
 20
2.16189800
  0
VERTEX
  8
0
 10
1.07862270
 20
2.17221653
  0
VERTEX
  8
0
 10
1.02254374
 20
2.15651442
  0
VERTEX
  8
0
 10
1.01760879
 20
2.15965484
  0
VERTEX
  8
0
 10
1.01940332
 20
2.16279526
  0
VERTEX
  8
0
 10
1.08041723
 20
2.19016179
  0
VERTEX
  8
0
 10
1.14591745
 20
2.19868579
  0
VERTEX
  8
0
 10
1.17238672
 20
2.19733990
  0
VERTEX
  8
0
 10
1.19885599
 20
2.19644264
  0
VERTEX
  8
0
 10
1.23654105
 20
2.20294780
  0
VERTEX
  8
0
 10
1.24910274
 20
2.22246327
  0
VERTEX
  8
0
 10
1.23923284
 20
2.23995991
  0
VERTEX
  8
0
 10
1.20962315
 20
2.24579212
  0
VERTEX
  8
0
 10
1.18135935
 20
2.24265170
  0
VERTEX
  8
0
 10
1.15264693
 20
2.23951128
  0
VERTEX
  8
0
 10
1.08714670
 20
2.25431612
  0
VERTEX
  8
0
 10
1.08490354
 20
2.25745654
  0
VERTEX
  8
0
 10
1.08938986
 20
2.26059697
  0
VERTEX
  8
0
 10
1.12842082
 20
2.25252160
  0
VERTEX
  8
0
 10
1.18405114
 20
2.26687781
  0
VERTEX
  8
0
 10
1.23788694
 20
2.28123402
  0
VERTEX
  8
0
 10
1.31594886
 20
2.26642918
  0
VERTEX
  8
0
 10
1.39087035
 20
2.25162433
  0
VERTEX
  8
0
 10
1.41980709
 20
2.25577417
  0
VERTEX
  8
0
 10
1.42945267
 20
2.26822370
  0
VERTEX
  8
0
 10
1.42362046
 20
2.28123402
  0
VERTEX
  8
0
 10
1.41061014
 20
2.28706623
  0
VERTEX
  8
0
 10
1.39087035
 20
2.28437444
  0
VERTEX
  8
0
 10
1.37068192
 20
2.28168265
  0
VERTEX
  8
0
 10
1.30563033
 20
2.29828203
  0
VERTEX
  8
0
 10
1.24192463
 20
2.31488140
  0
VERTEX
  8
0
 10
1.20827725
 20
2.30815192
  0
VERTEX
  8
0
 10
1.20379094
 20
2.31129234
  0
VERTEX
  8
0
 10
1.20603410
 20
2.31443277
  0
VERTEX
  8
0
 10
1.27288022
 20
2.32968624
  0
VERTEX
  8
0
 10
1.31864065
 20
2.32430266
  0
VERTEX
  8
0
 10
1.36305518
 20
2.31936771
  0
VERTEX
  8
0
 10
1.38189771
 20
2.32519993
  0
VERTEX
  8
0
 10
1.39131898
 20
2.33776161
  0
VERTEX
  8
0
 10
1.37157918
 20
2.35795004
  0
VERTEX
  8
0
 10
1.32716465
 20
2.36064183
  0
VERTEX
  8
0
 10
1.27960969
 20
2.36692267
  0
VERTEX
  8
0
 10
1.27736653
 20
2.37140899
  0
VERTEX
  8
0
 10
1.28140422
 20
2.37320352
  0
VERTEX
  8
0
 10
1.31415433
 20
2.36781994
  0
VERTEX
  8
0
 10
1.35542844
 20
2.37634394
  0
VERTEX
  8
0
 10
1.39670256
 20
2.38531657
  0
VERTEX
  8
0
 10
1.47521310
 20
2.37410078
  0
VERTEX
  8
0
 10
1.55417227
 20
2.36333362
  0
VERTEX
  8
0
 10
1.60307313
 20
2.37051173
  0
VERTEX
  8
0
 10
1.60711081
 20
2.36961446
  0
VERTEX
  8
0
 10
1.60666218
 20
2.36557678
  0
VERTEX
  8
0
 10
1.57122028
 20
2.28482308
  0
VERTEX
  8
0
 10
1.54923733
 20
2.17804874
  0
VERTEX
  8
0
 10
1.55686406
 20
2.16100073
  0
VERTEX
  8
0
 10
1.57436070
 20
2.15427126
  0
VERTEX
  8
0
 10
1.61428892
 20
2.18836727
  0
VERTEX
  8
0
 10
1.62685061
 20
2.22605233
  0
VERTEX
  8
0
 10
1.62101839
 20
2.23951128
  0
VERTEX
  8
0
 10
1.60755944
 20
2.24534349
  0
VERTEX
  8
0
 10
1.59006281
 20
2.23681949
  0
VERTEX
  8
0
 10
1.58737102
 20
2.23592222
  0
VERTEX
  8
0
 10
1.58378197
 20
2.23906264
  0
VERTEX
  8
0
 10
1.58467923
 20
2.24130580
  0
VERTEX
  8
0
 10
1.62281292
 20
2.26912097
  0
VERTEX
  8
0
 10
1.64928219
 20
2.30366561
  0
VERTEX
  8
0
 10
1.65915209
 20
2.33910751
  0
VERTEX
  8
0
 10
1.65186182
 20
2.35200567
  0
VERTEX
  8
0
 10
1.62999103
 20
2.35480962
  0
VERTEX
  8
0
 10
1.62595334
 20
2.35750141
  0
VERTEX
  8
0
 10
1.62864513
 20
2.36109046
  0
VERTEX
  8
0
 10
1.66767609
 20
2.36916583
  0
VERTEX
  8
0
 10
1.72869000
 20
2.36961446
  0
VERTEX
  8
0
 10
1.76682369
 20
2.37365215
  0
VERTEX
  8
0
 10
1.80585464
 20
2.38172752
  0
VERTEX
  8
0
 10
1.80989233
 20
2.37993299
  0
VERTEX
  8
0
 10
1.80809780
 20
2.37589531
  0
SEQEND
  0
POLYLINE
  8
Default_Layer
 66
   1
 39
0.000000
 70
    1
  0
VERTEX
  8
0
 10
2.76861821
 20
2.37499804
  0
VERTEX
  8
0
 10
2.71882010
 20
2.31936771
  0
VERTEX
  8
0
 10
2.65421714
 20
2.23009001
  0
VERTEX
  8
0
 10
2.55686406
 20
2.07127440
  0
VERTEX
  8
0
 10
2.56000449
 20
2.05781545
  0
VERTEX
  8
0
 10
2.56000449
 20
2.05467503
  0
VERTEX
  8
0
 10
2.55641543
 20
2.05377776
  0
VERTEX
  8
0
 10
2.50482279
 20
2.05736682
  0
VERTEX
  8
0
 10
2.38683266
 20
2.05198324
  0
VERTEX
  8
0
 10
2.38279498
 20
2.05422640
  0
VERTEX
  8
0
 10
2.38414087
 20
2.05781545
  0
VERTEX
  8
0
 10
2.39131898
 20
2.06454492
  0
VERTEX
  8
0
 10
2.39939435
 20
2.08293882
  0
VERTEX
  8
0
 10
2.39221624
 20
2.08383609
  0
VERTEX
  8
0
 10
2.35228802
 20
2.07037714
  0
VERTEX
  8
0
 10
2.31325707
 20
2.05736682
  0
VERTEX
  8
0
 10
2.28185285
 20
2.06005861
  0
VERTEX
  8
0
 10
2.24327052
 20
2.05198324
  0
VERTEX
  8
0
 10
2.23788694
 20
2.05512366
  0
VERTEX
  8
0
 10
2.24013010
 20
2.05826408
  0
VERTEX
  8
0
 10
2.27108569
 20
2.06678808
  0
VERTEX
  8
0
 10
2.29979812
 20
2.07351756
  0
VERTEX
  8
0
 10
2.31280843
 20
2.09370598
  0
VERTEX
  8
0
 10
2.30652759
 20
2.10178135
  0
VERTEX
  8
0
 10
2.29351727
 20
2.10537041
  0
VERTEX
  8
0
 10
2.23968147
 20
2.08787377
  0
VERTEX
  8
0
 10
2.18405114
 20
2.07082577
  0
VERTEX
  8
0
 10
2.12438313
 20
2.08877103
  0
VERTEX
  8
0
 10
2.06471512
 20
2.12152115
  0
VERTEX
  8
0
 10
1.99562584
 20
2.13946641
  0
VERTEX
  8
0
 10
1.94762225
 20
2.12914788
  0
VERTEX
  8
0
 10
1.94313594
 20
2.13228831
  0
VERTEX
  8
0
 10
1.94537909
 20
2.13542873
  0
VERTEX
  8
0
 10
2.01267384
 20
2.15247673
  0
VERTEX
  8
0
 10
2.07727681
 20
2.14260684
  0
VERTEX
  8
0
 10
2.14232840
 20
2.13273694
  0
VERTEX
  8
0
 10
2.15758188
 20
2.13856915
  0
VERTEX
  8
0
 10
2.16520861
 20
2.15202810
  0
VERTEX
  8
0
 10
2.14726335
 20
2.17804874
  0
VERTEX
  8
0
 10
2.11047555
 20
2.18567548
  0
VERTEX
  8
0
 10
2.07996860
 20
2.17894600
  0
VERTEX
  8
0
 10
2.07458502
 20
2.18298369
  0
VERTEX
  8
0
 10
2.07682817
 20
2.18522684
  0
VERTEX
  8
0
 10
2.13200987
 20
2.19823716
  0
VERTEX
  8
0
 10
2.20468820
 20
2.18343232
  0
VERTEX
  8
0
 10
2.25538358
 20
2.16907610
  0
VERTEX
  8
0
 10
2.26884253
 20
2.18208642
  0
VERTEX
  8
0
 10
2.25538358
 20
2.20137758
  0
VERTEX
  8
0
 10
2.22711978
 20
2.20765843
  0
VERTEX
  8
0
 10
2.21500673
 20
2.20541527
  0
VERTEX
  8
0
 10
2.21052041
 20
2.20765843
  0
VERTEX
  8
0
 10
2.21276357
 20
2.21169611
  0
VERTEX
  8
0
 10
2.25493495
 20
2.22022011
  0
VERTEX
  8
0
 10
2.29800359
 20
2.21035022
  0
VERTEX
  8
0
 10
2.34062360
 20
2.20092895
  0
VERTEX
  8
0
 10
2.35946613
 20
2.20631253
  0
VERTEX
  8
0
 10
2.36843876
 20
2.22156601
  0
VERTEX
  8
0
 10
2.35767160
 20
2.23782891
  0
VERTEX
  8
0
 10
2.32537012
 20
2.24354896
  0
VERTEX
  8
0
 10
2.26615074
 20
2.23592222
  0
VERTEX
  8
0
 10
2.20558546
 20
2.22829548
  0
VERTEX
  8
0
 10
2.12213997
 20
2.24444622
  0
VERTEX
  8
0
 10
2.03914311
 20
2.26059697
  0
VERTEX
  8
0
 10
1.98396142
 20
2.24938117
  0
VERTEX
  8
0
 10
1.97947510
 20
2.25252160
  0
VERTEX
  8
0
 10
1.98126963
 20
2.25521339
  0
VERTEX
  8
0
 10
2.07593091
 20
2.27674771
  0
VERTEX
  8
0
 10
2.11227008
 20
2.27271002
  0
VERTEX
  8
0
 10
2.14816061
 20
2.26912097
  0
VERTEX
  8
0
 10
2.17608793
 20
2.27349513
  0
VERTEX
  8
0
 10
2.18539704
 20
2.28751487
  0
VERTEX
  8
0
 10
2.15982503
 20
2.31712456
  0
VERTEX
  8
0
 10
2.10688650
 20
2.33282666
  0
VERTEX
  8
0
 10
2.06157470
 20
2.34987467
  0
VERTEX
  8
0
 10
2.06022880
 20
2.35256646
  0
VERTEX
  8
0
 10
2.06381786
 20
2.35570688
  0
VERTEX
  8
0
 10
2.06561238
 20
2.35525825
  0
VERTEX
  8
0
 10
2.11630776
 20
2.34000477
  0
VERTEX
  8
0
 10
2.15489009
 20
2.34359382
  0
VERTEX
  8
0
 10
2.19392104
 20
2.34718288
  0
VERTEX
  8
0
 10
2.26345895
 20
2.32519993
  0
VERTEX
  8
0
 10
2.33165096
 20
2.30321697
  0
VERTEX
  8
0
 10
2.36843876
 20
2.31084371
  0
VERTEX
  8
0
 10
2.32492149
 20
2.33865888
  0
VERTEX
  8
0
 10
2.28005832
 20
2.35705277
  0
VERTEX
  8
0
 10
2.25807537
 20
2.35346372
  0
VERTEX
  8
0
 10
2.25358905
 20
2.35525825
  0
VERTEX
  8
0
 10
2.25583221
 20
2.35929593
  0
VERTEX
  8
0
 10
2.30024675
 20
2.37096036
  0
VERTEX
  8
0
 10
2.32895917
 20
2.36826857
  0
VERTEX
  8
0
 10
2.35677434
 20
2.36602541
  0
VERTEX
  8
0
 10
2.40432930
 20
2.36916583
  0
VERTEX
  8
0
 10
2.45188425
 20
2.37230625
  0
VERTEX
  8
0
 10
2.48732616
 20
2.37365215
  0
VERTEX
  8
0
 10
2.52231943
 20
2.37634394
  0
VERTEX
  8
0
 10
2.52545985
 20
2.37544667
  0
VERTEX
  8
0
 10
2.52590848
 20
2.37230625
  0
VERTEX
  8
0
 10
2.51244953
 20
2.24040854
  0
VERTEX
  8
0
 10
2.51379542
 20
2.18118916
  0
VERTEX
  8
0
 10
2.55820996
 20
2.25252160
  0
VERTEX
  8
0
 10
2.54789143
 20
2.25566202
  0
VERTEX
  8
0
 10
2.53353522
 20
2.25476475
  0
VERTEX
  8
0
 10
2.52904890
 20
2.25655928
  0
VERTEX
  8
0
 10
2.53084343
 20
2.26104560
  0
VERTEX
  8
0
 10
2.55865859
 20
2.27629907
  0
VERTEX
  8
0
 10
2.58512786
 20
2.29783339
  0
VERTEX
  8
0
 10
2.59679228
 20
2.33417256
  0
VERTEX
  8
0
 10
2.59096007
 20
2.34538835
  0
VERTEX
  8
0
 10
2.57794975
 20
2.35032330
  0
VERTEX
  8
0
 10
2.56179901
 20
2.34897740
  0
VERTEX
  8
0
 10
2.55820996
 20
2.35077193
  0
VERTEX
  8
0
 10
2.56045312
 20
2.35525825
  0
VERTEX
  8
0
 10
2.65466577
 20
2.36737130
  0
VERTEX
  8
0
 10
2.76502916
 20
2.38083025
  0
VERTEX
  8
0
 10
2.77041274
 20
2.37813846
  0
VERTEX
  8
0
 10
2.76861821
 20
2.37499804
  0
SEQEND
  0
POLYLINE
  8
Default_Layer
 66
   1
 39
0.000000
 70
    1
  0
VERTEX
  8
0
 10
3.72420368
 20
2.37589531
  0
VERTEX
  8
0
 10
3.64030956
 20
2.23098727
  0
VERTEX
  8
0
 10
3.60082997
 20
2.14888768
  0
VERTEX
  8
0
 10
3.58198744
 20
2.07979840
  0
VERTEX
  8
0
 10
3.58871691
 20
2.05377776
  0
VERTEX
  8
0
 10
3.58871691
 20
2.05063734
  0
VERTEX
  8
0
 10
3.58512786
 20
2.04974008
  0
VERTEX
  8
0
 10
3.45816510
 20
2.05646955
  0
VERTEX
  8
0
 10
3.40388066
 20
2.05153461
  0
VERTEX
  8
0
 10
3.39984298
 20
2.05377776
  0
VERTEX
  8
0
 10
3.40208614
 20
2.05736682
  0
VERTEX
  8
0
 10
3.41700314
 20
2.08338745
  0
VERTEX
  8
0
 10
3.42048004
 20
2.14260684
  0
VERTEX
  8
0
 10
3.36619560
 20
2.05243187
  0
VERTEX
  8
0
 10
3.36350381
 20
2.04974008
  0
VERTEX
  8
0
 10
3.33703454
 20
2.04749692
  0
VERTEX
  8
0
 10
3.30518170
 20
2.04974008
  0
VERTEX
  8
0
 10
3.27063706
 20
2.05198324
  0
VERTEX
  8
0
 10
3.21724989
 20
2.04794555
  0
VERTEX
  8
0
 10
3.21321220
 20
2.05018871
  0
VERTEX
  8
0
 10
3.21500673
 20
2.05422640
  0
VERTEX
  8
0
 10
3.23429789
 20
2.09056556
  0
VERTEX
  8
0
 10
3.20962315
 20
2.10492177
  0
VERTEX
  8
0
 10
3.15130103
 20
2.07890114
  0
VERTEX
  8
0
 10
3.09387618
 20
2.04615103
  0
VERTEX
  8
0
 10
3.09073576
 20
2.04884282
  0
VERTEX
  8
0
 10
3.09342755
 20
2.05243187
  0
VERTEX
  8
0
 10
3.11765366
 20
2.07620935
  0
VERTEX
  8
0
 10
3.09297891
 20
2.08787377
  0
VERTEX
  8
0
 10
3.06606101
 20
2.08383609
  0
VERTEX
  8
0
 10
3.03420817
 20
2.08024703
  0
VERTEX
  8
0
 10
2.96063257
 20
2.10178135
  0
VERTEX
  8
0
 10
2.87494392
 20
2.12376430
  0
VERTEX
  8
0
 10
2.83725886
 20
2.11613757
  0
VERTEX
  8
0
 10
2.83322118
 20
2.11838072
  0
VERTEX
  8
0
 10
2.83546433
 20
2.12241841
  0
VERTEX
  8
0
 10
2.88571108
 20
2.13139104
  0
VERTEX
  8
0
 10
2.95255720
 20
2.12152115
  0
VERTEX
  8
0
 10
3.01940332
 20
2.11165125
  0
VERTEX
  8
0
 10
3.04318080
 20
2.11882936
  0
VERTEX
  8
0
 10
3.05394796
 20
2.13812052
  0
VERTEX
  8
0
 10
3.03734859
 20
2.15920621
  0
VERTEX
  8
0
 10
3.00235532
 20
2.16862747
  0
VERTEX
  8
0
 10
2.98037236
 20
2.16503842
  0
VERTEX
  8
0
 10
2.96915657
 20
2.16189800
  0
VERTEX
  8
0
 10
2.96556752
 20
2.16548705
  0
VERTEX
  8
0
 10
2.96736205
 20
2.16817884
  0
VERTEX
  8
0
 10
3.02074921
 20
2.17849737
  0
VERTEX
  8
0
 10
3.07682817
 20
2.17266516
  0
VERTEX
  8
0
 10
3.13335576
 20
2.16728158
  0
VERTEX
  8
0
 10
3.16027367
 20
2.17535695
  0
VERTEX
  8
0
 10
3.17418125
 20
2.19823716
  0
VERTEX
  8
0
 10
3.16206819
 20
2.21752832
  0
VERTEX
  8
0
 10
3.13694482
 20
2.22336054
  0
VERTEX
  8
0
 10
3.10060565
 20
2.21752832
  0
VERTEX
  8
0
 10
3.06426649
 20
2.21169611
  0
VERTEX
  8
0
 10
3.00280395
 20
2.22560369
  0
VERTEX
  8
0
 10
2.93685509
 20
2.23951128
  0
VERTEX
  8
0
 10
2.87943024
 20
2.22201464
  0
VERTEX
  8
0
 10
2.87404666
 20
2.22515506
  0
VERTEX
  8
0
 10
2.87584118
 20
2.22829548
  0
VERTEX
  8
0
 10
2.92922835
 20
2.25521339
  0
VERTEX
  8
0
 10
2.98799910
 20
2.26418602
  0
VERTEX
  8
0
 10
3.01312248
 20
2.26284012
  0
VERTEX
  8
0
 10
3.03914311
 20
2.26149423
  0
VERTEX
  8
0
 10
3.06303275
 20
2.26586839
  0
VERTEX
  8
0
 10
3.07099596
 20
2.27899086
  0
VERTEX
  8
0
 10
3.04362943
 20
2.30411424
  0
VERTEX
  8
0
 10
2.98485868
 20
2.31308687
  0
VERTEX
  8
0
 10
2.92877972
 20
2.34224793
  0
VERTEX
  8
0
 10
2.92788246
 20
2.34493972
  0
VERTEX
  8
0
 10
2.93102288
 20
2.34808014
  0
VERTEX
  8
0
 10
2.93371467
 20
2.34718288
  0
VERTEX
  8
0
 10
2.98620458
 20
2.32968624
  0
VERTEX
  8
0
 10
3.01985195
 20
2.33192940
  0
VERTEX
  8
0
 10
3.05439659
 20
2.33417256
  0
VERTEX
  8
0
 10
3.12528039
 20
2.31308687
  0
VERTEX
  8
0
 10
3.19616420
 20
2.29200118
  0
VERTEX
  8
0
 10
3.22476447
 20
2.29704829
  0
VERTEX
  8
0
 10
3.23429789
 20
2.31218961
  0
VERTEX
  8
0
 10
3.20737999
 20
2.33596709
  0
VERTEX
  8
0
 10
3.14950651
 20
2.34359382
  0
VERTEX
  8
0
 10
3.09611934
 20
2.36153909
  0
VERTEX
  8
0
 10
3.09477344
 20
2.36557678
  0
VERTEX
  8
0
 10
3.09791386
 20
2.36737130
  0
VERTEX
  8
0
 10
3.11630776
 20
2.36243636
  0
VERTEX
  8
0
 10
3.14591745
 20
2.35750141
  0
VERTEX
  8
0
 10
3.19616420
 20
2.36781994
  0
VERTEX
  8
0
 10
3.24641095
 20
2.37813846
  0
VERTEX
  8
0
 10
3.29665769
 20
2.37006309
  0
VERTEX
  8
0
 10
3.35722297
 20
2.36198772
  0
VERTEX
  8
0
 10
3.37337371
 20
2.36288499
  0
VERTEX
  8
0
 10
3.37651413
 20
2.36198772
  0
VERTEX
  8
0
 10
3.37696276
 20
2.35884730
  0
VERTEX
  8
0
 10
3.36843876
 20
2.31712456
  0
VERTEX
  8
0
 10
3.35722297
 20
2.21842559
  0
VERTEX
  8
0
 10
3.36126066
 20
2.21752832
  0
VERTEX
  8
0
 10
3.42003140
 20
2.34179930
  0
VERTEX
  8
0
 10
3.41464782
 20
2.34583698
  0
VERTEX
  8
0
 10
3.40477793
 20
2.34673425
  0
VERTEX
  8
0
 10
3.40432930
 20
2.35256646
  0
VERTEX
  8
0
 10
3.46265141
 20
2.36288499
  0
VERTEX
  8
0
 10
3.51828174
 20
2.37006309
  0
VERTEX
  8
0
 10
3.52231943
 20
2.37006309
  0
VERTEX
  8
0
 10
3.52321669
 20
2.36602541
  0
VERTEX
  8
0
 10
3.51558995
 20
2.28616897
  0
VERTEX
  8
0
 10
3.51514132
 20
2.25027844
  0
VERTEX
  8
0
 10
3.51514132
 20
2.21932285
  0
VERTEX
  8
0
 10
3.51962764
 20
2.21842559
  0
VERTEX
  8
0
 10
3.55417227
 20
2.29514160
  0
VERTEX
  8
0
 10
3.57166891
 20
2.34718288
  0
VERTEX
  8
0
 10
3.56673396
 20
2.35166919
  0
VERTEX
  8
0
 10
3.55731270
 20
2.35301509
  0
VERTEX
  8
0
 10
3.55462091
 20
2.35570688
  0
VERTEX
  8
0
 10
3.55686406
 20
2.35884730
  0
VERTEX
  8
0
 10
3.63941229
 20
2.37365215
  0
VERTEX
  8
0
 10
3.72061463
 20
2.38172752
  0
VERTEX
  8
0
 10
3.72285778
 20
2.38217615
  0
VERTEX
  8
0
 10
3.72554957
 20
2.38038162
  0
VERTEX
  8
0
 10
3.72420368
 20
2.37589531
  0
SEQEND
  0
POLYLINE
  8
Default_Layer
 66
   1
 39
0.000000
 70
    1
  0
VERTEX
  8
0
 10
4.59096007
 20
2.37858710
  0
VERTEX
  8
0
 10
4.52456258
 20
2.31802182
  0
VERTEX
  8
0
 10
4.43349035
 20
2.21707969
  0
VERTEX
  8
0
 10
4.45502467
 20
2.13183967
  0
VERTEX
  8
0
 10
4.49405563
 20
2.06364766
  0
VERTEX
  8
0
 10
4.49540153
 20
2.06005861
  0
VERTEX
  8
0
 10
4.49136384
 20
2.05826408
  0
VERTEX
  8
0
 10
4.42990130
 20
2.06140450
  0
VERTEX
  8
0
 10
4.33344549
 20
2.05826408
  0
VERTEX
  8
0
 10
4.32940781
 20
2.06050724
  0
VERTEX
  8
0
 10
4.33120233
 20
2.06454492
  0
VERTEX
  8
0
 10
4.35139076
 20
2.09370598
  0
VERTEX
  8
0
 10
4.33882907
 20
2.14529863
  0
VERTEX
  8
0
 10
4.30248991
 20
2.10267862
  0
VERTEX
  8
0
 10
4.29037685
 20
2.06992850
  0
VERTEX
  8
0
 10
4.29172275
 20
2.06319903
  0
VERTEX
  8
0
 10
4.29217138
 20
2.05916134
  0
VERTEX
  8
0
 10
4.28858232
 20
2.05826408
  0
VERTEX
  8
0
 10
4.23878421
 20
2.05916134
  0
VERTEX
  8
0
 10
4.21366083
 20
2.05691819
  0
VERTEX
  8
0
 10
4.18853746
 20
2.05512366
  0
VERTEX
  8
0
 10
4.12528039
 20
2.06992850
  0
VERTEX
  8
0
 10
4.06292059
 20
2.08473335
  0
VERTEX
  8
0
 10
3.99966353
 20
2.06364766
  0
VERTEX
  8
0
 10
3.99742037
 20
2.06275040
  0
VERTEX
  8
0
 10
3.99427995
 20
2.06589082
  0
VERTEX
  8
0
 10
3.99517721
 20
2.06813398
  0
VERTEX
  8
0
 10
4.05843428
 20
2.09639777
  0
VERTEX
  8
0
 10
4.13156124
 20
2.10806220
  0
VERTEX
  8
0
 10
4.15780619
 20
2.11950230
  0
VERTEX
  8
0
 10
4.16655451
 20
2.13677462
  0
VERTEX
  8
0
 10
4.15758188
 20
2.15202810
  0
VERTEX
  8
0
 10
4.13829071
 20
2.15830894
  0
VERTEX
  8
0
 10
4.10554060
 20
2.14754178
  0
VERTEX
  8
0
 10
4.06022880
 20
2.13677462
  0
VERTEX
  8
0
 10
3.98620458
 20
2.15561715
  0
VERTEX
  8
0
 10
3.91756393
 20
2.17445968
  0
VERTEX
  8
0
 10
3.89513235
 20
2.17042200
  0
VERTEX
  8
0
 10
3.89064603
 20
2.17266516
  0
VERTEX
  8
0
 10
3.89288919
 20
2.17670284
  0
VERTEX
  8
0
 10
3.94089278
 20
2.18567548
  0
VERTEX
  8
0
 10
3.98530731
 20
2.17984326
  0
VERTEX
  8
0
 10
4.02703006
 20
2.17401105
  0
VERTEX
  8
0
 10
4.04721848
 20
2.17984326
  0
VERTEX
  8
0
 10
4.05619112
 20
2.19509674
  0
VERTEX
  8
0
 10
4.03465680
 20
2.21797696
  0
VERTEX
  8
0
 10
3.99293405
 20
2.22380917
  0
VERTEX
  8
0
 10
3.96960520
 20
2.22246327
  0
VERTEX
  8
0
 10
3.94627636
 20
2.22111738
  0
VERTEX
  8
0
 10
3.85699865
 20
2.24175443
  0
VERTEX
  8
0
 10
3.85475550
 20
2.24579212
  0
VERTEX
  8
0
 10
3.85924181
 20
2.24758665
  0
VERTEX
  8
0
 10
3.90679677
 20
2.23861401
  0
VERTEX
  8
0
 10
3.95928668
 20
2.25072707
  0
VERTEX
  8
0
 10
4.02164648
 20
2.26284012
  0
VERTEX
  8
0
 10
4.08894123
 20
2.24624075
  0
VERTEX
  8
0
 10
4.15219830
 20
2.21483653
  0
VERTEX
  8
0
 10
4.22532526
 20
2.19823716
  0
VERTEX
  8
0
 10
4.27557201
 20
2.23009001
  0
VERTEX
  8
0
 10
4.25224316
 20
2.24713802
  0
VERTEX
  8
0
 10
4.23160610
 20
2.24444622
  0
VERTEX
  8
0
 10
4.21096904
 20
2.24175443
  0
VERTEX
  8
0
 10
4.16296546
 20
2.26104560
  0
VERTEX
  8
0
 10
4.11227008
 20
2.28033676
  0
VERTEX
  8
0
 10
4.08714670
 20
2.27629907
  0
VERTEX
  8
0
 10
4.08266039
 20
2.27943950
  0
VERTEX
  8
0
 10
4.08490354
 20
2.28257992
  0
VERTEX
  8
0
 10
4.12931808
 20
2.29334708
  0
VERTEX
  8
0
 10
4.15982503
 20
2.29020666
  0
VERTEX
  8
0
 10
4.19033199
 20
2.28706623
  0
VERTEX
  8
0
 10
4.20154778
 20
2.29155255
  0
VERTEX
  8
0
 10
4.20693136
 20
2.30276834
  0
VERTEX
  8
0
 10
4.19874383
 20
2.31690024
  0
VERTEX
  8
0
 10
4.17418125
 20
2.32161087
  0
VERTEX
  8
0
 10
4.15533872
 20
2.31981635
  0
VERTEX
  8
0
 10
4.13649619
 20
2.31802182
  0
VERTEX
  8
0
 10
4.06965007
 20
2.33821024
  0
VERTEX
  8
0
 10
3.99562584
 20
2.35884730
  0
VERTEX
  8
0
 10
3.97723194
 20
2.35705277
  0
VERTEX
  8
0
 10
3.97319426
 20
2.35974457
  0
VERTEX
  8
0
 10
3.97543742
 20
2.36333362
  0
VERTEX
  8
0
 10
3.99966353
 20
2.36781994
  0
VERTEX
  8
0
 10
4.05529385
 20
2.35974457
  0
VERTEX
  8
0
 10
4.11137281
 20
2.35166919
  0
VERTEX
  8
0
 10
4.16475998
 20
2.36602541
  0
VERTEX
  8
0
 10
4.22622252
 20
2.38038162
  0
VERTEX
  8
0
 10
4.27960969
 20
2.37589531
  0
VERTEX
  8
0
 10
4.33299686
 20
2.37140899
  0
VERTEX
  8
0
 10
4.37471961
 20
2.37589531
  0
VERTEX
  8
0
 10
4.37830866
 20
2.37320352
  0
VERTEX
  8
0
 10
4.38144908
 20
2.34808014
  0
VERTEX
  8
0
 10
4.39176761
 20
2.30142245
  0
VERTEX
  8
0
 10
4.42945267
 20
2.35391235
  0
VERTEX
  8
0
 10
4.41150740
 20
2.36064183
  0
VERTEX
  8
0
 10
4.40746972
 20
2.36288499
  0
VERTEX
  8
0
 10
4.41016151
 20
2.36692267
  0
VERTEX
  8
0
 10
4.49629879
 20
2.37410078
  0
VERTEX
  8
0
 10
4.58781965
 20
2.38397068
  0
VERTEX
  8
0
 10
4.59230597
 20
2.38262478
  0
VERTEX
  8
0
 10
4.59096007
 20
2.37858710
  0
SEQEND
  0
POLYLINE
  8
Default_Layer
 66
   1
 39
0.000000
 70
    1
  0
VERTEX
  8
0
 10
5.59813818
 20
2.37589531
  0
VERTEX
  8
0
 10
5.51424406
 20
2.23098727
  0
VERTEX
  8
0
 10
5.47476447
 20
2.14888768
  0
VERTEX
  8
0
 10
5.45592194
 20
2.07979840
  0
VERTEX
  8
0
 10
5.46265141
 20
2.05377776
  0
VERTEX
  8
0
 10
5.46265141
 20
2.05063734
  0
VERTEX
  8
0
 10
5.45906236
 20
2.04974008
  0
VERTEX
  8
0
 10
5.33209960
 20
2.05646955
  0
VERTEX
  8
0
 10
5.27781516
 20
2.05153461
  0
VERTEX
  8
0
 10
5.27377748
 20
2.05377776
  0
VERTEX
  8
0
 10
5.27602064
 20
2.05736682
  0
VERTEX
  8
0
 10
5.29093764
 20
2.08338745
  0
VERTEX
  8
0
 10
5.29441454
 20
2.14260684
  0
VERTEX
  8
0
 10
5.24013010
 20
2.05243187
  0
VERTEX
  8
0
 10
5.23743831
 20
2.04974008
  0
VERTEX
  8
0
 10
5.21096904
 20
2.04749692
  0
VERTEX
  8
0
 10
5.17911620
 20
2.04974008
  0
VERTEX
  8
0
 10
5.14457156
 20
2.05198324
  0
VERTEX
  8
0
 10
5.09118439
 20
2.04794555
  0
VERTEX
  8
0
 10
5.08714670
 20
2.05018871
  0
VERTEX
  8
0
 10
5.08894123
 20
2.05422640
  0
VERTEX
  8
0
 10
5.10823239
 20
2.09056556
  0
VERTEX
  8
0
 10
5.08355765
 20
2.10492177
  0
VERTEX
  8
0
 10
5.02523553
 20
2.07890114
  0
VERTEX
  8
0
 10
4.96781068
 20
2.04615103
  0
VERTEX
  8
0
 10
4.96467026
 20
2.04884282
  0
VERTEX
  8
0
 10
4.96736205
 20
2.05243187
  0
VERTEX
  8
0
 10
4.99158816
 20
2.07620935
  0
VERTEX
  8
0
 10
4.96691341
 20
2.08787377
  0
VERTEX
  8
0
 10
4.93999551
 20
2.08383609
  0
VERTEX
  8
0
 10
4.90814266
 20
2.08024703
  0
VERTEX
  8
0
 10
4.83456707
 20
2.10178135
  0
VERTEX
  8
0
 10
4.74887842
 20
2.12376430
  0
VERTEX
  8
0
 10
4.71119336
 20
2.11613757
  0
VERTEX
  8
0
 10
4.70715568
 20
2.11838072
  0
VERTEX
  8
0
 10
4.70939883
 20
2.12241841
  0
VERTEX
  8
0
 10
4.75964558
 20
2.13139104
  0
VERTEX
  8
0
 10
4.82649170
 20
2.12152115
  0
VERTEX
  8
0
 10
4.89333782
 20
2.11165125
  0
VERTEX
  8
0
 10
4.91711530
 20
2.11882936
  0
VERTEX
  8
0
 10
4.92788246
 20
2.13812052
  0
VERTEX
  8
0
 10
4.91128309
 20
2.15920621
  0
VERTEX
  8
0
 10
4.87628982
 20
2.16862747
  0
VERTEX
  8
0
 10
4.85430686
 20
2.16503842
  0
VERTEX
  8
0
 10
4.84309107
 20
2.16189800
  0
VERTEX
  8
0
 10
4.83950202
 20
2.16548705
  0
VERTEX
  8
0
 10
4.84129655
 20
2.16817884
  0
VERTEX
  8
0
 10
4.89468371
 20
2.17849737
  0
VERTEX
  8
0
 10
4.95076267
 20
2.17266516
  0
VERTEX
  8
0
 10
5.00729026
 20
2.16728158
  0
VERTEX
  8
0
 10
5.03420817
 20
2.17535695
  0
VERTEX
  8
0
 10
5.04811575
 20
2.19823716
  0
VERTEX
  8
0
 10
5.03600269
 20
2.21752832
  0
VERTEX
  8
0
 10
5.01087932
 20
2.22336054
  0
VERTEX
  8
0
 10
4.97454015
 20
2.21752832
  0
VERTEX
  8
0
 10
4.93820099
 20
2.21169611
  0
VERTEX
  8
0
 10
4.87673845
 20
2.22560369
  0
VERTEX
  8
0
 10
4.81078959
 20
2.23951128
  0
VERTEX
  8
0
 10
4.75336474
 20
2.22201464
  0
VERTEX
  8
0
 10
4.74798116
 20
2.22515506
  0
VERTEX
  8
0
 10
4.74977568
 20
2.22829548
  0
VERTEX
  8
0
 10
4.80316285
 20
2.25521339
  0
VERTEX
  8
0
 10
4.86193360
 20
2.26418602
  0
VERTEX
  8
0
 10
4.88705698
 20
2.26284012
  0
VERTEX
  8
0
 10
4.91307761
 20
2.26149423
  0
VERTEX
  8
0
 10
4.93696725
 20
2.26586839
  0
VERTEX
  8
0
 10
4.94493046
 20
2.27899086
  0
VERTEX
  8
0
 10
4.91756393
 20
2.30411424
  0
VERTEX
  8
0
 10
4.85879318
 20
2.31308687
  0
VERTEX
  8
0
 10
4.80271422
 20
2.34224793
  0
VERTEX
  8
0
 10
4.80181696
 20
2.34493972
  0
VERTEX
  8
0
 10
4.80495738
 20
2.34808014
  0
VERTEX
  8
0
 10
4.80764917
 20
2.34718288
  0
VERTEX
  8
0
 10
4.86013908
 20
2.32968624
  0
VERTEX
  8
0
 10
4.89378645
 20
2.33192940
  0
VERTEX
  8
0
 10
4.92833109
 20
2.33417256
  0
VERTEX
  8
0
 10
4.99921489
 20
2.31308687
  0
VERTEX
  8
0
 10
5.07009870
 20
2.29200118
  0
VERTEX
  8
0
 10
5.09869897
 20
2.29704829
  0
VERTEX
  8
0
 10
5.10823239
 20
2.31218961
  0
VERTEX
  8
0
 10
5.08131449
 20
2.33596709
  0
VERTEX
  8
0
 10
5.02344100
 20
2.34359382
  0
VERTEX
  8
0
 10
4.97005384
 20
2.36153909
  0
VERTEX
  8
0
 10
4.96870794
 20
2.36557678
  0
VERTEX
  8
0
 10
4.97184836
 20
2.36737130
  0
VERTEX
  8
0
 10
4.99024226
 20
2.36243636
  0
VERTEX
  8
0
 10
5.01985195
 20
2.35750141
  0
VERTEX
  8
0
 10
5.07009870
 20
2.36781994
  0
VERTEX
  8
0
 10
5.12034545
 20
2.37813846
  0
VERTEX
  8
0
 10
5.17059219
 20
2.37006309
  0
VERTEX
  8
0
 10
5.23115747
 20
2.36198772
  0
VERTEX
  8
0
 10
5.24730821
 20
2.36288499
  0
VERTEX
  8
0
 10
5.25044863
 20
2.36198772
  0
VERTEX
  8
0
 10
5.25089726
 20
2.35884730
  0
VERTEX
  8
0
 10
5.24237326
 20
2.31712456
  0
VERTEX
  8
0
 10
5.23115747
 20
2.21842559
  0
VERTEX
  8
0
 10
5.23519515
 20
2.21752832
  0
VERTEX
  8
0
 10
5.29396590
 20
2.34179930
  0
VERTEX
  8
0
 10
5.28858232
 20
2.34583698
  0
VERTEX
  8
0
 10
5.27871243
 20
2.34673425
  0
VERTEX
  8
0
 10
5.27826380
 20
2.35256646
  0
VERTEX
  8
0
 10
5.33658591
 20
2.36288499
  0
VERTEX
  8
0
 10
5.39221624
 20
2.37006309
  0
VERTEX
  8
0
 10
5.39625393
 20
2.37006309
  0
VERTEX
  8
0
 10
5.39715119
 20
2.36602541
  0
VERTEX
  8
0
 10
5.38952445
 20
2.28616897
  0
VERTEX
  8
0
 10
5.38907582
 20
2.25027844
  0
VERTEX
  8
0
 10
5.38907582
 20
2.21932285
  0
VERTEX
  8
0
 10
5.39356214
 20
2.21842559
  0
VERTEX
  8
0
 10
5.42810677
 20
2.29514160
  0
VERTEX
  8
0
 10
5.44560341
 20
2.34718288
  0
VERTEX
  8
0
 10
5.44066846
 20
2.35166919
  0
VERTEX
  8
0
 10
5.43124720
 20
2.35301509
  0
VERTEX
  8
0
 10
5.42855541
 20
2.35570688
  0
VERTEX
  8
0
 10
5.43079856
 20
2.35884730
  0
VERTEX
  8
0
 10
5.51334679
 20
2.37365215
  0
VERTEX
  8
0
 10
5.59454913
 20
2.38172752
  0
VERTEX
  8
0
 10
5.59679228
 20
2.38217615
  0
VERTEX
  8
0
 10
5.59948407
 20
2.38038162
  0
VERTEX
  8
0
 10
5.59813818
 20
2.37589531
  0
SEQEND
  0
POLYLINE
  8
Default_Layer
 66
   1
 39
0.000000
 70
    1
  0
VERTEX
  8
0
 10
6.46085689
 20
2.37275488
  0
VERTEX
  8
0
 10
6.44784657
 20
2.34045340
  0
VERTEX
  8
0
 10
6.42362046
 20
2.26912097
  0
VERTEX
  8
0
 10
6.42137730
 20
2.26687781
  0
VERTEX
  8
0
 10
6.34735307
 20
2.21932285
  0
VERTEX
  8
0
 10
6.26525348
 20
2.14978494
  0
VERTEX
  8
0
 10
6.29934948
 20
2.14709315
  0
VERTEX
  8
0
 10
6.33165096
 20
2.14574726
  0
VERTEX
  8
0
 10
6.37875729
 20
2.15651442
  0
VERTEX
  8
0
 10
6.38324361
 20
2.15561715
  0
VERTEX
  8
0
 10
6.38234634
 20
2.15113084
  0
VERTEX
  8
0
 10
6.36664424
 20
2.12690473
  0
VERTEX
  8
0
 10
6.34376402
 20
2.05422640
  0
VERTEX
  8
0
 10
6.34017497
 20
2.05153461
  0
VERTEX
  8
0
 10
6.15399282
 20
2.05736682
  0
VERTEX
  8
0
 10
6.04542396
 20
2.05153461
  0
VERTEX
  8
0
 10
6.04183490
 20
2.05377776
  0
VERTEX
  8
0
 10
6.04452669
 20
2.05781545
  0
VERTEX
  8
0
 10
6.07817407
 20
2.10492177
  0
VERTEX
  8
0
 10
6.04004038
 20
2.09415461
  0
VERTEX
  8
0
 10
6.00998205
 20
2.09729504
  0
VERTEX
  8
0
 10
5.98171826
 20
2.10043546
  0
VERTEX
  8
0
 10
5.94223867
 20
2.08204156
  0
VERTEX
  8
0
 10
5.93954688
 20
2.08069566
  0
VERTEX
  8
0
 10
5.93595783
 20
2.08428472
  0
VERTEX
  8
0
 10
5.93685509
 20
2.08652788
  0
VERTEX
  8
0
 10
5.99158816
 20
2.11344578
  0
VERTEX
  8
0
 10
6.02882459
 20
2.13901778
  0
VERTEX
  8
0
 10
6.01626290
 20
2.14843905
  0
VERTEX
  8
0
 10
5.98261552
 20
2.14170957
  0
VERTEX
  8
0
 10
5.94896815
 20
2.13542873
  0
VERTEX
  8
0
 10
5.87180350
 20
2.15741168
  0
VERTEX
  8
0
 10
5.79508748
 20
2.17984326
  0
VERTEX
  8
0
 10
5.76592642
 20
2.17445968
  0
VERTEX
  8
0
 10
5.76144011
 20
2.17670284
  0
VERTEX
  8
0
 10
5.76368327
 20
2.18074053
  0
VERTEX
  8
0
 10
5.80361148
 20
2.18926453
  0
VERTEX
  8
0
 10
5.85251234
 20
2.18118916
  0
VERTEX
  8
0
 10
5.90096456
 20
2.17356242
  0
VERTEX
  8
0
 10
5.92294751
 20
2.18074053
  0
VERTEX
  8
0
 10
5.93281741
 20
2.19868579
  0
VERTEX
  8
0
 10
5.90500224
 20
2.22111738
  0
VERTEX
  8
0
 10
5.85385823
 20
2.22201464
  0
VERTEX
  8
0
 10
5.78028264
 20
2.22784685
  0
VERTEX
  8
0
 10
5.71253926
 20
2.25835381
  0
VERTEX
  8
0
 10
5.71119336
 20
2.26194286
  0
VERTEX
  8
0
 10
5.71388515
 20
2.26418602
  0
VERTEX
  8
0
 10
5.71567968
 20
2.26373739
  0
VERTEX
  8
0
 10
5.78970390
 20
2.24579212
  0
VERTEX
  8
0
 10
5.85340960
 20
2.25431612
  0
VERTEX
  8
0
 10
5.91756393
 20
2.26328876
  0
VERTEX
  8
0
 10
5.99562584
 20
2.24175443
  0
VERTEX
  8
0
 10
6.06157470
 20
2.20003169
  0
VERTEX
  8
0
 10
6.12662629
 20
2.17266516
  0
VERTEX
  8
0
 10
6.25000000
 20
2.26912097
  0
VERTEX
  8
0
 10
6.23115747
 20
2.27315865
  0
VERTEX
  8
0
 10
6.21590399
 20
2.27450455
  0
VERTEX
  8
0
 10
6.15847914
 20
2.25835381
  0
VERTEX
  8
0
 10
6.09836249
 20
2.24175443
  0
VERTEX
  8
0
 10
6.03061911
 20
2.25745654
  0
VERTEX
  8
0
 10
5.97229699
 20
2.28841213
  0
VERTEX
  8
0
 10
5.90455361
 20
2.30501150
  0
VERTEX
  8
0
 10
5.86956034
 20
2.30097382
  0
VERTEX
  8
0
 10
5.83322118
 20
2.29828203
  0
VERTEX
  8
0
 10
5.80540601
 20
2.30097382
  0
VERTEX
  8
0
 10
5.80271422
 20
2.30456287
  0
VERTEX
  8
0
 10
5.80675191
 20
2.30725466
  0
VERTEX
  8
0
 10
5.81796770
 20
2.30635740
  0
VERTEX
  8
0
 10
5.87000897
 20
2.31398413
  0
VERTEX
  8
0
 10
5.93371467
 20
2.32205950
  0
VERTEX
  8
0
 10
5.96422162
 20
2.31802182
  0
VERTEX
  8
0
 10
5.99293405
 20
2.31443277
  0
VERTEX
  8
0
 10
6.00459847
 20
2.31802182
  0
VERTEX
  8
0
 10
6.00998205
 20
2.32699445
  0
VERTEX
  8
0
 10
5.98844773
 20
2.35256646
  0
VERTEX
  8
0
 10
5.94493046
 20
2.36198772
  0
VERTEX
  8
0
 10
5.91621803
 20
2.35660414
  0
VERTEX
  8
0
 10
5.91128309
 20
2.35974457
  0
VERTEX
  8
0
 10
5.91352624
 20
2.36288499
  0
VERTEX
  8
0
 10
5.95480036
 20
2.37051173
  0
VERTEX
  8
0
 10
6.01760879
 20
2.35480962
  0
VERTEX
  8
0
 10
6.07189323
 20
2.32519993
  0
VERTEX
  8
0
 10
6.13515029
 20
2.30949782
  0
VERTEX
  8
0
 10
6.14591745
 20
2.31533003
  0
VERTEX
  8
0
 10
6.15174966
 20
2.32789172
  0
VERTEX
  8
0
 10
6.12528039
 20
2.35570688
  0
VERTEX
  8
0
 10
6.07144459
 20
2.36153909
  0
VERTEX
  8
0
 10
6.02658143
 20
2.37140899
  0
VERTEX
  8
0
 10
6.02523553
 20
2.37589531
  0
VERTEX
  8
0
 10
6.02927322
 20
2.37724120
  0
VERTEX
  8
0
 10
6.04273217
 20
2.37365215
  0
VERTEX
  8
0
 10
6.09073576
 20
2.37993299
  0
VERTEX
  8
0
 10
6.13963661
 20
2.38621383
  0
VERTEX
  8
0
 10
6.21141768
 20
2.37634394
  0
VERTEX
  8
0
 10
6.33344549
 20
2.36647404
  0
VERTEX
  8
0
 10
6.45771646
 20
2.37724120
  0
VERTEX
  8
0
 10
6.46085689
 20
2.37634394
  0
VERTEX
  8
0
 10
6.46085689
 20
2.37275488
  0
SEQEND
  0
ENDSEC
  0
EOF
