999
"DXF R12 Output" (www.mydxf.blogspot.com)
 0 
SECTION
 2 
HEADER
 9 
$ACADVER
 1 
AC1009
 9 
$EXTMIN
 10 
 0 
 20 
 0 
 9 
$EXTMAX
 10 
 8.5 
 20 
 11 
 0 
ENDSEC
 0 
SECTION
 2 
ENTITIES
0
LINE
8
Calque 1
10
61.020477
20
220.133337
11
66.659630
21
225.777782
0
LINE
8
Calque 1
10
66.659630
20
225.777782
11
68.211852
21
225.777782
0
LINE
8
Calque 1
10
68.211852
20
225.777782
11
69.764075
21
225.777782
0
LINE
8
Calque 1
10
69.764075
20
225.777782
11
64.124922
21
220.133337
0
LINE
8
Calque 1
10
64.124922
20
220.133337
11
58.485769
21
214.488893
0
LINE
8
Calque 1
10
58.485769
20
214.488893
11
56.933547
21
214.488893
0
LINE
8
Calque 1
10
56.933547
20
214.488893
11
55.381325
21
214.488893
0
LINE
8
Calque 1
10
55.381325
20
214.488893
11
61.020477
21
220.133337
0
LINE
8
Calque 1
10
61.020477
20
220.133337
11
61.020477
21
220.133337
0
LINE
8
Calque 1
10
66.947144
20
220.133337
11
72.586297
21
225.777782
0
LINE
8
Calque 1
10
72.586297
20
225.777782
11
74.138519
21
225.777782
0
LINE
8
Calque 1
10
74.138519
20
225.777782
11
75.690741
21
225.777782
0
LINE
8
Calque 1
10
75.690741
20
225.777782
11
70.051589
21
220.133337
0
LINE
8
Calque 1
10
70.051589
20
220.133337
11
64.412436
21
214.488893
0
LINE
8
Calque 1
10
64.412436
20
214.488893
11
62.860214
21
214.488893
0
LINE
8
Calque 1
10
62.860214
20
214.488893
11
61.307991
21
214.488893
0
LINE
8
Calque 1
10
61.307991
20
214.488893
11
66.947144
21
220.133337
0
LINE
8
Calque 1
10
66.947144
20
220.133337
11
66.947144
21
220.133337
0
LINE
8
Calque 1
10
67.370477
20
214.703275
11
72.805902
21
220.347719
0
LINE
8
Calque 1
10
72.805902
20
220.347719
11
78.241327
21
225.777782
0
LINE
8
Calque 1
10
78.241327
20
225.777782
11
79.720347
21
225.777782
0
LINE
8
Calque 1
10
79.720347
20
225.777782
11
80.764904
21
225.714807
0
LINE
8
Calque 1
10
80.764904
20
225.714807
11
81.199366
21
225.563400
0
LINE
8
Calque 1
10
81.199366
20
225.563400
11
75.763941
21
219.918956
0
LINE
8
Calque 1
10
75.763941
20
219.918956
11
70.328516
21
214.488893
0
LINE
8
Calque 1
10
70.328516
20
214.488893
11
68.849497
21
214.488893
0
LINE
8
Calque 1
10
68.849497
20
214.488893
11
67.804939
21
214.551868
0
LINE
8
Calque 1
10
67.804939
20
214.551868
11
67.370477
21
214.703275
0
LINE
8
Calque 1
10
67.370477
20
214.703275
11
67.370477
21
214.703275
0
LINE
8
Calque 1
10
78.518255
20
220.133337
11
84.157408
21
225.777782
0
LINE
8
Calque 1
10
84.157408
20
225.777782
11
85.709630
21
225.777782
0
LINE
8
Calque 1
10
85.709630
20
225.777782
11
87.261852
21
225.777782
0
LINE
8
Calque 1
10
87.261852
20
225.777782
11
81.622700
21
220.133337
0
LINE
8
Calque 1
10
81.622700
20
220.133337
11
75.983547
21
214.488893
0
LINE
8
Calque 1
10
75.983547
20
214.488893
11
74.431325
21
214.488893
0
LINE
8
Calque 1
10
74.431325
20
214.488893
11
72.879102
21
214.488893
0
LINE
8
Calque 1
10
72.879102
20
214.488893
11
78.518255
21
220.133337
0
LINE
8
Calque 1
10
78.518255
20
220.133337
11
78.518255
21
220.133337
0
LINE
8
Calque 1
10
84.444922
20
220.133337
11
90.084075
21
225.777782
0
LINE
8
Calque 1
10
90.084075
20
225.777782
11
91.636297
21
225.777782
0
LINE
8
Calque 1
10
91.636297
20
225.777782
11
93.188519
21
225.777782
0
LINE
8
Calque 1
10
93.188519
20
225.777782
11
87.549366
21
220.133337
0
LINE
8
Calque 1
10
87.549366
20
220.133337
11
81.910214
21
214.488893
0
LINE
8
Calque 1
10
81.910214
20
214.488893
11
80.357991
21
214.488893
0
LINE
8
Calque 1
10
80.357991
20
214.488893
11
78.805769
21
214.488893
0
LINE
8
Calque 1
10
78.805769
20
214.488893
11
84.444922
21
220.133337
0
LINE
8
Calque 1
10
84.444922
20
220.133337
11
84.444922
21
220.133337
0
LINE
8
Calque 1
10
90.371589
20
220.133337
11
96.010741
21
225.777782
0
LINE
8
Calque 1
10
96.010741
20
225.777782
11
97.918386
21
225.777782
0
LINE
8
Calque 1
10
97.918386
20
225.777782
11
99.826033
21
225.777782
0
LINE
8
Calque 1
10
99.826033
20
225.777782
11
99.826033
21
220.133337
0
LINE
8
Calque 1
10
99.826033
20
220.133337
11
99.826033
21
214.488893
0
LINE
8
Calque 1
10
99.826033
20
214.488893
11
98.414922
21
214.488893
0
LINE
8
Calque 1
10
98.414922
20
214.488893
11
97.003811
21
214.488893
0
LINE
8
Calque 1
10
97.003811
20
214.488893
11
97.003811
21
218.440004
0
LINE
8
Calque 1
10
97.003811
20
218.440004
11
96.940523
21
221.230476
0
LINE
8
Calque 1
10
96.940523
20
221.230476
11
96.788362
21
222.391115
0
LINE
8
Calque 1
10
96.788362
20
222.391115
11
92.629366
21
218.440004
0
LINE
8
Calque 1
10
92.629366
20
218.440004
11
88.685816
21
214.488893
0
LINE
8
Calque 1
10
88.685816
20
214.488893
11
86.709126
21
214.488893
0
LINE
8
Calque 1
10
86.709126
20
214.488893
11
84.732436
21
214.488893
0
LINE
8
Calque 1
10
84.732436
20
214.488893
11
90.371589
21
220.133337
0
LINE
8
Calque 1
10
90.371589
20
220.133337
11
90.371589
21
220.133337
0
LINE
8
Calque 1
10
100.390477
20
220.148086
11
100.390477
21
225.807280
0
LINE
8
Calque 1
10
100.390477
20
225.807280
11
101.872144
21
225.721975
0
LINE
8
Calque 1
10
101.872144
20
225.721975
11
103.353811
21
225.636671
0
LINE
8
Calque 1
10
103.353811
20
225.636671
11
103.431718
21
221.332782
0
LINE
8
Calque 1
10
103.431718
20
221.332782
11
103.509623
21
217.028893
0
LINE
8
Calque 1
10
103.509623
20
217.028893
11
106.606718
21
217.028893
0
LINE
8
Calque 1
10
106.606718
20
217.028893
11
109.703811
21
217.028893
0
LINE
8
Calque 1
10
109.703811
20
217.028893
11
109.703811
21
215.758893
0
LINE
8
Calque 1
10
109.703811
20
215.758893
11
109.703811
21
214.488893
0
LINE
8
Calque 1
10
109.703811
20
214.488893
11
105.047144
21
214.488893
0
LINE
8
Calque 1
10
105.047144
20
214.488893
11
100.390477
21
214.488893
0
LINE
8
Calque 1
10
100.390477
20
214.488893
11
100.390477
21
220.148086
0
LINE
8
Calque 1
10
100.390477
20
220.148086
11
100.390477
21
220.148086
0
LINE
8
Calque 1
10
109.986033
20
220.131559
11
109.986033
21
225.774226
0
LINE
8
Calque 1
10
109.986033
20
225.774226
11
114.713255
21
225.596226
0
LINE
8
Calque 1
10
114.713255
20
225.596226
11
118.203955
21
225.392296
0
LINE
8
Calque 1
10
118.203955
20
225.392296
11
119.958259
21
225.151954
0
LINE
8
Calque 1
10
119.958259
20
225.151954
11
120.354364
21
224.835934
0
LINE
8
Calque 1
10
120.354364
20
224.835934
11
120.686942
21
224.349704
0
LINE
8
Calque 1
10
120.686942
20
224.349704
11
121.133929
21
223.011383
0
LINE
8
Calque 1
10
121.133929
20
223.011383
11
121.244042
21
221.426522
0
LINE
8
Calque 1
10
121.244042
20
221.426522
11
120.962101
21
219.884655
0
LINE
8
Calque 1
10
120.962101
20
219.884655
11
120.476748
21
219.032704
0
LINE
8
Calque 1
10
120.476748
20
219.032704
11
119.620736
21
218.503773
0
LINE
8
Calque 1
10
119.620736
20
218.503773
11
118.211837
21
218.233564
0
LINE
8
Calque 1
10
118.211837
20
218.233564
11
116.067826
21
218.157782
0
LINE
8
Calque 1
10
116.067826
20
218.157782
11
113.090477
21
218.157782
0
LINE
8
Calque 1
10
113.090477
20
218.157782
11
113.090477
21
216.323337
0
LINE
8
Calque 1
10
113.090477
20
216.323337
11
113.090477
21
214.488893
0
LINE
8
Calque 1
10
113.090477
20
214.488893
11
111.538255
21
214.488893
0
LINE
8
Calque 1
10
111.538255
20
214.488893
11
109.986033
21
214.488893
0
LINE
8
Calque 1
10
109.986033
20
214.488893
11
109.986033
21
220.131559
0
LINE
8
Calque 1
10
109.986033
20
220.131559
11
109.986033
21
220.131559
0
LINE
8
Calque 1
10
118.120857
20
220.943366
11
118.366885
21
221.378267
0
LINE
8
Calque 1
10
118.366885
20
221.378267
11
118.403079
21
222.138487
0
LINE
8
Calque 1
10
118.403079
20
222.138487
11
118.311589
21
223.096671
0
LINE
8
Calque 1
10
118.311589
20
223.096671
11
115.701033
21
223.177818
0
LINE
8
Calque 1
10
115.701033
20
223.177818
11
113.090477
21
223.258963
0
LINE
8
Calque 1
10
113.090477
20
223.258963
11
113.090477
21
221.978374
0
LINE
8
Calque 1
10
113.090477
20
221.978374
11
113.090477
21
220.697782
0
LINE
8
Calque 1
10
113.090477
20
220.697782
11
115.418811
21
220.702103
0
LINE
8
Calque 1
10
115.418811
20
220.702103
11
117.172974
21
220.774756
0
LINE
8
Calque 1
10
117.172974
20
220.774756
11
118.120857
21
220.943366
0
LINE
8
Calque 1
10
118.120857
20
220.943366
11
118.120857
21
220.943366
0
LINE
8
Calque 1
10
121.839366
20
220.133337
11
121.839366
21
225.777782
0
LINE
8
Calque 1
10
121.839366
20
225.777782
11
123.250477
21
225.777782
0
LINE
8
Calque 1
10
123.250477
20
225.777782
11
124.661589
21
225.777782
0
LINE
8
Calque 1
10
124.661589
20
225.777782
11
124.661589
21
220.133337
0
LINE
8
Calque 1
10
124.661589
20
220.133337
11
124.661589
21
214.488893
0
LINE
8
Calque 1
10
124.661589
20
214.488893
11
123.250477
21
214.488893
0
LINE
8
Calque 1
10
123.250477
20
214.488893
11
121.839366
21
214.488893
0
LINE
8
Calque 1
10
121.839366
20
214.488893
11
121.839366
21
220.133337
0
LINE
8
Calque 1
10
121.839366
20
220.133337
11
121.839366
21
220.133337
0
LINE
8
Calque 1
10
125.226033
20
220.133337
11
125.226033
21
225.777782
0
LINE
8
Calque 1
10
125.226033
20
225.777782
11
126.615489
21
225.777782
0
LINE
8
Calque 1
10
126.615489
20
225.777782
11
127.745583
21
225.651918
0
LINE
8
Calque 1
10
127.745583
20
225.651918
11
128.777509
21
225.096803
0
LINE
8
Calque 1
10
128.777509
20
225.096803
11
130.051269
21
223.846154
0
LINE
8
Calque 1
10
130.051269
20
223.846154
11
131.906868
21
221.633687
0
LINE
8
Calque 1
10
131.906868
20
221.633687
11
134.116033
21
218.913948
0
LINE
8
Calque 1
10
134.116033
20
218.913948
11
134.195397
21
222.360968
0
LINE
8
Calque 1
10
134.195397
20
222.360968
11
134.274760
21
225.807988
0
LINE
8
Calque 1
10
134.274760
20
225.807988
11
135.606508
21
225.722331
0
LINE
8
Calque 1
10
135.606508
20
225.722331
11
136.938255
21
225.636671
0
LINE
8
Calque 1
10
136.938255
20
225.636671
11
137.014777
21
220.062782
0
LINE
8
Calque 1
10
137.014777
20
220.062782
11
137.091299
21
214.488893
0
LINE
8
Calque 1
10
137.091299
20
214.488893
11
135.553755
21
214.488893
0
LINE
8
Calque 1
10
135.553755
20
214.488893
11
134.016208
21
214.488893
0
LINE
8
Calque 1
10
134.016208
20
214.488893
11
131.102789
21
218.037603
0
LINE
8
Calque 1
10
131.102789
20
218.037603
11
128.189366
21
221.586316
0
LINE
8
Calque 1
10
128.189366
20
221.586316
11
128.110378
21
218.037603
0
LINE
8
Calque 1
10
128.110378
20
218.037603
11
128.031392
21
214.488893
0
LINE
8
Calque 1
10
128.031392
20
214.488893
11
126.628711
21
214.488893
0
LINE
8
Calque 1
10
126.628711
20
214.488893
11
125.226033
21
214.488893
0
LINE
8
Calque 1
10
125.226033
20
214.488893
11
125.226033
21
220.133337
0
LINE
8
Calque 1
10
125.226033
20
220.133337
11
125.226033
21
220.133337
0
LINE
8
Calque 1
10
137.643811
20
218.986076
11
137.723152
21
222.370895
0
LINE
8
Calque 1
10
137.723152
20
222.370895
11
137.913909
21
224.193669
0
LINE
8
Calque 1
10
137.913909
20
224.193669
11
138.439928
21
224.997344
0
LINE
8
Calque 1
10
138.439928
20
224.997344
11
139.459318
21
225.480088
0
LINE
8
Calque 1
10
139.459318
20
225.480088
11
141.261810
21
225.715650
0
LINE
8
Calque 1
10
141.261810
20
225.715650
11
144.137134
21
225.777782
0
LINE
8
Calque 1
10
144.137134
20
225.777782
11
148.400711
21
225.777782
0
LINE
8
Calque 1
10
148.400711
20
225.777782
11
148.313927
21
224.578337
0
LINE
8
Calque 1
10
148.313927
20
224.578337
11
148.227144
21
223.378893
0
LINE
8
Calque 1
10
148.227144
20
223.378893
11
144.346589
21
223.300373
0
LINE
8
Calque 1
10
144.346589
20
223.300373
11
140.466033
21
223.221853
0
LINE
8
Calque 1
10
140.466033
20
223.221853
11
140.466033
21
222.383151
0
LINE
8
Calque 1
10
140.466033
20
222.383151
11
140.466033
21
221.544449
0
LINE
8
Calque 1
10
140.466033
20
221.544449
11
143.852700
21
221.544449
0
LINE
8
Calque 1
10
143.852700
20
221.544449
11
147.239366
21
221.544449
0
LINE
8
Calque 1
10
147.239366
20
221.544449
11
147.239366
21
220.274449
0
LINE
8
Calque 1
10
147.239366
20
220.274449
11
147.239366
21
219.004449
0
LINE
8
Calque 1
10
147.239366
20
219.004449
11
143.852700
21
219.004449
0
LINE
8
Calque 1
10
143.852700
20
219.004449
11
140.466033
21
219.004449
0
LINE
8
Calque 1
10
140.466033
20
219.004449
11
140.466033
21
218.024635
0
LINE
8
Calque 1
10
140.466033
20
218.024635
11
140.466033
21
217.044822
0
LINE
8
Calque 1
10
140.466033
20
217.044822
11
144.346589
21
216.966302
0
LINE
8
Calque 1
10
144.346589
20
216.966302
11
148.227144
21
216.887782
0
LINE
8
Calque 1
10
148.227144
20
216.887782
11
148.313927
21
215.688337
0
LINE
8
Calque 1
10
148.313927
20
215.688337
11
148.400711
21
214.488893
0
LINE
8
Calque 1
10
148.400711
20
214.488893
11
143.022261
21
214.488893
0
LINE
8
Calque 1
10
143.022261
20
214.488893
11
137.643811
21
214.488893
0
LINE
8
Calque 1
10
137.643811
20
214.488893
11
137.643811
21
218.986076
0
LINE
8
Calque 1
10
137.643811
20
218.986076
11
137.643811
21
218.986076
0
LINE
8
Calque 1
10
149.206591
20
214.922265
11
149.001617
21
215.401846
0
LINE
8
Calque 1
10
149.001617
20
215.401846
11
149.118398
21
215.854502
0
LINE
8
Calque 1
10
149.118398
20
215.854502
11
149.500714
21
216.191308
0
LINE
8
Calque 1
10
149.500714
20
216.191308
11
150.092348
21
216.323337
0
LINE
8
Calque 1
10
150.092348
20
216.323337
11
150.640355
21
216.164256
0
LINE
8
Calque 1
10
150.640355
20
216.164256
11
150.767144
21
215.476671
0
LINE
8
Calque 1
10
150.767144
20
215.476671
11
150.640479
21
214.793940
0
LINE
8
Calque 1
10
150.640479
20
214.793940
11
150.178002
21
214.545829
0
LINE
8
Calque 1
10
150.178002
20
214.545829
11
149.649631
21
214.621685
0
LINE
8
Calque 1
10
149.649631
20
214.621685
11
149.206591
21
214.922265
0
LINE
8
Calque 1
10
149.206591
20
214.922265
11
149.206591
21
214.922265
0
LINE
8
Calque 1
10
150.626033
20
215.474901
11
150.508144
21
216.011784
0
LINE
8
Calque 1
10
150.508144
20
216.011784
11
150.068861
21
216.093654
0
LINE
8
Calque 1
10
150.068861
20
216.093654
11
149.328440
21
215.825373
0
LINE
8
Calque 1
10
149.328440
20
215.825373
11
149.216403
21
215.516499
0
LINE
8
Calque 1
10
149.216403
20
215.516499
11
149.346296
21
215.170114
0
LINE
8
Calque 1
10
149.346296
20
215.170114
11
149.648333
21
214.887794
0
LINE
8
Calque 1
10
149.648333
20
214.887794
11
150.052732
21
214.771115
0
LINE
8
Calque 1
10
150.052732
20
214.771115
11
150.498004
21
214.928284
0
LINE
8
Calque 1
10
150.498004
20
214.928284
11
150.626033
21
215.474901
0
LINE
8
Calque 1
10
150.626033
20
215.474901
11
150.626033
21
215.474901
0
LINE
8
Calque 1
10
149.497144
20
215.476671
11
149.621498
21
215.709211
0
LINE
8
Calque 1
10
149.621498
20
215.709211
11
149.920477
21
215.805931
0
LINE
8
Calque 1
10
149.920477
20
215.805931
11
150.219457
21
215.709211
0
LINE
8
Calque 1
10
150.219457
20
215.709211
11
150.343811
21
215.476671
0
LINE
8
Calque 1
10
150.343811
20
215.476671
11
150.219457
21
215.244131
0
LINE
8
Calque 1
10
150.219457
20
215.244131
11
149.920477
21
215.147411
0
LINE
8
Calque 1
10
149.920477
20
215.147411
11
149.621498
21
215.244131
0
LINE
8
Calque 1
10
149.621498
20
215.244131
11
149.497144
21
215.476671
0
LINE
8
Calque 1
10
149.497144
20
215.476671
11
149.497144
21
215.476671
 0 
ENDSEC
 0 
EOF
