999
"DXF R12 Output" (www.mydxf.blogspot.com)
 0 
SECTION
 2 
HEADER
 9 
$ACADVER
 1 
AC1009
 9 
$EXTMIN
 10 
 0 
 20 
 0 
 9 
$EXTMAX
 10 
 8.5 
 20 
 11 
 0 
ENDSEC
 0 
SECTION
 2 
ENTITIES
0
LINE
8
Calque 1
10
100.511429
20
141.203275
11
95.158576
21
141.551048
0
LINE
8
Calque 1
10
95.158576
20
141.551048
11
89.975653
21
142.109118
0
LINE
8
Calque 1
10
89.975653
20
142.109118
11
85.007457
21
142.867280
0
LINE
8
Calque 1
10
85.007457
20
142.867280
11
80.298784
21
143.815332
0
LINE
8
Calque 1
10
80.298784
20
143.815332
11
75.894430
21
144.943069
0
LINE
8
Calque 1
10
75.894430
20
144.943069
11
71.839191
21
146.240288
0
LINE
8
Calque 1
10
71.839191
20
146.240288
11
68.177863
21
147.696785
0
LINE
8
Calque 1
10
68.177863
20
147.696785
11
64.955242
21
149.302356
0
LINE
8
Calque 1
10
64.955242
20
149.302356
11
62.723499
21
150.774751
0
LINE
8
Calque 1
10
62.723499
20
150.774751
11
60.632690
21
152.541860
0
LINE
8
Calque 1
10
60.632690
20
152.541860
11
58.941318
21
154.358724
0
LINE
8
Calque 1
10
58.941318
20
154.358724
11
57.907888
21
155.980388
0
LINE
8
Calque 1
10
57.907888
20
155.980388
11
57.458431
21
157.495765
0
LINE
8
Calque 1
10
57.458431
20
157.495765
11
57.326929
21
159.123161
0
LINE
8
Calque 1
10
57.326929
20
159.123161
11
57.511498
21
160.747134
0
LINE
8
Calque 1
10
57.511498
20
160.747134
11
58.010253
21
162.252241
0
LINE
8
Calque 1
10
58.010253
20
162.252241
11
59.159424
21
164.071794
0
LINE
8
Calque 1
10
59.159424
20
164.071794
11
60.871205
21
165.847666
0
LINE
8
Calque 1
10
60.871205
20
165.847666
11
63.103777
21
167.557506
0
LINE
8
Calque 1
10
63.103777
20
167.557506
11
65.815317
21
169.178960
0
LINE
8
Calque 1
10
65.815317
20
169.178960
11
68.964007
21
170.689677
0
LINE
8
Calque 1
10
68.964007
20
170.689677
11
72.508024
21
172.067305
0
LINE
8
Calque 1
10
72.508024
20
172.067305
11
76.405550
21
173.289491
0
LINE
8
Calque 1
10
76.405550
20
173.289491
11
80.614763
21
174.333883
0
LINE
8
Calque 1
10
80.614763
20
174.333883
11
84.001429
21
175.071787
0
LINE
8
Calque 1
10
84.001429
20
175.071787
11
87.872821
21
179.016215
0
LINE
8
Calque 1
10
87.872821
20
179.016215
11
91.744216
21
182.960641
0
LINE
8
Calque 1
10
91.744216
20
182.960641
11
107.988140
21
182.960641
0
LINE
8
Calque 1
10
107.988140
20
182.960641
11
124.232066
21
182.960641
0
LINE
8
Calque 1
10
124.232066
20
182.960641
11
124.507303
21
182.236712
0
LINE
8
Calque 1
10
124.507303
20
182.236712
11
124.782540
21
180.759894
0
LINE
8
Calque 1
10
124.782540
20
180.759894
11
124.813009
21
180.377437
0
LINE
8
Calque 1
10
124.813009
20
180.377437
11
124.971448
21
180.333045
0
LINE
8
Calque 1
10
124.971448
20
180.333045
11
126.074427
21
181.483823
0
LINE
8
Calque 1
10
126.074427
20
181.483823
11
127.366310
21
182.960641
0
LINE
8
Calque 1
10
127.366310
20
182.960641
11
132.248758
21
182.960641
0
LINE
8
Calque 1
10
132.248758
20
182.960641
11
136.199771
21
182.879610
0
LINE
8
Calque 1
10
136.199771
20
182.879610
11
137.077400
21
182.758063
0
LINE
8
Calque 1
10
137.077400
20
182.758063
11
137.459982
21
182.564488
0
LINE
8
Calque 1
10
137.459982
20
182.564488
11
137.548562
21
182.182181
0
LINE
8
Calque 1
10
137.548562
20
182.182181
11
137.399631
21
181.401320
0
LINE
8
Calque 1
10
137.399631
20
181.401320
11
136.224541
21
178.040889
0
LINE
8
Calque 1
10
136.224541
20
178.040889
11
134.660318
21
173.780375
0
LINE
8
Calque 1
10
134.660318
20
173.780375
11
135.095669
21
173.647307
0
LINE
8
Calque 1
10
135.095669
20
173.647307
11
136.658216
21
173.267759
0
LINE
8
Calque 1
10
136.658216
20
173.267759
11
139.483128
21
172.352386
0
LINE
8
Calque 1
10
139.483128
20
172.352386
11
145.007316
21
170.253791
0
LINE
8
Calque 1
10
145.007316
20
170.253791
11
148.038077
21
168.687470
0
LINE
8
Calque 1
10
148.038077
20
168.687470
11
150.573962
21
167.020111
0
LINE
8
Calque 1
10
150.573962
20
167.020111
11
152.604847
21
165.266683
0
LINE
8
Calque 1
10
152.604847
20
165.266683
11
154.120606
21
163.442153
0
LINE
8
Calque 1
10
154.120606
20
163.442153
11
155.111116
21
161.561489
0
LINE
8
Calque 1
10
155.111116
20
161.561489
11
155.566252
21
159.639659
0
LINE
8
Calque 1
10
155.566252
20
159.639659
11
155.475889
21
157.691631
0
LINE
8
Calque 1
10
155.475889
20
157.691631
11
154.829902
21
155.732374
0
LINE
8
Calque 1
10
154.829902
20
155.732374
11
153.857464
21
154.228081
0
LINE
8
Calque 1
10
153.857464
20
154.228081
11
152.367860
21
152.605923
0
LINE
8
Calque 1
10
152.367860
20
152.605923
11
150.526699
21
151.025155
0
LINE
8
Calque 1
10
150.526699
20
151.025155
11
148.499593
21
149.645030
0
LINE
8
Calque 1
10
148.499593
20
149.645030
11
144.342997
21
147.539695
0
LINE
8
Calque 1
10
144.342997
20
147.539695
11
139.453117
21
145.697976
0
LINE
8
Calque 1
10
139.453117
20
145.697976
11
133.933463
21
144.138081
0
LINE
8
Calque 1
10
133.933463
20
144.138081
11
127.887545
21
142.878219
0
LINE
8
Calque 1
10
127.887545
20
142.878219
11
121.418874
21
141.936599
0
LINE
8
Calque 1
10
121.418874
20
141.936599
11
114.630957
21
141.331429
0
LINE
8
Calque 1
10
114.630957
20
141.331429
11
107.627306
21
141.080918
0
LINE
8
Calque 1
10
107.627306
20
141.080918
11
100.511429
21
141.203275
0
LINE
8
Calque 1
10
100.511429
20
141.203275
11
100.511429
21
141.203275
0
LINE
8
Calque 1
10
89.756285
20
144.648974
11
90.248352
21
146.204922
0
LINE
8
Calque 1
10
90.248352
20
146.204922
11
90.202826
21
146.482611
0
LINE
8
Calque 1
10
90.202826
20
146.482611
11
89.977711
21
146.553974
0
LINE
8
Calque 1
10
89.977711
20
146.553974
11
89.632531
21
146.325991
0
LINE
8
Calque 1
10
89.632531
20
146.325991
11
89.380845
21
145.777863
0
LINE
8
Calque 1
10
89.380845
20
145.777863
11
89.049008
21
144.507863
0
LINE
8
Calque 1
10
89.049008
20
144.507863
11
89.029022
21
144.117698
0
LINE
8
Calque 1
10
89.029022
20
144.117698
11
89.217261
21
144.026528
0
LINE
8
Calque 1
10
89.217261
20
144.026528
11
89.498193
21
144.211304
0
LINE
8
Calque 1
10
89.498193
20
144.211304
11
89.756285
21
144.648974
0
LINE
8
Calque 1
10
89.756285
20
144.648974
11
89.756285
21
144.648974
0
LINE
8
Calque 1
10
91.098328
20
144.931196
11
91.362434
21
145.848418
0
LINE
8
Calque 1
10
91.362434
20
145.848418
11
91.905559
21
144.931196
0
LINE
8
Calque 1
10
91.905559
20
144.931196
11
92.387827
21
144.283408
0
LINE
8
Calque 1
10
92.387827
20
144.283408
11
92.784639
21
144.013974
0
LINE
8
Calque 1
10
92.784639
20
144.013974
11
93.149021
21
144.387037
0
LINE
8
Calque 1
10
93.149021
20
144.387037
11
93.553325
21
145.283974
0
LINE
8
Calque 1
10
93.553325
20
145.283974
11
93.834803
21
146.322779
0
LINE
8
Calque 1
10
93.834803
20
146.322779
11
93.776526
21
146.506963
0
LINE
8
Calque 1
10
93.776526
20
146.506963
11
93.587923
21
146.553974
0
LINE
8
Calque 1
10
93.587923
20
146.553974
11
93.237373
21
146.286275
0
LINE
8
Calque 1
10
93.237373
20
146.286275
11
92.953645
21
145.642656
0
LINE
8
Calque 1
10
92.953645
20
145.642656
11
92.717499
21
144.731341
0
LINE
8
Calque 1
10
92.717499
20
144.731341
11
92.174410
21
145.650716
0
LINE
8
Calque 1
10
92.174410
20
145.650716
11
91.668559
21
146.276473
0
LINE
8
Calque 1
10
91.668559
20
146.276473
11
91.215001
21
146.489915
0
LINE
8
Calque 1
10
91.215001
20
146.489915
11
90.789510
21
146.057758
0
LINE
8
Calque 1
10
90.789510
20
146.057758
11
90.436340
21
145.211686
0
LINE
8
Calque 1
10
90.436340
20
145.211686
11
90.286159
21
144.385743
0
LINE
8
Calque 1
10
90.286159
20
144.385743
11
90.328022
21
144.115959
0
LINE
8
Calque 1
10
90.328022
20
144.115959
11
90.469633
21
144.013974
0
LINE
8
Calque 1
10
90.469633
20
144.013974
11
90.804703
21
144.283408
0
LINE
8
Calque 1
10
90.804703
20
144.283408
11
91.098328
21
144.931196
0
LINE
8
Calque 1
10
91.098328
20
144.931196
11
91.098328
21
144.931196
0
LINE
8
Calque 1
10
95.431429
20
145.001752
11
95.774697
21
145.699370
0
LINE
8
Calque 1
10
95.774697
20
145.699370
11
96.142217
21
145.989530
0
LINE
8
Calque 1
10
96.142217
20
145.989530
11
96.701429
21
146.271752
0
LINE
8
Calque 1
10
96.701429
20
146.271752
11
96.479979
21
146.477507
0
LINE
8
Calque 1
10
96.479979
20
146.477507
11
95.589197
21
146.553974
0
LINE
8
Calque 1
10
95.589197
20
146.553974
11
94.680496
21
146.471071
0
LINE
8
Calque 1
10
94.680496
20
146.471071
11
94.302540
21
146.271752
0
LINE
8
Calque 1
10
94.302540
20
146.271752
11
94.424843
21
146.072432
0
LINE
8
Calque 1
10
94.424843
20
146.072432
11
94.718889
21
145.989530
0
LINE
8
Calque 1
10
94.718889
20
145.989530
11
94.995194
21
145.842937
0
LINE
8
Calque 1
10
94.995194
20
145.842937
11
94.860000
21
145.265601
0
LINE
8
Calque 1
10
94.860000
20
145.265601
11
94.598451
21
144.300308
0
LINE
8
Calque 1
10
94.598451
20
144.300308
11
94.658369
21
144.082236
0
LINE
8
Calque 1
10
94.658369
20
144.082236
11
94.845099
21
144.013974
0
LINE
8
Calque 1
10
94.845099
20
144.013974
11
95.124720
21
144.304134
0
LINE
8
Calque 1
10
95.124720
20
144.304134
11
95.431429
21
145.001752
0
LINE
8
Calque 1
10
95.431429
20
145.001752
11
95.431429
21
145.001752
0
LINE
8
Calque 1
10
96.419207
20
144.296196
11
96.744758
21
144.495516
0
LINE
8
Calque 1
10
96.744758
20
144.495516
11
97.282531
21
144.578418
0
LINE
8
Calque 1
10
97.282531
20
144.578418
11
97.769065
21
144.495516
0
LINE
8
Calque 1
10
97.769065
20
144.495516
11
97.971429
21
144.296196
0
LINE
8
Calque 1
10
97.971429
20
144.296196
11
98.054332
21
144.096877
0
LINE
8
Calque 1
10
98.054332
20
144.096877
11
98.253652
21
144.013974
0
LINE
8
Calque 1
10
98.253652
20
144.013974
11
98.452971
21
144.387037
0
LINE
8
Calque 1
10
98.452971
20
144.387037
11
98.535874
21
145.283974
0
LINE
8
Calque 1
10
98.535874
20
145.283974
11
98.435277
21
146.317706
0
LINE
8
Calque 1
10
98.435277
20
146.317706
11
98.270623
21
146.505061
0
LINE
8
Calque 1
10
98.270623
20
146.505061
11
97.995145
21
146.553974
0
LINE
8
Calque 1
10
97.995145
20
146.553974
11
97.441810
21
146.251958
0
LINE
8
Calque 1
10
97.441810
20
146.251958
11
96.679420
21
145.551187
0
LINE
8
Calque 1
10
96.679420
20
145.551187
11
96.004518
21
144.759572
0
LINE
8
Calque 1
10
96.004518
20
144.759572
11
95.713652
21
144.185029
0
LINE
8
Calque 1
10
95.713652
20
144.185029
11
95.797227
21
144.042408
0
LINE
8
Calque 1
10
95.797227
20
144.042408
11
95.995316
21
144.021690
0
LINE
8
Calque 1
10
95.995316
20
144.021690
11
96.419207
21
144.296196
0
LINE
8
Calque 1
10
96.419207
20
144.296196
11
96.419207
21
144.296196
0
LINE
8
Calque 1
10
97.124763
20
145.267317
11
97.406985
21
145.566196
0
LINE
8
Calque 1
10
97.406985
20
145.566196
11
97.606304
21
145.601588
0
LINE
8
Calque 1
10
97.606304
20
145.601588
11
97.689207
21
145.441742
0
LINE
8
Calque 1
10
97.689207
20
145.441742
11
97.606304
21
145.230659
0
LINE
8
Calque 1
10
97.606304
20
145.230659
11
97.406985
21
145.142863
0
LINE
8
Calque 1
10
97.406985
20
145.142863
11
97.124763
21
145.267317
0
LINE
8
Calque 1
10
97.124763
20
145.267317
11
97.124763
21
145.267317
0
LINE
8
Calque 1
10
99.859267
20
144.643180
11
100.140028
21
145.272389
0
LINE
8
Calque 1
10
100.140028
20
145.272389
11
100.476770
21
144.643180
0
LINE
8
Calque 1
10
100.476770
20
144.643180
11
100.837942
21
144.198803
0
LINE
8
Calque 1
10
100.837942
20
144.198803
11
101.233422
21
144.013974
0
LINE
8
Calque 1
10
101.233422
20
144.013974
11
101.504004
21
144.130764
0
LINE
8
Calque 1
10
101.504004
20
144.130764
11
101.211959
21
144.687590
0
LINE
8
Calque 1
10
101.211959
20
144.687590
11
100.983812
21
145.076216
0
LINE
8
Calque 1
10
100.983812
20
145.076216
11
100.947051
21
145.348834
0
LINE
8
Calque 1
10
100.947051
20
145.348834
11
101.558231
21
145.948650
0
LINE
8
Calque 1
10
101.558231
20
145.948650
11
101.992386
21
146.356658
0
LINE
8
Calque 1
10
101.992386
20
146.356658
11
101.969979
21
146.532116
0
LINE
8
Calque 1
10
101.969979
20
146.532116
11
101.583349
21
146.453223
0
LINE
8
Calque 1
10
101.583349
20
146.453223
11
100.924834
21
146.098182
0
LINE
8
Calque 1
10
100.924834
20
146.098182
11
100.336889
21
145.783502
0
LINE
8
Calque 1
10
100.336889
20
145.783502
11
100.229207
21
146.098182
0
LINE
8
Calque 1
10
100.229207
20
146.098182
11
100.147325
21
146.486338
0
LINE
8
Calque 1
10
100.147325
20
146.486338
11
99.942599
21
146.521926
0
LINE
8
Calque 1
10
99.942599
20
146.521926
11
99.676413
21
146.237395
0
LINE
8
Calque 1
10
99.676413
20
146.237395
11
99.410150
21
145.665194
0
LINE
8
Calque 1
10
99.410150
20
145.665194
11
99.100318
21
144.395194
0
LINE
8
Calque 1
10
99.100318
20
144.395194
11
99.175223
21
144.085189
0
LINE
8
Calque 1
10
99.175223
20
144.085189
11
99.363311
21
144.035153
0
LINE
8
Calque 1
10
99.363311
20
144.035153
11
99.859267
21
144.643180
0
LINE
8
Calque 1
10
99.859267
20
144.643180
11
99.859267
21
144.643180
0
LINE
8
Calque 1
10
104.462540
20
144.296196
11
104.255284
21
144.495516
0
LINE
8
Calque 1
10
104.255284
20
144.495516
11
103.756985
21
144.578418
0
LINE
8
Calque 1
10
103.756985
20
144.578418
11
103.258686
21
144.661321
0
LINE
8
Calque 1
10
103.258686
20
144.661321
11
103.051429
21
144.860641
0
LINE
8
Calque 1
10
103.051429
20
144.860641
11
103.300138
21
145.059960
0
LINE
8
Calque 1
10
103.300138
20
145.059960
11
103.898096
21
145.142863
0
LINE
8
Calque 1
10
103.898096
20
145.142863
11
104.496054
21
145.225766
0
LINE
8
Calque 1
10
104.496054
20
145.225766
11
104.744763
21
145.425085
0
LINE
8
Calque 1
10
104.744763
20
145.425085
11
104.532613
21
145.624405
0
LINE
8
Calque 1
10
104.532613
20
145.624405
11
104.022550
21
145.707307
0
LINE
8
Calque 1
10
104.022550
20
145.707307
11
103.555165
21
145.788566
0
LINE
8
Calque 1
10
103.555165
20
145.788566
11
103.477608
21
145.994133
0
LINE
8
Calque 1
10
103.477608
20
145.994133
11
103.659251
21
146.164273
0
LINE
8
Calque 1
10
103.659251
20
146.164273
11
103.847042
21
146.170558
0
LINE
8
Calque 1
10
103.847042
20
146.170558
11
104.603652
21
146.287232
0
LINE
8
Calque 1
10
104.603652
20
146.287232
11
104.812409
21
146.395905
0
LINE
8
Calque 1
10
104.812409
20
146.395905
11
104.790671
21
146.469253
0
LINE
8
Calque 1
10
104.790671
20
146.469253
11
103.996261
21
146.534137
0
LINE
8
Calque 1
10
103.996261
20
146.534137
11
102.960884
21
146.410135
0
LINE
8
Calque 1
10
102.960884
20
146.410135
11
102.715052
21
146.145161
0
LINE
8
Calque 1
10
102.715052
20
146.145161
11
102.514595
21
145.665194
0
LINE
8
Calque 1
10
102.514595
20
145.665194
11
102.253069
21
144.789076
0
LINE
8
Calque 1
10
102.253069
20
144.789076
11
102.268516
21
144.290148
0
LINE
8
Calque 1
10
102.268516
20
144.290148
11
102.611768
21
144.065939
0
LINE
8
Calque 1
10
102.611768
20
144.065939
11
103.333652
21
144.013974
0
LINE
8
Calque 1
10
103.333652
20
144.013974
11
104.130929
21
144.096877
0
LINE
8
Calque 1
10
104.130929
20
144.096877
11
104.462540
21
144.296196
0
LINE
8
Calque 1
10
104.462540
20
144.296196
11
104.462540
21
144.296196
0
LINE
8
Calque 1
10
108.357207
20
144.352641
11
108.641534
21
144.749467
0
LINE
8
Calque 1
10
108.641534
20
144.749467
11
108.641529
21
145.092260
0
LINE
8
Calque 1
10
108.641529
20
145.092260
11
108.354724
21
145.386500
0
LINE
8
Calque 1
10
108.354724
20
145.386500
11
107.778652
21
145.637669
0
LINE
8
Calque 1
10
107.778652
20
145.637669
11
106.861429
21
145.931905
0
LINE
8
Calque 1
10
106.861429
20
145.931905
11
107.761995
21
145.960718
0
LINE
8
Calque 1
10
107.761995
20
145.960718
11
108.452447
21
146.069131
0
LINE
8
Calque 1
10
108.452447
20
146.069131
11
108.847845
21
146.289323
0
LINE
8
Calque 1
10
108.847845
20
146.289323
11
108.851168
21
146.414391
0
LINE
8
Calque 1
10
108.851168
20
146.414391
11
108.677843
21
146.491525
0
LINE
8
Calque 1
10
108.677843
20
146.491525
11
107.806168
21
146.500990
0
LINE
8
Calque 1
10
107.806168
20
146.500990
11
106.791406
21
146.310780
0
LINE
8
Calque 1
10
106.791406
20
146.310780
11
106.582449
21
146.104334
0
LINE
8
Calque 1
10
106.582449
20
146.104334
11
106.489023
21
145.777863
0
LINE
8
Calque 1
10
106.489023
20
145.777863
11
106.557498
21
145.266425
0
LINE
8
Calque 1
10
106.557498
20
145.266425
11
107.124023
21
145.142863
0
LINE
8
Calque 1
10
107.124023
20
145.142863
11
107.636184
21
145.059960
0
LINE
8
Calque 1
10
107.636184
20
145.059960
11
107.849207
21
144.860641
0
LINE
8
Calque 1
10
107.849207
20
144.860641
11
107.559047
21
144.661321
0
LINE
8
Calque 1
10
107.559047
20
144.661321
11
106.861429
21
144.578418
0
LINE
8
Calque 1
10
106.861429
20
144.578418
11
106.163811
21
144.495516
0
LINE
8
Calque 1
10
106.163811
20
144.495516
11
105.873652
21
144.296196
0
LINE
8
Calque 1
10
105.873652
20
144.296196
11
106.204281
21
144.079224
0
LINE
8
Calque 1
10
106.204281
20
144.079224
11
106.962292
21
144.021623
0
LINE
8
Calque 1
10
106.962292
20
144.021623
11
107.796872
21
144.115420
0
LINE
8
Calque 1
10
107.796872
20
144.115420
11
108.357207
21
144.352641
0
LINE
8
Calque 1
10
108.357207
20
144.352641
11
108.357207
21
144.352641
0
LINE
8
Calque 1
10
110.671429
20
145.283974
11
111.313094
21
146.052283
0
LINE
8
Calque 1
10
111.313094
20
146.052283
11
111.515834
21
146.520655
0
LINE
8
Calque 1
10
111.515834
20
146.520655
11
111.285759
21
146.572749
0
LINE
8
Calque 1
10
111.285759
20
146.572749
11
110.628980
21
146.092225
0
LINE
8
Calque 1
10
110.628980
20
146.092225
11
110.169641
21
145.771586
0
LINE
8
Calque 1
10
110.169641
20
145.771586
11
109.941563
21
146.092225
0
LINE
8
Calque 1
10
109.941563
20
146.092225
11
109.702410
21
146.484678
0
LINE
8
Calque 1
10
109.702410
20
146.484678
11
109.477122
21
146.543107
0
LINE
8
Calque 1
10
109.477122
20
146.543107
11
109.344799
21
146.306846
0
LINE
8
Calque 1
10
109.344799
20
146.306846
11
109.384541
21
145.815232
0
LINE
8
Calque 1
10
109.384541
20
145.815232
11
109.407772
21
145.126999
0
LINE
8
Calque 1
10
109.407772
20
145.126999
11
109.089173
21
144.545232
0
LINE
8
Calque 1
10
109.089173
20
144.545232
11
108.782982
21
144.118296
0
LINE
8
Calque 1
10
108.782982
20
144.118296
11
109.016704
21
144.013974
0
LINE
8
Calque 1
10
109.016704
20
144.013974
11
109.671209
21
144.387037
0
LINE
8
Calque 1
10
109.671209
20
144.387037
11
110.671429
21
145.283974
0
LINE
8
Calque 1
10
110.671429
20
145.283974
11
110.671429
21
145.283974
0
LINE
8
Calque 1
10
113.896826
20
144.457466
11
114.222005
21
144.812835
0
LINE
8
Calque 1
10
114.222005
20
144.812835
11
114.278686
21
145.049718
0
LINE
8
Calque 1
10
114.278686
20
145.049718
11
113.423096
21
145.542365
0
LINE
8
Calque 1
10
113.423096
20
145.542365
11
112.505874
21
145.943485
0
LINE
8
Calque 1
10
112.505874
20
145.943485
11
113.423096
21
145.966509
0
LINE
8
Calque 1
10
113.423096
20
145.966509
11
114.104127
21
146.071221
0
LINE
8
Calque 1
10
114.104127
20
146.071221
11
114.320989
21
146.271726
0
LINE
8
Calque 1
10
114.320989
20
146.271726
11
114.079905
21
146.466489
0
LINE
8
Calque 1
10
114.079905
20
146.466489
11
113.387096
21
146.553974
0
LINE
8
Calque 1
10
113.387096
20
146.553974
11
112.698730
21
146.451852
0
LINE
8
Calque 1
10
112.698730
20
146.451852
11
112.170933
21
146.188605
0
LINE
8
Calque 1
10
112.170933
20
146.188605
11
111.887891
21
145.828911
0
LINE
8
Calque 1
10
111.887891
20
145.828911
11
111.933790
21
145.437446
0
LINE
8
Calque 1
10
111.933790
20
145.437446
11
112.264736
21
145.229397
0
LINE
8
Calque 1
10
112.264736
20
145.229397
11
112.804753
21
145.142863
0
LINE
8
Calque 1
10
112.804753
20
145.142863
11
113.291288
21
145.059960
0
LINE
8
Calque 1
10
113.291288
20
145.059960
11
113.493652
21
144.860641
0
LINE
8
Calque 1
10
113.493652
20
144.860641
11
113.208385
21
144.661321
0
LINE
8
Calque 1
10
113.208385
20
144.661321
11
112.522531
21
144.578418
0
LINE
8
Calque 1
10
112.522531
20
144.578418
11
111.785439
21
144.495516
0
LINE
8
Calque 1
10
111.785439
20
144.495516
11
111.376985
21
144.296196
0
LINE
8
Calque 1
10
111.376985
20
144.296196
11
111.380870
21
144.146589
0
LINE
8
Calque 1
10
111.380870
20
144.146589
11
111.578113
21
144.052173
0
LINE
8
Calque 1
10
111.578113
20
144.052173
11
112.343725
21
144.015541
0
LINE
8
Calque 1
10
112.343725
20
144.015541
11
113.255927
21
144.159553
0
LINE
8
Calque 1
10
113.255927
20
144.159553
11
113.896826
21
144.457466
0
LINE
8
Calque 1
10
113.896826
20
144.457466
11
113.896826
21
144.457466
0
LINE
8
Calque 1
10
115.873919
20
145.001752
11
116.141041
21
145.768939
0
LINE
8
Calque 1
10
116.141041
20
145.768939
11
116.610884
21
145.989530
0
LINE
8
Calque 1
10
116.610884
20
145.989530
11
117.000491
21
146.072432
0
LINE
8
Calque 1
10
117.000491
20
146.072432
11
117.162540
21
146.271752
0
LINE
8
Calque 1
10
117.162540
20
146.271752
11
116.789478
21
146.471071
0
LINE
8
Calque 1
10
116.789478
20
146.471071
11
115.892540
21
146.553974
0
LINE
8
Calque 1
10
115.892540
20
146.553974
11
114.995603
21
146.471071
0
LINE
8
Calque 1
10
114.995603
20
146.471071
11
114.622540
21
146.271752
0
LINE
8
Calque 1
10
114.622540
20
146.271752
11
114.752481
21
146.072432
0
LINE
8
Calque 1
10
114.752481
20
146.072432
11
115.064893
21
145.989530
0
LINE
8
Calque 1
10
115.064893
20
145.989530
11
115.302403
21
145.923380
0
LINE
8
Calque 1
10
115.302403
20
145.923380
11
115.369465
21
145.677899
0
LINE
8
Calque 1
10
115.369465
20
145.677899
11
114.976950
21
144.366752
0
LINE
8
Calque 1
10
114.976950
20
144.366752
11
115.007315
21
144.117602
0
LINE
8
Calque 1
10
115.007315
20
144.117602
11
115.266493
21
144.013974
0
LINE
8
Calque 1
10
115.266493
20
144.013974
11
115.624689
21
144.280606
0
LINE
8
Calque 1
10
115.624689
20
144.280606
11
115.873919
21
145.001752
0
LINE
8
Calque 1
10
115.873919
20
145.001752
11
115.873919
21
145.001752
0
LINE
8
Calque 1
10
119.138096
20
144.296196
11
118.930839
21
144.495516
0
LINE
8
Calque 1
10
118.930839
20
144.495516
11
118.432540
21
144.578418
0
LINE
8
Calque 1
10
118.432540
20
144.578418
11
117.934242
21
144.661321
0
LINE
8
Calque 1
10
117.934242
20
144.661321
11
117.726985
21
144.860641
0
LINE
8
Calque 1
10
117.726985
20
144.860641
11
117.975693
21
145.059960
0
LINE
8
Calque 1
10
117.975693
20
145.059960
11
118.573652
21
145.142863
0
LINE
8
Calque 1
10
118.573652
20
145.142863
11
119.171610
21
145.225766
0
LINE
8
Calque 1
10
119.171610
20
145.225766
11
119.420318
21
145.425085
0
LINE
8
Calque 1
10
119.420318
20
145.425085
11
119.208168
21
145.624405
0
LINE
8
Calque 1
10
119.208168
20
145.624405
11
118.698106
21
145.707307
0
LINE
8
Calque 1
10
118.698106
20
145.707307
11
118.222433
21
145.789112
0
LINE
8
Calque 1
10
118.222433
20
145.789112
11
118.162208
21
146.008769
0
LINE
8
Calque 1
10
118.162208
20
146.008769
11
118.389036
21
146.186047
0
LINE
8
Calque 1
10
118.389036
20
146.186047
11
118.672754
21
146.188937
0
LINE
8
Calque 1
10
118.672754
20
146.188937
11
119.561429
21
146.290971
0
LINE
8
Calque 1
10
119.561429
20
146.290971
11
119.750009
21
146.394952
0
LINE
8
Calque 1
10
119.750009
20
146.394952
11
119.697044
21
146.467630
0
LINE
8
Calque 1
10
119.697044
20
146.467630
11
118.820596
21
146.534137
0
LINE
8
Calque 1
10
118.820596
20
146.534137
11
117.692232
21
146.431383
0
LINE
8
Calque 1
10
117.692232
20
146.431383
11
117.478728
21
146.200690
0
LINE
8
Calque 1
10
117.478728
20
146.200690
11
117.358693
21
145.777863
0
LINE
8
Calque 1
10
117.358693
20
145.777863
11
117.010998
21
144.507863
0
LINE
8
Calque 1
10
117.010998
20
144.507863
11
116.954492
21
144.252992
0
LINE
8
Calque 1
10
116.954492
20
144.252992
11
117.063199
21
144.102962
0
LINE
8
Calque 1
10
117.063199
20
144.102962
11
117.979012
21
144.013974
0
LINE
8
Calque 1
10
117.979012
20
144.013974
11
118.797616
21
144.096877
0
LINE
8
Calque 1
10
118.797616
20
144.096877
11
119.138096
21
144.296196
0
LINE
8
Calque 1
10
119.138096
20
144.296196
11
119.138096
21
144.296196
0
LINE
8
Calque 1
10
120.684584
20
144.931196
11
120.890513
21
145.848418
0
LINE
8
Calque 1
10
120.890513
20
145.848418
11
121.160619
21
144.895089
0
LINE
8
Calque 1
10
121.160619
20
144.895089
11
121.430725
21
143.941762
0
LINE
8
Calque 1
10
121.430725
20
143.941762
11
122.224411
21
144.702162
0
LINE
8
Calque 1
10
122.224411
20
144.702162
11
123.018098
21
145.462561
0
LINE
8
Calque 1
10
123.018098
20
145.462561
11
122.879640
21
144.738269
0
LINE
8
Calque 1
10
122.879640
20
144.738269
11
122.861253
21
144.181068
0
LINE
8
Calque 1
10
122.861253
20
144.181068
11
123.039997
21
144.036075
0
LINE
8
Calque 1
10
123.039997
20
144.036075
11
123.325163
21
144.283300
0
LINE
8
Calque 1
10
123.325163
20
144.283300
11
123.626042
21
144.902754
0
LINE
8
Calque 1
10
123.626042
20
144.902754
11
123.899419
21
145.985950
0
LINE
8
Calque 1
10
123.899419
20
145.985950
11
123.786612
21
146.509116
0
LINE
8
Calque 1
10
123.786612
20
146.509116
11
123.308177
21
146.455914
0
LINE
8
Calque 1
10
123.308177
20
146.455914
11
122.484667
21
145.810005
0
LINE
8
Calque 1
10
122.484667
20
145.810005
11
121.708133
21
145.066036
0
LINE
8
Calque 1
10
121.708133
20
145.066036
11
121.521409
21
145.810005
0
LINE
8
Calque 1
10
121.521409
20
145.810005
11
121.233798
21
146.376060
0
LINE
8
Calque 1
10
121.233798
20
146.376060
11
120.833326
21
146.557441
0
LINE
8
Calque 1
10
120.833326
20
146.557441
11
120.441773
21
146.357069
0
LINE
8
Calque 1
10
120.441773
20
146.357069
11
120.180916
21
145.777863
0
LINE
8
Calque 1
10
120.180916
20
145.777863
11
119.833221
21
144.507863
0
LINE
8
Calque 1
10
119.833221
20
144.507863
11
119.792219
21
144.135613
0
LINE
8
Calque 1
10
119.792219
20
144.135613
11
120.060401
21
144.013974
0
LINE
8
Calque 1
10
120.060401
20
144.013974
11
120.418461
21
144.273996
0
LINE
8
Calque 1
10
120.418461
20
144.273996
11
120.684584
21
144.931196
0
LINE
8
Calque 1
10
120.684584
20
144.931196
11
120.684584
21
144.931196
0
LINE
8
Calque 1
10
73.084594
20
147.973354
11
75.479702
21
148.189947
0
LINE
8
Calque 1
10
75.479702
20
148.189947
11
77.191960
21
147.973755
0
LINE
8
Calque 1
10
77.191960
20
147.973755
11
79.002588
21
147.767490
0
LINE
8
Calque 1
10
79.002588
20
147.767490
11
81.905918
21
148.075380
0
LINE
8
Calque 1
10
81.905918
20
148.075380
11
87.617617
21
148.739147
0
LINE
8
Calque 1
10
87.617617
20
148.739147
11
93.912609
21
149.207932
0
LINE
8
Calque 1
10
93.912609
20
149.207932
11
100.578625
21
149.482244
0
LINE
8
Calque 1
10
100.578625
20
149.482244
11
107.403395
21
149.562597
0
LINE
8
Calque 1
10
107.403395
20
149.562597
11
114.174651
21
149.449501
0
LINE
8
Calque 1
10
114.174651
20
149.449501
11
120.680123
21
149.143467
0
LINE
8
Calque 1
10
120.680123
20
149.143467
11
126.707543
21
148.645007
0
LINE
8
Calque 1
10
126.707543
20
148.645007
11
132.044640
21
147.954632
0
LINE
8
Calque 1
10
132.044640
20
147.954632
11
133.287804
21
147.826119
0
LINE
8
Calque 1
10
133.287804
20
147.826119
11
134.426510
21
147.878324
0
LINE
8
Calque 1
10
134.426510
20
147.878324
11
135.583779
21
148.127391
0
LINE
8
Calque 1
10
135.583779
20
148.127391
11
136.882632
21
148.589459
0
LINE
8
Calque 1
10
136.882632
20
148.589459
11
137.623652
21
148.890957
0
LINE
8
Calque 1
10
137.623652
20
148.890957
11
136.918096
21
149.075709
0
LINE
8
Calque 1
10
136.918096
20
149.075709
11
136.501839
21
149.294506
0
LINE
8
Calque 1
10
136.501839
20
149.294506
11
136.185491
21
150.009965
0
LINE
8
Calque 1
10
136.185491
20
150.009965
11
135.310406
21
154.892218
0
LINE
8
Calque 1
10
135.310406
20
154.892218
11
134.393184
21
161.017863
0
LINE
8
Calque 1
10
134.393184
20
161.017863
11
134.473452
21
161.279924
0
LINE
8
Calque 1
10
134.473452
20
161.279924
11
134.849814
21
161.429155
0
LINE
8
Calque 1
10
134.849814
20
161.429155
11
137.183662
21
161.511752
0
LINE
8
Calque 1
10
137.183662
20
161.511752
11
139.203229
21
161.449575
0
LINE
8
Calque 1
10
139.203229
20
161.449575
11
140.119052
21
161.300085
0
LINE
8
Calque 1
10
140.119052
20
161.300085
11
140.347375
21
160.100641
0
LINE
8
Calque 1
10
140.347375
20
160.100641
11
140.385241
21
159.532577
0
LINE
8
Calque 1
10
140.385241
20
159.532577
11
140.289141
21
159.238998
0
LINE
8
Calque 1
10
140.289141
20
159.238998
11
139.964561
21
159.129295
0
LINE
8
Calque 1
10
139.964561
20
159.129295
11
139.316985
21
159.112863
0
LINE
8
Calque 1
10
139.316985
20
159.112863
11
138.358187
21
158.995574
0
LINE
8
Calque 1
10
138.358187
20
158.995574
11
138.254710
21
158.742788
0
LINE
8
Calque 1
10
138.254710
20
158.742788
11
138.287038
21
158.266196
0
LINE
8
Calque 1
10
138.287038
20
158.266196
11
138.397124
21
157.574847
0
LINE
8
Calque 1
10
138.397124
20
157.574847
11
138.598454
21
157.180044
0
LINE
8
Calque 1
10
138.598454
20
157.180044
11
139.005316
21
156.967687
0
LINE
8
Calque 1
10
139.005316
20
156.967687
11
139.732004
21
156.823679
0
LINE
8
Calque 1
10
139.732004
20
156.823679
11
140.426271
21
156.633378
0
LINE
8
Calque 1
10
140.426271
20
156.633378
11
140.858189
21
156.281078
0
LINE
8
Calque 1
10
140.858189
20
156.281078
11
141.080907
21
155.690200
0
LINE
8
Calque 1
10
141.080907
20
155.690200
11
141.147577
21
154.784167
0
LINE
8
Calque 1
10
141.147577
20
154.784167
11
141.120958
21
154.426493
0
LINE
8
Calque 1
10
141.120958
20
154.426493
11
140.979139
21
154.252667
0
LINE
8
Calque 1
10
140.979139
20
154.252667
11
140.010425
21
154.317131
0
LINE
8
Calque 1
10
140.010425
20
154.317131
11
139.035033
21
154.384205
0
LINE
8
Calque 1
10
139.035033
20
154.384205
11
138.960126
21
154.166934
0
LINE
8
Calque 1
10
138.960126
20
154.166934
11
139.040354
21
153.706939
0
LINE
8
Calque 1
10
139.040354
20
153.706939
11
139.327918
21
152.317392
0
LINE
8
Calque 1
10
139.327918
20
152.317392
11
139.457856
21
152.015636
0
LINE
8
Calque 1
10
139.457856
20
152.015636
11
139.750470
21
151.787787
0
LINE
8
Calque 1
10
139.750470
20
151.787787
11
141.074098
21
151.426004
0
LINE
8
Calque 1
10
141.074098
20
151.426004
11
142.703652
21
151.121199
0
LINE
8
Calque 1
10
142.703652
20
151.121199
11
144.460510
21
152.252822
0
LINE
8
Calque 1
10
144.460510
20
152.252822
11
146.519566
21
153.830565
0
LINE
8
Calque 1
10
146.519566
20
153.830565
11
148.045903
21
155.546137
0
LINE
8
Calque 1
10
148.045903
20
155.546137
11
148.996835
21
157.339086
0
LINE
8
Calque 1
10
148.996835
20
157.339086
11
149.243185
21
158.245683
0
LINE
8
Calque 1
10
149.243185
20
158.245683
11
149.329676
21
159.148953
0
LINE
8
Calque 1
10
149.329676
20
159.148953
11
149.123935
21
160.628332
0
LINE
8
Calque 1
10
149.123935
20
160.628332
11
148.497013
21
162.080849
0
LINE
8
Calque 1
10
148.497013
20
162.080849
11
147.458151
21
163.498884
0
LINE
8
Calque 1
10
147.458151
20
163.498884
11
146.016591
21
164.874816
0
LINE
8
Calque 1
10
146.016591
20
164.874816
11
144.181571
21
166.201025
0
LINE
8
Calque 1
10
144.181571
20
166.201025
11
141.962333
21
167.469890
0
LINE
8
Calque 1
10
141.962333
20
167.469890
11
139.368118
21
168.673790
0
LINE
8
Calque 1
10
139.368118
20
168.673790
11
136.408166
21
169.805106
0
LINE
8
Calque 1
10
136.408166
20
169.805106
11
133.499349
21
170.817237
0
LINE
8
Calque 1
10
133.499349
20
170.817237
11
133.120291
21
169.903940
0
LINE
8
Calque 1
10
133.120291
20
169.903940
11
131.828213
21
166.591752
0
LINE
8
Calque 1
10
131.828213
20
166.591752
11
130.636532
21
163.840085
0
LINE
8
Calque 1
10
130.636532
20
163.840085
11
128.123067
21
163.674065
0
LINE
8
Calque 1
10
128.123067
20
163.674065
11
121.740125
21
163.554329
0
LINE
8
Calque 1
10
121.740125
20
163.554329
11
102.518505
21
163.455003
0
LINE
8
Calque 1
10
102.518505
20
163.455003
11
83.277068
21
163.544691
0
LINE
8
Calque 1
10
83.277068
20
163.544691
11
76.869353
21
163.661222
0
LINE
8
Calque 1
10
76.869353
20
163.661222
11
74.321207
21
163.825974
0
LINE
8
Calque 1
10
74.321207
20
163.825974
11
74.038157
21
164.351908
0
LINE
8
Calque 1
10
74.038157
20
164.351908
11
74.286626
21
165.073501
0
LINE
8
Calque 1
10
74.286626
20
165.073501
11
75.206239
21
166.213248
0
LINE
8
Calque 1
10
75.206239
20
166.213248
11
76.936620
21
167.993640
0
LINE
8
Calque 1
10
76.936620
20
167.993640
11
79.807108
21
171.021261
0
LINE
8
Calque 1
10
79.807108
20
171.021261
11
78.740605
21
170.783221
0
LINE
8
Calque 1
10
78.740605
20
170.783221
11
76.412898
21
170.022181
0
LINE
8
Calque 1
10
76.412898
20
170.022181
11
71.651842
21
168.202388
0
LINE
8
Calque 1
10
71.651842
20
168.202388
11
69.612417
21
167.180246
0
LINE
8
Calque 1
10
69.612417
20
167.180246
11
67.839789
21
166.122238
0
LINE
8
Calque 1
10
67.839789
20
166.122238
11
66.335538
21
165.030005
0
LINE
8
Calque 1
10
66.335538
20
165.030005
11
65.101244
21
163.905187
0
LINE
8
Calque 1
10
65.101244
20
163.905187
11
64.138487
21
162.749423
0
LINE
8
Calque 1
10
64.138487
20
162.749423
11
63.448848
21
161.564355
0
LINE
8
Calque 1
10
63.448848
20
161.564355
11
63.033905
21
160.351621
0
LINE
8
Calque 1
10
63.033905
20
160.351621
11
62.895240
21
159.112863
0
LINE
8
Calque 1
10
62.895240
20
159.112863
11
62.982006
21
158.148695
0
LINE
8
Calque 1
10
62.982006
20
158.148695
11
63.242076
21
157.198793
0
LINE
8
Calque 1
10
63.242076
20
157.198793
11
63.675104
21
156.263608
0
LINE
8
Calque 1
10
63.675104
20
156.263608
11
64.280747
21
155.343597
0
LINE
8
Calque 1
10
64.280747
20
155.343597
11
66.008502
21
153.550905
0
LINE
8
Calque 1
10
66.008502
20
153.550905
11
68.422588
21
151.824347
0
LINE
8
Calque 1
10
68.422588
20
151.824347
11
69.608927
21
151.086475
0
LINE
8
Calque 1
10
69.608927
20
151.086475
11
70.128088
21
150.516054
0
LINE
8
Calque 1
10
70.128088
20
150.516054
11
70.146717
21
149.676040
0
LINE
8
Calque 1
10
70.146717
20
149.676040
11
69.831455
21
148.129384
0
LINE
8
Calque 1
10
69.831455
20
148.129384
11
69.779255
21
147.509212
0
LINE
8
Calque 1
10
69.779255
20
147.509212
11
70.063247
21
147.460760
0
LINE
8
Calque 1
10
70.063247
20
147.460760
11
73.084594
21
147.973354
0
LINE
8
Calque 1
10
73.084594
20
147.973354
11
73.084594
21
147.973354
0
LINE
8
Calque 1
10
70.313652
20
148.094769
11
73.160077
21
160.453418
0
LINE
8
Calque 1
10
73.160077
20
160.453418
11
73.439853
21
161.511752
0
LINE
8
Calque 1
10
73.439853
20
161.511752
11
76.180640
21
161.507592
0
LINE
8
Calque 1
10
76.180640
20
161.507592
11
78.098116
21
161.437110
0
LINE
8
Calque 1
10
78.098116
20
161.437110
11
79.371730
21
161.205668
0
LINE
8
Calque 1
10
79.371730
20
161.205668
11
80.124686
21
160.772887
0
LINE
8
Calque 1
10
80.124686
20
160.772887
11
80.480188
21
160.098383
0
LINE
8
Calque 1
10
80.480188
20
160.098383
11
80.546412
21
159.166189
0
LINE
8
Calque 1
10
80.546412
20
159.166189
11
80.369894
21
158.151611
0
LINE
8
Calque 1
10
80.369894
20
158.151611
11
79.999406
21
157.227501
0
LINE
8
Calque 1
10
79.999406
20
157.227501
11
79.483718
21
156.566710
0
LINE
8
Calque 1
10
79.483718
20
156.566710
11
78.791477
21
155.996114
0
LINE
8
Calque 1
10
78.791477
20
155.996114
11
79.388693
21
155.623146
0
LINE
8
Calque 1
10
79.388693
20
155.623146
11
79.705442
21
155.369304
0
LINE
8
Calque 1
10
79.705442
20
155.369304
11
79.862806
21
155.015423
0
LINE
8
Calque 1
10
79.862806
20
155.015423
11
79.814143
21
153.410772
0
LINE
8
Calque 1
10
79.814143
20
153.410772
11
79.581818
21
151.991943
0
LINE
8
Calque 1
10
79.581818
20
151.991943
11
79.179849
21
150.848811
0
LINE
8
Calque 1
10
79.179849
20
150.848811
11
78.616182
21
149.997785
0
LINE
8
Calque 1
10
78.616182
20
149.997785
11
77.898763
21
149.455272
0
LINE
8
Calque 1
10
77.898763
20
149.455272
11
76.572974
21
149.084306
0
LINE
8
Calque 1
10
76.572974
20
149.084306
11
74.385224
21
148.675839
0
LINE
8
Calque 1
10
74.385224
20
148.675839
11
70.948652
21
148.097498
0
LINE
8
Calque 1
10
70.948652
20
148.097498
11
70.313652
21
148.094769
0
LINE
8
Calque 1
10
70.313652
20
148.094769
11
70.313652
21
148.094769
0
LINE
8
Calque 1
10
75.933297
20
151.462981
11
76.214046
21
152.164149
0
LINE
8
Calque 1
10
76.214046
20
152.164149
11
76.430499
21
153.297426
0
LINE
8
Calque 1
10
76.430499
20
153.297426
11
76.484112
21
154.509978
0
LINE
8
Calque 1
10
76.484112
20
154.509978
11
76.335444
21
154.697784
0
LINE
8
Calque 1
10
76.335444
20
154.697784
11
76.033478
21
154.738418
0
LINE
8
Calque 1
10
76.033478
20
154.738418
11
75.746468
21
154.684653
0
LINE
8
Calque 1
10
75.746468
20
154.684653
11
75.542275
21
154.495090
0
LINE
8
Calque 1
10
75.542275
20
154.495090
11
75.275115
21
153.538974
0
LINE
8
Calque 1
10
75.275115
20
153.538974
11
74.926227
21
151.704530
0
LINE
8
Calque 1
10
74.926227
20
151.704530
11
74.931144
21
151.267020
0
LINE
8
Calque 1
10
74.931144
20
151.267020
11
75.160037
21
151.066676
0
LINE
8
Calque 1
10
75.160037
20
151.066676
11
75.523793
21
151.124872
0
LINE
8
Calque 1
10
75.523793
20
151.124872
11
75.933297
21
151.462981
0
LINE
8
Calque 1
10
75.933297
20
151.462981
11
75.933297
21
151.462981
0
LINE
8
Calque 1
10
77.057834
20
157.223950
11
77.336730
21
157.951736
0
LINE
8
Calque 1
10
77.336730
20
157.951736
11
77.428773
21
158.655966
0
LINE
8
Calque 1
10
77.428773
20
158.655966
11
77.334227
21
159.205498
0
LINE
8
Calque 1
10
77.334227
20
159.205498
11
77.053353
21
159.469194
0
LINE
8
Calque 1
10
77.053353
20
159.469194
11
76.823924
21
159.445266
0
LINE
8
Calque 1
10
76.823924
20
159.445266
11
76.627503
21
159.255964
0
LINE
8
Calque 1
10
76.627503
20
159.255964
11
76.277241
21
158.295917
0
LINE
8
Calque 1
10
76.277241
20
158.295917
11
75.987833
21
156.907386
0
LINE
8
Calque 1
10
75.987833
20
156.907386
11
76.091017
21
156.737068
0
LINE
8
Calque 1
10
76.091017
20
156.737068
11
76.371501
21
156.713974
0
LINE
8
Calque 1
10
76.371501
20
156.713974
11
76.743640
21
156.863779
0
LINE
8
Calque 1
10
76.743640
20
156.863779
11
77.057834
21
157.223950
0
LINE
8
Calque 1
10
77.057834
20
157.223950
11
77.057834
21
157.223950
0
LINE
8
Calque 1
10
80.578096
20
150.676239
11
81.458585
21
155.867307
0
LINE
8
Calque 1
10
81.458585
20
155.867307
11
82.315970
21
160.876752
0
LINE
8
Calque 1
10
82.315970
20
160.876752
11
82.452997
21
161.227950
0
LINE
8
Calque 1
10
82.452997
20
161.227950
11
82.791255
21
161.418233
0
LINE
8
Calque 1
10
82.791255
20
161.418233
11
84.853472
21
161.511752
0
LINE
8
Calque 1
10
84.853472
20
161.511752
11
86.930128
21
161.405846
0
LINE
8
Calque 1
10
86.930128
20
161.405846
11
87.451025
21
161.223973
0
LINE
8
Calque 1
10
87.451025
20
161.223973
11
87.846577
21
160.912159
0
LINE
8
Calque 1
10
87.846577
20
160.912159
11
88.149662
21
160.550245
0
LINE
8
Calque 1
10
88.149662
20
160.550245
11
88.307528
21
160.159728
0
LINE
8
Calque 1
10
88.307528
20
160.159728
11
88.277508
21
158.866048
0
LINE
8
Calque 1
10
88.277508
20
158.866048
11
88.004327
21
157.653108
0
LINE
8
Calque 1
10
88.004327
20
157.653108
11
87.511678
21
156.930611
0
LINE
8
Calque 1
10
87.511678
20
156.930611
11
87.072994
21
156.443128
0
LINE
8
Calque 1
10
87.072994
20
156.443128
11
87.393667
21
155.962529
0
LINE
8
Calque 1
10
87.393667
20
155.962529
11
87.626764
21
155.651809
0
LINE
8
Calque 1
10
87.626764
20
155.651809
11
87.744419
21
155.246271
0
LINE
8
Calque 1
10
87.744419
20
155.246271
11
87.683738
21
153.770337
0
LINE
8
Calque 1
10
87.683738
20
153.770337
11
87.477270
21
152.118036
0
LINE
8
Calque 1
10
87.477270
20
152.118036
11
87.230320
21
151.236212
0
LINE
8
Calque 1
10
87.230320
20
151.236212
11
86.796877
21
150.853496
0
LINE
8
Calque 1
10
86.796877
20
150.853496
11
86.030932
21
150.698520
0
LINE
8
Calque 1
10
86.030932
20
150.698520
11
84.743067
21
150.657152
0
LINE
8
Calque 1
10
84.743067
20
150.657152
11
84.974834
21
152.927754
0
LINE
8
Calque 1
10
84.974834
20
152.927754
11
85.170945
21
154.651362
0
LINE
8
Calque 1
10
85.170945
20
154.651362
11
85.019413
21
155.385546
0
LINE
8
Calque 1
10
85.019413
20
155.385546
11
84.728559
21
155.572435
0
LINE
8
Calque 1
10
84.728559
20
155.572435
11
84.516377
21
155.337850
0
LINE
8
Calque 1
10
84.516377
20
155.337850
11
84.101765
21
153.021283
0
LINE
8
Calque 1
10
84.101765
20
153.021283
11
83.608161
21
150.451934
0
LINE
8
Calque 1
10
83.608161
20
150.451934
11
81.923997
21
150.058643
0
LINE
8
Calque 1
10
81.923997
20
150.058643
11
80.411007
21
149.859612
0
LINE
8
Calque 1
10
80.411007
20
149.859612
11
80.578096
21
150.676239
0
LINE
8
Calque 1
10
80.578096
20
150.676239
11
80.578096
21
150.676239
0
LINE
8
Calque 1
10
85.543723
20
157.824310
11
85.824645
21
158.932935
0
LINE
8
Calque 1
10
85.824645
20
158.932935
11
85.750897
21
159.397168
0
LINE
8
Calque 1
10
85.750897
20
159.397168
11
85.534875
21
159.688912
0
LINE
8
Calque 1
10
85.534875
20
159.688912
11
85.289347
21
159.800253
0
LINE
8
Calque 1
10
85.289347
20
159.800253
11
85.128452
21
159.696442
0
LINE
8
Calque 1
10
85.128452
20
159.696442
11
84.855530
21
158.477863
0
LINE
8
Calque 1
10
84.855530
20
158.477863
11
84.799638
21
157.696353
0
LINE
8
Calque 1
10
84.799638
20
157.696353
11
84.922742
21
157.301248
0
LINE
8
Calque 1
10
84.922742
20
157.301248
11
85.184289
21
157.331062
0
LINE
8
Calque 1
10
85.184289
20
157.331062
11
85.543723
21
157.824310
0
LINE
8
Calque 1
10
85.543723
20
157.824310
11
85.543723
21
157.824310
0
LINE
8
Calque 1
10
129.035934
20
150.434967
11
128.012732
21
151.104529
0
LINE
8
Calque 1
10
128.012732
20
151.104529
11
127.357514
21
152.053667
0
LINE
8
Calque 1
10
127.357514
20
152.053667
11
126.927368
21
153.612630
0
LINE
8
Calque 1
10
126.927368
20
153.612630
11
126.579382
21
156.111667
0
LINE
8
Calque 1
10
126.579382
20
156.111667
11
126.287877
21
159.376234
0
LINE
8
Calque 1
10
126.287877
20
159.376234
11
126.370958
21
160.068528
0
LINE
8
Calque 1
10
126.370958
20
160.068528
11
126.609424
21
160.552044
0
LINE
8
Calque 1
10
126.609424
20
160.552044
11
127.257534
21
161.217122
0
LINE
8
Calque 1
10
127.257534
20
161.217122
11
128.099419
21
161.617750
0
LINE
8
Calque 1
10
128.099419
20
161.617750
11
129.058499
21
161.768970
0
LINE
8
Calque 1
10
129.058499
20
161.768970
11
130.058198
21
161.685820
0
LINE
8
Calque 1
10
130.058198
20
161.685820
11
131.021938
21
161.383342
0
LINE
8
Calque 1
10
131.021938
20
161.383342
11
131.873142
21
160.876575
0
LINE
8
Calque 1
10
131.873142
20
160.876575
11
132.535231
21
160.180560
0
LINE
8
Calque 1
10
132.535231
20
160.180560
11
132.931628
21
159.310337
0
LINE
8
Calque 1
10
132.931628
20
159.310337
11
133.328616
21
157.706593
0
LINE
8
Calque 1
10
133.328616
20
157.706593
11
133.380055
21
156.947212
0
LINE
8
Calque 1
10
133.380055
20
156.947212
11
133.241122
21
156.786691
0
LINE
8
Calque 1
10
133.241122
20
156.786691
11
132.973717
21
156.720302
0
LINE
8
Calque 1
10
132.973717
20
156.720302
11
131.997374
21
156.713974
0
LINE
8
Calque 1
10
131.997374
20
156.713974
11
130.452563
21
156.713974
0
LINE
8
Calque 1
10
130.452563
20
156.713974
11
130.280695
21
157.772307
0
LINE
8
Calque 1
10
130.280695
20
157.772307
11
129.801665
21
159.568794
0
LINE
8
Calque 1
10
129.801665
20
159.568794
11
129.527806
21
159.934411
0
LINE
8
Calque 1
10
129.527806
20
159.934411
11
129.257332
21
159.890543
0
LINE
8
Calque 1
10
129.257332
20
159.890543
11
129.159159
21
158.777622
0
LINE
8
Calque 1
10
129.159159
20
158.777622
11
129.289494
21
156.549324
0
LINE
8
Calque 1
10
129.289494
20
156.549324
11
129.565336
21
154.151064
0
LINE
8
Calque 1
10
129.565336
20
154.151064
11
129.903686
21
152.528257
0
LINE
8
Calque 1
10
129.903686
20
152.528257
11
130.222739
21
151.992935
0
LINE
8
Calque 1
10
130.222739
20
151.992935
11
130.514473
21
152.009864
0
LINE
8
Calque 1
10
130.514473
20
152.009864
11
130.711838
21
152.508382
0
LINE
8
Calque 1
10
130.711838
20
152.508382
11
130.747784
21
153.417827
0
LINE
8
Calque 1
10
130.747784
20
153.417827
11
130.666575
21
154.738418
0
LINE
8
Calque 1
10
130.666575
20
154.738418
11
132.203754
21
154.738418
0
LINE
8
Calque 1
10
132.203754
20
154.738418
11
133.740934
21
154.738418
0
LINE
8
Calque 1
10
133.740934
20
154.738418
11
133.923803
21
153.359881
0
LINE
8
Calque 1
10
133.923803
20
153.359881
11
133.981146
21
152.266162
0
LINE
8
Calque 1
10
133.981146
20
152.266162
11
133.842376
21
151.368932
0
LINE
8
Calque 1
10
133.842376
20
151.368932
11
133.513131
21
150.687211
0
LINE
8
Calque 1
10
133.513131
20
150.687211
11
132.999048
21
150.240022
0
LINE
8
Calque 1
10
132.999048
20
150.240022
11
132.172146
21
150.000370
0
LINE
8
Calque 1
10
132.172146
20
150.000370
11
131.103323
21
149.959503
0
LINE
8
Calque 1
10
131.103323
20
149.959503
11
129.991585
21
150.107632
0
LINE
8
Calque 1
10
129.991585
20
150.107632
11
129.035934
21
150.434967
0
LINE
8
Calque 1
10
129.035934
20
150.434967
11
129.035934
21
150.434967
0
LINE
8
Calque 1
10
123.893272
20
150.986754
11
123.469983
21
151.099376
0
LINE
8
Calque 1
10
123.469983
20
151.099376
11
123.222793
21
151.400082
0
LINE
8
Calque 1
10
123.222793
20
151.400082
11
122.947647
21
153.332370
0
LINE
8
Calque 1
10
122.947647
20
153.332370
11
122.693345
21
155.067072
0
LINE
8
Calque 1
10
122.693345
20
155.067072
11
122.336458
21
155.906474
0
LINE
8
Calque 1
10
122.336458
20
155.906474
11
122.126511
21
156.002414
0
LINE
8
Calque 1
10
122.126511
20
156.002414
11
122.029397
21
155.758835
0
LINE
8
Calque 1
10
122.029397
20
155.758835
11
122.124924
21
153.757962
0
LINE
8
Calque 1
10
122.124924
20
153.757962
11
122.327114
21
151.266089
0
LINE
8
Calque 1
10
122.327114
20
151.266089
11
121.132631
21
151.426301
0
LINE
8
Calque 1
10
121.132631
20
151.426301
11
119.848785
21
151.680800
0
LINE
8
Calque 1
10
119.848785
20
151.680800
11
119.553804
21
156.643418
0
LINE
8
Calque 1
10
119.553804
20
156.643418
11
119.348185
21
161.511752
0
LINE
8
Calque 1
10
119.348185
20
161.511752
11
121.328541
21
161.511752
0
LINE
8
Calque 1
10
121.328541
20
161.511752
11
122.971562
21
161.407036
0
LINE
8
Calque 1
10
122.971562
20
161.407036
11
123.973032
21
161.001159
0
LINE
8
Calque 1
10
123.973032
20
161.001159
11
124.285783
21
160.642288
0
LINE
8
Calque 1
10
124.285783
20
160.642288
11
124.501264
21
160.156529
0
LINE
8
Calque 1
10
124.501264
20
160.156529
11
124.724569
21
158.735552
0
LINE
8
Calque 1
10
124.724569
20
158.735552
11
124.736490
21
157.299699
0
LINE
8
Calque 1
10
124.736490
20
157.299699
11
124.612031
21
156.984531
0
LINE
8
Calque 1
10
124.612031
20
156.984531
11
124.380117
21
156.824058
0
LINE
8
Calque 1
10
124.380117
20
156.824058
11
124.081035
21
156.608217
0
LINE
8
Calque 1
10
124.081035
20
156.608217
11
124.476332
21
156.247452
0
LINE
8
Calque 1
10
124.476332
20
156.247452
11
124.833318
21
155.890581
0
LINE
8
Calque 1
10
124.833318
20
155.890581
11
125.083865
21
155.276808
0
LINE
8
Calque 1
10
125.083865
20
155.276808
11
125.496540
21
152.410085
0
LINE
8
Calque 1
10
125.496540
20
152.410085
11
125.587141
21
151.401516
0
LINE
8
Calque 1
10
125.587141
20
151.401516
11
125.462915
21
150.928232
0
LINE
8
Calque 1
10
125.462915
20
150.928232
11
124.954685
21
150.840042
0
LINE
8
Calque 1
10
124.954685
20
150.840042
11
123.893272
21
150.986754
0
LINE
8
Calque 1
10
123.893272
20
150.986754
11
123.893272
21
150.986754
0
LINE
8
Calque 1
10
122.476271
20
158.845051
11
122.292844
21
159.519081
0
LINE
8
Calque 1
10
122.292844
20
159.519081
11
122.024995
21
159.758298
0
LINE
8
Calque 1
10
122.024995
20
159.758298
11
121.783240
21
159.554927
0
LINE
8
Calque 1
10
121.783240
20
159.554927
11
121.678096
21
158.901196
0
LINE
8
Calque 1
10
121.678096
20
158.901196
11
121.870947
21
157.744085
0
LINE
8
Calque 1
10
121.870947
20
157.744085
11
122.125211
21
157.656408
0
LINE
8
Calque 1
10
122.125211
20
157.656408
11
122.339208
21
157.862247
0
LINE
8
Calque 1
10
122.339208
20
157.862247
11
122.470405
21
158.284247
0
LINE
8
Calque 1
10
122.470405
20
158.284247
11
122.476271
21
158.845051
0
LINE
8
Calque 1
10
122.476271
20
158.845051
11
122.476271
21
158.845051
0
LINE
8
Calque 1
10
89.227897
20
152.114598
11
88.791723
21
152.929585
0
LINE
8
Calque 1
10
88.791723
20
152.929585
11
88.776454
21
153.878487
0
LINE
8
Calque 1
10
88.776454
20
153.878487
11
89.259201
21
158.195641
0
LINE
8
Calque 1
10
89.259201
20
158.195641
11
89.593338
21
161.511752
0
LINE
8
Calque 1
10
89.593338
20
161.511752
11
90.811996
21
161.511752
0
LINE
8
Calque 1
10
90.811996
20
161.511752
11
91.843166
21
161.403606
0
LINE
8
Calque 1
10
91.843166
20
161.403606
11
91.949494
21
161.171807
0
LINE
8
Calque 1
10
91.949494
20
161.171807
11
91.903801
21
160.735641
0
LINE
8
Calque 1
10
91.903801
20
160.735641
11
91.447657
21
156.172540
0
LINE
8
Calque 1
10
91.447657
20
156.172540
11
91.320044
21
152.829064
0
LINE
8
Calque 1
10
91.320044
20
152.829064
11
91.684980
21
152.873452
0
LINE
8
Calque 1
10
91.684980
20
152.873452
11
92.195530
21
156.209406
0
LINE
8
Calque 1
10
92.195530
20
156.209406
11
92.592675
21
160.735641
0
LINE
8
Calque 1
10
92.592675
20
160.735641
11
92.632006
21
161.159586
0
LINE
8
Calque 1
10
92.632006
20
161.159586
11
92.783660
21
161.392744
0
LINE
8
Calque 1
10
92.783660
20
161.392744
11
93.763431
21
161.511752
0
LINE
8
Calque 1
10
93.763431
20
161.511752
11
94.917655
21
161.511752
0
LINE
8
Calque 1
10
94.917655
20
161.511752
11
94.741246
21
159.042307
0
LINE
8
Calque 1
10
94.741246
20
159.042307
11
94.248077
21
153.937891
0
LINE
8
Calque 1
10
94.248077
20
153.937891
11
93.895529
21
152.967763
0
LINE
8
Calque 1
10
93.895529
20
152.967763
11
93.307930
21
152.276253
0
LINE
8
Calque 1
10
93.307930
20
152.276253
11
92.317460
21
151.524407
0
LINE
8
Calque 1
10
92.317460
20
151.524407
11
91.105691
21
151.351752
0
LINE
8
Calque 1
10
91.105691
20
151.351752
11
89.957487
21
151.497566
0
LINE
8
Calque 1
10
89.957487
20
151.497566
11
89.227897
21
152.114598
0
LINE
8
Calque 1
10
89.227897
20
152.114598
11
89.227897
21
152.114598
0
LINE
8
Calque 1
10
114.318610
20
152.741154
11
113.876633
21
153.240177
0
LINE
8
Calque 1
10
113.876633
20
153.240177
11
113.622330
21
153.746766
0
LINE
8
Calque 1
10
113.622330
20
153.746766
11
113.453463
21
155.492821
0
LINE
8
Calque 1
10
113.453463
20
155.492821
11
113.324457
21
158.407307
0
LINE
8
Calque 1
10
113.324457
20
158.407307
11
113.315325
21
159.337012
0
LINE
8
Calque 1
10
113.315325
20
159.337012
11
113.456873
21
160.136108
0
LINE
8
Calque 1
10
113.456873
20
160.136108
11
113.735250
21
160.791965
0
LINE
8
Calque 1
10
113.735250
20
160.791965
11
114.136606
21
161.291955
0
LINE
8
Calque 1
10
114.136606
20
161.291955
11
114.647090
21
161.623446
0
LINE
8
Calque 1
10
114.647090
20
161.623446
11
115.252852
21
161.773809
0
LINE
8
Calque 1
10
115.252852
20
161.773809
11
115.940041
21
161.730414
0
LINE
8
Calque 1
10
115.940041
20
161.730414
11
116.694808
21
161.480631
0
LINE
8
Calque 1
10
116.694808
20
161.480631
11
117.346848
21
160.993181
0
LINE
8
Calque 1
10
117.346848
20
160.993181
11
117.781652
21
160.121899
0
LINE
8
Calque 1
10
117.781652
20
160.121899
11
118.053835
21
158.688767
0
LINE
8
Calque 1
10
118.053835
20
158.688767
11
118.218012
21
156.515767
0
LINE
8
Calque 1
10
118.218012
20
156.515767
11
118.254367
21
154.153824
0
LINE
8
Calque 1
10
118.254367
20
154.153824
11
118.009975
21
152.755306
0
LINE
8
Calque 1
10
118.009975
20
152.755306
11
117.751929
21
152.344491
0
LINE
8
Calque 1
10
117.751929
20
152.344491
11
117.387012
21
152.087126
0
LINE
8
Calque 1
10
117.387012
20
152.087126
11
116.287657
21
151.916196
0
LINE
8
Calque 1
10
116.287657
20
151.916196
11
115.210222
21
152.088501
0
LINE
8
Calque 1
10
115.210222
20
152.088501
11
114.318610
21
152.741154
0
LINE
8
Calque 1
10
114.318610
20
152.741154
11
114.318610
21
152.741154
0
LINE
8
Calque 1
10
116.033652
20
156.697317
11
115.956477
21
158.925764
0
LINE
8
Calque 1
10
115.956477
20
158.925764
11
115.770931
21
159.947476
0
LINE
8
Calque 1
10
115.770931
20
159.947476
11
115.555086
21
159.998622
0
LINE
8
Calque 1
10
115.555086
20
159.998622
11
115.405072
21
159.893577
0
LINE
8
Calque 1
10
115.405072
20
159.893577
11
115.337443
21
158.719867
0
LINE
8
Calque 1
10
115.337443
20
158.719867
11
115.418366
21
156.581040
0
LINE
8
Calque 1
10
115.418366
20
156.581040
11
115.585653
21
154.527469
0
LINE
8
Calque 1
10
115.585653
20
154.527469
11
115.777117
21
153.609530
0
LINE
8
Calque 1
10
115.777117
20
153.609530
11
115.958295
21
154.516567
0
LINE
8
Calque 1
10
115.958295
20
154.516567
11
116.033652
21
156.697317
0
LINE
8
Calque 1
10
116.033652
20
156.697317
11
116.033652
21
156.697317
0
LINE
8
Calque 1
10
96.715758
20
155.988765
11
96.814547
21
159.323179
0
LINE
8
Calque 1
10
96.814547
20
159.323179
11
96.658091
21
159.752381
0
LINE
8
Calque 1
10
96.658091
20
159.752381
11
96.316179
21
159.818418
0
LINE
8
Calque 1
10
96.316179
20
159.818418
11
95.834418
21
159.988118
0
LINE
8
Calque 1
10
95.834418
20
159.988118
11
95.713652
21
160.665085
0
LINE
8
Calque 1
10
95.713652
20
160.665085
11
95.713652
21
161.511752
0
LINE
8
Calque 1
10
95.713652
20
161.511752
11
97.830318
21
161.511752
0
LINE
8
Calque 1
10
97.830318
20
161.511752
11
99.946985
21
161.511752
0
LINE
8
Calque 1
10
99.946985
20
161.511752
11
99.946985
21
160.665085
0
LINE
8
Calque 1
10
99.946985
20
160.665085
11
99.829393
21
159.994808
0
LINE
8
Calque 1
10
99.829393
20
159.994808
11
99.382540
21
159.818418
0
LINE
8
Calque 1
10
99.382540
20
159.818418
11
99.076927
21
159.756477
0
LINE
8
Calque 1
10
99.076927
20
159.756477
11
98.903326
21
159.470972
0
LINE
8
Calque 1
10
98.903326
20
159.470972
11
98.790184
21
157.631196
0
LINE
8
Calque 1
10
98.790184
20
157.631196
11
98.578518
21
153.891752
0
LINE
8
Calque 1
10
98.578518
20
153.891752
11
98.292383
21
152.537199
0
LINE
8
Calque 1
10
98.292383
20
152.537199
11
97.990560
21
152.330630
0
LINE
8
Calque 1
10
97.990560
20
152.330630
11
97.453786
21
152.249320
0
LINE
8
Calque 1
10
97.453786
20
152.249320
11
96.512809
21
152.159113
0
LINE
8
Calque 1
10
96.512809
20
152.159113
11
96.715758
21
155.988765
0
LINE
8
Calque 1
10
96.715758
20
155.988765
11
96.715758
21
155.988765
0
LINE
8
Calque 1
10
101.075874
20
154.836948
11
101.258398
21
159.352503
0
LINE
8
Calque 1
10
101.258398
20
159.352503
11
101.440920
21
161.511752
0
LINE
8
Calque 1
10
101.440920
20
161.511752
11
102.810620
21
161.511752
0
LINE
8
Calque 1
10
102.810620
20
161.511752
11
103.995621
21
161.397583
0
LINE
8
Calque 1
10
103.995621
20
161.397583
11
104.153860
21
161.145187
0
LINE
8
Calque 1
10
104.153860
20
161.145187
11
104.180318
21
160.665085
0
LINE
8
Calque 1
10
104.180318
20
160.665085
11
104.062726
21
159.994808
0
LINE
8
Calque 1
10
104.062726
20
159.994808
11
103.615874
21
159.818418
0
LINE
8
Calque 1
10
103.615874
20
159.818418
11
103.168344
21
159.640483
0
LINE
8
Calque 1
10
103.168344
20
159.640483
11
103.051429
21
158.959379
0
LINE
8
Calque 1
10
103.051429
20
158.959379
11
103.155738
21
158.299284
0
LINE
8
Calque 1
10
103.155738
20
158.299284
11
103.545318
21
158.183268
0
LINE
8
Calque 1
10
103.545318
20
158.183268
11
103.945955
21
158.068199
0
LINE
8
Calque 1
10
103.945955
20
158.068199
11
104.128508
21
157.490085
0
LINE
8
Calque 1
10
104.128508
20
157.490085
11
104.084676
21
156.867621
0
LINE
8
Calque 1
10
104.084676
20
156.867621
11
103.634619
21
156.713974
0
LINE
8
Calque 1
10
103.634619
20
156.713974
11
103.336815
21
156.671951
0
LINE
8
Calque 1
10
103.336815
20
156.671951
11
103.159308
21
156.510040
0
LINE
8
Calque 1
10
103.159308
20
156.510040
11
103.051429
21
155.611507
0
LINE
8
Calque 1
10
103.051429
20
155.611507
11
103.148661
21
154.724380
0
LINE
8
Calque 1
10
103.148661
20
154.724380
11
103.319565
21
154.615924
0
LINE
8
Calque 1
10
103.319565
20
154.615924
11
103.615874
21
154.656645
0
LINE
8
Calque 1
10
103.615874
20
154.656645
11
103.913715
21
154.696839
0
LINE
8
Calque 1
10
103.913715
20
154.696839
11
104.084448
21
154.581849
0
LINE
8
Calque 1
10
104.084448
20
154.581849
11
104.180318
21
153.642445
0
LINE
8
Calque 1
10
104.180318
20
153.642445
11
104.180318
21
152.480641
0
LINE
8
Calque 1
10
104.180318
20
152.480641
11
102.628096
21
152.480641
0
LINE
8
Calque 1
10
102.628096
20
152.480641
11
101.075874
21
152.480641
0
LINE
8
Calque 1
10
101.075874
20
152.480641
11
101.075874
21
154.836948
0
LINE
8
Calque 1
10
101.075874
20
154.836948
11
101.075874
21
154.836948
0
LINE
8
Calque 1
10
108.978096
20
156.996196
11
108.978096
21
161.511752
0
LINE
8
Calque 1
10
108.978096
20
161.511752
11
110.530318
21
161.511752
0
LINE
8
Calque 1
10
110.530318
20
161.511752
11
111.882633
21
161.402712
0
LINE
8
Calque 1
10
111.882633
20
161.402712
11
112.056082
21
161.150957
0
LINE
8
Calque 1
10
112.056082
20
161.150957
11
112.082540
21
160.665085
0
LINE
8
Calque 1
10
112.082540
20
160.665085
11
111.951626
21
159.971449
0
LINE
8
Calque 1
10
111.951626
20
159.971449
11
111.358240
21
159.818418
0
LINE
8
Calque 1
10
111.358240
20
159.818418
11
110.778037
21
159.680959
0
LINE
8
Calque 1
10
110.778037
20
159.680959
11
110.723240
21
159.042307
0
LINE
8
Calque 1
10
110.723240
20
159.042307
11
110.938869
21
158.424988
0
LINE
8
Calque 1
10
110.938869
20
158.424988
11
111.447540
21
158.176012
0
LINE
8
Calque 1
10
111.447540
20
158.176012
11
111.950119
21
157.932164
0
LINE
8
Calque 1
10
111.950119
20
157.932164
11
112.082540
21
157.258790
0
LINE
8
Calque 1
10
112.082540
20
157.258790
11
111.951794
21
156.585011
0
LINE
8
Calque 1
10
111.951794
20
156.585011
11
111.376985
21
156.431752
0
LINE
8
Calque 1
10
111.376985
20
156.431752
11
110.977590
21
156.392946
0
LINE
8
Calque 1
10
110.977590
20
156.392946
11
110.767183
21
156.163641
0
LINE
8
Calque 1
10
110.767183
20
156.163641
11
110.671429
21
154.456196
0
LINE
8
Calque 1
10
110.671429
20
154.456196
11
110.671429
21
152.480641
0
LINE
8
Calque 1
10
110.671429
20
152.480641
11
109.824763
21
152.480641
0
LINE
8
Calque 1
10
109.824763
20
152.480641
11
108.978096
21
152.480641
0
LINE
8
Calque 1
10
108.978096
20
152.480641
11
108.978096
21
156.996196
0
LINE
8
Calque 1
10
108.978096
20
156.996196
11
108.978096
21
156.996196
0
LINE
8
Calque 1
10
85.497207
20
164.672641
11
85.765318
21
164.870196
0
LINE
8
Calque 1
10
85.765318
20
164.870196
11
85.835874
21
164.672641
0
LINE
8
Calque 1
10
85.835874
20
164.672641
11
86.899455
21
164.509814
0
LINE
8
Calque 1
10
86.899455
20
164.509814
11
90.515864
21
164.405609
0
LINE
8
Calque 1
10
90.515864
20
164.405609
11
107.961159
21
164.333974
0
LINE
8
Calque 1
10
107.961159
20
164.333974
11
130.086444
21
164.333974
0
LINE
8
Calque 1
10
130.086444
20
164.333974
11
131.091926
21
166.944530
0
LINE
8
Calque 1
10
131.091926
20
166.944530
11
135.657389
21
178.910683
0
LINE
8
Calque 1
10
135.657389
20
178.910683
11
136.743211
21
182.165423
0
LINE
8
Calque 1
10
136.743211
20
182.165423
11
135.385870
21
182.303441
0
LINE
8
Calque 1
10
135.385870
20
182.303441
11
132.286815
21
182.364872
0
LINE
8
Calque 1
10
132.286815
20
182.364872
11
127.947448
21
182.371764
0
LINE
8
Calque 1
10
127.947448
20
182.371764
11
126.190448
21
180.394823
0
LINE
8
Calque 1
10
126.190448
20
180.394823
11
124.320887
21
178.530440
0
LINE
8
Calque 1
10
124.320887
20
178.530440
11
124.000579
21
180.307932
0
LINE
8
Calque 1
10
124.000579
20
180.307932
11
123.792832
21
181.972863
0
LINE
8
Calque 1
10
123.792832
20
181.972863
11
108.130464
21
182.124862
0
LINE
8
Calque 1
10
108.130464
20
182.124862
11
92.468096
21
182.276861
0
LINE
8
Calque 1
10
92.468096
20
182.276861
11
83.648652
21
173.518764
0
LINE
8
Calque 1
10
83.648652
20
173.518764
11
74.829207
21
164.547320
0
LINE
8
Calque 1
10
74.829207
20
164.547320
11
76.442592
21
164.354827
0
LINE
8
Calque 1
10
76.442592
20
164.354827
11
80.020567
21
164.326377
0
LINE
8
Calque 1
10
80.020567
20
164.326377
11
83.669862
21
164.439728
0
LINE
8
Calque 1
10
83.669862
20
164.439728
11
85.497207
21
164.672641
0
LINE
8
Calque 1
10
85.497207
20
164.672641
11
85.497207
21
164.672641
0
LINE
8
Calque 1
10
75.675874
20
164.898562
11
84.073721
21
173.437405
0
LINE
8
Calque 1
10
84.073721
20
173.437405
11
92.471567
21
181.831752
0
LINE
8
Calque 1
10
92.471567
20
181.831752
11
107.901190
21
181.831752
0
LINE
8
Calque 1
10
107.901190
20
181.831752
11
123.330815
21
181.831752
0
LINE
8
Calque 1
10
123.330815
20
181.831752
11
123.515351
21
180.208974
0
LINE
8
Calque 1
10
123.515351
20
180.208974
11
123.825303
21
178.180716
0
LINE
8
Calque 1
10
123.825303
20
178.180716
11
123.985876
21
177.735200
0
LINE
8
Calque 1
10
123.985876
20
177.735200
11
124.167759
21
177.598418
0
LINE
8
Calque 1
10
124.167759
20
177.598418
11
126.193652
21
179.715085
0
LINE
8
Calque 1
10
126.193652
20
179.715085
11
128.025697
21
181.831752
0
LINE
8
Calque 1
10
128.025697
20
181.831752
11
132.182689
21
181.831752
0
LINE
8
Calque 1
10
132.182689
20
181.831752
11
136.339682
21
181.831752
0
LINE
8
Calque 1
10
136.339682
20
181.831752
11
136.091890
21
181.196752
0
LINE
8
Calque 1
10
136.091890
20
181.196752
11
132.867214
21
172.838052
0
LINE
8
Calque 1
10
132.867214
20
172.838052
11
129.755017
21
164.979044
0
LINE
8
Calque 1
10
129.755017
20
164.979044
11
86.624504
21
164.885069
0
LINE
8
Calque 1
10
86.624504
20
164.885069
11
86.598211
21
165.218614
0
LINE
8
Calque 1
10
86.598211
20
165.218614
11
86.814649
21
166.001792
0
LINE
8
Calque 1
10
86.814649
20
166.001792
11
87.063908
21
166.900616
0
LINE
8
Calque 1
10
87.063908
20
166.900616
11
86.991066
21
167.230090
0
LINE
8
Calque 1
10
86.991066
20
167.230090
11
86.616507
21
166.986309
0
LINE
8
Calque 1
10
86.616507
20
166.986309
11
85.960613
21
166.165368
0
LINE
8
Calque 1
10
85.960613
20
166.165368
11
85.053444
21
164.889416
0
LINE
8
Calque 1
10
85.053444
20
164.889416
11
80.364660
21
164.821742
0
LINE
8
Calque 1
10
80.364660
20
164.821742
11
75.675874
21
164.898562
0
LINE
8
Calque 1
10
75.675874
20
164.898562
11
75.675874
21
164.898562
0
LINE
8
Calque 1
10
86.434134
20
167.862994
11
88.827407
21
170.185403
0
LINE
8
Calque 1
10
88.827407
20
170.185403
11
88.080410
21
167.777111
0
LINE
8
Calque 1
10
88.080410
20
167.777111
11
87.255686
21
165.446539
0
LINE
8
Calque 1
10
87.255686
20
165.446539
11
90.936374
21
165.525257
0
LINE
8
Calque 1
10
90.936374
20
165.525257
11
94.617060
21
165.603974
0
LINE
8
Calque 1
10
94.617060
20
165.603974
11
97.561883
21
173.082863
0
LINE
8
Calque 1
10
97.561883
20
173.082863
11
100.509064
21
180.773418
0
LINE
8
Calque 1
10
100.509064
20
180.773418
11
99.463042
21
180.922908
0
LINE
8
Calque 1
10
99.463042
20
180.922908
11
96.944815
21
180.985085
0
LINE
8
Calque 1
10
96.944815
20
180.985085
11
93.378203
21
180.985085
0
LINE
8
Calque 1
10
93.378203
20
180.985085
11
85.924706
21
173.576752
0
LINE
8
Calque 1
10
85.924706
20
173.576752
11
78.202432
21
166.074345
0
LINE
8
Calque 1
10
78.202432
20
166.074345
11
77.933652
21
165.721568
0
LINE
8
Calque 1
10
77.933652
20
165.721568
11
78.842064
21
165.538857
0
LINE
8
Calque 1
10
78.842064
20
165.538857
11
81.026119
21
165.462863
0
LINE
8
Calque 1
10
81.026119
20
165.462863
11
84.118585
21
165.462863
0
LINE
8
Calque 1
10
84.118585
20
165.462863
11
86.434134
21
167.862994
0
LINE
8
Calque 1
10
86.434134
20
167.862994
11
86.434134
21
167.862994
0
LINE
8
Calque 1
10
109.727664
20
167.722379
11
110.618343
21
169.978418
0
LINE
8
Calque 1
10
110.618343
20
169.978418
11
107.660861
21
169.978418
0
LINE
8
Calque 1
10
107.660861
20
169.978418
11
105.198254
21
170.058499
0
LINE
8
Calque 1
10
105.198254
20
170.058499
11
104.834655
21
170.207415
0
LINE
8
Calque 1
10
104.834655
20
170.207415
11
104.798004
21
170.472307
0
LINE
8
Calque 1
10
104.798004
20
170.472307
11
104.953937
21
170.733172
0
LINE
8
Calque 1
10
104.953937
20
170.733172
11
105.420275
21
170.893957
0
LINE
8
Calque 1
10
105.420275
20
170.893957
11
108.015162
21
171.045535
0
LINE
8
Calque 1
10
108.015162
20
171.045535
11
111.137692
21
171.124876
0
LINE
8
Calque 1
10
111.137692
20
171.124876
11
111.821784
21
173.009468
0
LINE
8
Calque 1
10
111.821784
20
173.009468
11
112.599947
21
175.117349
0
LINE
8
Calque 1
10
112.599947
20
175.117349
11
111.844269
21
175.275049
0
LINE
8
Calque 1
10
111.844269
20
175.275049
11
109.895318
21
175.340641
0
LINE
8
Calque 1
10
109.895318
20
175.340641
11
107.214880
21
175.461591
0
LINE
8
Calque 1
10
107.214880
20
175.461591
11
106.861049
21
175.682907
0
LINE
8
Calque 1
10
106.861049
20
175.682907
11
106.911069
21
176.073789
0
LINE
8
Calque 1
10
106.911069
20
176.073789
11
107.133246
21
176.265055
0
LINE
8
Calque 1
10
107.133246
20
176.265055
11
107.690408
21
176.386710
0
LINE
8
Calque 1
10
107.690408
20
176.386710
11
110.213069
21
176.469530
0
LINE
8
Calque 1
10
110.213069
20
176.469530
11
113.363211
21
176.469530
0
LINE
8
Calque 1
10
113.363211
20
176.469530
11
114.138845
21
178.515641
0
LINE
8
Calque 1
10
114.138845
20
178.515641
11
114.909623
21
180.773418
0
LINE
8
Calque 1
10
114.909623
20
180.773418
11
113.010005
21
180.922908
0
LINE
8
Calque 1
10
113.010005
20
180.922908
11
108.449663
21
180.985085
0
LINE
8
Calque 1
10
108.449663
20
180.985085
11
101.994561
21
180.985085
0
LINE
8
Calque 1
10
101.994561
20
180.985085
11
98.966277
21
173.576752
0
LINE
8
Calque 1
10
98.966277
20
173.576752
11
95.795629
21
165.815641
0
LINE
8
Calque 1
10
95.795629
20
165.815641
11
96.030452
21
165.644059
0
LINE
8
Calque 1
10
96.030452
20
165.644059
11
97.042892
21
165.536019
0
LINE
8
Calque 1
10
97.042892
20
165.536019
11
102.245123
21
165.464601
0
LINE
8
Calque 1
10
102.245123
20
165.464601
11
108.836985
21
165.466337
0
LINE
8
Calque 1
10
108.836985
20
165.466337
11
109.727664
21
167.722379
0
LINE
8
Calque 1
10
109.727664
20
167.722379
11
109.727664
21
167.722379
0
LINE
8
Calque 1
10
117.725817
20
167.012206
11
118.233351
21
168.067231
0
LINE
8
Calque 1
10
118.233351
20
168.067231
11
118.570550
21
168.428113
0
LINE
8
Calque 1
10
118.570550
20
168.428113
11
119.118922
21
166.974312
0
LINE
8
Calque 1
10
119.118922
20
166.974312
11
119.451394
21
165.653944
0
LINE
8
Calque 1
10
119.451394
20
165.653944
11
120.988080
21
167.171541
0
LINE
8
Calque 1
10
120.988080
20
167.171541
11
122.408666
21
168.409048
0
LINE
8
Calque 1
10
122.408666
20
168.409048
11
122.434545
21
168.127815
0
LINE
8
Calque 1
10
122.434545
20
168.127815
11
122.101429
21
167.253777
0
LINE
8
Calque 1
10
122.101429
20
167.253777
11
121.713171
21
166.196165
0
LINE
8
Calque 1
10
121.713171
20
166.196165
11
121.716871
21
165.876224
0
LINE
8
Calque 1
10
121.716871
20
165.876224
11
121.903271
21
165.667521
0
LINE
8
Calque 1
10
121.903271
20
165.667521
11
122.976613
21
165.499807
0
LINE
8
Calque 1
10
122.976613
20
165.499807
11
125.238075
21
165.524986
0
LINE
8
Calque 1
10
125.238075
20
165.524986
11
128.798058
21
165.603974
0
LINE
8
Calque 1
10
128.798058
20
165.603974
11
131.724293
21
173.082863
0
LINE
8
Calque 1
10
131.724293
20
173.082863
11
134.655422
21
180.773418
0
LINE
8
Calque 1
10
134.655422
20
180.773418
11
133.797151
21
180.922908
0
LINE
8
Calque 1
10
133.797151
20
180.922908
11
131.726776
21
180.985085
0
LINE
8
Calque 1
10
131.726776
20
180.985085
11
128.793234
21
180.985085
0
LINE
8
Calque 1
10
128.793234
20
180.985085
11
125.941424
21
177.998138
0
LINE
8
Calque 1
10
125.941424
20
177.998138
11
123.835870
21
175.930995
0
LINE
8
Calque 1
10
123.835870
20
175.930995
11
123.220487
21
175.445837
0
LINE
8
Calque 1
10
123.220487
20
175.445837
11
122.966548
21
175.387583
0
LINE
8
Calque 1
10
122.966548
20
175.387583
11
122.522045
21
177.880641
0
LINE
8
Calque 1
10
122.522045
20
177.880641
11
122.221219
21
179.811020
0
LINE
8
Calque 1
10
122.221219
20
179.811020
11
122.059317
21
180.369817
0
LINE
8
Calque 1
10
122.059317
20
180.369817
11
121.820572
21
180.718494
0
LINE
8
Calque 1
10
121.820572
20
180.718494
11
121.453096
21
180.902660
0
LINE
8
Calque 1
10
121.453096
20
180.902660
11
120.905001
21
180.967922
0
LINE
8
Calque 1
10
120.905001
20
180.967922
11
119.059404
21
180.924159
0
LINE
8
Calque 1
10
119.059404
20
180.924159
11
116.202641
21
180.843974
0
LINE
8
Calque 1
10
116.202641
20
180.843974
11
113.163584
21
173.365085
0
LINE
8
Calque 1
10
113.163584
20
173.365085
11
110.115756
21
165.674530
0
LINE
8
Calque 1
10
110.115756
20
165.674530
11
111.136218
21
165.525040
0
LINE
8
Calque 1
10
111.136218
20
165.525040
11
113.601985
21
165.462863
0
LINE
8
Calque 1
10
113.601985
20
165.462863
11
117.096983
21
165.462863
0
LINE
8
Calque 1
10
117.096983
20
165.462863
11
117.725817
21
167.012206
0
LINE
8
Calque 1
10
117.725817
20
167.012206
11
117.725817
21
167.012206
 0 
ENDSEC
 0 
EOF
