  0
SECTION
  2
HEADER
  9
$ACADVER
  1
AC1015
  9
$ACADMAINTVER
 70
    20
  9
$DWGCODEPAGE
  3
ANSI_1252
  9
$INSBASE
 10
0.0
 20
0.0
 30
0.0
  9
$EXTMIN
 10
58.339363
 20
131.354289
 30
0.0
  9
$EXTMAX
 10
148.08603
 20
157.357012
 30
0.0
  9
$LIMMIN
 10
0.0
 20
0.0
  9
$LIMMAX
 10
12.0
 20
9.0
  9
$ORTHOMODE
 70
     0
  9
$REGENMODE
 70
     1
  9
$FILLMODE
 70
     1
  9
$QTEXTMODE
 70
     0
  9
$MIRRTEXT
 70
     0
  9
$LTSCALE
 40
1.0
  9
$ATTMODE
 70
     1
  9
$TEXTSIZE
 40
0.2
  9
$TRACEWID
 40
0.05
  9
$TEXTSTYLE
  7
Standard
  9
$CLAYER
  8
0
  9
$CELTYPE
  6
Continuous
  9
$CECOLOR
 62
   256
  9
$CELTSCALE
 40
1.0
  9
$DISPSILH
 70
     0
  9
$DIMSCALE
 40
1.0
  9
$DIMASZ
 40
0.18
  9
$DIMEXO
 40
0.0625
  9
$DIMDLI
 40
0.38
  9
$DIMRND
 40
0.0
  9
$DIMDLE
 40
0.0
  9
$DIMEXE
 40
0.18
  9
$DIMTP
 40
0.0
  9
$DIMTM
 40
0.0
  9
$DIMTXT
 40
0.18
  9
$DIMCEN
 40
0.09
  9
$DIMTSZ
 40
0.0
  9
$DIMTOL
 70
     0
  9
$DIMLIM
 70
     0
  9
$DIMTIH
 70
     1
  9
$DIMTOH
 70
     1
  9
$DIMSE1
 70
     0
  9
$DIMSE2
 70
     0
  9
$DIMTAD
 70
     0
  9
$DIMZIN
 70
     0
  9
$DIMBLK
  1

  9
$DIMASO
 70
     1
  9
$DIMSHO
 70
     1
  9
$DIMPOST
  1

  9
$DIMAPOST
  1

  9
$DIMALT
 70
     0
  9
$DIMALTD
 70
     2
  9
$DIMALTF
 40
25.4
  9
$DIMLFAC
 40
1.0
  9
$DIMTOFL
 70
     0
  9
$DIMTVP
 40
0.0
  9
$DIMTIX
 70
     0
  9
$DIMSOXD
 70
     0
  9
$DIMSAH
 70
     0
  9
$DIMBLK1
  1

  9
$DIMBLK2
  1

  9
$DIMSTYLE
  2
Standard
  9
$DIMCLRD
 70
     0
  9
$DIMCLRE
 70
     0
  9
$DIMCLRT
 70
     0
  9
$DIMTFAC
 40
1.0
  9
$DIMGAP
 40
0.09
  9
$DIMJUST
 70
     0
  9
$DIMSD1
 70
     0
  9
$DIMSD2
 70
     0
  9
$DIMTOLJ
 70
     1
  9
$DIMTZIN
 70
     0
  9
$DIMALTZ
 70
     0
  9
$DIMALTTZ
 70
     0
  9
$DIMUPT
 70
     0
  9
$DIMDEC
 70
     4
  9
$DIMTDEC
 70
     4
  9
$DIMALTU
 70
     2
  9
$DIMALTTD
 70
     2
  9
$DIMTXSTY
  7
Standard
  9
$DIMAUNIT
 70
     0
  9
$DIMADEC
 70
     0
  9
$DIMALTRND
 40
0.0
  9
$DIMAZIN
 70
     0
  9
$DIMDSEP
 70
    46
  9
$DIMATFIT
 70
     3
  9
$DIMFRAC
 70
     0
  9
$DIMLDRBLK
  1

  9
$DIMLUNIT
 70
     2
  9
$DIMLWD
 70
    -2
  9
$DIMLWE
 70
    -2
  9
$DIMTMOVE
 70
     0
  9
$LUNITS
 70
     2
  9
$LUPREC
 70
     4
  9
$SKETCHINC
 40
0.1
  9
$FILLETRAD
 40
0.0
  9
$AUNITS
 70
     0
  9
$AUPREC
 70
     0
  9
$MENU
  1
.
  9
$ELEVATION
 40
0.0
  9
$PELEVATION
 40
0.0
  9
$THICKNESS
 40
0.0
  9
$LIMCHECK
 70
     0
  9
$CHAMFERA
 40
0.0
  9
$CHAMFERB
 40
0.0
  9
$CHAMFERC
 40
0.0
  9
$CHAMFERD
 40
0.0
  9
$SKPOLY
 70
     0
  9
$TDCREATE
 40
2454975.998661285
  9
$TDUCREATE
 40
2454975.915327952
  9
$TDUPDATE
 40
2454975.998872095
  9
$TDUUPDATE
 40
2454975.915538762
  9
$TDINDWG
 40
0.0002113079
  9
$TDUSRTIMER
 40
0.0002113079
  9
$USRTIMER
 70
     1
  9
$ANGBASE
 50
0.0
  9
$ANGDIR
 70
     0
  9
$PDMODE
 70
     0
  9
$PDSIZE
 40
0.0
  9
$PLINEWID
 40
0.0
  9
$SPLFRAME
 70
     0
  9
$SPLINETYPE
 70
     6
  9
$SPLINESEGS
 70
     8
  9
$HANDSEED
  5
198
  9
$SURFTAB1
 70
     6
  9
$SURFTAB2
 70
     6
  9
$SURFTYPE
 70
     6
  9
$SURFU
 70
     6
  9
$SURFV
 70
     6
  9
$UCSBASE
  2

  9
$UCSNAME
  2

  9
$UCSORG
 10
0.0
 20
0.0
 30
0.0
  9
$UCSXDIR
 10
1.0
 20
0.0
 30
0.0
  9
$UCSYDIR
 10
0.0
 20
1.0
 30
0.0
  9
$UCSORTHOREF
  2

  9
$UCSORTHOVIEW
 70
     0
  9
$UCSORGTOP
 10
0.0
 20
0.0
 30
0.0
  9
$UCSORGBOTTOM
 10
0.0
 20
0.0
 30
0.0
  9
$UCSORGLEFT
 10
0.0
 20
0.0
 30
0.0
  9
$UCSORGRIGHT
 10
0.0
 20
0.0
 30
0.0
  9
$UCSORGFRONT
 10
0.0
 20
0.0
 30
0.0
  9
$UCSORGBACK
 10
0.0
 20
0.0
 30
0.0
  9
$PUCSBASE
  2

  9
$PUCSNAME
  2

  9
$PUCSORG
 10
0.0
 20
0.0
 30
0.0
  9
$PUCSXDIR
 10
1.0
 20
0.0
 30
0.0
  9
$PUCSYDIR
 10
0.0
 20
1.0
 30
0.0
  9
$PUCSORTHOREF
  2

  9
$PUCSORTHOVIEW
 70
     0
  9
$PUCSORGTOP
 10
0.0
 20
0.0
 30
0.0
  9
$PUCSORGBOTTOM
 10
0.0
 20
0.0
 30
0.0
  9
$PUCSORGLEFT
 10
0.0
 20
0.0
 30
0.0
  9
$PUCSORGRIGHT
 10
0.0
 20
0.0
 30
0.0
  9
$PUCSORGFRONT
 10
0.0
 20
0.0
 30
0.0
  9
$PUCSORGBACK
 10
0.0
 20
0.0
 30
0.0
  9
$USERI1
 70
     0
  9
$USERI2
 70
     0
  9
$USERI3
 70
     0
  9
$USERI4
 70
     0
  9
$USERI5
 70
     0
  9
$USERR1
 40
0.0
  9
$USERR2
 40
0.0
  9
$USERR3
 40
0.0
  9
$USERR4
 40
0.0
  9
$USERR5
 40
0.0
  9
$WORLDVIEW
 70
     1
  9
$SHADEDGE
 70
     3
  9
$SHADEDIF
 70
    70
  9
$TILEMODE
 70
     1
  9
$MAXACTVP
 70
    64
  9
$PINSBASE
 10
0.0
 20
0.0
 30
0.0
  9
$PLIMCHECK
 70
     0
  9
$PEXTMIN
 10
1.000000000000000E+20
 20
1.000000000000000E+20
 30
1.000000000000000E+20
  9
$PEXTMAX
 10
-1.000000000000000E+20
 20
-1.000000000000000E+20
 30
-1.000000000000000E+20
  9
$PLIMMIN
 10
0.0
 20
0.0
  9
$PLIMMAX
 10
12.0
 20
9.0
  9
$UNITMODE
 70
     0
  9
$VISRETAIN
 70
     1
  9
$PLINEGEN
 70
     0
  9
$PSLTSCALE
 70
     1
  9
$TREEDEPTH
 70
  3020
  9
$CMLSTYLE
  2
Standard
  9
$CMLJUST
 70
     0
  9
$CMLSCALE
 40
1.0
  9
$PROXYGRAPHICS
 70
     1
  9
$MEASUREMENT
 70
     0
  9
$CELWEIGHT
370
    -1
  9
$ENDCAPS
280
     0
  9
$JOINSTYLE
280
     0
  9
$LWDISPLAY
290
     0
  9
$INSUNITS
 70
     0
  9
$HYPERLINKBASE
  1

  9
$STYLESHEET
  1

  9
$XEDIT
290
     1
  9
$CEPSNTYPE
380
     0
  9
$PSTYLEMODE
290
     1
  9
$FINGERPRINTGUID
  2
{23F5FCF1-3783-46E2-B198-7636797D1F9C}
  9
$VERSIONGUID
  2
{155EEA2C-7C0B-44E3-ACA7-CD003BE38287}
  9
$EXTNAMES
290
     1
  9
$PSVPSCALE
 40
0.0
  9
$OLESTARTUP
290
     0
  0
ENDSEC
  0
SECTION
  2
CLASSES
  0
CLASS
  1
ACDBDICTIONARYWDFLT
  2
AcDbDictionaryWithDefault
  3
ObjectDBX Classes
 90
        0
280
     0
281
     0
  0
CLASS
  1
MATERIAL
  2
AcDbMaterial
  3
ObjectDBX Classes
 90
     1153
280
     0
281
     0
  0
CLASS
  1
VISUALSTYLE
  2
AcDbVisualStyle
  3
ObjectDBX Classes
 90
     4095
280
     0
281
     0
  0
CLASS
  1
SCALE
  2
AcDbScale
  3
ObjectDBX Classes
 90
     1153
280
     0
281
     0
  0
CLASS
  1
TABLESTYLE
  2
AcDbTableStyle
  3
ObjectDBX Classes
 90
     4095
280
     0
281
     0
  0
CLASS
  1
MLEADERSTYLE
  2
AcDbMLeaderStyle
  3
ACDB_MLEADERSTYLE_CLASS
 90
     4095
280
     0
281
     0
  0
CLASS
  1
DICTIONARYVAR
  2
AcDbDictionaryVar
  3
ObjectDBX Classes
 90
        0
280
     0
281
     0
  0
CLASS
  1
CELLSTYLEMAP
  2
AcDbCellStyleMap
  3
ObjectDBX Classes
 90
     1152
280
     0
281
     0
  0
CLASS
  1
ACDBPLACEHOLDER
  2
AcDbPlaceHolder
  3
ObjectDBX Classes
 90
        0
280
     0
281
     0
  0
CLASS
  1
LAYOUT
  2
AcDbLayout
  3
ObjectDBX Classes
 90
        0
280
     0
281
     0
  0
ENDSEC
  0
SECTION
  2
TABLES
  0
TABLE
  2
VPORT
  5
8
330
0
100
AcDbSymbolTable
 70
     1
  0
VPORT
  5
180
330
8
100
AcDbSymbolTableRecord
100
AcDbViewportTableRecord
  2
*Active
 70
     0
 10
0.0
 20
0.0
 11
1.0
 21
1.0
 12
90.29522666049262
 22
146.0910344966593
 13
0.0
 23
0.0
 14
1.0
 24
1.0
 15
0.0
 25
0.0
 16
0.0
 26
0.0
 36
1.0
 17
0.0
 27
0.0
 37
0.0
 40
145.7919610124126
 41
1.986951364175563
 42
50.0
 43
0.0
 44
0.0
 50
0.0
 51
0.0
 71
     0
 72
  1000
 73
     1
 74
     3
 75
     0
 76
     0
 77
     0
 78
     0
281
     0
 65
     1
110
0.0
120
0.0
130
0.0
111
1.0
121
0.0
131
0.0
112
0.0
122
1.0
132
0.0
 79
     0
146
0.0
  0
ENDTAB
  0
TABLE
  2
LTYPE
  5
5
330
0
100
AcDbSymbolTable
 70
     1
  0
LTYPE
  5
62
330
5
100
AcDbSymbolTableRecord
100
AcDbLinetypeTableRecord
  2
ByBlock
 70
     0
  3

 72
    65
 73
     0
 40
0.0
  0
LTYPE
  5
63
330
5
100
AcDbSymbolTableRecord
100
AcDbLinetypeTableRecord
  2
ByLayer
 70
     0
  3

 72
    65
 73
     0
 40
0.0
  0
LTYPE
  5
64
330
5
100
AcDbSymbolTableRecord
100
AcDbLinetypeTableRecord
  2
Continuous
 70
     0
  3
Solid line
 72
    65
 73
     0
 40
0.0
  0
ENDTAB
  0
TABLE
  2
LAYER
  5
2
330
0
100
AcDbSymbolTable
 70
     2
  0
LAYER
  5
5C
102
{ACAD_XDICTIONARY
360
181
102
}
330
2
100
AcDbSymbolTableRecord
100
AcDbLayerTableRecord
  2
0
 70
     0
 62
     7
  6
Continuous
370
    -3
390
F
  0
LAYER
  5
78
102
{ACAD_XDICTIONARY
360
183
102
}
330
2
100
AcDbSymbolTableRecord
100
AcDbLayerTableRecord
  2
Calque 1
 70
     0
 62
     7
  6
Continuous
370
    -3
390
F
  0
ENDTAB
  0
TABLE
  2
STYLE
  5
3
330
0
100
AcDbSymbolTable
 70
     2
  0
STYLE
  5
5D
330
3
100
AcDbSymbolTableRecord
100
AcDbTextStyleTableRecord
  2
Standard
 70
     0
 40
0.0
 41
1.0
 50
0.0
 71
     0
 42
0.2
  3
txt
  4

  0
STYLE
  5
61
330
3
100
AcDbSymbolTableRecord
100
AcDbTextStyleTableRecord
  2
Annotative
 70
     0
 40
0.0
 41
1.0
 50
0.0
 71
     0
 42
0.2
  3
txt
  4

1001
AcadAnnotative
1000
AnnotativeData
1002
{
1070
     1
1070
     1
1002
}
  0
ENDTAB
  0
TABLE
  2
VIEW
  5
6
330
0
100
AcDbSymbolTable
 70
     0
  0
ENDTAB
  0
TABLE
  2
UCS
  5
7
330
0
100
AcDbSymbolTable
 70
     0
  0
ENDTAB
  0
TABLE
  2
APPID
  5
9
330
0
100
AcDbSymbolTable
 70
     3
  0
APPID
  5
5E
330
9
100
AcDbSymbolTableRecord
100
AcDbRegAppTableRecord
  2
ACAD
 70
     0
  0
APPID
  5
65
330
9
100
AcDbSymbolTableRecord
100
AcDbRegAppTableRecord
  2
AcadAnnotative
 70
     0
  0
APPID
  5
6F
330
9
100
AcDbSymbolTableRecord
100
AcDbRegAppTableRecord
  2
ACAD_MLEADERVER
 70
     0
  0
ENDTAB
  0
TABLE
  2
DIMSTYLE
  5
A
330
0
100
AcDbSymbolTable
 70
     2
100
AcDbDimStyleTable
 71
     0
  0
DIMSTYLE
105
5F
330
A
100
AcDbSymbolTableRecord
100
AcDbDimStyleTableRecord
  2
Standard
 70
     0
340
5D
  0
DIMSTYLE
105
60
330
A
100
AcDbSymbolTableRecord
100
AcDbDimStyleTableRecord
  2
Annotative
 70
     0
340
5D
1001
AcadAnnotative
1000
AnnotativeData
1002
{
1070
     1
1070
     1
1002
}
  0
ENDTAB
  0
TABLE
  2
BLOCK_RECORD
  5
1
330
0
100
AcDbSymbolTable
 70
     0
  0
BLOCK_RECORD
  5
74
330
1
100
AcDbSymbolTableRecord
100
AcDbBlockTableRecord
  2
*Model_Space
340
77
  0
BLOCK_RECORD
  5
70
330
1
100
AcDbSymbolTableRecord
100
AcDbBlockTableRecord
  2
*Paper_Space
340
73
  0
ENDTAB
  0
ENDSEC
  0
SECTION
  2
BLOCKS
  0
BLOCK
  5
75
330
74
100
AcDbEntity
  8
0
100
AcDbBlockBegin
  2
*Model_Space
 70
     0
 10
0.0
 20
0.0
 30
0.0
  3
*Model_Space
  1

  0
ENDBLK
  5
76
330
74
100
AcDbEntity
  8
0
100
AcDbBlockEnd
  0
BLOCK
  5
71
330
70
100
AcDbEntity
 67
     1
  8
0
100
AcDbBlockBegin
  2
*Paper_Space
 70
     0
 10
0.0
 20
0.0
 30
0.0
  3
*Paper_Space
  1

  0
ENDBLK
  5
72
330
70
100
AcDbEntity
 67
     1
  8
0
100
AcDbBlockEnd
  0
ENDSEC
  0
SECTION
  2
ENTITIES
  0
LINE
  5
79
330
74
100
AcDbEntity
  8
Calque 1
100
AcDbLine
 10
58.339363
 20
131.565959
 30
0.0
 11
60.112246
 21
131.802964
 31
0.0
  0
LINE
  5
7A
330
74
100
AcDbEntity
  8
Calque 1
100
AcDbLine
 10
60.112246
 20
131.802964
 30
0.0
 11
64.569413
 21
131.99742
 31
0.0
  0
LINE
  5
7B
330
74
100
AcDbEntity
  8
Calque 1
100
AcDbLine
 10
64.569413
 20
131.99742
 30
0.0
 11
69.70016600000001
 21
132.219687
 31
0.0
  0
LINE
  5
7C
330
74
100
AcDbEntity
  8
Calque 1
100
AcDbLine
 10
69.70016600000001
 20
132.219687
 30
0.0
 11
70.876151
 21
132.382728
 31
0.0
  0
LINE
  5
7D
330
74
100
AcDbEntity
  8
Calque 1
100
AcDbLine
 10
70.876151
 20
132.382728
 30
0.0
 11
71.48385799999999
 21
132.612202
 31
0.0
  0
LINE
  5
7E
330
74
100
AcDbEntity
  8
Calque 1
100
AcDbLine
 10
71.48385799999999
 20
132.612202
 30
0.0
 11
71.96168
 21
133.016531
 31
0.0
  0
LINE
  5
7F
330
74
100
AcDbEntity
  8
Calque 1
100
AcDbLine
 10
71.96168
 20
133.016531
 30
0.0
 11
72.13512800000001
 21
133.421653
 31
0.0
  0
LINE
  5
80
330
74
100
AcDbEntity
  8
Calque 1
100
AcDbLine
 10
72.13512800000001
 20
133.421653
 30
0.0
 11
72.00564399999999
 21
133.855108
 31
0.0
  0
LINE
  5
81
330
74
100
AcDbEntity
  8
Calque 1
100
AcDbLine
 10
72.00564399999999
 20
133.855108
 30
0.0
 11
71.574674
 21
134.344437
 31
0.0
  0
LINE
  5
82
330
74
100
AcDbEntity
  8
Calque 1
100
AcDbLine
 10
71.574674
 20
134.344437
 30
0.0
 11
71.07436899999999
 21
134.637193
 31
0.0
  0
LINE
  5
83
330
74
100
AcDbEntity
  8
Calque 1
100
AcDbLine
 10
71.07436899999999
 20
134.637193
 30
0.0
 11
70.068801
 21
134.811406
 31
0.0
  0
LINE
  5
84
330
74
100
AcDbEntity
  8
Calque 1
100
AcDbLine
 10
70.068801
 20
134.811406
 30
0.0
 11
64.66022999999999
 21
134.976095
 31
0.0
  0
LINE
  5
85
330
74
100
AcDbEntity
  8
Calque 1
100
AcDbLine
 10
64.66022999999999
 20
134.976095
 30
0.0
 11
59.541827
 21
135.128304
 31
0.0
  0
LINE
  5
86
330
74
100
AcDbEntity
  8
Calque 1
100
AcDbLine
 10
59.541827
 20
135.128304
 30
0.0
 11
58.59276
 21
135.264392
 31
0.0
  0
LINE
  5
87
330
74
100
AcDbEntity
  8
Calque 1
100
AcDbLine
 10
58.59276
 20
135.264392
 30
0.0
 11
58.339363
 21
135.469984
 31
0.0
  0
LINE
  5
88
330
74
100
AcDbEntity
  8
Calque 1
100
AcDbLine
 10
58.339363
 20
135.469984
 30
0.0
 11
58.545191
 21
135.671668
 31
0.0
  0
LINE
  5
89
330
74
100
AcDbEntity
  8
Calque 1
100
AcDbLine
 10
58.545191
 20
135.671668
 30
0.0
 11
59.31745
 21
135.792529
 31
0.0
  0
LINE
  5
8A
330
74
100
AcDbEntity
  8
Calque 1
100
AcDbLine
 10
59.31745
 20
135.792529
 30
0.0
 11
63.48991899999999
 21
135.862564
 31
0.0
  0
LINE
  5
8B
330
74
100
AcDbEntity
  8
Calque 1
100
AcDbLine
 10
63.48991899999999
 20
135.862564
 30
0.0
 11
70.993825
 21
135.604835
 31
0.0
  0
LINE
  5
8C
330
74
100
AcDbEntity
  8
Calque 1
100
AcDbLine
 10
70.993825
 20
135.604835
 30
0.0
 11
73.53400999999999
 21
135.305592
 31
0.0
  0
LINE
  5
8D
330
74
100
AcDbEntity
  8
Calque 1
100
AcDbLine
 10
73.53400999999999
 20
135.305592
 30
0.0
 11
75.120839
 21
134.904747
 31
0.0
  0
LINE
  5
8E
330
74
100
AcDbEntity
  8
Calque 1
100
AcDbLine
 10
75.120839
 20
134.904747
 30
0.0
 11
75.98946600000001
 21
134.631724
 31
0.0
  0
LINE
  5
8F
330
74
100
AcDbEntity
  8
Calque 1
100
AcDbLine
 10
75.98946600000001
 20
134.631724
 30
0.0
 11
76.10185600000001
 21
134.790391
 31
0.0
  0
LINE
  5
90
330
74
100
AcDbEntity
  8
Calque 1
100
AcDbLine
 10
76.10185600000001
 20
134.790391
 30
0.0
 11
76.119363
 21
135.178691
 31
0.0
  0
LINE
  5
91
330
74
100
AcDbEntity
  8
Calque 1
100
AcDbLine
 10
76.119363
 20
135.178691
 30
0.0
 11
76.119363
 21
135.869845
 31
0.0
  0
LINE
  5
92
330
74
100
AcDbEntity
  8
Calque 1
100
AcDbLine
 10
76.119363
 20
135.869845
 30
0.0
 11
84.13917899999999
 21
135.869845
 31
0.0
  0
LINE
  5
93
330
74
100
AcDbEntity
  8
Calque 1
100
AcDbLine
 10
84.13917899999999
 20
135.869845
 30
0.0
 11
89.98031899999999
 21
135.796102
 31
0.0
  0
LINE
  5
94
330
74
100
AcDbEntity
  8
Calque 1
100
AcDbLine
 10
89.98031899999999
 20
135.796102
 30
0.0
 11
92.253068
 21
135.601576
 31
0.0
  0
LINE
  5
95
330
74
100
AcDbEntity
  8
Calque 1
100
AcDbLine
 10
92.253068
 20
135.601576
 30
0.0
 11
93.03007499999999
 21
135.472926
 31
0.0
  0
LINE
  5
96
330
74
100
AcDbEntity
  8
Calque 1
100
AcDbLine
 10
93.03007499999999
 20
135.472926
 30
0.0
 11
95.028252
 21
135.59393
 31
0.0
  0
LINE
  5
97
330
74
100
AcDbEntity
  8
Calque 1
100
AcDbLine
 10
95.028252
 20
135.59393
 30
0.0
 11
99.34669300000001
 21
135.780239
 31
0.0
  0
LINE
  5
98
330
74
100
AcDbEntity
  8
Calque 1
100
AcDbLine
 10
99.34669300000001
 20
135.780239
 30
0.0
 11
105.964363
 21
135.862197
 31
0.0
  0
LINE
  5
99
330
74
100
AcDbEntity
  8
Calque 1
100
AcDbLine
 10
105.964363
 20
135.862197
 30
0.0
 11
112.866895
 21
135.794222
 31
0.0
  0
LINE
  5
9A
330
74
100
AcDbEntity
  8
Calque 1
100
AcDbLine
 10
112.866895
 20
135.794222
 30
0.0
 11
113.970157
 21
135.65828
 31
0.0
  0
LINE
  5
9B
330
74
100
AcDbEntity
  8
Calque 1
100
AcDbLine
 10
113.970157
 20
135.65828
 30
0.0
 11
114.219363
 21
135.415916
 31
0.0
  0
LINE
  5
9C
330
74
100
AcDbEntity
  8
Calque 1
100
AcDbLine
 10
114.219363
 20
135.415916
 30
0.0
 11
114.379836
 21
135.096705
 31
0.0
  0
LINE
  5
9D
330
74
100
AcDbEntity
  8
Calque 1
100
AcDbLine
 10
114.379836
 20
135.096705
 30
0.0
 11
114.995475
 21
135.159607
 31
0.0
  0
LINE
  5
9E
330
74
100
AcDbEntity
  8
Calque 1
100
AcDbLine
 10
114.995475
 20
135.159607
 30
0.0
 11
116.845204
 21
135.460824
 31
0.0
  0
LINE
  5
9F
330
74
100
AcDbEntity
  8
Calque 1
100
AcDbLine
 10
116.845204
 20
135.460824
 30
0.0
 11
119.689291
 21
135.679273
 31
0.0
  0
LINE
  5
A0
330
74
100
AcDbEntity
  8
Calque 1
100
AcDbLine
 10
119.689291
 20
135.679273
 30
0.0
 11
128.253476
 21
135.862197
 31
0.0
  0
LINE
  5
A1
330
74
100
AcDbEntity
  8
Calque 1
100
AcDbLine
 10
128.253476
 20
135.862197
 30
0.0
 11
132.920757
 21
135.862533
 31
0.0
  0
LINE
  5
A2
330
74
100
AcDbEntity
  8
Calque 1
100
AcDbLine
 10
132.920757
 20
135.862533
 30
0.0
 11
135.62927
 21
135.660212
 31
0.0
  0
LINE
  5
A3
330
74
100
AcDbEntity
  8
Calque 1
100
AcDbLine
 10
135.62927
 20
135.660212
 30
0.0
 11
138.006568
 21
134.969419
 31
0.0
  0
LINE
  5
A4
330
74
100
AcDbEntity
  8
Calque 1
100
AcDbLine
 10
138.006568
 20
134.969419
 30
0.0
 11
141.680201
 21
133.5043399999999
 31
0.0
  0
LINE
  5
A5
330
74
100
AcDbEntity
  8
Calque 1
100
AcDbLine
 10
141.680201
 20
133.5043399999999
 30
0.0
 11
144.164369
 21
132.509769
 31
0.0
  0
LINE
  5
A6
330
74
100
AcDbEntity
  8
Calque 1
100
AcDbLine
 10
144.164369
 20
132.509769
 30
0.0
 11
144.07909
 21
134.119252
 31
0.0
  0
LINE
  5
A7
330
74
100
AcDbEntity
  8
Calque 1
100
AcDbLine
 10
144.07909
 20
134.119252
 30
0.0
 11
143.993808
 21
135.728734
 31
0.0
  0
LINE
  5
A8
330
74
100
AcDbEntity
  8
Calque 1
100
AcDbLine
 10
143.993808
 20
135.728734
 30
0.0
 11
146.039919
 21
135.811654
 31
0.0
  0
LINE
  5
A9
330
74
100
AcDbEntity
  8
Calque 1
100
AcDbLine
 10
146.039919
 20
135.811654
 30
0.0
 11
148.08603
 21
135.894573
 31
0.0
  0
LINE
  5
AA
330
74
100
AcDbEntity
  8
Calque 1
100
AcDbLine
 10
148.08603
 20
135.894573
 30
0.0
 11
148.08603
 21
133.624431
 31
0.0
  0
LINE
  5
AB
330
74
100
AcDbEntity
  8
Calque 1
100
AcDbLine
 10
148.08603
 20
133.624431
 30
0.0
 11
148.08603
 21
131.354289
 31
0.0
  0
LINE
  5
AC
330
74
100
AcDbEntity
  8
Calque 1
100
AcDbLine
 10
148.08603
 20
131.354289
 30
0.0
 11
145.600626
 21
131.354289
 31
0.0
  0
LINE
  5
AD
330
74
100
AcDbEntity
  8
Calque 1
100
AcDbLine
 10
145.600626
 20
131.354289
 30
0.0
 11
144.117729
 21
131.390534
 31
0.0
  0
LINE
  5
AE
330
74
100
AcDbEntity
  8
Calque 1
100
AcDbLine
 10
144.117729
 20
131.390534
 30
0.0
 11
142.876774
 21
131.591337
 31
0.0
  0
LINE
  5
AF
330
74
100
AcDbEntity
  8
Calque 1
100
AcDbLine
 10
142.876774
 20
131.591337
 30
0.0
 11
138.935104
 21
133.03904
 31
0.0
  0
LINE
  5
B0
330
74
100
AcDbEntity
  8
Calque 1
100
AcDbLine
 10
138.935104
 20
133.03904
 30
0.0
 11
134.754987
 21
134.723789
 31
0.0
  0
LINE
  5
B1
330
74
100
AcDbEntity
  8
Calque 1
100
AcDbLine
 10
134.754987
 20
134.723789
 30
0.0
 11
134.87685
 21
133.03904
 31
0.0
  0
LINE
  5
B2
330
74
100
AcDbEntity
  8
Calque 1
100
AcDbLine
 10
134.87685
 20
133.03904
 30
0.0
 11
134.998714
 21
131.354289
 31
0.0
  0
LINE
  5
B3
330
74
100
AcDbEntity
  8
Calque 1
100
AcDbLine
 10
134.998714
 20
131.354289
 30
0.0
 11
126.514039
 21
131.35642
 31
0.0
  0
LINE
  5
B4
330
74
100
AcDbEntity
  8
Calque 1
100
AcDbLine
 10
126.514039
 20
131.35642
 30
0.0
 11
119.984497
 21
131.44509
 31
0.0
  0
LINE
  5
B5
330
74
100
AcDbEntity
  8
Calque 1
100
AcDbLine
 10
119.984497
 20
131.44509
 30
0.0
 11
116.200465
 21
131.655277
 31
0.0
  0
LINE
  5
B6
330
74
100
AcDbEntity
  8
Calque 1
100
AcDbLine
 10
116.200465
 20
131.655277
 30
0.0
 11
114.780425
 21
131.811184
 31
0.0
  0
LINE
  5
B7
330
74
100
AcDbEntity
  8
Calque 1
100
AcDbLine
 10
114.780425
 20
131.811184
 30
0.0
 11
114.271944
 21
131.653146
 31
0.0
  0
LINE
  5
B8
330
74
100
AcDbEntity
  8
Calque 1
100
AcDbLine
 10
114.271944
 20
131.653146
 30
0.0
 11
113.612085
 21
131.438277
 31
0.0
  0
LINE
  5
B9
330
74
100
AcDbEntity
  8
Calque 1
100
AcDbLine
 10
113.612085
 20
131.438277
 30
0.0
 11
112.079179
 21
131.354289
 31
0.0
  0
LINE
  5
BA
330
74
100
AcDbEntity
  8
Calque 1
100
AcDbLine
 10
112.079179
 20
131.354289
 30
0.0
 11
110.397449
 21
131.439449
 31
0.0
  0
LINE
  5
BB
330
74
100
AcDbEntity
  8
Calque 1
100
AcDbLine
 10
110.397449
 20
131.439449
 30
0.0
 11
110.074901
 21
131.571949
 31
0.0
  0
LINE
  5
BC
330
74
100
AcDbEntity
  8
Calque 1
100
AcDbLine
 10
110.074901
 20
131.571949
 30
0.0
 11
109.98603
 21
131.787551
 31
0.0
  0
LINE
  5
BD
330
74
100
AcDbEntity
  8
Calque 1
100
AcDbLine
 10
109.98603
 20
131.787551
 30
0.0
 11
109.871132
 21
132.076791
 31
0.0
  0
LINE
  5
BE
330
74
100
AcDbEntity
  8
Calque 1
100
AcDbLine
 10
109.871132
 20
132.076791
 30
0.0
 11
109.35103
 21
131.858107
 31
0.0
  0
LINE
  5
BF
330
74
100
AcDbEntity
  8
Calque 1
100
AcDbLine
 10
109.35103
 20
131.858107
 30
0.0
 11
108.274613
 21
131.678946
 31
0.0
  0
LINE
  5
C0
330
74
100
AcDbEntity
  8
Calque 1
100
AcDbLine
 10
108.274613
 20
131.678946
 30
0.0
 11
105.438746
 21
131.554264
 31
0.0
  0
LINE
  5
C1
330
74
100
AcDbEntity
  8
Calque 1
100
AcDbLine
 10
105.438746
 20
131.554264
 30
0.0
 11
92.417697
 21
131.414022
 31
0.0
  0
LINE
  5
C2
330
74
100
AcDbEntity
  8
Calque 1
100
AcDbLine
 10
92.417697
 20
131.414022
 30
0.0
 11
78.22314899999999
 21
131.415788
 31
0.0
  0
LINE
  5
C3
330
74
100
AcDbEntity
  8
Calque 1
100
AcDbLine
 10
78.22314899999999
 20
131.415788
 30
0.0
 11
76.39896
 21
131.574032
 31
0.0
  0
LINE
  5
C4
330
74
100
AcDbEntity
  8
Calque 1
100
AcDbLine
 10
76.39896
 20
131.574032
 30
0.0
 11
76.158469
 21
131.711594
 31
0.0
  0
LINE
  5
C5
330
74
100
AcDbEntity
  8
Calque 1
100
AcDbLine
 10
76.158469
 20
131.711594
 30
0.0
 11
76.119363
 21
131.895391
 31
0.0
  0
LINE
  5
C6
330
74
100
AcDbEntity
  8
Calque 1
100
AcDbLine
 10
76.119363
 20
131.895391
 30
0.0
 11
76.095617
 21
132.20458
 31
0.0
  0
LINE
  5
C7
330
74
100
AcDbEntity
  8
Calque 1
100
AcDbLine
 10
76.095617
 20
132.20458
 30
0.0
 11
75.956085
 21
132.31893
 31
0.0
  0
LINE
  5
C8
330
74
100
AcDbEntity
  8
Calque 1
100
AcDbLine
 10
75.956085
 20
132.31893
 30
0.0
 11
74.91991899999999
 21
131.998253
 31
0.0
  0
LINE
  5
C9
330
74
100
AcDbEntity
  8
Calque 1
100
AcDbLine
 10
74.91991899999999
 20
131.998253
 30
0.0
 11
73.996116
 21
131.764483
 31
0.0
  0
LINE
  5
CA
330
74
100
AcDbEntity
  8
Calque 1
100
AcDbLine
 10
73.996116
 20
131.764483
 30
0.0
 11
72.442914
 21
131.605505
 31
0.0
  0
LINE
  5
CB
330
74
100
AcDbEntity
  8
Calque 1
100
AcDbLine
 10
72.442914
 20
131.605505
 30
0.0
 11
66.02991899999999
 21
131.419607
 31
0.0
  0
LINE
  5
CC
330
74
100
AcDbEntity
  8
Calque 1
100
AcDbLine
 10
66.02991899999999
 20
131.419607
 30
0.0
 11
60.425064
 21
131.404955
 31
0.0
  0
LINE
  5
CD
330
74
100
AcDbEntity
  8
Calque 1
100
AcDbLine
 10
60.425064
 20
131.404955
 30
0.0
 11
58.339363
 21
131.565959
 31
0.0
  0
LINE
  5
CE
330
74
100
AcDbEntity
  8
Calque 1
100
AcDbLine
 10
58.339363
 20
131.565959
 30
0.0
 11
58.339363
 21
131.565959
 31
0.0
  0
LINE
  5
CF
330
74
100
AcDbEntity
  8
Calque 1
100
AcDbLine
 10
104.02774
 20
132.101072
 30
0.0
 11
105.277237
 21
132.318025
 31
0.0
  0
LINE
  5
D0
330
74
100
AcDbEntity
  8
Calque 1
100
AcDbLine
 10
105.277237
 20
132.318025
 30
0.0
 11
105.669032
 21
132.594961
 31
0.0
  0
LINE
  5
D1
330
74
100
AcDbEntity
  8
Calque 1
100
AcDbLine
 10
105.669032
 20
132.594961
 30
0.0
 11
104.075316
 21
132.871714
 31
0.0
  0
LINE
  5
D2
330
74
100
AcDbEntity
  8
Calque 1
100
AcDbLine
 10
104.075316
 20
132.871714
 30
0.0
 11
99.520923
 21
133.079345
 31
0.0
  0
LINE
  5
D3
330
74
100
AcDbEntity
  8
Calque 1
100
AcDbLine
 10
99.520923
 20
133.079345
 30
0.0
 11
95.59772199999999
 21
133.241578
 31
0.0
  0
LINE
  5
D4
330
74
100
AcDbEntity
  8
Calque 1
100
AcDbLine
 10
95.59772199999999
 20
133.241578
 30
0.0
 11
93.188317
 21
133.492379
 31
0.0
  0
LINE
  5
D5
330
74
100
AcDbEntity
  8
Calque 1
100
AcDbLine
 10
93.188317
 20
133.492379
 30
0.0
 11
91.975381
 21
133.888413
 31
0.0
  0
LINE
  5
D6
330
74
100
AcDbEntity
  8
Calque 1
100
AcDbLine
 10
91.975381
 20
133.888413
 30
0.0
 11
91.71842299999999
 21
134.158599
 31
0.0
  0
LINE
  5
D7
330
74
100
AcDbEntity
  8
Calque 1
100
AcDbLine
 10
91.71842299999999
 20
134.158599
 30
0.0
 11
91.641586
 21
134.486344
 31
0.0
  0
LINE
  5
D8
330
74
100
AcDbEntity
  8
Calque 1
100
AcDbLine
 10
91.641586
 20
134.486344
 30
0.0
 11
91.51078100000001
 21
134.785453
 31
0.0
  0
LINE
  5
D9
330
74
100
AcDbEntity
  8
Calque 1
100
AcDbLine
 10
91.51078100000001
 20
134.785453
 30
0.0
 11
90.81064299999999
 21
134.946076
 31
0.0
  0
LINE
  5
DA
330
74
100
AcDbEntity
  8
Calque 1
100
AcDbLine
 10
90.81064299999999
 20
134.946076
 30
0.0
 11
85.85603
 21
135.023178
 31
0.0
  0
LINE
  5
DB
330
74
100
AcDbEntity
  8
Calque 1
100
AcDbLine
 10
85.85603
 20
135.023178
 30
0.0
 11
80.86422500000001
 21
134.945739
 31
0.0
  0
LINE
  5
DC
330
74
100
AcDbEntity
  8
Calque 1
100
AcDbLine
 10
80.86422500000001
 20
134.945739
 30
0.0
 11
80.18733199999999
 21
134.77731
 31
0.0
  0
LINE
  5
DD
330
74
100
AcDbEntity
  8
Calque 1
100
AcDbLine
 10
80.18733199999999
 20
134.77731
 30
0.0
 11
80.070475
 21
134.458734
 31
0.0
  0
LINE
  5
DE
330
74
100
AcDbEntity
  8
Calque 1
100
AcDbLine
 10
80.070475
 20
134.458734
 30
0.0
 11
80.172266
 21
134.141707
 31
0.0
  0
LINE
  5
DF
330
74
100
AcDbEntity
  8
Calque 1
100
AcDbLine
 10
80.172266
 20
134.141707
 30
0.0
 11
80.74369200000001
 21
133.973105
 31
0.0
  0
LINE
  5
E0
330
74
100
AcDbEntity
  8
Calque 1
100
AcDbLine
 10
80.74369200000001
 20
133.973105
 30
0.0
 11
84.89176999999999
 21
133.894289
 31
0.0
  0
LINE
  5
E1
330
74
100
AcDbEntity
  8
Calque 1
100
AcDbLine
 10
84.89176999999999
 20
133.894289
 30
0.0
 11
88.67710699999999
 21
133.820286
 31
0.0
  0
LINE
  5
E2
330
74
100
AcDbEntity
  8
Calque 1
100
AcDbLine
 10
88.67710699999999
 20
133.820286
 30
0.0
 11
89.423858
 21
133.711817
 31
0.0
  0
LINE
  5
E3
330
74
100
AcDbEntity
  8
Calque 1
100
AcDbLine
 10
89.423858
 20
133.711817
 30
0.0
 11
89.59589499999999
 21
133.541512
 31
0.0
  0
LINE
  5
E4
330
74
100
AcDbEntity
  8
Calque 1
100
AcDbLine
 10
89.59589499999999
 20
133.541512
 30
0.0
 11
89.295158
 21
133.372896
 31
0.0
  0
LINE
  5
E5
330
74
100
AcDbEntity
  8
Calque 1
100
AcDbLine
 10
89.295158
 20
133.372896
 30
0.0
 11
88.46321999999998
 21
133.24924
 31
0.0
  0
LINE
  5
E6
330
74
100
AcDbEntity
  8
Calque 1
100
AcDbLine
 10
88.46321999999998
 20
133.24924
 30
0.0
 11
84.85495699999999
 21
133.104465
 31
0.0
  0
LINE
  5
E7
330
74
100
AcDbEntity
  8
Calque 1
100
AcDbLine
 10
84.85495699999999
 20
133.104465
 30
0.0
 11
80.11596899999998
 21
132.904968
 31
0.0
  0
LINE
  5
E8
330
74
100
AcDbEntity
  8
Calque 1
100
AcDbLine
 10
80.11596899999998
 20
132.904968
 30
0.0
 11
80.16786399999999
 21
132.354239
 31
0.0
  0
LINE
  5
E9
330
74
100
AcDbEntity
  8
Calque 1
100
AcDbLine
 10
80.16786399999999
 20
132.354239
 30
0.0
 11
80.61623199999999
 21
132.124954
 31
0.0
  0
LINE
  5
EA
330
74
100
AcDbEntity
  8
Calque 1
100
AcDbLine
 10
80.61623199999999
 20
132.124954
 30
0.0
 11
82.18195300000001
 21
131.993164
 31
0.0
  0
LINE
  5
EB
330
74
100
AcDbEntity
  8
Calque 1
100
AcDbLine
 10
82.18195300000001
 20
131.993164
 30
0.0
 11
91.309105
 21
131.918734
 31
0.0
  0
LINE
  5
EC
330
74
100
AcDbEntity
  8
Calque 1
100
AcDbLine
 10
91.309105
 20
131.918734
 30
0.0
 11
104.02774
 21
132.101072
 31
0.0
  0
LINE
  5
ED
330
74
100
AcDbEntity
  8
Calque 1
100
AcDbLine
 10
104.02774
 20
132.101072
 30
0.0
 11
104.02774
 21
132.101072
 31
0.0
  0
LINE
  5
EE
330
74
100
AcDbEntity
  8
Calque 1
100
AcDbLine
 10
126.866325
 20
132.553734
 30
0.0
 11
126.832029
 21
132.818188
 31
0.0
  0
LINE
  5
EF
330
74
100
AcDbEntity
  8
Calque 1
100
AcDbLine
 10
126.832029
 20
132.818188
 30
0.0
 11
126.482169
 21
132.967153
 31
0.0
  0
LINE
  5
F0
330
74
100
AcDbEntity
  8
Calque 1
100
AcDbLine
 10
126.482169
 20
132.967153
 30
0.0
 11
124.117834
 21
133.047623
 31
0.0
  0
LINE
  5
F1
330
74
100
AcDbEntity
  8
Calque 1
100
AcDbLine
 10
124.117834
 20
133.047623
 30
0.0
 11
121.819293
 21
133.128685
 31
0.0
  0
LINE
  5
F2
330
74
100
AcDbEntity
  8
Calque 1
100
AcDbLine
 10
121.819293
 20
133.128685
 30
0.0
 11
121.390218
 21
133.25788
 31
0.0
  0
LINE
  5
F3
330
74
100
AcDbEntity
  8
Calque 1
100
AcDbLine
 10
121.390218
 20
133.25788
 30
0.0
 11
121.274919
 21
133.470956
 31
0.0
  0
LINE
  5
F4
330
74
100
AcDbEntity
  8
Calque 1
100
AcDbLine
 10
121.274919
 20
133.470956
 30
0.0
 11
121.451308
 21
133.688848
 31
0.0
  0
LINE
  5
F5
330
74
100
AcDbEntity
  8
Calque 1
100
AcDbLine
 10
121.451308
 20
133.688848
 30
0.0
 11
122.145105
 21
133.817508
 31
0.0
  0
LINE
  5
F6
330
74
100
AcDbEntity
  8
Calque 1
100
AcDbLine
 10
122.145105
 20
133.817508
 30
0.0
 11
126.072697
 21
133.894289
 31
0.0
  0
LINE
  5
F7
330
74
100
AcDbEntity
  8
Calque 1
100
AcDbLine
 10
126.072697
 20
133.894289
 30
0.0
 11
130.224904
 21
133.973503
 31
0.0
  0
LINE
  5
F8
330
74
100
AcDbEntity
  8
Calque 1
100
AcDbLine
 10
130.224904
 20
133.973503
 30
0.0
 11
130.778316
 21
134.148976
 31
0.0
  0
LINE
  5
F9
330
74
100
AcDbEntity
  8
Calque 1
100
AcDbLine
 10
130.778316
 20
134.148976
 30
0.0
 11
130.870475
 21
134.482988
 31
0.0
  0
LINE
  5
FA
330
74
100
AcDbEntity
  8
Calque 1
100
AcDbLine
 10
130.870475
 20
134.482988
 30
0.0
 11
130.766165
 21
134.818552
 31
0.0
  0
LINE
  5
FB
330
74
100
AcDbEntity
  8
Calque 1
100
AcDbLine
 10
130.766165
 20
134.818552
 30
0.0
 11
130.092547
 21
134.9829879999999
 31
0.0
  0
LINE
  5
FC
330
74
100
AcDbEntity
  8
Calque 1
100
AcDbLine
 10
130.092547
 20
134.9829879999999
 30
0.0
 11
124.873252
 21
134.976595
 31
0.0
  0
LINE
  5
FD
330
74
100
AcDbEntity
  8
Calque 1
100
AcDbLine
 10
124.873252
 20
134.976595
 30
0.0
 11
120.145358
 21
134.81822
 31
0.0
  0
LINE
  5
FE
330
74
100
AcDbEntity
  8
Calque 1
100
AcDbLine
 10
120.145358
 20
134.81822
 30
0.0
 11
118.24103
 21
134.519076
 31
0.0
  0
LINE
  5
FF
330
74
100
AcDbEntity
  8
Calque 1
100
AcDbLine
 10
118.24103
 20
134.519076
 30
0.0
 11
117.797707
 21
134.080791
 31
0.0
  0
LINE
  5
100
330
74
100
AcDbEntity
  8
Calque 1
100
AcDbLine
 10
117.797707
 20
134.080791
 30
0.0
 11
117.619159
 21
133.517356
 31
0.0
  0
LINE
  5
101
330
74
100
AcDbEntity
  8
Calque 1
100
AcDbLine
 10
117.619159
 20
133.517356
 30
0.0
 11
117.716269
 21
132.976362
 31
0.0
  0
LINE
  5
102
330
74
100
AcDbEntity
  8
Calque 1
100
AcDbLine
 10
117.716269
 20
132.976362
 30
0.0
 11
118.099919
 21
132.6054
 31
0.0
  0
LINE
  5
103
330
74
100
AcDbEntity
  8
Calque 1
100
AcDbLine
 10
118.099919
 20
132.6054
 30
0.0
 11
119.042081
 21
132.363334
 31
0.0
  0
LINE
  5
104
330
74
100
AcDbEntity
  8
Calque 1
100
AcDbLine
 10
119.042081
 20
132.363334
 30
0.0
 11
120.550694
 21
132.172623
 31
0.0
  0
LINE
  5
105
330
74
100
AcDbEntity
  8
Calque 1
100
AcDbLine
 10
120.550694
 20
132.172623
 30
0.0
 11
124.376188
 21
132.027339
 31
0.0
  0
LINE
  5
106
330
74
100
AcDbEntity
  8
Calque 1
100
AcDbLine
 10
124.376188
 20
132.027339
 30
0.0
 11
126.356875
 21
132.143053
 31
0.0
  0
LINE
  5
107
330
74
100
AcDbEntity
  8
Calque 1
100
AcDbLine
 10
126.356875
 20
132.143053
 30
0.0
 11
126.73046
 21
132.297773
 31
0.0
  0
LINE
  5
108
330
74
100
AcDbEntity
  8
Calque 1
100
AcDbLine
 10
126.73046
 20
132.297773
 30
0.0
 11
126.866325
 21
132.553734
 31
0.0
  0
LINE
  5
109
330
74
100
AcDbEntity
  8
Calque 1
100
AcDbLine
 10
126.866325
 20
132.553734
 30
0.0
 11
126.866325
 21
132.553734
 31
0.0
  0
LINE
  5
10A
330
74
100
AcDbEntity
  8
Calque 1
100
AcDbLine
 10
109.98603
 20
134.05357
 30
0.0
 11
109.98603
 21
135.05952
 31
0.0
  0
LINE
  5
10B
330
74
100
AcDbEntity
  8
Calque 1
100
AcDbLine
 10
109.98603
 20
135.05952
 30
0.0
 11
103.094581
 21
134.970792
 31
0.0
  0
LINE
  5
10C
330
74
100
AcDbEntity
  8
Calque 1
100
AcDbLine
 10
103.094581
 20
134.970792
 30
0.0
 11
98.16547299999999
 21
134.845953
 31
0.0
  0
LINE
  5
10D
330
74
100
AcDbEntity
  8
Calque 1
100
AcDbLine
 10
98.16547299999999
 20
134.845953
 30
0.0
 11
95.99198800000001
 21
134.670401
 31
0.0
  0
LINE
  5
10E
330
74
100
AcDbEntity
  8
Calque 1
100
AcDbLine
 10
95.99198800000001
 20
134.670401
 30
0.0
 11
95.88204300000001
 21
134.495687
 31
0.0
  0
LINE
  5
10F
330
74
100
AcDbEntity
  8
Calque 1
100
AcDbLine
 10
95.88204300000001
 20
134.495687
 30
0.0
 11
95.95959599999998
 21
134.351872
 31
0.0
  0
LINE
  5
110
330
74
100
AcDbEntity
  8
Calque 1
100
AcDbLine
 10
95.95959599999998
 20
134.351872
 30
0.0
 11
96.82697199999999
 21
134.138689
 31
0.0
  0
LINE
  5
111
330
74
100
AcDbEntity
  8
Calque 1
100
AcDbLine
 10
96.82697199999999
 20
134.138689
 30
0.0
 11
102.459245
 21
133.882354
 31
0.0
  0
LINE
  5
112
330
74
100
AcDbEntity
  8
Calque 1
100
AcDbLine
 10
102.459245
 20
133.882354
 30
0.0
 11
107.243261
 21
133.682941
 31
0.0
  0
LINE
  5
113
330
74
100
AcDbEntity
  8
Calque 1
100
AcDbLine
 10
107.243261
 20
133.682941
 30
0.0
 11
109.280475
 21
133.397048
 31
0.0
  0
LINE
  5
114
330
74
100
AcDbEntity
  8
Calque 1
100
AcDbLine
 10
109.280475
 20
133.397048
 30
0.0
 11
109.915475
 21
133.056205
 31
0.0
  0
LINE
  5
115
330
74
100
AcDbEntity
  8
Calque 1
100
AcDbLine
 10
109.915475
 20
133.056205
 30
0.0
 11
109.98603
 21
134.05357
 31
0.0
  0
LINE
  5
116
330
74
100
AcDbEntity
  8
Calque 1
100
AcDbLine
 10
109.98603
 20
134.05357
 30
0.0
 11
109.98603
 21
134.05357
 31
0.0
  0
LINE
  5
117
330
74
100
AcDbEntity
  8
Calque 1
100
AcDbLine
 10
60.313578
 20
139.891512
 30
0.0
 11
66.586828
 21
150.186089
 31
0.0
  0
LINE
  5
118
330
74
100
AcDbEntity
  8
Calque 1
100
AcDbLine
 10
66.586828
 20
150.186089
 30
0.0
 11
70.89825199999999
 21
157.30567
 31
0.0
  0
LINE
  5
119
330
74
100
AcDbEntity
  8
Calque 1
100
AcDbLine
 10
70.89825199999999
 20
157.30567
 30
0.0
 11
74.401158
 21
157.241645
 31
0.0
  0
LINE
  5
11A
330
74
100
AcDbEntity
  8
Calque 1
100
AcDbLine
 10
74.401158
 20
157.241645
 30
0.0
 11
77.904061
 21
157.177623
 31
0.0
  0
LINE
  5
11B
330
74
100
AcDbEntity
  8
Calque 1
100
AcDbLine
 10
77.904061
 20
157.177623
 30
0.0
 11
83.116496
 21
148.640401
 31
0.0
  0
LINE
  5
11C
330
74
100
AcDbEntity
  8
Calque 1
100
AcDbLine
 10
83.116496
 20
148.640401
 30
0.0
 11
88.328929
 21
140.103178
 31
0.0
  0
LINE
  5
11D
330
74
100
AcDbEntity
  8
Calque 1
100
AcDbLine
 10
88.328929
 20
140.103178
 30
0.0
 11
92.45470199999999
 21
140.12647
 31
0.0
  0
LINE
  5
11E
330
74
100
AcDbEntity
  8
Calque 1
100
AcDbLine
 10
92.45470199999999
 20
140.12647
 30
0.0
 11
102.298996
 21
140.406756
 31
0.0
  0
LINE
  5
11F
330
74
100
AcDbEntity
  8
Calque 1
100
AcDbLine
 10
102.298996
 20
140.406756
 30
0.0
 11
105.18315
 21
140.706773
 31
0.0
  0
LINE
  5
120
330
74
100
AcDbEntity
  8
Calque 1
100
AcDbLine
 10
105.18315
 20
140.706773
 30
0.0
 11
106.748422
 21
141.116128
 31
0.0
  0
LINE
  5
121
330
74
100
AcDbEntity
  8
Calque 1
100
AcDbLine
 10
106.748422
 20
141.116128
 30
0.0
 11
107.875071
 21
141.947051
 31
0.0
  0
LINE
  5
122
330
74
100
AcDbEntity
  8
Calque 1
100
AcDbLine
 10
107.875071
 20
141.947051
 30
0.0
 11
108.640809
 21
143.150906
 31
0.0
  0
LINE
  5
123
330
74
100
AcDbEntity
  8
Calque 1
100
AcDbLine
 10
108.640809
 20
143.150906
 30
0.0
 11
109.07588
 21
144.799538
 31
0.0
  0
LINE
  5
124
330
74
100
AcDbEntity
  8
Calque 1
100
AcDbLine
 10
109.07588
 20
144.799538
 30
0.0
 11
109.210529
 21
146.9647939999999
 31
0.0
  0
LINE
  5
125
330
74
100
AcDbEntity
  8
Calque 1
100
AcDbLine
 10
109.210529
 20
146.9647939999999
 30
0.0
 11
109.015983
 21
149.609793
 31
0.0
  0
LINE
  5
126
330
74
100
AcDbEntity
  8
Calque 1
100
AcDbLine
 10
109.015983
 20
149.609793
 30
0.0
 11
108.760882
 21
150.621827
 31
0.0
  0
LINE
  5
127
330
74
100
AcDbEntity
  8
Calque 1
100
AcDbLine
 10
108.760882
 20
150.621827
 30
0.0
 11
108.385342
 21
151.452741
 31
0.0
  0
LINE
  5
128
330
74
100
AcDbEntity
  8
Calque 1
100
AcDbLine
 10
108.385342
 20
151.452741
 30
0.0
 11
107.877949
 21
152.121929
 31
0.0
  0
LINE
  5
129
330
74
100
AcDbEntity
  8
Calque 1
100
AcDbLine
 10
107.877949
 20
152.121929
 30
0.0
 11
107.227287
 21
152.648785
 31
0.0
  0
LINE
  5
12A
330
74
100
AcDbEntity
  8
Calque 1
100
AcDbLine
 10
107.227287
 20
152.648785
 30
0.0
 11
106.421943
 21
153.052702
 31
0.0
  0
LINE
  5
12B
330
74
100
AcDbEntity
  8
Calque 1
100
AcDbLine
 10
106.421943
 20
153.052702
 30
0.0
 11
105.450502
 21
153.353074
 31
0.0
  0
LINE
  5
12C
330
74
100
AcDbEntity
  8
Calque 1
100
AcDbLine
 10
105.450502
 20
153.353074
 30
0.0
 11
102.253462
 21
153.586159
 31
0.0
  0
LINE
  5
12D
330
74
100
AcDbEntity
  8
Calque 1
100
AcDbLine
 10
102.253462
 20
153.586159
 30
0.0
 11
96.298252
 21
153.72265
 31
0.0
  0
LINE
  5
12E
330
74
100
AcDbEntity
  8
Calque 1
100
AcDbLine
 10
96.298252
 20
153.72265
 30
0.0
 11
88.39603000000002
 21
153.790956
 31
0.0
  0
LINE
  5
12F
330
74
100
AcDbEntity
  8
Calque 1
100
AcDbLine
 10
88.39603000000002
 20
153.790956
 30
0.0
 11
88.312007
 21
155.554845
 31
0.0
  0
LINE
  5
130
330
74
100
AcDbEntity
  8
Calque 1
100
AcDbLine
 10
88.312007
 20
155.554845
 30
0.0
 11
88.22798699999999
 21
157.318734
 31
0.0
  0
LINE
  5
131
330
74
100
AcDbEntity
  8
Calque 1
100
AcDbLine
 10
88.22798699999999
 20
157.318734
 30
0.0
 11
96.68329100000001
 21
157.318734
 31
0.0
  0
LINE
  5
132
330
74
100
AcDbEntity
  8
Calque 1
100
AcDbLine
 10
96.68329100000001
 20
157.318734
 30
0.0
 11
103.722182
 21
157.226905
 31
0.0
  0
LINE
  5
133
330
74
100
AcDbEntity
  8
Calque 1
100
AcDbLine
 10
103.722182
 20
157.226905
 30
0.0
 11
107.278531
 21
156.909297
 31
0.0
  0
LINE
  5
134
330
74
100
AcDbEntity
  8
Calque 1
100
AcDbLine
 10
107.278531
 20
156.909297
 30
0.0
 11
110.076006
 21
156.171041
 31
0.0
  0
LINE
  5
135
330
74
100
AcDbEntity
  8
Calque 1
100
AcDbLine
 10
110.076006
 20
156.171041
 30
0.0
 11
112.240915
 21
155.112406
 31
0.0
  0
LINE
  5
136
330
74
100
AcDbEntity
  8
Calque 1
100
AcDbLine
 10
112.240915
 20
155.112406
 30
0.0
 11
113.121602
 21
154.439576
 31
0.0
  0
LINE
  5
137
330
74
100
AcDbEntity
  8
Calque 1
100
AcDbLine
 10
113.121602
 20
154.439576
 30
0.0
 11
113.886683
 21
153.658608
 31
0.0
  0
LINE
  5
138
330
74
100
AcDbEntity
  8
Calque 1
100
AcDbLine
 10
113.886683
 20
153.658608
 30
0.0
 11
115.126736
 21
151.734866
 31
0.0
  0
LINE
  5
139
330
74
100
AcDbEntity
  8
Calque 1
100
AcDbLine
 10
115.126736
 20
151.734866
 30
0.0
 11
115.63857
 21
150.623026
 31
0.0
  0
LINE
  5
13A
330
74
100
AcDbEntity
  8
Calque 1
100
AcDbLine
 10
115.63857
 20
150.623026
 30
0.0
 11
115.916476
 21
149.690823
 31
0.0
  0
LINE
  5
13B
330
74
100
AcDbEntity
  8
Calque 1
100
AcDbLine
 10
115.916476
 20
149.690823
 30
0.0
 11
116.053808
 21
146.882447
 31
0.0
  0
LINE
  5
13C
330
74
100
AcDbEntity
  8
Calque 1
100
AcDbLine
 10
116.053808
 20
146.882447
 30
0.0
 11
115.92644
 21
144.134099
 31
0.0
  0
LINE
  5
13D
330
74
100
AcDbEntity
  8
Calque 1
100
AcDbLine
 10
115.92644
 20
144.134099
 30
0.0
 11
115.689055
 21
143.257732
 31
0.0
  0
LINE
  5
13E
330
74
100
AcDbEntity
  8
Calque 1
100
AcDbLine
 10
115.689055
 20
143.257732
 30
0.0
 11
115.266383
 21
142.309705
 31
0.0
  0
LINE
  5
13F
330
74
100
AcDbEntity
  8
Calque 1
100
AcDbLine
 10
115.266383
 20
142.309705
 30
0.0
 11
114.524246
 21
141.052813
 31
0.0
  0
LINE
  5
140
330
74
100
AcDbEntity
  8
Calque 1
100
AcDbLine
 10
114.524246
 20
141.052813
 30
0.0
 11
113.609647
 21
139.987652
 31
0.0
  0
LINE
  5
141
330
74
100
AcDbEntity
  8
Calque 1
100
AcDbLine
 10
113.609647
 20
139.987652
 30
0.0
 11
112.474555
 21
139.067703
 31
0.0
  0
LINE
  5
142
330
74
100
AcDbEntity
  8
Calque 1
100
AcDbLine
 10
112.474555
 20
139.067703
 30
0.0
 11
111.070938
 21
138.246447
 31
0.0
  0
LINE
  5
143
330
74
100
AcDbEntity
  8
Calque 1
100
AcDbLine
 10
111.070938
 20
138.246447
 30
0.0
 11
109.071438
 21
137.427816
 31
0.0
  0
LINE
  5
144
330
74
100
AcDbEntity
  8
Calque 1
100
AcDbLine
 10
109.071438
 20
137.427816
 30
0.0
 11
106.41367
 21
136.969395
 31
0.0
  0
LINE
  5
145
330
74
100
AcDbEntity
  8
Calque 1
100
AcDbLine
 10
106.41367
 20
136.969395
 30
0.0
 11
101.992851
 21
136.768241
 31
0.0
  0
LINE
  5
146
330
74
100
AcDbEntity
  8
Calque 1
100
AcDbLine
 10
101.992851
 20
136.768241
 30
0.0
 11
94.70419900000001
 21
136.721411
 31
0.0
  0
LINE
  5
147
330
74
100
AcDbEntity
  8
Calque 1
100
AcDbLine
 10
94.70419900000001
 20
136.721411
 30
0.0
 11
83.51459
 21
136.716512
 31
0.0
  0
LINE
  5
148
330
74
100
AcDbEntity
  8
Calque 1
100
AcDbLine
 10
83.51459
 20
136.716512
 30
0.0
 11
79.84719399999999
 21
143.278178
 31
0.0
  0
LINE
  5
149
330
74
100
AcDbEntity
  8
Calque 1
100
AcDbLine
 10
79.84719399999999
 20
143.278178
 30
0.0
 11
75.275932
 21
151.390453
 31
0.0
  0
LINE
  5
14A
330
74
100
AcDbEntity
  8
Calque 1
100
AcDbLine
 10
75.275932
 20
151.390453
 30
0.0
 11
74.154894
 21
153.077665
 31
0.0
  0
LINE
  5
14B
330
74
100
AcDbEntity
  8
Calque 1
100
AcDbLine
 10
74.154894
 20
153.077665
 30
0.0
 11
71.347516
 21
148.209332
 31
0.0
  0
LINE
  5
14C
330
74
100
AcDbEntity
  8
Calque 1
100
AcDbLine
 10
71.347516
 20
148.209332
 30
0.0
 11
66.872005
 21
140.032623
 31
0.0
  0
LINE
  5
14D
330
74
100
AcDbEntity
  8
Calque 1
100
AcDbLine
 10
66.872005
 20
140.032623
 30
0.0
 11
65.051675
 21
136.716512
 31
0.0
  0
LINE
  5
14E
330
74
100
AcDbEntity
  8
Calque 1
100
AcDbLine
 10
65.051675
 20
136.716512
 30
0.0
 11
61.701714
 21
136.716512
 31
0.0
  0
LINE
  5
14F
330
74
100
AcDbEntity
  8
Calque 1
100
AcDbLine
 10
61.701714
 20
136.716512
 30
0.0
 11
58.351753
 21
136.716512
 31
0.0
  0
LINE
  5
150
330
74
100
AcDbEntity
  8
Calque 1
100
AcDbLine
 10
58.351753
 20
136.716512
 30
0.0
 11
60.313578
 21
139.891512
 31
0.0
  0
LINE
  5
151
330
74
100
AcDbEntity
  8
Calque 1
100
AcDbLine
 10
60.313578
 20
139.891512
 30
0.0
 11
60.313578
 21
139.891512
 31
0.0
  0
LINE
  5
152
330
74
100
AcDbEntity
  8
Calque 1
100
AcDbLine
 10
120.710475
 20
142.631782
 30
0.0
 11
120.710475
 21
148.547053
 31
0.0
  0
LINE
  5
153
330
74
100
AcDbEntity
  8
Calque 1
100
AcDbLine
 10
120.710475
 20
148.547053
 30
0.0
 11
129.580299
 21
148.629004
 31
0.0
  0
LINE
  5
154
330
74
100
AcDbEntity
  8
Calque 1
100
AcDbLine
 10
129.580299
 20
148.629004
 30
0.0
 11
137.319586
 21
148.782784
 31
0.0
  0
LINE
  5
155
330
74
100
AcDbEntity
  8
Calque 1
100
AcDbLine
 10
137.319586
 20
148.782784
 30
0.0
 11
138.610937
 21
148.970246
 31
0.0
  0
LINE
  5
156
330
74
100
AcDbEntity
  8
Calque 1
100
AcDbLine
 10
138.610937
 20
148.970246
 30
0.0
 11
139.24641
 21
149.305858
 31
0.0
  0
LINE
  5
157
330
74
100
AcDbEntity
  8
Calque 1
100
AcDbLine
 10
139.24641
 20
149.305858
 30
0.0
 11
139.89096
 21
150.017796
 31
0.0
  0
LINE
  5
158
330
74
100
AcDbEntity
  8
Calque 1
100
AcDbLine
 10
139.89096
 20
150.017796
 30
0.0
 11
140.042697
 21
151.109845
 31
0.0
  0
LINE
  5
159
330
74
100
AcDbEntity
  8
Calque 1
100
AcDbLine
 10
140.042697
 20
151.109845
 30
0.0
 11
139.890962
 21
152.201889
 31
0.0
  0
LINE
  5
15A
330
74
100
AcDbEntity
  8
Calque 1
100
AcDbLine
 10
139.890962
 20
152.201889
 30
0.0
 11
139.24646
 21
152.913832
 31
0.0
  0
LINE
  5
15B
330
74
100
AcDbEntity
  8
Calque 1
100
AcDbLine
 10
139.24646
 20
152.913832
 30
0.0
 11
138.610724
 21
153.24944
 31
0.0
  0
LINE
  5
15C
330
74
100
AcDbEntity
  8
Calque 1
100
AcDbLine
 10
138.610724
 20
153.24944
 30
0.0
 11
137.318706
 21
153.43733
 31
0.0
  0
LINE
  5
15D
330
74
100
AcDbEntity
  8
Calque 1
100
AcDbLine
 10
137.318706
 20
153.43733
 30
0.0
 11
129.580349
 21
153.594148
 31
0.0
  0
LINE
  5
15E
330
74
100
AcDbEntity
  8
Calque 1
100
AcDbLine
 10
129.580349
 20
153.594148
 30
0.0
 11
120.710475
 21
153.679563
 31
0.0
  0
LINE
  5
15F
330
74
100
AcDbEntity
  8
Calque 1
100
AcDbLine
 10
120.710475
 20
153.679563
 30
0.0
 11
120.710475
 21
155.518289
 31
0.0
  0
LINE
  5
160
330
74
100
AcDbEntity
  8
Calque 1
100
AcDbLine
 10
120.710475
 20
155.518289
 30
0.0
 11
120.710475
 21
157.357012
 31
0.0
  0
LINE
  5
161
330
74
100
AcDbEntity
  8
Calque 1
100
AcDbLine
 10
120.710475
 20
157.357012
 30
0.0
 11
130.799919
 21
157.251732
 31
0.0
  0
LINE
  5
162
330
74
100
AcDbEntity
  8
Calque 1
100
AcDbLine
 10
130.799919
 20
157.251732
 30
0.0
 11
137.363973
 21
157.139586
 31
0.0
  0
LINE
  5
163
330
74
100
AcDbEntity
  8
Calque 1
100
AcDbLine
 10
137.363973
 20
157.139586
 30
0.0
 11
141.192704
 21
156.886217
 31
0.0
  0
LINE
  5
164
330
74
100
AcDbEntity
  8
Calque 1
100
AcDbLine
 10
141.192704
 20
156.886217
 30
0.0
 11
142.400225
 21
156.664592
 31
0.0
  0
LINE
  5
165
330
74
100
AcDbEntity
  8
Calque 1
100
AcDbLine
 10
142.400225
 20
156.664592
 30
0.0
 11
143.306598
 21
156.357284
 31
0.0
  0
LINE
  5
166
330
74
100
AcDbEntity
  8
Calque 1
100
AcDbLine
 10
143.306598
 20
156.357284
 30
0.0
 11
144.726141
 21
155.41845
 31
0.0
  0
LINE
  5
167
330
74
100
AcDbEntity
  8
Calque 1
100
AcDbLine
 10
144.726141
 20
155.41845
 30
0.0
 11
145.791167
 21
154.235892
 31
0.0
  0
LINE
  5
168
330
74
100
AcDbEntity
  8
Calque 1
100
AcDbLine
 10
145.791167
 20
154.235892
 30
0.0
 11
146.435061
 21
152.895971
 31
0.0
  0
LINE
  5
169
330
74
100
AcDbEntity
  8
Calque 1
100
AcDbLine
 10
146.435061
 20
152.895971
 30
0.0
 11
146.675857
 21
151.475122
 31
0.0
  0
LINE
  5
16A
330
74
100
AcDbEntity
  8
Calque 1
100
AcDbLine
 10
146.675857
 20
151.475122
 30
0.0
 11
146.531588
 21
150.049779
 31
0.0
  0
LINE
  5
16B
330
74
100
AcDbEntity
  8
Calque 1
100
AcDbLine
 10
146.531588
 20
150.049779
 30
0.0
 11
146.020286
 21
148.696379
 31
0.0
  0
LINE
  5
16C
330
74
100
AcDbEntity
  8
Calque 1
100
AcDbLine
 10
146.020286
 20
148.696379
 30
0.0
 11
145.159983
 21
147.491357
 31
0.0
  0
LINE
  5
16D
330
74
100
AcDbEntity
  8
Calque 1
100
AcDbLine
 10
145.159983
 20
147.491357
 30
0.0
 11
143.968714
 21
146.511148
 31
0.0
  0
LINE
  5
16E
330
74
100
AcDbEntity
  8
Calque 1
100
AcDbLine
 10
143.968714
 20
146.511148
 30
0.0
 11
142.464511
 21
145.832188
 31
0.0
  0
LINE
  5
16F
330
74
100
AcDbEntity
  8
Calque 1
100
AcDbLine
 10
142.464511
 20
145.832188
 30
0.0
 11
140.786587
 21
145.283153
 31
0.0
  0
LINE
  5
170
330
74
100
AcDbEntity
  8
Calque 1
100
AcDbLine
 10
140.786587
 20
145.283153
 30
0.0
 11
144.243809
 21
141.111513
 31
0.0
  0
LINE
  5
171
330
74
100
AcDbEntity
  8
Calque 1
100
AcDbLine
 10
144.243809
 20
141.111513
 30
0.0
 11
147.803808
 21
136.863366
 31
0.0
  0
LINE
  5
172
330
74
100
AcDbEntity
  8
Calque 1
100
AcDbLine
 10
147.803808
 20
136.863366
 30
0.0
 11
144.346586
 21
136.72749
 31
0.0
  0
LINE
  5
173
330
74
100
AcDbEntity
  8
Calque 1
100
AcDbLine
 10
144.346586
 20
136.72749
 30
0.0
 11
140.889363
 21
136.7384689999999
 31
0.0
  0
LINE
  5
174
330
74
100
AcDbEntity
  8
Calque 1
100
AcDbLine
 10
140.889363
 20
136.7384689999999
 30
0.0
 11
137.643808
 21
140.808734
 31
0.0
  0
LINE
  5
175
330
74
100
AcDbEntity
  8
Calque 1
100
AcDbLine
 10
137.643808
 20
140.808734
 30
0.0
 11
134.398252
 21
144.878999
 31
0.0
  0
LINE
  5
176
330
74
100
AcDbEntity
  8
Calque 1
100
AcDbLine
 10
134.398252
 20
144.878999
 30
0.0
 11
130.658808
 21
144.889978
 31
0.0
  0
LINE
  5
177
330
74
100
AcDbEntity
  8
Calque 1
100
AcDbLine
 10
130.658808
 20
144.889978
 30
0.0
 11
126.919363
 21
144.900956
 31
0.0
  0
LINE
  5
178
330
74
100
AcDbEntity
  8
Calque 1
100
AcDbLine
 10
126.919363
 20
144.900956
 30
0.0
 11
126.919363
 21
140.808734
 31
0.0
  0
LINE
  5
179
330
74
100
AcDbEntity
  8
Calque 1
100
AcDbLine
 10
126.919363
 20
140.808734
 30
0.0
 11
126.919363
 21
136.716512
 31
0.0
  0
LINE
  5
17A
330
74
100
AcDbEntity
  8
Calque 1
100
AcDbLine
 10
126.919363
 20
136.716512
 30
0.0
 11
123.814919
 21
136.716512
 31
0.0
  0
LINE
  5
17B
330
74
100
AcDbEntity
  8
Calque 1
100
AcDbLine
 10
123.814919
 20
136.716512
 30
0.0
 11
120.710475
 21
136.716512
 31
0.0
  0
LINE
  5
17C
330
74
100
AcDbEntity
  8
Calque 1
100
AcDbLine
 10
120.710475
 20
136.716512
 30
0.0
 11
120.710475
 21
142.631782
 31
0.0
  0
LINE
  5
17D
330
74
100
AcDbEntity
  8
Calque 1
100
AcDbLine
 10
120.710475
 20
142.631782
 30
0.0
 11
120.710475
 21
142.631782
 31
0.0
  0
ENDSEC
  0
SECTION
  2
OBJECTS
  0
DICTIONARY
  5
C
330
0
100
AcDbDictionary
281
     1
  3
ACAD_COLOR
350
6A
  3
ACAD_GROUP
350
D
  3
ACAD_LAYOUT
350
69
  3
ACAD_MATERIAL
350
10
  3
ACAD_MLEADERSTYLE
350
6D
  3
ACAD_MLINESTYLE
350
66
  3
ACAD_PLOTSETTINGS
350
68
  3
ACAD_PLOTSTYLENAME
350
E
  3
ACAD_SCALELIST
350
3A
  3
ACAD_TABLESTYLE
350
6B
  3
ACAD_VISUALSTYLE
350
29
  3
ACDB_RECOMPOSE_DATA
350
18E
  3
AcDbVariableDictionary
350
185
  3
DWGPROPS
350
18F
  0
DICTIONARY
  5
181
330
5C
100
AcDbDictionary
280
     1
281
     1
  3
ADSK_XREC_LAYER_RECONCILED
360
182
  0
DICTIONARY
  5
183
330
78
100
AcDbDictionary
280
     1
281
     1
  3
ADSK_XREC_LAYER_RECONCILED
360
184
  0
DICTIONARY
  5
6A
102
{ACAD_REACTORS
330
C
102
}
330
C
100
AcDbDictionary
281
     1
  0
DICTIONARY
  5
D
102
{ACAD_REACTORS
330
C
102
}
330
C
100
AcDbDictionary
281
     1
  0
DICTIONARY
  5
69
102
{ACAD_REACTORS
330
C
102
}
330
C
100
AcDbDictionary
281
     1
  3
Model
350
77
  3
Présentation1
350
73
  0
DICTIONARY
  5
10
102
{ACAD_REACTORS
330
C
102
}
330
C
100
AcDbDictionary
281
     1
  3
ByBlock
350
19
  3
ByLayer
350
11
  3
Global
350
21
  0
DICTIONARY
  5
6D
102
{ACAD_REACTORS
330
C
102
}
330
C
100
AcDbDictionary
281
     1
  3
Standard
350
6E
  0
DICTIONARY
  5
66
102
{ACAD_REACTORS
330
C
102
}
330
C
100
AcDbDictionary
281
     1
  3
Standard
350
67
  0
DICTIONARY
  5
68
102
{ACAD_REACTORS
330
C
102
}
330
C
100
AcDbDictionary
281
     1
  0
ACDBDICTIONARYWDFLT
  5
E
102
{ACAD_REACTORS
330
C
102
}
330
C
100
AcDbDictionary
281
     1
  3
Normal
350
F
100
AcDbDictionaryWithDefault
340
F
  0
DICTIONARY
  5
3A
102
{ACAD_REACTORS
330
C
102
}
330
C
100
AcDbDictionary
281
     1
  3
A0
350
3B
  3
A1
350
3C
  3
A2
350
3D
  3
A3
350
3E
  3
A4
350
3F
  3
A5
350
40
  3
A6
350
41
  3
A7
350
42
  3
A8
350
43
  3
A9
350
44
  3
B0
350
45
  3
B1
350
46
  3
B2
350
47
  3
B3
350
48
  3
B4
350
49
  3
B5
350
4A
  3
B6
350
4B
  3
B7
350
4C
  3
B8
350
4D
  3
B9
350
4E
  3
C0
350
4F
  3
C1
350
50
  3
C2
350
51
  3
C3
350
52
  3
C4
350
53
  3
C5
350
54
  3
C6
350
55
  3
C7
350
56
  3
C8
350
57
  3
C9
350
58
  3
D0
350
59
  3
D1
350
5A
  3
D2
350
5B
  0
DICTIONARY
  5
6B
102
{ACAD_REACTORS
330
C
102
}
330
C
100
AcDbDictionary
281
     1
  3
Standard
350
6C
  0
DICTIONARY
  5
29
102
{ACAD_REACTORS
330
C
102
}
330
C
100
AcDbDictionary
281
     1
  3
2dWireframe
350
2F
  3
3D Hidden
350
31
  3
3dWireframe
350
30
  3
Basic
350
2E
  3
Brighten
350
35
  3
ColorChange
350
39
  3
Conceptual
350
32
  3
Dim
350
34
  3
Facepattern
350
38
  3
Flat
350
2A
  3
FlatWithEdges
350
2B
  3
Gouraud
350
2C
  3
GouraudWithEdges
350
2D
  3
Linepattern
350
37
  3
Realistic
350
33
  3
Thicken
350
36
  0
XRECORD
  5
18E
102
{ACAD_REACTORS
330
C
102
}
330
C
100
AcDbXrecord
280
     1
 90
        1
330
6C
  0
DICTIONARY
  5
185
102
{ACAD_REACTORS
330
C
102
}
330
C
100
AcDbDictionary
281
     1
  3
CANNOSCALE
350
188
  3
CMLEADERSTYLE
350
187
  3
CTABLESTYLE
350
186
  3
DIMASSOC
350
18B
  3
INDEXCTL
350
18A
  3
SORTENTS
350
189
  0
XRECORD
  5
18F
102
{ACAD_REACTORS
330
C
102
}
330
C
100
AcDbXrecord
280
     1
  1
DWGPROPS COOKIE
  2

  3

  4

  6

  7

  8
Administrateur
  9

300
=
301
=
302
=
303
=
304
=
305
=
306
=
307
=
308
=
309
=
 40
0.0002112962962963
 41
2454975.998661285
 42
2454975.998872095
  1

 90
        0
  0
XRECORD
  5
182
102
{ACAD_REACTORS
330
181
102
}
330
181
100
AcDbXrecord
280
     1
290
     1
  0
XRECORD
  5
184
102
{ACAD_REACTORS
330
183
102
}
330
183
100
AcDbXrecord
280
     1
290
     1
  0
LAYOUT
  5
77
102
{ACAD_XDICTIONARY
360
196
102
}
102
{ACAD_REACTORS
330
69
102
}
330
69
100
AcDbPlotSettings
  1

  2
Canon PIXMA iP1500
  4

  6

 40
0.0
 41
0.0
 42
0.0
 43
0.0
 44
0.0
 45
0.0
 46
0.0
 47
0.0
 48
0.0
 49
0.0
140
0.0
141
0.0
142
1.0
143
1.0
 70
  1712
 72
     0
 73
     0
 74
     0
  7

 75
     0
147
1.0
148
0.0
149
0.0
100
AcDbLayout
  1
Model
 70
     1
 71
     0
 10
0.0
 20
0.0
 11
12.0
 21
9.0
 12
0.0
 22
0.0
 32
0.0
 14
0.0
 24
0.0
 34
0.0
 15
0.0
 25
0.0
 35
0.0
146
0.0
 13
0.0
 23
0.0
 33
0.0
 16
1.0
 26
0.0
 36
0.0
 17
0.0
 27
1.0
 37
0.0
 76
     0
330
74
331
180
  0
LAYOUT
  5
73
102
{ACAD_XDICTIONARY
360
194
102
}
102
{ACAD_REACTORS
330
69
102
}
330
69
100
AcDbPlotSettings
  1

  2
Canon PIXMA iP1500
  4

  6

 40
0.0
 41
0.0
 42
0.0
 43
0.0
 44
0.0
 45
0.0
 46
0.0
 47
0.0
 48
0.0
 49
0.0
140
0.0
141
0.0
142
1.0
143
1.0
 70
   688
 72
     0
 73
     0
 74
     5
  7

 75
    16
147
1.0
148
0.0
149
0.0
100
AcDbLayout
  1
Présentation1
 70
     1
 71
     1
 10
0.0
 20
0.0
 11
12.0
 21
9.0
 12
0.0
 22
0.0
 32
0.0
 14
1.000000000000000E+20
 24
1.000000000000000E+20
 34
1.000000000000000E+20
 15
-1.000000000000000E+20
 25
-1.000000000000000E+20
 35
-1.000000000000000E+20
146
0.0
 13
0.0
 23
0.0
 33
0.0
 16
1.0
 26
0.0
 36
0.0
 17
0.0
 27
1.0
 37
0.0
 76
     0
330
70
  0
MATERIAL
  5
19
102
{ACAD_XDICTIONARY
360
1A
102
}
102
{ACAD_REACTORS
330
10
102
}
330
10
100
AcDbMaterial
  1
ByBlock
 72
     0
 43
0.0208333333333333
 43
0.0
 43
0.0
 43
0.0
 43
0.0
 43
0.0208333333333333
 43
0.0
 43
0.0
 43
0.0
 43
0.0
 43
1.0
 43
0.0
 43
0.0
 43
0.0
 43
0.0
 43
1.0
 77
     0
 47
0.0208333333333333
 47
0.0
 47
0.0
 47
0.0
 47
0.0
 47
0.0208333333333333
 47
0.0
 47
0.0
 47
0.0
 47
0.0
 47
1.0
 47
0.0
 47
0.0
 47
0.0
 47
0.0
 47
1.0
171
     0
 49
0.0208333333333333
 49
0.0
 49
0.0
 49
0.0
 49
0.0
 49
0.0208333333333333
 49
0.0
 49
0.0
 49
0.0
 49
0.0
 49
1.0
 49
0.0
 49
0.0
 49
0.0
 49
0.0
 49
1.0
175
     0
142
0.0208333333333333
142
0.0
142
0.0
142
0.0
142
0.0
142
0.0208333333333333
142
0.0
142
0.0
142
0.0
142
0.0
142
1.0
142
0.0
142
0.0
142
0.0
142
0.0
142
1.0
179
     0
144
0.0208333333333333
144
0.0
144
0.0
144
0.0
144
0.0
144
0.0208333333333333
144
0.0
144
0.0
144
0.0
144
0.0
144
1.0
144
0.0
144
0.0
144
0.0
144
0.0
144
1.0
147
0.0208333333333333
147
0.0
147
0.0
147
0.0
147
0.0
147
0.0208333333333333
147
0.0
147
0.0
147
0.0
147
0.0
147
1.0
147
0.0
147
0.0
147
0.0
147
0.0
147
1.0
  0
MATERIAL
  5
11
102
{ACAD_XDICTIONARY
360
12
102
}
102
{ACAD_REACTORS
330
10
102
}
330
10
100
AcDbMaterial
  1
ByLayer
 72
     0
 43
0.0208333333333333
 43
0.0
 43
0.0
 43
0.0
 43
0.0
 43
0.0208333333333333
 43
0.0
 43
0.0
 43
0.0
 43
0.0
 43
1.0
 43
0.0
 43
0.0
 43
0.0
 43
0.0
 43
1.0
 77
     0
 47
0.0208333333333333
 47
0.0
 47
0.0
 47
0.0
 47
0.0
 47
0.0208333333333333
 47
0.0
 47
0.0
 47
0.0
 47
0.0
 47
1.0
 47
0.0
 47
0.0
 47
0.0
 47
0.0
 47
1.0
171
     0
 49
0.0208333333333333
 49
0.0
 49
0.0
 49
0.0
 49
0.0
 49
0.0208333333333333
 49
0.0
 49
0.0
 49
0.0
 49
0.0
 49
1.0
 49
0.0
 49
0.0
 49
0.0
 49
0.0
 49
1.0
175
     0
142
0.0208333333333333
142
0.0
142
0.0
142
0.0
142
0.0
142
0.0208333333333333
142
0.0
142
0.0
142
0.0
142
0.0
142
1.0
142
0.0
142
0.0
142
0.0
142
0.0
142
1.0
179
     0
144
0.0208333333333333
144
0.0
144
0.0
144
0.0
144
0.0
144
0.0208333333333333
144
0.0
144
0.0
144
0.0
144
0.0
144
1.0
144
0.0
144
0.0
144
0.0
144
0.0
144
1.0
147
0.0208333333333333
147
0.0
147
0.0
147
0.0
147
0.0
147
0.0208333333333333
147
0.0
147
0.0
147
0.0
147
0.0
147
1.0
147
0.0
147
0.0
147
0.0
147
0.0
147
1.0
  0
MATERIAL
  5
21
102
{ACAD_XDICTIONARY
360
22
102
}
102
{ACAD_REACTORS
330
10
102
}
330
10
100
AcDbMaterial
  1
Global
 72
     0
 43
0.0208333333333333
 43
0.0
 43
0.0
 43
0.0
 43
0.0
 43
0.0208333333333333
 43
0.0
 43
0.0
 43
0.0
 43
0.0
 43
1.0
 43
0.0
 43
0.0
 43
0.0
 43
0.0
 43
1.0
 77
     0
 47
0.0208333333333333
 47
0.0
 47
0.0
 47
0.0
 47
0.0
 47
0.0208333333333333
 47
0.0
 47
0.0
 47
0.0
 47
0.0
 47
1.0
 47
0.0
 47
0.0
 47
0.0
 47
0.0
 47
1.0
171
     0
 49
0.0208333333333333
 49
0.0
 49
0.0
 49
0.0
 49
0.0
 49
0.0208333333333333
 49
0.0
 49
0.0
 49
0.0
 49
0.0
 49
1.0
 49
0.0
 49
0.0
 49
0.0
 49
0.0
 49
1.0
175
     0
142
0.0208333333333333
142
0.0
142
0.0
142
0.0
142
0.0
142
0.0208333333333333
142
0.0
142
0.0
142
0.0
142
0.0
142
1.0
142
0.0
142
0.0
142
0.0
142
0.0
142
1.0
179
     0
144
0.0208333333333333
144
0.0
144
0.0
144
0.0
144
0.0
144
0.0208333333333333
144
0.0
144
0.0
144
0.0
144
0.0
144
1.0
144
0.0
144
0.0
144
0.0
144
0.0
144
1.0
147
0.0208333333333333
147
0.0
147
0.0
147
0.0
147
0.0
147
0.0208333333333333
147
0.0
147
0.0
147
0.0
147
0.0
147
1.0
147
0.0
147
0.0
147
0.0
147
0.0
147
1.0
  0
MLEADERSTYLE
  5
6E
102
{ACAD_REACTORS
330
6D
102
}
330
6D
100
AcDbMLeaderStyle
170
     2
171
     1
172
     0
 90
        2
 40
0.0
 41
0.0
173
     1
 91
-1056964608
340
62
 92
       -2
290
     1
 42
0.09
291
     1
 43
0.36
  3
Standard
 44
0.18
300

342
5D
174
     1
178
     6
175
     1
176
     0
 93
-1056964608
 45
0.18
292
     0
297
     0
 46
0.18
 94
-1056964608
 47
1.0
 49
1.0
140
1.0
293
     1
141
0.0
294
     1
177
     0
142
1.0
295
     0
296
     0
143
0.125
1001
ACAD_MLEADERVER
1070
     2
  0
MLINESTYLE
  5
67
102
{ACAD_REACTORS
330
66
102
}
330
66
100
AcDbMlineStyle
  2
STANDARD
 70
     0
  3

 62
   256
 51
90.0
 52
90.0
 71
     2
 49
0.5
 62
   256
  6
BYLAYER
 49
-0.5
 62
   256
  6
BYLAYER
  0
ACDBPLACEHOLDER
  5
F
102
{ACAD_REACTORS
330
E
102
}
330
E
  0
SCALE
  5
3B
102
{ACAD_REACTORS
330
3A
102
}
330
3A
100
AcDbScale
 70
     0
300
1:1
140
1.0
141
1.0
290
     1
  0
SCALE
  5
3C
102
{ACAD_REACTORS
330
3A
102
}
330
3A
100
AcDbScale
 70
     0
300
1:2
140
1.0
141
2.0
290
     0
  0
SCALE
  5
3D
102
{ACAD_REACTORS
330
3A
102
}
330
3A
100
AcDbScale
 70
     0
300
1:4
140
1.0
141
4.0
290
     0
  0
SCALE
  5
3E
102
{ACAD_REACTORS
330
3A
102
}
330
3A
100
AcDbScale
 70
     0
300
1:5
140
1.0
141
5.0
290
     0
  0
SCALE
  5
3F
102
{ACAD_REACTORS
330
3A
102
}
330
3A
100
AcDbScale
 70
     0
300
1:8
140
1.0
141
8.0
290
     0
  0
SCALE
  5
40
102
{ACAD_REACTORS
330
3A
102
}
330
3A
100
AcDbScale
 70
     0
300
1:10
140
1.0
141
10.0
290
     0
  0
SCALE
  5
41
102
{ACAD_REACTORS
330
3A
102
}
330
3A
100
AcDbScale
 70
     0
300
1:16
140
1.0
141
16.0
290
     0
  0
SCALE
  5
42
102
{ACAD_REACTORS
330
3A
102
}
330
3A
100
AcDbScale
 70
     0
300
1:20
140
1.0
141
20.0
290
     0
  0
SCALE
  5
43
102
{ACAD_REACTORS
330
3A
102
}
330
3A
100
AcDbScale
 70
     0
300
1:30
140
1.0
141
30.0
290
     0
  0
SCALE
  5
44
102
{ACAD_REACTORS
330
3A
102
}
330
3A
100
AcDbScale
 70
     0
300
1:40
140
1.0
141
40.0
290
     0
  0
SCALE
  5
45
102
{ACAD_REACTORS
330
3A
102
}
330
3A
100
AcDbScale
 70
     0
300
1:50
140
1.0
141
50.0
290
     0
  0
SCALE
  5
46
102
{ACAD_REACTORS
330
3A
102
}
330
3A
100
AcDbScale
 70
     0
300
1:100
140
1.0
141
100.0
290
     0
  0
SCALE
  5
47
102
{ACAD_REACTORS
330
3A
102
}
330
3A
100
AcDbScale
 70
     0
300
2:1
140
2.0
141
1.0
290
     0
  0
SCALE
  5
48
102
{ACAD_REACTORS
330
3A
102
}
330
3A
100
AcDbScale
 70
     0
300
4:1
140
4.0
141
1.0
290
     0
  0
SCALE
  5
49
102
{ACAD_REACTORS
330
3A
102
}
330
3A
100
AcDbScale
 70
     0
300
8:1
140
8.0
141
1.0
290
     0
  0
SCALE
  5
4A
102
{ACAD_REACTORS
330
3A
102
}
330
3A
100
AcDbScale
 70
     0
300
10:1
140
10.0
141
1.0
290
     0
  0
SCALE
  5
4B
102
{ACAD_REACTORS
330
3A
102
}
330
3A
100
AcDbScale
 70
     0
300
100:1
140
100.0
141
1.0
290
     0
  0
SCALE
  5
4C
102
{ACAD_REACTORS
330
3A
102
}
330
3A
100
AcDbScale
 70
     0
300
1/128" = 1'-0"
140
0.0078125
141
12.0
290
     0
  0
SCALE
  5
4D
102
{ACAD_REACTORS
330
3A
102
}
330
3A
100
AcDbScale
 70
     0
300
1/64" = 1'-0"
140
0.015625
141
12.0
290
     0
  0
SCALE
  5
4E
102
{ACAD_REACTORS
330
3A
102
}
330
3A
100
AcDbScale
 70
     0
300
1/32" = 1'-0"
140
0.03125
141
12.0
290
     0
  0
SCALE
  5
4F
102
{ACAD_REACTORS
330
3A
102
}
330
3A
100
AcDbScale
 70
     0
300
1/16" = 1'-0"
140
0.0625
141
12.0
290
     0
  0
SCALE
  5
50
102
{ACAD_REACTORS
330
3A
102
}
330
3A
100
AcDbScale
 70
     0
300
3/32" = 1'-0"
140
0.09375
141
12.0
290
     0
  0
SCALE
  5
51
102
{ACAD_REACTORS
330
3A
102
}
330
3A
100
AcDbScale
 70
     0
300
1/8" = 1'-0"
140
0.125
141
12.0
290
     0
  0
SCALE
  5
52
102
{ACAD_REACTORS
330
3A
102
}
330
3A
100
AcDbScale
 70
     0
300
3/16" = 1'-0"
140
0.1875
141
12.0
290
     0
  0
SCALE
  5
53
102
{ACAD_REACTORS
330
3A
102
}
330
3A
100
AcDbScale
 70
     0
300
1/4" = 1'-0"
140
0.25
141
12.0
290
     0
  0
SCALE
  5
54
102
{ACAD_REACTORS
330
3A
102
}
330
3A
100
AcDbScale
 70
     0
300
3/8" = 1'-0"
140
0.375
141
12.0
290
     0
  0
SCALE
  5
55
102
{ACAD_REACTORS
330
3A
102
}
330
3A
100
AcDbScale
 70
     0
300
1/2" = 1'-0"
140
0.5
141
12.0
290
     0
  0
SCALE
  5
56
102
{ACAD_REACTORS
330
3A
102
}
330
3A
100
AcDbScale
 70
     0
300
3/4" = 1'-0"
140
0.75
141
12.0
290
     0
  0
SCALE
  5
57
102
{ACAD_REACTORS
330
3A
102
}
330
3A
100
AcDbScale
 70
     0
300
1" = 1'-0"
140
1.0
141
12.0
290
     0
  0
SCALE
  5
58
102
{ACAD_REACTORS
330
3A
102
}
330
3A
100
AcDbScale
 70
     0
300
1-1/2" = 1'-0"
140
1.5
141
12.0
290
     0
  0
SCALE
  5
59
102
{ACAD_REACTORS
330
3A
102
}
330
3A
100
AcDbScale
 70
     0
300
3" = 1'-0"
140
3.0
141
12.0
290
     0
  0
SCALE
  5
5A
102
{ACAD_REACTORS
330
3A
102
}
330
3A
100
AcDbScale
 70
     0
300
6" = 1'-0"
140
6.0
141
12.0
290
     0
  0
SCALE
  5
5B
102
{ACAD_REACTORS
330
3A
102
}
330
3A
100
AcDbScale
 70
     0
300
1'-0" = 1'-0"
140
12.0
141
12.0
290
     0
  0
TABLESTYLE
  5
6C
102
{ACAD_XDICTIONARY
360
18C
102
}
102
{ACAD_REACTORS
330
6B
102
}
330
6B
100
AcDbTableStyle
  3
Standard
 70
     0
 71
     0
 40
0.06
 41
0.06
280
     0
281
     0
  7
Standard
140
0.18
170
     2
 62
     0
 63
     7
283
     0
274
    -2
284
     1
 64
     0
275
    -2
285
     1
 65
     0
276
    -2
286
     1
 66
     0
277
    -2
287
     1
 67
     0
278
    -2
288
     1
 68
     0
279
    -2
289
     1
 69
     0
  7
Standard
140
0.25
170
     5
 62
     0
 63
     7
283
     0
274
    -2
284
     1
 64
     0
275
    -2
285
     1
 65
     0
276
    -2
286
     1
 66
     0
277
    -2
287
     1
 67
     0
278
    -2
288
     1
 68
     0
279
    -2
289
     1
 69
     0
  7
Standard
140
0.18
170
     5
 62
     0
 63
     7
283
     0
274
    -2
284
     1
 64
     0
275
    -2
285
     1
 65
     0
276
    -2
286
     1
 66
     0
277
    -2
287
     1
 67
     0
278
    -2
288
     1
 68
     0
279
    -2
289
     1
 69
     0
  0
VISUALSTYLE
  5
2F
102
{ACAD_REACTORS
330
29
102
}
330
29
100
AcDbVisualStyle
  2
2dWireframe
 70
     4
 71
     0
 72
     2
 73
     0
 90
        0
 40
-0.6
 41
-30.0
 62
     5
 63
     7
 74
     1
 91
        4
 64
     7
 65
   257
 75
     1
175
     1
 42
1.0
 92
        0
 66
   257
 43
1.0
 76
     1
 77
     6
 78
     2
 67
     7
 79
     5
170
     0
171
     0
290
     0
174
     0
 93
        1
 44
0.0
173
     0
291
     0
 45
0.0
1001
ACAD
1000
AcDbSavedByObjectVersion
1070
     0
  0
VISUALSTYLE
  5
31
102
{ACAD_REACTORS
330
29
102
}
330
29
100
AcDbVisualStyle
  2
3D Hidden
 70
     6
 71
     1
 72
     2
 73
     2
 90
        0
 40
-0.6
 41
-30.0
 62
     5
 63
     7
 74
     2
 91
        2
 64
     7
 65
   257
 75
     2
175
     1
 42
40.0
 92
        0
 66
   257
 43
1.0
 76
     1
 77
     6
 78
     2
 67
     7
 79
     3
170
     0
171
     0
290
     0
174
     0
 93
        1
 44
0.0
173
     0
291
     0
 45
0.0
1001
ACAD
1000
AcDbSavedByObjectVersion
1070
     0
  0
VISUALSTYLE
  5
30
102
{ACAD_REACTORS
330
29
102
}
330
29
100
AcDbVisualStyle
  2
3dWireframe
 70
     5
 71
     0
 72
     2
 73
     0
 90
        0
 40
-0.6
 41
-30.0
 62
     5
 63
     7
 74
     1
 91
        4
 64
     7
 65
   257
 75
     1
175
     1
 42
1.0
 92
        0
 66
   257
 43
1.0
 76
     1
 77
     6
 78
     2
 67
     7
 79
     5
170
     0
171
     0
290
     0
174
     0
 93
        1
 44
0.0
173
     0
291
     0
 45
0.0
1001
ACAD
1000
AcDbSavedByObjectVersion
1070
     0
  0
VISUALSTYLE
  5
2E
102
{ACAD_REACTORS
330
29
102
}
330
29
100
AcDbVisualStyle
  2
Basic
 70
     7
 71
     1
 72
     0
 73
     1
 90
        0
 40
-0.6
 41
-30.0
 62
     5
 63
     7
 74
     0
 91
        4
 64
     7
 65
   257
 75
     1
175
     1
 42
1.0
 92
        8
 66
     7
 43
1.0
 76
     1
 77
     6
 78
     2
 67
     7
 79
     5
170
     0
171
     0
290
     0
174
     0
 93
        1
 44
0.0
173
     0
291
     1
 45
0.0
1001
ACAD
1000
AcDbSavedByObjectVersion
1070
     0
  0
VISUALSTYLE
  5
35
102
{ACAD_REACTORS
330
29
102
}
330
29
100
AcDbVisualStyle
  2
Brighten
 70
    12
 71
     2
 72
     2
 73
     0
 90
        0
 40
-0.6
 41
-30.0
 62
     5
 63
     7
 74
     1
 91
        4
 64
     7
 65
   257
 75
     1
175
     1
 42
1.0
 92
        8
 66
     7
 43
1.0
 76
     1
 77
     6
 78
     2
 67
     7
 79
     5
170
     0
171
     0
290
     0
174
     0
 93
        1
 44
50.0
173
     0
291
     1
 45
0.0
1001
ACAD
1000
AcDbSavedByObjectVersion
1070
     0
  0
VISUALSTYLE
  5
39
102
{ACAD_REACTORS
330
29
102
}
330
29
100
AcDbVisualStyle
  2
ColorChange
 70
    16
 71
     2
 72
     2
 73
     3
 90
        0
 40
-0.6
 41
-30.0
 62
     5
 63
     8
 74
     1
 91
        4
 64
     7
 65
   257
 75
     1
175
     1
 42
1.0
 92
        8
 66
     8
 43
1.0
 76
     1
 77
     6
 78
     2
 67
     7
 79
     5
170
     0
171
     0
290
     0
174
     0
 93
        1
 44
0.0
173
     0
291
     1
 45
0.0
1001
ACAD
1000
AcDbSavedByObjectVersion
1070
     0
  0
VISUALSTYLE
  5
32
102
{ACAD_REACTORS
330
29
102
}
330
29
100
AcDbVisualStyle
  2
Conceptual
 70
     9
 71
     3
 72
     2
 73
     0
 90
        0
 40
-0.6
 41
-30.0
 62
     5
 63
     7
 74
     2
 91
        2
 64
     7
 65
   257
 75
     1
175
     1
 42
40.0
 92
        8
 66
     7
 43
1.0
 76
     1
 77
     6
 78
     2
 67
     7
 79
     3
170
     0
171
     0
290
     0
174
     0
 93
        1
 44
0.0
173
     0
291
     0
 45
0.0
1001
ACAD
1000
AcDbSavedByObjectVersion
1070
     0
  0
VISUALSTYLE
  5
34
102
{ACAD_REACTORS
330
29
102
}
330
29
100
AcDbVisualStyle
  2
Dim
 70
    11
 71
     2
 72
     2
 73
     0
 90
        0
 40
-0.6
 41
-30.0
 62
     5
 63
     7
 74
     1
 91
        4
 64
     7
 65
   257
 75
     1
175
     1
 42
1.0
 92
        8
 66
     7
 43
1.0
 76
     1
 77
     6
 78
     2
 67
     7
 79
     5
170
     0
171
     0
290
     0
174
     0
 93
        1
 44
-50.0
173
     0
291
     1
 45
0.0
1001
ACAD
1000
AcDbSavedByObjectVersion
1070
     0
  0
VISUALSTYLE
  5
38
102
{ACAD_REACTORS
330
29
102
}
330
29
100
AcDbVisualStyle
  2
Facepattern
 70
    15
 71
     2
 72
     2
 73
     0
 90
        0
 40
-0.6
 41
-30.0
 62
     5
 63
     7
 74
     1
 91
        4
 64
     7
 65
   257
 75
     1
175
     1
 42
1.0
 92
        8
 66
     7
 43
1.0
 76
     1
 77
     6
 78
     2
 67
     7
 79
     5
170
     0
171
     0
290
     0
174
     0
 93
        1
 44
0.0
173
     0
291
     1
 45
0.0
1001
ACAD
1000
AcDbSavedByObjectVersion
1070
     0
  0
VISUALSTYLE
  5
2A
102
{ACAD_REACTORS
330
29
102
}
330
29
100
AcDbVisualStyle
  2
Flat
 70
     0
 71
     2
 72
     1
 73
     1
 90
        2
 40
-0.6
 41
30.0
 62
     5
 63
     7
 74
     0
 91
        4
 64
     7
 65
   257
 75
     1
175
     1
 42
1.0
 92
        8
 66
     7
 43
1.0
 76
     1
 77
     6
 78
     2
 67
     7
 79
     5
170
     0
171
     0
290
     0
174
     0
 93
       13
 44
0.0
173
     0
291
     1
 45
0.0
1001
ACAD
1000
AcDbSavedByObjectVersion
1070
     0
  0
VISUALSTYLE
  5
2B
102
{ACAD_REACTORS
330
29
102
}
330
29
100
AcDbVisualStyle
  2
FlatWithEdges
 70
     1
 71
     2
 72
     1
 73
     1
 90
        2
 40
-0.6
 41
30.0
 62
     5
 63
     7
 74
     1
 91
        4
 64
     7
 65
   257
 75
     1
175
     1
 42
1.0
 92
        0
 66
   257
 43
1.0
 76
     1
 77
     6
 78
     2
 67
     7
 79
     5
170
     0
171
     0
290
     0
174
     0
 93
       13
 44
0.0
173
     0
291
     1
 45
0.0
1001
ACAD
1000
AcDbSavedByObjectVersion
1070
     0
  0
VISUALSTYLE
  5
2C
102
{ACAD_REACTORS
330
29
102
}
330
29
100
AcDbVisualStyle
  2
Gouraud
 70
     2
 71
     2
 72
     2
 73
     1
 90
        2
 40
-0.6
 41
30.0
 62
     5
 63
     7
 74
     0
 91
        4
 64
     7
 65
   257
 75
     1
175
     1
 42
1.0
 92
        0
 66
     7
 43
1.0
 76
     1
 77
     6
 78
     2
 67
     7
 79
     5
170
     0
171
     0
290
     0
174
     0
 93
       13
 44
0.0
173
     0
291
     1
 45
0.0
1001
ACAD
1000
AcDbSavedByObjectVersion
1070
     0
  0
VISUALSTYLE
  5
2D
102
{ACAD_REACTORS
330
29
102
}
330
29
100
AcDbVisualStyle
  2
GouraudWithEdges
 70
     3
 71
     2
 72
     2
 73
     1
 90
        2
 40
-0.6
 41
30.0
 62
     5
 63
     7
 74
     1
 91
        4
 64
     7
 65
   257
 75
     1
175
     1
 42
1.0
 92
        0
 66
   257
 43
1.0
 76
     1
 77
     6
 78
     2
 67
     7
 79
     5
170
     0
171
     0
290
     0
174
     0
 93
       13
 44
0.0
173
     0
291
     1
 45
0.0
1001
ACAD
1000
AcDbSavedByObjectVersion
1070
     0
  0
VISUALSTYLE
  5
37
102
{ACAD_REACTORS
330
29
102
}
330
29
100
AcDbVisualStyle
  2
Linepattern
 70
    14
 71
     2
 72
     2
 73
     0
 90
        0
 40
-0.6
 41
-30.0
 62
     5
 63
     7
 74
     1
 91
        4
 64
     7
 65
   257
 75
     7
175
     7
 42
1.0
 92
        8
 66
     7
 43
1.0
 76
     1
 77
     6
 78
     2
 67
     7
 79
     5
170
     0
171
     0
290
     0
174
     0
 93
        1
 44
0.0
173
     0
291
     1
 45
0.0
1001
ACAD
1000
AcDbSavedByObjectVersion
1070
     0
  0
VISUALSTYLE
  5
33
102
{ACAD_REACTORS
330
29
102
}
330
29
100
AcDbVisualStyle
  2
Realistic
 70
     8
 71
     2
 72
     2
 73
     0
 90
        0
 40
-0.6
 41
-30.0
 62
     5
 63
     7
 74
     1
 91
        0
 64
     7
 65
   257
 75
     1
175
     1
 42
1.0
 92
        8
 66
     8
 43
1.0
 76
     1
 77
     6
 78
     2
 67
     7
 79
     5
170
     0
171
     0
290
     0
174
     0
 93
       13
 44
0.0
173
     0
291
     0
 45
0.0
1001
ACAD
1000
AcDbSavedByObjectVersion
1070
     0
  0
VISUALSTYLE
  5
36
102
{ACAD_REACTORS
330
29
102
}
330
29
100
AcDbVisualStyle
  2
Thicken
 70
    13
 71
     2
 72
     2
 73
     0
 90
        0
 40
-0.6
 41
-30.0
 62
     5
 63
     7
 74
     1
 91
        4
 64
     7
 65
   257
 75
     1
175
     1
 42
1.0
 92
       12
 66
     7
 43
1.0
 76
     1
 77
     6
 78
     2
 67
     7
 79
     5
170
     0
171
     0
290
     0
174
     0
 93
        1
 44
0.0
173
     0
291
     1
 45
0.0
1001
ACAD
1000
AcDbSavedByObjectVersion
1070
     0
  0
DICTIONARYVAR
  5
188
102
{ACAD_REACTORS
330
185
102
}
330
185
100
DictionaryVariables
280
     0
  1
1:1
  0
DICTIONARYVAR
  5
187
102
{ACAD_REACTORS
330
185
102
}
330
185
100
DictionaryVariables
280
     0
  1
STANDARD
  0
DICTIONARYVAR
  5
186
102
{ACAD_REACTORS
330
185
102
}
330
185
100
DictionaryVariables
280
     0
  1
STANDARD
  0
DICTIONARYVAR
  5
18B
102
{ACAD_REACTORS
330
185
102
}
330
185
100
DictionaryVariables
280
     0
  1
1
  0
DICTIONARYVAR
  5
18A
102
{ACAD_REACTORS
330
185
102
}
330
185
100
DictionaryVariables
280
     0
  1
0
  0
DICTIONARYVAR
  5
189
102
{ACAD_REACTORS
330
185
102
}
330
185
100
DictionaryVariables
280
     0
  1
127
  0
DICTIONARY
  5
196
330
77
100
AcDbDictionary
280
     1
281
     1
  3
ACAD_XREC_ROUNDTRIP
360
197
  0
DICTIONARY
  5
194
330
73
100
AcDbDictionary
280
     1
281
     1
  3
ACAD_XREC_ROUNDTRIP
360
195
  0
DICTIONARY
  5
1A
330
19
100
AcDbDictionary
280
     1
281
     1
  3
ACAD_XREC_ROUNDTRIP
360
191
  3
BUMPTILE
360
1C
  3
DIFFUSETILE
360
1B
  3
OPACITYTILE
360
1F
  3
REFLECTIONTILE
360
1E
  3
REFRACTIONTILE
360
20
  3
SPECULARTILE
360
1D
  0
DICTIONARY
  5
12
330
11
100
AcDbDictionary
280
     1
281
     1
  3
ACAD_XREC_ROUNDTRIP
360
190
  3
BUMPTILE
360
14
  3
DIFFUSETILE
360
13
  3
OPACITYTILE
360
17
  3
REFLECTIONTILE
360
16
  3
REFRACTIONTILE
360
18
  3
SPECULARTILE
360
15
  0
DICTIONARY
  5
22
330
21
100
AcDbDictionary
280
     1
281
     1
  3
ACAD_XREC_ROUNDTRIP
360
192
  3
BUMPTILE
360
24
  3
DIFFUSETILE
360
23
  3
OPACITYTILE
360
27
  3
REFLECTIONTILE
360
26
  3
REFRACTIONTILE
360
28
  3
SPECULARTILE
360
25
  0
DICTIONARY
  5
18C
330
6C
100
AcDbDictionary
280
     1
281
     1
  3
ACAD_ROUNDTRIP_2008_TABLESTYLE_CELLSTYLEMAP
360
18D
  3
ACAD_XREC_ROUNDTRIP
360
193
  0
XRECORD
  5
197
102
{ACAD_REACTORS
330
196
102
}
330
196
100
AcDbXrecord
280
     1
102
SHADEPLOT
 70
     0
102
SHADEPLOTRESLEVEL
 70
     2
102
SHADEPLOTCUSTOMDPI
 70
   300
  0
XRECORD
  5
195
102
{ACAD_REACTORS
330
194
102
}
330
194
100
AcDbXrecord
280
     1
102
SHADEPLOT
 70
     0
102
SHADEPLOTRESLEVEL
 70
     2
102
SHADEPLOTCUSTOMDPI
 70
   300
  0
XRECORD
  5
191
102
{ACAD_REACTORS
330
1A
102
}
330
1A
100
AcDbXrecord
280
     1
102
MATERIAL
148
0.0
149
0.0
149
0.0
 93
        0
 94
      127
282
     0
 72
     0
 77
     0
171
     0
175
     0
179
     0
273
     0
  0
XRECORD
  5
1C
102
{ACAD_REACTORS
330
1A
102
}
330
1A
100
AcDbXrecord
280
     1
270
     1
271
     1
  0
XRECORD
  5
1B
102
{ACAD_REACTORS
330
1A
102
}
330
1A
100
AcDbXrecord
280
     1
270
     1
271
     1
  0
XRECORD
  5
1F
102
{ACAD_REACTORS
330
1A
102
}
330
1A
100
AcDbXrecord
280
     1
270
     1
271
     1
  0
XRECORD
  5
1E
102
{ACAD_REACTORS
330
1A
102
}
330
1A
100
AcDbXrecord
280
     1
270
     1
271
     1
  0
XRECORD
  5
20
102
{ACAD_REACTORS
330
1A
102
}
330
1A
100
AcDbXrecord
280
     1
270
     1
271
     1
  0
XRECORD
  5
1D
102
{ACAD_REACTORS
330
1A
102
}
330
1A
100
AcDbXrecord
280
     1
270
     1
271
     1
  0
XRECORD
  5
190
102
{ACAD_REACTORS
330
12
102
}
330
12
100
AcDbXrecord
280
     1
102
MATERIAL
148
0.0
149
0.0
149
0.0
 93
        0
 94
      127
282
     0
 72
     0
 77
     0
171
     0
175
     0
179
     0
273
     0
  0
XRECORD
  5
14
102
{ACAD_REACTORS
330
12
102
}
330
12
100
AcDbXrecord
280
     1
270
     1
271
     1
  0
XRECORD
  5
13
102
{ACAD_REACTORS
330
12
102
}
330
12
100
AcDbXrecord
280
     1
270
     1
271
     1
  0
XRECORD
  5
17
102
{ACAD_REACTORS
330
12
102
}
330
12
100
AcDbXrecord
280
     1
270
     1
271
     1
  0
XRECORD
  5
16
102
{ACAD_REACTORS
330
12
102
}
330
12
100
AcDbXrecord
280
     1
270
     1
271
     1
  0
XRECORD
  5
18
102
{ACAD_REACTORS
330
12
102
}
330
12
100
AcDbXrecord
280
     1
270
     1
271
     1
  0
XRECORD
  5
15
102
{ACAD_REACTORS
330
12
102
}
330
12
100
AcDbXrecord
280
     1
270
     1
271
     1
  0
XRECORD
  5
192
102
{ACAD_REACTORS
330
22
102
}
330
22
100
AcDbXrecord
280
     1
102
MATERIAL
148
0.0
149
0.0
149
0.0
 93
        0
 94
      127
282
     0
 72
     0
 77
     0
171
     0
175
     0
179
     0
273
     0
  0
XRECORD
  5
24
102
{ACAD_REACTORS
330
22
102
}
330
22
100
AcDbXrecord
280
     1
270
     1
271
     1
  0
XRECORD
  5
23
102
{ACAD_REACTORS
330
22
102
}
330
22
100
AcDbXrecord
280
     1
270
     1
271
     1
  0
XRECORD
  5
27
102
{ACAD_REACTORS
330
22
102
}
330
22
100
AcDbXrecord
280
     1
270
     1
271
     1
  0
XRECORD
  5
26
102
{ACAD_REACTORS
330
22
102
}
330
22
100
AcDbXrecord
280
     1
270
     1
271
     1
  0
XRECORD
  5
28
102
{ACAD_REACTORS
330
22
102
}
330
22
100
AcDbXrecord
280
     1
270
     1
271
     1
  0
XRECORD
  5
25
102
{ACAD_REACTORS
330
22
102
}
330
22
100
AcDbXrecord
280
     1
270
     1
271
     1
  0
CELLSTYLEMAP
  5
18D
102
{ACAD_REACTORS
330
18C
102
}
330
18C
100
AcDbCellStyleMap
 90
        3
300
CELLSTYLE
  1
TABLEFORMAT_BEGIN
 90
        5
170
     1
 91
        0
 92
    32768
 62
   257
 93
        1
300
CONTENTFORMAT
  1
CONTENTFORMAT_BEGIN
 90
        0
 91
        0
 92
      512
 93
        0
300

 40
0.0
140
1.0
 94
        5
 62
     0
340
5D
144
0.25
309
CONTENTFORMAT_END
171
     0
 94
        0
309
TABLEFORMAT_END
  1
CELLSTYLE_BEGIN
 90
        1
 91
        1
300
_TITLE
309
CELLSTYLE_END
300
CELLSTYLE
  1
TABLEFORMAT_BEGIN
 90
        5
170
     1
 91
        0
 92
        0
 62
   257
 93
        1
300
CONTENTFORMAT
  1
CONTENTFORMAT_BEGIN
 90
        0
 91
        0
 92
      512
 93
        0
300

 40
0.0
140
1.0
 94
        5
 62
     0
340
5D
144
0.18
309
CONTENTFORMAT_END
171
     0
 94
        0
309
TABLEFORMAT_END
  1
CELLSTYLE_BEGIN
 90
        2
 91
        1
300
_HEADER
309
CELLSTYLE_END
300
CELLSTYLE
  1
TABLEFORMAT_BEGIN
 90
        5
170
     1
 91
        0
 92
        0
 62
   257
 93
        1
300
CONTENTFORMAT
  1
CONTENTFORMAT_BEGIN
 90
        0
 91
        0
 92
      512
 93
        0
300

 40
0.0
140
1.0
 94
        2
 62
     0
340
5D
144
0.18
309
CONTENTFORMAT_END
171
     0
 94
        0
309
TABLEFORMAT_END
  1
CELLSTYLE_BEGIN
 90
        3
 91
        2
300
_DATA
309
CELLSTYLE_END
  0
XRECORD
  5
193
102
{ACAD_REACTORS
330
18C
102
}
330
18C
100
AcDbXrecord
280
     1
102
ACAD_ROUNDTRIP_PRE2007_TABLESTYLE
 90
      512
 91
        0
  1

 92
      512
 93
        0
  2

 94
      512
 95
        0
  3

  0
ENDSEC
  0
EOF
