999
"DXF R12 Output" (www.mydxf.blogspot.com)
 0 
SECTION
 2 
HEADER
 9 
$ACADVER
 1 
AC1009
 9 
$EXTMIN
 10 
 0 
 20 
 0 
 9 
$EXTMAX
 10 
 8.5 
 20 
 11 
 0 
ENDSEC
 0 
SECTION
 2 
ENTITIES
0
LINE
8
Layer 1
10
151.283083
20
6.392418
11
147.606932
21
6.673967
0
LINE
8
Layer 1
10
147.606932
20
6.673967
11
143.928623
21
7.109644
0
LINE
8
Layer 1
10
143.928623
20
7.109644
11
136.592403
21
8.432923
0
LINE
8
Layer 1
10
136.592403
20
8.432923
11
129.328162
21
10.341334
0
LINE
8
Layer 1
10
129.328162
20
10.341334
11
122.189640
21
12.813954
0
LINE
8
Layer 1
10
122.189640
20
12.813954
11
115.230576
21
15.829862
0
LINE
8
Layer 1
10
115.230576
20
15.829862
11
108.504709
21
19.368135
0
LINE
8
Layer 1
10
108.504709
20
19.368135
11
102.065780
21
23.407852
0
LINE
8
Layer 1
10
102.065780
20
23.407852
11
95.967527
21
27.928090
0
LINE
8
Layer 1
10
95.967527
20
27.928090
11
89.416307
21
33.469489
0
LINE
8
Layer 1
10
89.416307
20
33.469489
11
83.250176
21
39.242551
0
LINE
8
Layer 1
10
83.250176
20
39.242551
11
77.479407
21
45.234733
0
LINE
8
Layer 1
10
77.479407
20
45.234733
11
72.114274
21
51.433496
0
LINE
8
Layer 1
10
72.114274
20
51.433496
11
67.165049
21
57.826298
0
LINE
8
Layer 1
10
67.165049
20
57.826298
11
62.642005
21
64.400598
0
LINE
8
Layer 1
10
62.642005
20
64.400598
11
58.555416
21
71.143856
0
LINE
8
Layer 1
10
58.555416
20
71.143856
11
54.915554
21
78.043529
0
LINE
8
Layer 1
10
54.915554
20
78.043529
11
52.682239
21
82.813336
0
LINE
8
Layer 1
10
52.682239
20
82.813336
11
50.662343
21
87.567342
0
LINE
8
Layer 1
10
50.662343
20
87.567342
11
48.846553
21
92.335083
0
LINE
8
Layer 1
10
48.846553
20
92.335083
11
47.225557
21
97.146093
0
LINE
8
Layer 1
10
47.225557
20
97.146093
11
45.790045
21
102.029908
0
LINE
8
Layer 1
10
45.790045
20
102.029908
11
44.530705
21
107.016063
0
LINE
8
Layer 1
10
44.530705
20
107.016063
11
43.438225
21
112.134091
0
LINE
8
Layer 1
10
43.438225
20
112.134091
11
42.503293
21
117.413529
0
LINE
8
Layer 1
10
42.503293
20
117.413529
11
41.712058
21
122.955576
0
LINE
8
Layer 1
10
41.712058
20
122.955576
11
41.196622
21
128.180571
0
LINE
8
Layer 1
10
41.196622
20
128.180571
11
40.912606
21
133.683969
0
LINE
8
Layer 1
10
40.912606
20
133.683969
11
40.815633
21
140.061228
0
LINE
8
Layer 1
10
40.815633
20
140.061228
11
40.725537
21
146.586551
0
LINE
8
Layer 1
10
40.725537
20
146.586551
11
40.498217
21
148.739561
0
LINE
8
Layer 1
10
40.498217
20
148.739561
11
34.559348
21
146.221597
0
LINE
8
Layer 1
10
34.559348
20
146.221597
11
27.318412
21
142.960285
0
LINE
8
Layer 1
10
27.318412
20
142.960285
11
26.725643
21
142.761890
0
LINE
8
Layer 1
10
26.725643
20
142.761890
11
26.112735
21
142.724174
0
LINE
8
Layer 1
10
26.112735
20
142.724174
11
24.945018
21
143.065736
0
LINE
8
Layer 1
10
24.945018
20
143.065736
11
24.052293
21
143.854895
0
LINE
8
Layer 1
10
24.052293
20
143.854895
11
23.783125
21
144.376675
0
LINE
8
Layer 1
10
23.783125
20
144.376675
11
23.671593
21
144.961576
0
LINE
8
Layer 1
10
23.671593
20
144.961576
11
24.484837
21
148.005983
0
LINE
8
Layer 1
10
24.484837
20
148.005983
11
26.482865
21
154.180642
0
LINE
8
Layer 1
10
26.482865
20
154.180642
11
28.811444
21
161.329402
0
LINE
8
Layer 1
10
28.811444
20
161.329402
11
28.979263
21
162.356167
0
LINE
8
Layer 1
10
28.979263
20
162.356167
11
28.888243
21
162.511007
0
LINE
8
Layer 1
10
28.888243
20
162.511007
11
28.708864
21
162.532862
0
LINE
8
Layer 1
10
28.708864
20
162.532862
11
27.227705
21
162.601025
0
LINE
8
Layer 1
10
27.227705
20
162.601025
11
26.021265
21
163.065445
0
LINE
8
Layer 1
10
26.021265
20
163.065445
11
25.113260
21
163.911422
0
LINE
8
Layer 1
10
25.113260
20
163.911422
11
24.527403
21
165.124257
0
LINE
8
Layer 1
10
24.527403
20
165.124257
11
24.371600
21
165.756704
0
LINE
8
Layer 1
10
24.371600
20
165.756704
11
24.367778
21
166.273707
0
LINE
8
Layer 1
10
24.367778
20
166.273707
11
24.919438
21
167.618972
0
LINE
8
Layer 1
10
24.919438
20
167.618972
11
25.641758
21
169.011222
0
LINE
8
Layer 1
10
25.641758
20
169.011222
11
19.247421
21
171.691531
0
LINE
8
Layer 1
10
19.247421
20
171.691531
11
11.252686
21
175.024282
0
LINE
8
Layer 1
10
11.252686
20
175.024282
11
9.892004
21
175.740649
0
LINE
8
Layer 1
10
9.892004
20
175.740649
11
9.195681
21
176.634163
0
LINE
8
Layer 1
10
9.195681
20
176.634163
11
8.885865
21
177.601791
0
LINE
8
Layer 1
10
8.885865
20
177.601791
11
9.269426
21
178.617567
0
LINE
8
Layer 1
10
9.269426
20
178.617567
11
9.501324
21
178.973520
0
LINE
8
Layer 1
10
9.501324
20
178.973520
11
9.939667
21
179.365203
0
LINE
8
Layer 1
10
9.939667
20
179.365203
11
12.183430
21
180.632592
0
LINE
8
Layer 1
10
12.183430
20
180.632592
11
27.373445
21
187.741300
0
LINE
8
Layer 1
10
27.373445
20
187.741300
11
45.085618
21
195.977547
0
LINE
8
Layer 1
10
45.085618
20
195.977547
11
42.949828
21
205.095331
0
LINE
8
Layer 1
10
42.949828
20
205.095331
11
39.578633
21
219.091295
0
LINE
8
Layer 1
10
39.578633
20
219.091295
11
37.203273
21
230.715789
0
LINE
8
Layer 1
10
37.203273
20
230.715789
11
35.648016
21
240.945899
0
LINE
8
Layer 1
10
35.648016
20
240.945899
11
34.737130
21
250.758712
0
LINE
8
Layer 1
10
34.737130
20
250.758712
11
34.467030
21
257.966090
0
LINE
8
Layer 1
10
34.467030
20
257.966090
11
34.522754
21
260.647407
0
LINE
8
Layer 1
10
34.522754
20
260.647407
11
34.706368
21
262.441693
0
LINE
8
Layer 1
10
34.706368
20
262.441693
11
34.945072
21
263.677637
0
LINE
8
Layer 1
10
34.945072
20
263.677637
11
24.040203
21
275.096695
0
LINE
8
Layer 1
10
24.040203
20
275.096695
11
12.898183
21
286.933973
0
LINE
8
Layer 1
10
12.898183
20
286.933973
11
12.753990
21
287.481269
0
LINE
8
Layer 1
10
12.753990
20
287.481269
11
12.865307
21
288.061191
0
LINE
8
Layer 1
10
12.865307
20
288.061191
11
13.195938
21
288.583462
0
LINE
8
Layer 1
10
13.195938
20
288.583462
11
13.709684
21
288.957808
0
LINE
8
Layer 1
10
13.709684
20
288.957808
11
15.108084
21
289.073179
0
LINE
8
Layer 1
10
15.108084
20
289.073179
11
18.967798
21
289.012692
0
LINE
8
Layer 1
10
18.967798
20
289.012692
11
37.211429
21
288.272593
0
LINE
8
Layer 1
10
37.211429
20
288.272593
11
59.984194
21
287.255215
0
LINE
8
Layer 1
10
59.984194
20
287.255215
11
60.760305
21
286.432142
0
LINE
8
Layer 1
10
60.760305
20
286.432142
11
61.406419
21
285.528159
0
LINE
8
Layer 1
10
61.406419
20
285.528159
11
61.534504
21
284.686814
0
LINE
8
Layer 1
10
61.534504
20
284.686814
11
61.134379
21
283.845113
0
LINE
8
Layer 1
10
61.134379
20
283.845113
11
60.195861
21
282.940063
0
LINE
8
Layer 1
10
60.195861
20
282.940063
11
58.855305
21
281.879980
0
LINE
8
Layer 1
10
58.855305
20
281.879980
11
59.921180
21
282.069845
0
LINE
8
Layer 1
10
59.921180
20
282.069845
11
62.613823
21
282.885210
0
LINE
8
Layer 1
10
62.613823
20
282.885210
11
66.345651
21
284.451812
0
LINE
8
Layer 1
10
66.345651
20
284.451812
11
70.549886
21
286.510723
0
LINE
8
Layer 1
10
70.549886
20
286.510723
11
74.659750
21
288.803018
0
LINE
8
Layer 1
10
74.659750
20
288.803018
11
78.230579
21
291.028434
0
LINE
8
Layer 1
10
78.230579
20
291.028434
11
81.176078
21
293.110408
0
LINE
8
Layer 1
10
81.176078
20
293.110408
11
84.070528
21
295.487421
0
LINE
8
Layer 1
10
84.070528
20
295.487421
11
87.488212
21
298.597957
0
LINE
8
Layer 1
10
87.488212
20
298.597957
11
91.266266
21
302.012635
0
LINE
8
Layer 1
10
91.266266
20
302.012635
11
94.907868
21
305.052198
0
LINE
8
Layer 1
10
94.907868
20
305.052198
11
98.429678
21
307.727255
0
LINE
8
Layer 1
10
98.429678
20
307.727255
11
101.848354
21
310.048415
0
LINE
8
Layer 1
10
101.848354
20
310.048415
11
105.180555
21
312.026285
0
LINE
8
Layer 1
10
105.180555
20
312.026285
11
108.442940
21
313.671475
0
LINE
8
Layer 1
10
108.442940
20
313.671475
11
111.652167
21
314.994593
0
LINE
8
Layer 1
10
111.652167
20
314.994593
11
114.824897
21
316.006249
0
LINE
8
Layer 1
10
114.824897
20
316.006249
11
117.803042
21
316.620136
0
LINE
8
Layer 1
10
117.803042
20
316.620136
11
121.649750
21
316.776498
0
LINE
8
Layer 1
10
121.649750
20
316.776498
11
124.624533
21
316.713359
0
LINE
8
Layer 1
10
124.624533
20
316.713359
11
126.943327
21
316.418860
0
LINE
8
Layer 1
10
126.943327
20
316.418860
11
129.039605
21
315.803687
0
LINE
8
Layer 1
10
129.039605
20
315.803687
11
131.346843
21
314.778528
0
LINE
8
Layer 1
10
131.346843
20
314.778528
11
133.368762
21
313.698495
0
LINE
8
Layer 1
10
133.368762
20
313.698495
11
135.094426
21
312.527586
0
LINE
8
Layer 1
10
135.094426
20
312.527586
11
136.896470
21
310.978485
0
LINE
8
Layer 1
10
136.896470
20
310.978485
11
139.147527
21
308.763876
0
LINE
8
Layer 1
10
139.147527
20
308.763876
11
142.393083
21
305.464190
0
LINE
8
Layer 1
10
142.393083
20
305.464190
11
144.670080
21
304.854415
0
LINE
8
Layer 1
10
144.670080
20
304.854415
11
146.654768
21
304.352398
0
LINE
8
Layer 1
10
146.654768
20
304.352398
11
147.276225
21
304.306807
0
LINE
8
Layer 1
10
147.276225
20
304.306807
11
147.732859
21
304.450742
0
LINE
8
Layer 1
10
147.732859
20
304.450742
11
148.086493
21
304.823638
0
LINE
8
Layer 1
10
148.086493
20
304.823638
11
148.398953
21
305.464929
0
LINE
8
Layer 1
10
148.398953
20
305.464929
11
149.147651
21
307.710439
0
LINE
8
Layer 1
10
149.147651
20
307.710439
11
150.167467
21
310.521056
0
LINE
8
Layer 1
10
150.167467
20
310.521056
11
151.378826
21
313.328463
0
LINE
8
Layer 1
10
151.378826
20
313.328463
11
152.599380
21
315.741241
0
LINE
8
Layer 1
10
152.599380
20
315.741241
11
153.646782
21
317.367974
0
LINE
8
Layer 1
10
153.646782
20
317.367974
11
154.337509
21
318.214640
0
LINE
8
Layer 1
10
154.337509
20
318.214640
11
155.094161
21
317.509085
0
LINE
8
Layer 1
10
155.094161
20
317.509085
11
156.034874
21
316.222249
0
LINE
8
Layer 1
10
156.034874
20
316.222249
11
157.172574
21
314.043603
0
LINE
8
Layer 1
10
157.172574
20
314.043603
11
158.367198
21
311.270508
0
LINE
8
Layer 1
10
158.367198
20
311.270508
11
159.478686
21
308.200329
0
LINE
8
Layer 1
10
159.478686
20
308.200329
11
160.699588
21
304.611840
0
LINE
8
Layer 1
10
160.699588
20
304.611840
11
163.291201
21
305.115270
0
LINE
8
Layer 1
10
163.291201
20
305.115270
11
166.429611
21
305.810607
0
LINE
8
Layer 1
10
166.429611
20
305.810607
11
167.266483
21
306.451162
0
LINE
8
Layer 1
10
167.266483
20
306.451162
11
168.438153
21
307.857181
0
LINE
8
Layer 1
10
168.438153
20
307.857181
11
170.004263
21
309.837678
0
LINE
8
Layer 1
10
170.004263
20
309.837678
11
171.655903
21
311.590535
0
LINE
8
Layer 1
10
171.655903
20
311.590535
11
173.392852
21
313.115726
0
LINE
8
Layer 1
10
173.392852
20
313.115726
11
175.214888
21
314.413224
0
LINE
8
Layer 1
10
175.214888
20
314.413224
11
177.121789
21
315.482999
0
LINE
8
Layer 1
10
177.121789
20
315.482999
11
179.113332
21
316.325026
0
LINE
8
Layer 1
10
179.113332
20
316.325026
11
181.189296
21
316.939276
0
LINE
8
Layer 1
10
181.189296
20
316.939276
11
183.349460
21
317.325722
0
LINE
8
Layer 1
10
183.349460
20
317.325722
11
185.593600
21
317.484337
0
LINE
8
Layer 1
10
185.593600
20
317.484337
11
187.921496
21
317.415093
0
LINE
8
Layer 1
10
187.921496
20
317.415093
11
190.332925
21
317.117963
0
LINE
8
Layer 1
10
190.332925
20
317.117963
11
192.827666
21
316.592919
0
LINE
8
Layer 1
10
192.827666
20
316.592919
11
195.405496
21
315.839933
0
LINE
8
Layer 1
10
195.405496
20
315.839933
11
198.066194
21
314.858979
0
LINE
8
Layer 1
10
198.066194
20
314.858979
11
200.809538
21
313.650029
0
LINE
8
Layer 1
10
200.809538
20
313.650029
11
203.635305
21
312.213055
0
LINE
8
Layer 1
10
203.635305
20
312.213055
11
208.239414
21
309.480142
0
LINE
8
Layer 1
10
208.239414
20
309.480142
11
212.891655
21
306.214615
0
LINE
8
Layer 1
10
212.891655
20
306.214615
11
217.748777
21
302.298090
0
LINE
8
Layer 1
10
217.748777
20
302.298090
11
222.967527
21
297.612180
0
LINE
8
Layer 1
10
222.967527
20
297.612180
11
226.768690
21
294.260379
0
LINE
8
Layer 1
10
226.768690
20
294.260379
11
230.649319
21
291.271194
0
LINE
8
Layer 1
10
230.649319
20
291.271194
11
234.710719
21
288.572068
0
LINE
8
Layer 1
10
234.710719
20
288.572068
11
239.054194
21
286.090442
0
LINE
8
Layer 1
10
239.054194
20
286.090442
11
242.653455
21
284.362511
0
LINE
8
Layer 1
10
242.653455
20
284.362511
11
246.275779
21
282.918136
0
LINE
8
Layer 1
10
246.275779
20
282.918136
11
249.334121
21
281.967750
0
LINE
8
Layer 1
10
249.334121
20
281.967750
11
250.468348
21
281.743563
0
LINE
8
Layer 1
10
250.468348
20
281.743563
11
251.241439
21
281.721786
0
LINE
8
Layer 1
10
251.241439
20
281.721786
11
251.454107
21
281.811639
0
LINE
8
Layer 1
10
251.454107
20
281.811639
11
251.401198
21
282.007403
0
LINE
8
Layer 1
10
251.401198
20
282.007403
11
250.364267
21
282.896663
0
LINE
8
Layer 1
10
250.364267
20
282.896663
11
249.364956
21
283.815549
0
LINE
8
Layer 1
10
249.364956
20
283.815549
11
248.931272
21
284.663765
0
LINE
8
Layer 1
10
248.931272
20
284.663765
11
249.050039
21
285.512301
0
LINE
8
Layer 1
10
249.050039
20
285.512301
11
249.708083
21
286.432142
0
LINE
8
Layer 1
10
249.708083
20
286.432142
11
250.484194
21
287.255215
0
LINE
8
Layer 1
10
250.484194
20
287.255215
11
273.256951
21
288.272593
0
LINE
8
Layer 1
10
273.256951
20
288.272593
11
291.500584
21
289.012692
0
LINE
8
Layer 1
10
291.500584
20
289.012692
11
295.360299
21
289.073179
0
LINE
8
Layer 1
10
295.360299
20
289.073179
11
296.758699
21
288.957808
0
LINE
8
Layer 1
10
296.758699
20
288.957808
11
297.272572
21
288.583442
0
LINE
8
Layer 1
10
297.272572
20
288.583442
11
297.603097
21
288.061094
0
LINE
8
Layer 1
10
297.603097
20
288.061094
11
297.714298
21
287.480586
0
LINE
8
Layer 1
10
297.714298
20
287.480586
11
297.570200
21
286.931741
0
LINE
8
Layer 1
10
297.570200
20
286.931741
11
286.159787
21
274.820355
0
LINE
8
Layer 1
10
286.159787
20
274.820355
11
274.986465
21
263.129423
0
LINE
8
Layer 1
10
274.986465
20
263.129423
11
274.811530
21
256.946476
0
LINE
8
Layer 1
10
274.811530
20
256.946476
11
274.286607
21
248.053580
0
LINE
8
Layer 1
10
274.286607
20
248.053580
11
273.216630
21
238.167612
0
LINE
8
Layer 1
10
273.216630
20
238.167612
11
271.658578
21
227.729228
0
LINE
8
Layer 1
10
271.658578
20
227.729228
11
269.669429
21
217.179085
0
LINE
8
Layer 1
10
269.669429
20
217.179085
11
267.371050
21
207.425037
0
LINE
8
Layer 1
10
267.371050
20
207.425037
11
264.969574
21
198.489356
0
LINE
8
Layer 1
10
264.969574
20
198.489356
11
264.470219
21
196.343417
0
LINE
8
Layer 1
10
264.470219
20
196.343417
11
300.037190
21
179.981408
0
LINE
8
Layer 1
10
300.037190
20
179.981408
11
300.693832
21
179.476747
0
LINE
8
Layer 1
10
300.693832
20
179.476747
11
301.234038
21
178.615919
0
LINE
8
Layer 1
10
301.234038
20
178.615919
11
301.559119
21
177.558887
0
LINE
8
Layer 1
10
301.559119
20
177.558887
11
301.259212
21
176.605890
0
LINE
8
Layer 1
10
301.259212
20
176.605890
11
300.569020
21
175.735807
0
LINE
8
Layer 1
10
300.569020
20
175.735807
11
299.215697
21
175.024282
0
LINE
8
Layer 1
10
299.215697
20
175.024282
11
291.220962
21
171.691531
0
LINE
8
Layer 1
10
291.220962
20
171.691531
11
284.826625
21
169.011222
0
LINE
8
Layer 1
10
284.826625
20
169.011222
11
285.548945
21
167.618972
0
LINE
8
Layer 1
10
285.548945
20
167.618972
11
286.100615
21
166.273707
0
LINE
8
Layer 1
10
286.100615
20
166.273707
11
286.096795
21
165.756704
0
LINE
8
Layer 1
10
286.096795
20
165.756704
11
285.940980
21
165.124257
0
LINE
8
Layer 1
10
285.940980
20
165.124257
11
285.353370
21
163.907984
0
LINE
8
Layer 1
10
285.353370
20
163.907984
11
284.442451
21
163.061962
0
LINE
8
Layer 1
10
284.442451
20
163.061962
11
283.230628
21
162.599990
0
LINE
8
Layer 1
10
283.230628
20
162.599990
11
281.740305
21
162.535873
0
LINE
8
Layer 1
10
281.740305
20
162.535873
11
281.105305
21
162.411675
0
LINE
8
Layer 1
10
281.105305
20
162.411675
11
283.933900
21
153.546110
0
LINE
8
Layer 1
10
283.933900
20
153.546110
11
285.671139
21
148.106555
0
LINE
8
Layer 1
10
285.671139
20
148.106555
11
286.428438
21
145.146862
0
LINE
8
Layer 1
10
286.428438
20
145.146862
11
286.484348
21
144.309156
0
LINE
8
Layer 1
10
286.484348
20
144.309156
11
286.348960
21
143.746046
0
LINE
8
Layer 1
10
286.348960
20
143.746046
11
286.040168
21
143.342408
0
LINE
8
Layer 1
10
286.040168
20
143.342408
11
285.575869
21
142.983119
0
LINE
8
Layer 1
10
285.575869
20
142.983119
11
284.890090
21
142.664027
0
LINE
8
Layer 1
10
284.890090
20
142.664027
11
284.147119
21
142.531307
0
LINE
8
Layer 1
10
284.147119
20
142.531307
11
281.305773
21
143.573437
0
LINE
8
Layer 1
10
281.305773
20
143.573437
11
275.574989
21
146.078981
0
LINE
8
Layer 1
10
275.574989
20
146.078981
11
267.664715
21
149.504789
0
LINE
8
Layer 1
10
267.664715
20
149.504789
11
267.897370
21
148.567671
0
LINE
8
Layer 1
10
267.897370
20
148.567671
11
268.063475
21
147.664163
0
LINE
8
Layer 1
10
268.063475
20
147.664163
11
268.172565
21
145.708654
0
LINE
8
Layer 1
10
268.172565
20
145.708654
11
268.249186
21
137.733529
0
LINE
8
Layer 1
10
268.249186
20
137.733529
11
268.185930
21
130.917418
0
LINE
8
Layer 1
10
268.185930
20
130.917418
11
267.942409
21
125.624016
0
LINE
8
Layer 1
10
267.942409
20
125.624016
11
267.431531
21
120.670370
0
LINE
8
Layer 1
10
267.431531
20
120.670370
11
266.566207
21
114.873529
0
LINE
8
Layer 1
10
266.566207
20
114.873529
11
264.871367
21
106.255372
0
LINE
8
Layer 1
10
264.871367
20
106.255372
11
262.607611
21
97.779950
0
LINE
8
Layer 1
10
262.607611
20
97.779950
11
259.785542
21
89.470612
0
LINE
8
Layer 1
10
259.785542
20
89.470612
11
256.415760
21
81.350709
0
LINE
8
Layer 1
10
256.415760
20
81.350709
11
252.508866
21
73.443589
0
LINE
8
Layer 1
10
252.508866
20
73.443589
11
248.075461
21
65.772601
0
LINE
8
Layer 1
10
248.075461
20
65.772601
11
243.126147
21
58.361094
0
LINE
8
Layer 1
10
243.126147
20
58.361094
11
237.671525
21
51.232418
0
LINE
8
Layer 1
10
237.671525
20
51.232418
11
232.666408
21
45.469927
0
LINE
8
Layer 1
10
232.666408
20
45.469927
11
226.823239
21
39.308439
0
LINE
8
Layer 1
10
226.823239
20
39.308439
11
220.847017
21
33.464081
0
LINE
8
Layer 1
10
220.847017
20
33.464081
11
215.442741
21
28.652978
0
LINE
8
Layer 1
10
215.442741
20
28.652978
11
209.925315
21
24.396380
0
LINE
8
Layer 1
10
209.925315
20
24.396380
11
204.123194
21
20.543983
0
LINE
8
Layer 1
10
204.123194
20
20.543983
11
198.078244
21
17.114054
0
LINE
8
Layer 1
10
198.078244
20
17.114054
11
191.832332
21
14.124859
0
LINE
8
Layer 1
10
191.832332
20
14.124859
11
185.427327
21
11.594664
0
LINE
8
Layer 1
10
185.427327
20
11.594664
11
178.905094
21
9.541736
0
LINE
8
Layer 1
10
178.905094
20
9.541736
11
172.307501
21
7.984342
0
LINE
8
Layer 1
10
172.307501
20
7.984342
11
165.676416
21
6.940748
0
LINE
8
Layer 1
10
165.676416
20
6.940748
11
158.273236
21
6.438480
0
LINE
8
Layer 1
10
158.273236
20
6.438480
11
151.283083
21
6.392418
0
LINE
8
Layer 1
10
151.283083
20
6.392418
11
151.283083
21
6.392418
0
LINE
8
Layer 1
10
164.265305
20
8.326713
11
169.931388
21
9.105863
0
LINE
8
Layer 1
10
169.931388
20
9.105863
11
175.472607
21
10.214714
0
LINE
8
Layer 1
10
175.472607
20
10.214714
11
180.902945
21
11.658433
0
LINE
8
Layer 1
10
180.902945
20
11.658433
11
186.236386
21
13.442192
0
LINE
8
Layer 1
10
186.236386
20
13.442192
11
191.486914
21
15.571158
0
LINE
8
Layer 1
10
191.486914
20
15.571158
11
196.668513
21
18.050503
0
LINE
8
Layer 1
10
196.668513
20
18.050503
11
201.795168
21
20.885396
0
LINE
8
Layer 1
10
201.795168
20
20.885396
11
206.880861
21
24.081006
0
LINE
8
Layer 1
10
206.880861
20
24.081006
11
211.678639
21
27.476760
0
LINE
8
Layer 1
10
211.678639
20
27.476760
11
216.302967
21
31.320972
0
LINE
8
Layer 1
10
216.302967
20
31.320972
11
221.505169
21
36.070032
0
LINE
8
Layer 1
10
221.505169
20
36.070032
11
226.723017
21
41.191370
0
LINE
8
Layer 1
10
226.723017
20
41.191370
11
231.394285
21
46.152418
0
LINE
8
Layer 1
10
231.394285
20
46.152418
11
234.826570
21
49.962418
0
LINE
8
Layer 1
10
234.826570
20
49.962418
11
240.941651
21
57.864640
0
LINE
8
Layer 1
10
240.941651
20
57.864640
11
245.914706
21
65.104060
0
LINE
8
Layer 1
10
245.914706
20
65.104060
11
250.378045
21
72.593668
0
LINE
8
Layer 1
10
250.378045
20
72.593668
11
254.323903
21
80.313707
0
LINE
8
Layer 1
10
254.323903
20
80.313707
11
257.744516
21
88.244418
0
LINE
8
Layer 1
10
257.744516
20
88.244418
11
260.632119
21
96.366043
0
LINE
8
Layer 1
10
260.632119
20
96.366043
11
262.978948
21
104.658823
0
LINE
8
Layer 1
10
262.978948
20
104.658823
11
264.777238
21
113.103001
0
LINE
8
Layer 1
10
264.777238
20
113.103001
11
266.019224
21
121.678819
0
LINE
8
Layer 1
10
266.019224
20
121.678819
11
266.661439
21
129.616659
0
LINE
8
Layer 1
10
266.661439
20
129.616659
11
266.917658
21
137.636669
0
LINE
8
Layer 1
10
266.917658
20
137.636669
11
266.777912
21
144.467639
0
LINE
8
Layer 1
10
266.777912
20
144.467639
11
266.556436
21
147.039979
0
LINE
8
Layer 1
10
266.556436
20
147.039979
11
266.232231
21
148.838356
0
LINE
8
Layer 1
10
266.232231
20
148.838356
11
265.775434
21
150.488735
0
LINE
8
Layer 1
10
265.775434
20
150.488735
11
263.633148
21
151.479092
0
LINE
8
Layer 1
10
263.633148
20
151.479092
11
260.575950
21
152.865421
0
LINE
8
Layer 1
10
260.575950
20
152.865421
11
259.661039
21
153.261396
0
LINE
8
Layer 1
10
259.661039
20
153.261396
11
260.340311
21
151.725438
0
LINE
8
Layer 1
10
260.340311
20
151.725438
11
260.919215
21
150.200553
0
LINE
8
Layer 1
10
260.919215
20
150.200553
11
261.337440
21
148.495513
0
LINE
8
Layer 1
10
261.337440
20
148.495513
11
261.911510
21
143.377974
0
LINE
8
Layer 1
10
261.911510
20
143.377974
11
262.147636
21
136.061357
0
LINE
8
Layer 1
10
262.147636
20
136.061357
11
261.817789
21
128.229591
0
LINE
8
Layer 1
10
261.817789
20
128.229591
11
260.931372
21
120.006801
0
LINE
8
Layer 1
10
260.931372
20
120.006801
11
259.497788
21
111.517111
0
LINE
8
Layer 1
10
259.497788
20
111.517111
11
258.201781
21
105.678211
0
LINE
8
Layer 1
10
258.201781
20
105.678211
11
256.654020
21
99.942868
0
LINE
8
Layer 1
10
256.654020
20
99.942868
11
254.856477
21
94.314220
0
LINE
8
Layer 1
10
254.856477
20
94.314220
11
252.811126
21
88.795406
0
LINE
8
Layer 1
10
252.811126
20
88.795406
11
250.519940
21
83.389561
0
LINE
8
Layer 1
10
250.519940
20
83.389561
11
247.984894
21
78.099824
0
LINE
8
Layer 1
10
247.984894
20
78.099824
11
245.207960
21
72.929331
0
LINE
8
Layer 1
10
245.207960
20
72.929331
11
242.191112
21
67.881221
0
LINE
8
Layer 1
10
242.191112
20
67.881221
11
238.936324
21
62.958631
0
LINE
8
Layer 1
10
238.936324
20
62.958631
11
235.445568
21
58.164698
0
LINE
8
Layer 1
10
235.445568
20
58.164698
11
231.720819
21
53.502560
0
LINE
8
Layer 1
10
231.720819
20
53.502560
11
227.764050
21
48.975355
0
LINE
8
Layer 1
10
227.764050
20
48.975355
11
223.577235
21
44.586218
0
LINE
8
Layer 1
10
223.577235
20
44.586218
11
219.162347
21
40.338289
0
LINE
8
Layer 1
10
219.162347
20
40.338289
11
214.521359
21
36.234705
0
LINE
8
Layer 1
10
214.521359
20
36.234705
11
209.656245
21
32.278602
0
LINE
8
Layer 1
10
209.656245
20
32.278602
11
203.291385
21
27.686316
0
LINE
8
Layer 1
10
203.291385
20
27.686316
11
200.051792
21
25.621714
0
LINE
8
Layer 1
10
200.051792
20
25.621714
11
196.777199
21
23.711456
0
LINE
8
Layer 1
10
196.777199
20
23.711456
11
193.469937
21
21.955530
0
LINE
8
Layer 1
10
193.469937
20
21.955530
11
190.132336
21
20.353925
0
LINE
8
Layer 1
10
190.132336
20
20.353925
11
186.766728
21
18.906628
0
LINE
8
Layer 1
10
186.766728
20
18.906628
11
183.375443
21
17.613628
0
LINE
8
Layer 1
10
183.375443
20
17.613628
11
179.960812
21
16.474913
0
LINE
8
Layer 1
10
179.960812
20
16.474913
11
176.525166
21
15.490470
0
LINE
8
Layer 1
10
176.525166
20
15.490470
11
173.070836
21
14.660288
0
LINE
8
Layer 1
10
173.070836
20
14.660288
11
169.600154
21
13.984355
0
LINE
8
Layer 1
10
169.600154
20
13.984355
11
166.115449
21
13.462659
0
LINE
8
Layer 1
10
166.115449
20
13.462659
11
162.619053
21
13.095188
0
LINE
8
Layer 1
10
162.619053
20
13.095188
11
159.113296
21
12.881930
0
LINE
8
Layer 1
10
159.113296
20
12.881930
11
155.600511
21
12.822873
0
LINE
8
Layer 1
10
155.600511
20
12.822873
11
152.083027
21
12.918004
0
LINE
8
Layer 1
10
152.083027
20
12.918004
11
148.563175
21
13.167313
0
LINE
8
Layer 1
10
148.563175
20
13.167313
11
145.043287
21
13.570787
0
LINE
8
Layer 1
10
145.043287
20
13.570787
11
141.525693
21
14.128415
0
LINE
8
Layer 1
10
141.525693
20
14.128415
11
138.012724
21
14.840184
0
LINE
8
Layer 1
10
138.012724
20
14.840184
11
134.506711
21
15.706082
0
LINE
8
Layer 1
10
134.506711
20
15.706082
11
131.009986
21
16.726097
0
LINE
8
Layer 1
10
131.009986
20
16.726097
11
127.524878
21
17.900218
0
LINE
8
Layer 1
10
127.524878
20
17.900218
11
120.598840
21
20.710728
0
LINE
8
Layer 1
10
120.598840
20
20.710728
11
113.747245
21
24.137517
0
LINE
8
Layer 1
10
113.747245
20
24.137517
11
106.988740
21
28.180488
0
LINE
8
Layer 1
10
106.988740
20
28.180488
11
100.341972
21
32.839547
0
LINE
8
Layer 1
10
100.341972
20
32.839547
11
96.911362
21
35.548707
0
LINE
8
Layer 1
10
96.911362
20
35.548707
11
93.407265
21
38.546642
0
LINE
8
Layer 1
10
93.407265
20
38.546642
11
89.884533
21
41.778025
0
LINE
8
Layer 1
10
89.884533
20
41.778025
11
86.398017
21
45.187526
0
LINE
8
Layer 1
10
86.398017
20
45.187526
11
83.002570
21
48.719817
0
LINE
8
Layer 1
10
83.002570
20
48.719817
11
79.753042
21
52.319569
0
LINE
8
Layer 1
10
79.753042
20
52.319569
11
76.704286
21
55.931454
0
LINE
8
Layer 1
10
76.704286
20
55.931454
11
73.911152
21
59.500143
0
LINE
8
Layer 1
10
73.911152
20
59.500143
11
68.854219
21
66.690232
0
LINE
8
Layer 1
10
68.854219
20
66.690232
11
64.313350
21
74.088971
0
LINE
8
Layer 1
10
64.313350
20
74.088971
11
60.290219
21
81.692283
0
LINE
8
Layer 1
10
60.290219
20
81.692283
11
56.786500
21
89.496086
0
LINE
8
Layer 1
10
56.786500
20
89.496086
11
53.803868
21
97.496304
0
LINE
8
Layer 1
10
53.803868
20
97.496304
11
51.343997
21
105.688854
0
LINE
8
Layer 1
10
51.343997
20
105.688854
11
49.408562
21
114.069660
0
LINE
8
Layer 1
10
49.408562
20
114.069660
11
47.999235
21
122.634640
0
LINE
8
Layer 1
10
47.999235
20
122.634640
11
47.468307
21
127.647123
0
LINE
8
Layer 1
10
47.468307
20
127.647123
11
47.132408
21
132.952349
0
LINE
8
Layer 1
10
47.132408
20
132.952349
11
47.014714
21
138.020307
0
LINE
8
Layer 1
10
47.014714
20
138.020307
11
47.138401
21
142.320986
0
LINE
8
Layer 1
10
47.138401
20
142.320986
11
47.639143
21
147.699415
0
LINE
8
Layer 1
10
47.639143
20
147.699415
11
48.002199
21
149.246757
0
LINE
8
Layer 1
10
48.002199
20
149.246757
11
48.567583
21
150.786307
0
LINE
8
Layer 1
10
48.567583
20
150.786307
11
49.260207
21
152.691307
0
LINE
8
Layer 1
10
49.260207
20
152.691307
11
45.853453
21
151.203653
0
LINE
8
Layer 1
10
45.853453
20
151.203653
11
42.599729
21
149.541865
0
LINE
8
Layer 1
10
42.599729
20
149.541865
11
42.219491
21
144.828562
0
LINE
8
Layer 1
10
42.219491
20
144.828562
11
42.168655
21
140.473878
0
LINE
8
Layer 1
10
42.168655
20
140.473878
11
42.313677
21
135.121575
0
LINE
8
Layer 1
10
42.313677
20
135.121575
11
42.622944
21
129.532895
0
LINE
8
Layer 1
10
42.622944
20
129.532895
11
43.064845
21
124.469085
0
LINE
8
Layer 1
10
43.064845
20
124.469085
11
43.923317
21
117.965106
0
LINE
8
Layer 1
10
43.923317
20
117.965106
11
45.062254
21
111.575445
0
LINE
8
Layer 1
10
45.062254
20
111.575445
11
46.480914
21
105.301514
0
LINE
8
Layer 1
10
46.480914
20
105.301514
11
48.178556
21
99.144729
0
LINE
8
Layer 1
10
48.178556
20
99.144729
11
50.154437
21
93.106502
0
LINE
8
Layer 1
10
50.154437
20
93.106502
11
52.407817
21
87.188248
0
LINE
8
Layer 1
10
52.407817
20
87.188248
11
54.937954
21
81.391380
0
LINE
8
Layer 1
10
54.937954
20
81.391380
11
57.744105
21
75.717313
0
LINE
8
Layer 1
10
57.744105
20
75.717313
11
60.825530
21
70.167459
0
LINE
8
Layer 1
10
60.825530
20
70.167459
11
64.181487
21
64.743233
0
LINE
8
Layer 1
10
64.181487
20
64.743233
11
67.811234
21
59.446049
0
LINE
8
Layer 1
10
67.811234
20
59.446049
11
71.714029
21
54.277320
0
LINE
8
Layer 1
10
71.714029
20
54.277320
11
75.889131
21
49.238461
0
LINE
8
Layer 1
10
75.889131
20
49.238461
11
80.335798
21
44.330884
0
LINE
8
Layer 1
10
80.335798
20
44.330884
11
85.053288
21
39.556004
0
LINE
8
Layer 1
10
85.053288
20
39.556004
11
90.040861
21
34.915235
0
LINE
8
Layer 1
10
90.040861
20
34.915235
11
93.709750
21
31.621222
0
LINE
8
Layer 1
10
93.709750
20
31.621222
11
97.251595
21
28.774242
0
LINE
8
Layer 1
10
97.251595
20
28.774242
11
101.894194
21
25.340056
0
LINE
8
Layer 1
10
101.894194
20
25.340056
11
107.248578
21
21.888687
0
LINE
8
Layer 1
10
107.248578
20
21.888687
11
112.740594
21
18.793556
0
LINE
8
Layer 1
10
112.740594
20
18.793556
11
118.345383
21
16.064054
0
LINE
8
Layer 1
10
118.345383
20
16.064054
11
124.038087
21
13.709572
0
LINE
8
Layer 1
10
124.038087
20
13.709572
11
129.793845
21
11.739501
0
LINE
8
Layer 1
10
129.793845
20
11.739501
11
135.587799
21
10.163231
0
LINE
8
Layer 1
10
135.587799
20
10.163231
11
141.395091
21
8.990152
0
LINE
8
Layer 1
10
141.395091
20
8.990152
11
147.190861
21
8.229656
0
LINE
8
Layer 1
10
147.190861
20
8.229656
11
151.028629
21
8.016051
0
LINE
8
Layer 1
10
151.028629
20
8.016051
11
155.739822
21
7.964357
0
LINE
8
Layer 1
10
155.739822
20
7.964357
11
160.445145
21
8.069577
0
LINE
8
Layer 1
10
160.445145
20
8.069577
11
164.265305
21
8.326713
0
LINE
8
Layer 1
10
164.265305
20
8.326713
11
164.265305
21
8.326713
0
LINE
8
Layer 1
10
165.736386
20
21.455549
11
166.763385
21
21.925039
0
LINE
8
Layer 1
10
166.763385
20
21.925039
11
167.668473
21
22.510644
0
LINE
8
Layer 1
10
167.668473
20
22.510644
11
168.447092
21
23.205711
0
LINE
8
Layer 1
10
168.447092
20
23.205711
11
169.094682
21
24.003589
0
LINE
8
Layer 1
10
169.094682
20
24.003589
11
169.606684
21
24.897626
0
LINE
8
Layer 1
10
169.606684
20
24.897626
11
169.978539
21
25.881170
0
LINE
8
Layer 1
10
169.978539
20
25.881170
11
170.205686
21
26.947569
0
LINE
8
Layer 1
10
170.205686
20
26.947569
11
170.283567
21
28.090170
0
LINE
8
Layer 1
10
170.283567
20
28.090170
11
170.134225
21
29.701341
0
LINE
8
Layer 1
10
170.134225
20
29.701341
11
169.693852
21
31.109835
0
LINE
8
Layer 1
10
169.693852
20
31.109835
11
168.981402
21
32.273368
0
LINE
8
Layer 1
10
168.981402
20
32.273368
11
168.015824
21
33.149653
0
LINE
8
Layer 1
10
168.015824
20
33.149653
11
163.686995
21
35.284749
0
LINE
8
Layer 1
10
163.686995
20
35.284749
11
161.428388
21
36.366354
0
LINE
8
Layer 1
10
161.428388
20
36.366354
11
159.951820
21
37.329865
0
LINE
8
Layer 1
10
159.951820
20
37.329865
11
159.146862
21
38.267288
0
LINE
8
Layer 1
10
159.146862
20
38.267288
11
158.903083
21
39.270630
0
LINE
8
Layer 1
10
158.903083
20
39.270630
11
159.129197
21
40.162067
0
LINE
8
Layer 1
10
159.129197
20
40.162067
11
159.862639
21
41.100643
0
LINE
8
Layer 1
10
159.862639
20
41.100643
11
161.024860
21
41.883067
0
LINE
8
Layer 1
10
161.024860
20
41.883067
11
162.326460
21
42.104344
0
LINE
8
Layer 1
10
162.326460
20
42.104344
11
163.682514
21
41.768144
0
LINE
8
Layer 1
10
163.682514
20
41.768144
11
165.008097
21
40.878139
0
LINE
8
Layer 1
10
165.008097
20
40.878139
11
165.378062
21
40.577718
0
LINE
8
Layer 1
10
165.378062
20
40.577718
11
165.715748
21
40.512929
0
LINE
8
Layer 1
10
165.715748
20
40.512929
11
167.044748
21
41.214012
0
LINE
8
Layer 1
10
167.044748
20
41.214012
11
168.479721
21
42.096972
0
LINE
8
Layer 1
10
168.479721
20
42.096972
11
167.854178
21
43.069448
0
LINE
8
Layer 1
10
167.854178
20
43.069448
11
166.945032
21
44.072232
0
LINE
8
Layer 1
10
166.945032
20
44.072232
11
165.699352
21
44.819323
0
LINE
8
Layer 1
10
165.699352
20
44.819323
11
164.173971
21
45.285829
0
LINE
8
Layer 1
10
164.173971
20
45.285829
11
162.425721
21
45.446863
0
LINE
8
Layer 1
10
162.425721
20
45.446863
11
160.056077
21
45.212799
0
LINE
8
Layer 1
10
160.056077
20
45.212799
11
158.082923
21
44.512504
0
LINE
8
Layer 1
10
158.082923
20
44.512504
11
157.246718
21
43.988407
0
LINE
8
Layer 1
10
157.246718
20
43.988407
11
156.511663
21
43.348817
0
LINE
8
Layer 1
10
156.511663
20
43.348817
11
155.878432
21
42.594090
0
LINE
8
Layer 1
10
155.878432
20
42.594090
11
155.347701
21
41.724580
0
LINE
8
Layer 1
10
155.347701
20
41.724580
11
154.998051
21
40.732418
0
LINE
8
Layer 1
10
154.998051
20
40.732418
11
154.812745
21
39.521737
0
LINE
8
Layer 1
10
154.812745
20
39.521737
11
154.804995
21
38.261631
0
LINE
8
Layer 1
10
154.804995
20
38.261631
11
154.988014
21
37.121197
0
LINE
8
Layer 1
10
154.988014
20
37.121197
11
155.292265
21
36.354977
0
LINE
8
Layer 1
10
155.292265
20
36.354977
11
155.774074
21
35.607042
0
LINE
8
Layer 1
10
155.774074
20
35.607042
11
157.249343
21
34.181976
0
LINE
8
Layer 1
10
157.249343
20
34.181976
11
159.371765
21
32.877893
0
LINE
8
Layer 1
10
159.371765
20
32.877893
11
162.099286
21
31.726688
0
LINE
8
Layer 1
10
162.099286
20
31.726688
11
164.515403
21
30.567789
0
LINE
8
Layer 1
10
164.515403
20
30.567789
11
165.439589
21
29.923015
0
LINE
8
Layer 1
10
165.439589
20
29.923015
11
165.953448
21
29.369879
0
LINE
8
Layer 1
10
165.953448
20
29.369879
11
166.165391
21
28.687554
0
LINE
8
Layer 1
10
166.165391
20
28.687554
11
166.229430
21
27.816676
0
LINE
8
Layer 1
10
166.229430
20
27.816676
11
166.147195
21
26.915731
0
LINE
8
Layer 1
10
166.147195
20
26.915731
11
165.920313
21
26.143204
0
LINE
8
Layer 1
10
165.920313
20
26.143204
11
165.413694
21
25.545340
0
LINE
8
Layer 1
10
165.413694
20
25.545340
11
164.556371
21
25.040922
0
LINE
8
Layer 1
10
164.556371
20
25.040922
11
163.489588
21
24.692554
0
LINE
8
Layer 1
10
163.489588
20
24.692554
11
162.354593
21
24.562844
0
LINE
8
Layer 1
10
162.354593
20
24.562844
11
161.309090
21
24.701249
0
LINE
8
Layer 1
10
161.309090
20
24.701249
11
160.305460
21
25.087873
0
LINE
8
Layer 1
10
160.305460
20
25.087873
11
159.423773
21
25.681099
0
LINE
8
Layer 1
10
159.423773
20
25.681099
11
158.744099
21
26.439312
0
LINE
8
Layer 1
10
158.744099
20
26.439312
11
158.150532
21
27.328424
0
LINE
8
Layer 1
10
158.150532
20
27.328424
11
156.692363
21
26.486556
0
LINE
8
Layer 1
10
156.692363
20
26.486556
11
155.234194
21
25.515626
0
LINE
8
Layer 1
10
155.234194
20
25.515626
11
155.797961
21
24.281497
0
LINE
8
Layer 1
10
155.797961
20
24.281497
11
156.415018
21
23.353102
0
LINE
8
Layer 1
10
156.415018
20
23.353102
11
157.252964
21
22.492543
0
LINE
8
Layer 1
10
157.252964
20
22.492543
11
158.227099
21
21.773648
0
LINE
8
Layer 1
10
158.227099
20
21.773648
11
159.252722
21
21.270242
0
LINE
8
Layer 1
10
159.252722
20
21.270242
11
160.663842
21
20.978498
0
LINE
8
Layer 1
10
160.663842
20
20.978498
11
162.424346
21
20.918121
0
LINE
8
Layer 1
10
162.424346
20
20.918121
11
164.219954
21
21.080131
0
LINE
8
Layer 1
10
164.219954
20
21.080131
11
165.736386
21
21.455549
0
LINE
8
Layer 1
10
165.736386
20
21.455549
11
165.736386
21
21.455549
0
LINE
8
Layer 1
10
148.568354
20
22.234059
11
148.802446
21
23.991542
0
LINE
8
Layer 1
10
148.802446
20
23.991542
11
148.884194
21
24.972913
0
LINE
8
Layer 1
10
148.884194
20
24.972913
11
145.217769
21
25.494262
0
LINE
8
Layer 1
10
145.217769
20
25.494262
11
141.434690
21
26.132254
0
LINE
8
Layer 1
10
141.434690
20
26.132254
11
141.775350
21
29.653900
0
LINE
8
Layer 1
10
141.775350
20
29.653900
11
142.331767
21
33.202936
0
LINE
8
Layer 1
10
142.331767
20
33.202936
11
146.080065
21
32.793855
0
LINE
8
Layer 1
10
146.080065
20
32.793855
11
149.730861
21
32.287295
0
LINE
8
Layer 1
10
149.730861
20
32.287295
11
150.037636
21
33.857636
0
LINE
8
Layer 1
10
150.037636
20
33.857636
11
150.200558
21
35.029764
0
LINE
8
Layer 1
10
150.200558
20
35.029764
11
150.161478
21
35.642776
0
LINE
8
Layer 1
10
150.161478
20
35.642776
11
146.369391
21
36.331878
0
LINE
8
Layer 1
10
146.369391
20
36.331878
11
142.760237
21
36.806152
0
LINE
8
Layer 1
10
142.760237
20
36.806152
11
142.951189
21
38.939272
0
LINE
8
Layer 1
10
142.951189
20
38.939272
11
143.319461
21
41.713930
0
LINE
8
Layer 1
10
143.319461
20
41.713930
11
143.561815
21
42.213725
0
LINE
8
Layer 1
10
143.561815
20
42.213725
11
143.905345
21
42.344394
0
LINE
8
Layer 1
10
143.905345
20
42.344394
11
147.556641
21
41.887027
0
LINE
8
Layer 1
10
147.556641
20
41.887027
11
150.890077
21
41.573111
0
LINE
8
Layer 1
10
150.890077
20
41.573111
11
151.194206
21
43.256146
0
LINE
8
Layer 1
10
151.194206
20
43.256146
11
151.352899
21
44.793744
0
LINE
8
Layer 1
10
151.352899
20
44.793744
11
145.654705
21
45.571833
0
LINE
8
Layer 1
10
145.654705
20
45.571833
11
139.873849
21
46.251170
0
LINE
8
Layer 1
10
139.873849
20
46.251170
11
139.485477
21
43.471307
0
LINE
8
Layer 1
10
139.485477
20
43.471307
11
137.445761
21
27.271670
0
LINE
8
Layer 1
10
137.445761
20
27.271670
11
136.955668
21
22.999982
0
LINE
8
Layer 1
10
136.955668
20
22.999982
11
147.803435
21
21.488146
0
LINE
8
Layer 1
10
147.803435
20
21.488146
11
148.313812
21
21.637001
0
LINE
8
Layer 1
10
148.313812
20
21.637001
11
148.568354
21
22.234059
0
LINE
8
Layer 1
10
148.568354
20
22.234059
11
148.568354
21
22.234059
0
LINE
8
Layer 1
10
128.880119
20
26.185170
11
127.722768
21
32.182393
0
LINE
8
Layer 1
10
127.722768
20
32.182393
11
126.613426
21
38.149756
0
LINE
8
Layer 1
10
126.613426
20
38.149756
11
126.619282
21
38.386422
0
LINE
8
Layer 1
10
126.619282
20
38.386422
11
126.820342
21
38.506213
0
LINE
8
Layer 1
10
126.820342
20
38.506213
11
128.150696
21
38.465562
0
LINE
8
Layer 1
10
128.150696
20
38.465562
11
129.588475
21
38.500528
0
LINE
8
Layer 1
10
129.588475
20
38.500528
11
130.914966
21
38.858081
0
LINE
8
Layer 1
10
130.914966
20
38.858081
11
132.075463
21
39.515888
0
LINE
8
Layer 1
10
132.075463
20
39.515888
11
133.015259
21
40.451617
0
LINE
8
Layer 1
10
133.015259
20
40.451617
11
133.836626
21
41.693495
0
LINE
8
Layer 1
10
133.836626
20
41.693495
11
134.419821
21
42.934430
0
LINE
8
Layer 1
10
134.419821
20
42.934430
11
134.764995
21
44.159367
0
LINE
8
Layer 1
10
134.764995
20
44.159367
11
134.872294
21
45.353251
0
LINE
8
Layer 1
10
134.872294
20
45.353251
11
134.741869
21
46.501028
0
LINE
8
Layer 1
10
134.741869
20
46.501028
11
134.373868
21
47.587643
0
LINE
8
Layer 1
10
134.373868
20
47.587643
11
133.768440
21
48.598042
0
LINE
8
Layer 1
10
133.768440
20
48.598042
11
132.925733
21
49.517170
0
LINE
8
Layer 1
10
132.925733
20
49.517170
11
131.293210
21
50.597495
0
LINE
8
Layer 1
10
131.293210
20
50.597495
11
128.628645
21
52.104672
0
LINE
8
Layer 1
10
128.628645
20
52.104672
11
126.105602
21
53.403837
0
LINE
8
Layer 1
10
126.105602
20
53.403837
11
124.897645
21
53.860127
0
LINE
8
Layer 1
10
124.897645
20
53.860127
11
119.569972
21
43.402459
0
LINE
8
Layer 1
10
119.569972
20
43.402459
11
114.321308
21
33.032474
0
LINE
8
Layer 1
10
114.321308
20
33.032474
11
116.007047
21
32.181518
0
LINE
8
Layer 1
10
116.007047
20
32.181518
11
117.692788
21
31.330561
0
LINE
8
Layer 1
10
117.692788
20
31.330561
11
120.049053
21
36.036560
0
LINE
8
Layer 1
10
120.049053
20
36.036560
11
121.759152
21
39.284275
0
LINE
8
Layer 1
10
121.759152
20
39.284275
11
122.561869
21
40.484157
0
LINE
8
Layer 1
10
122.561869
20
40.484157
11
123.778066
21
34.007326
0
LINE
8
Layer 1
10
123.778066
20
34.007326
11
124.837718
21
27.788898
0
LINE
8
Layer 1
10
124.837718
20
27.788898
11
126.700955
21
26.763811
0
LINE
8
Layer 1
10
126.700955
20
26.763811
11
128.674897
21
25.778202
0
LINE
8
Layer 1
10
128.674897
20
25.778202
11
128.926544
21
25.826745
0
LINE
8
Layer 1
10
128.926544
20
25.826745
11
128.880119
21
26.185170
0
LINE
8
Layer 1
10
128.880119
20
26.185170
11
128.880119
21
26.185170
0
LINE
8
Layer 1
10
125.530305
20
42.669824
11
124.583538
21
43.161364
0
LINE
8
Layer 1
10
124.583538
20
43.161364
11
124.189750
21
43.512926
0
LINE
8
Layer 1
10
124.189750
20
43.512926
11
126.876102
21
49.064884
0
LINE
8
Layer 1
10
126.876102
20
49.064884
11
127.310932
21
48.964243
0
LINE
8
Layer 1
10
127.310932
20
48.964243
11
128.166862
21
48.513801
0
LINE
8
Layer 1
10
128.166862
20
48.513801
11
129.904750
21
47.289003
0
LINE
8
Layer 1
10
129.904750
20
47.289003
11
130.281672
21
46.825671
0
LINE
8
Layer 1
10
130.281672
20
46.825671
11
130.535403
21
46.283535
0
LINE
8
Layer 1
10
130.535403
20
46.283535
11
130.679894
21
45.052857
0
LINE
8
Layer 1
10
130.679894
20
45.052857
11
130.351437
21
43.776978
0
LINE
8
Layer 1
10
130.351437
20
43.776978
11
129.563241
21
42.635909
0
LINE
8
Layer 1
10
129.563241
20
42.635909
11
128.862470
21
42.216003
0
LINE
8
Layer 1
10
128.862470
20
42.216003
11
127.921433
21
42.081980
0
LINE
8
Layer 1
10
127.921433
20
42.081980
11
126.793066
21
42.233400
0
LINE
8
Layer 1
10
126.793066
20
42.233400
11
125.530305
21
42.669824
0
LINE
8
Layer 1
10
125.530305
20
42.669824
11
125.530305
21
42.669824
0
LINE
8
Layer 1
10
185.996416
20
26.930971
11
187.972290
21
28.160781
0
LINE
8
Layer 1
10
187.972290
20
28.160781
11
189.323130
21
29.590160
0
LINE
8
Layer 1
10
189.323130
20
29.590160
11
189.778148
21
30.400287
0
LINE
8
Layer 1
10
189.778148
20
30.400287
11
190.093690
21
31.285023
0
LINE
8
Layer 1
10
190.093690
20
31.285023
11
190.328728
21
33.311282
0
LINE
8
Layer 1
10
190.328728
20
33.311282
11
190.229450
21
34.721535
0
LINE
8
Layer 1
10
190.229450
20
34.721535
11
189.937214
21
35.931990
0
LINE
8
Layer 1
10
189.937214
20
35.931990
11
189.423318
21
37.024642
0
LINE
8
Layer 1
10
189.423318
20
37.024642
11
188.659062
21
38.081486
0
LINE
8
Layer 1
10
188.659062
20
38.081486
11
187.720368
21
38.946785
0
LINE
8
Layer 1
10
187.720368
20
38.946785
11
186.479419
21
39.604834
0
LINE
8
Layer 1
10
186.479419
20
39.604834
11
184.803548
21
40.108466
0
LINE
8
Layer 1
10
184.803548
20
40.108466
11
182.560090
21
40.510516
0
LINE
8
Layer 1
10
182.560090
20
40.510516
11
178.940901
21
41.137918
0
LINE
8
Layer 1
10
178.940901
20
41.137918
11
178.071638
21
41.475780
0
LINE
8
Layer 1
10
178.071638
20
41.475780
11
177.318083
21
41.972286
0
LINE
8
Layer 1
10
177.318083
20
41.972286
11
176.566342
21
42.744816
0
LINE
8
Layer 1
10
176.566342
20
42.744816
11
176.400861
21
43.841331
0
LINE
8
Layer 1
10
176.400861
20
43.841331
11
176.564146
21
44.821393
0
LINE
8
Layer 1
10
176.564146
20
44.821393
11
177.014797
21
45.685809
0
LINE
8
Layer 1
10
177.014797
20
45.685809
11
177.694005
21
46.354770
0
LINE
8
Layer 1
10
177.694005
20
46.354770
11
178.542961
21
46.748463
0
LINE
8
Layer 1
10
178.542961
20
46.748463
11
179.436493
21
46.840972
0
LINE
8
Layer 1
10
179.436493
20
46.840972
11
180.447451
21
46.755272
0
LINE
8
Layer 1
10
180.447451
20
46.755272
11
181.373763
21
46.524385
0
LINE
8
Layer 1
10
181.373763
20
46.524385
11
182.013355
21
46.181335
0
LINE
8
Layer 1
10
182.013355
20
46.181335
11
182.312674
21
45.973793
0
LINE
8
Layer 1
10
182.312674
20
45.973793
11
182.617464
21
46.001787
0
LINE
8
Layer 1
10
182.617464
20
46.001787
11
183.738655
21
46.999102
0
LINE
8
Layer 1
10
183.738655
20
46.999102
11
184.975274
21
48.259125
0
LINE
8
Layer 1
10
184.975274
20
48.259125
11
184.314434
21
48.962558
0
LINE
8
Layer 1
10
184.314434
20
48.962558
11
183.592644
21
49.578844
0
LINE
8
Layer 1
10
183.592644
20
49.578844
11
182.748104
21
50.034251
0
LINE
8
Layer 1
10
182.748104
20
50.034251
11
181.799238
21
50.327929
0
LINE
8
Layer 1
10
181.799238
20
50.327929
11
180.764475
21
50.459026
0
LINE
8
Layer 1
10
180.764475
20
50.459026
11
179.662240
21
50.426690
0
LINE
8
Layer 1
10
179.662240
20
50.426690
11
178.510960
21
50.230070
0
LINE
8
Layer 1
10
178.510960
20
50.230070
11
177.329060
21
49.868313
0
LINE
8
Layer 1
10
177.329060
20
49.868313
11
176.134968
21
49.340570
0
LINE
8
Layer 1
10
176.134968
20
49.340570
11
175.039601
21
48.682639
0
LINE
8
Layer 1
10
175.039601
20
48.682639
11
174.114098
21
47.922351
0
LINE
8
Layer 1
10
174.114098
20
47.922351
11
173.363930
21
47.070803
0
LINE
8
Layer 1
10
173.363930
20
47.070803
11
172.794563
21
46.139092
0
LINE
8
Layer 1
10
172.794563
20
46.139092
11
172.411469
21
45.138313
0
LINE
8
Layer 1
10
172.411469
20
45.138313
11
172.220115
21
44.079562
0
LINE
8
Layer 1
10
172.220115
20
44.079562
11
172.225970
21
42.973935
0
LINE
8
Layer 1
10
172.225970
20
42.973935
11
172.434504
21
41.832530
0
LINE
8
Layer 1
10
172.434504
20
41.832530
11
172.912221
21
40.756605
0
LINE
8
Layer 1
10
172.912221
20
40.756605
11
173.677757
21
39.633490
0
LINE
8
Layer 1
10
173.677757
20
39.633490
11
174.503965
21
38.749589
0
LINE
8
Layer 1
10
174.503965
20
38.749589
11
175.163700
21
38.391310
0
LINE
8
Layer 1
10
175.163700
20
38.391310
11
175.439486
21
38.319329
0
LINE
8
Layer 1
10
175.439486
20
38.319329
11
175.554194
21
38.146256
0
LINE
8
Layer 1
10
175.554194
20
38.146256
11
176.047624
21
37.818632
0
LINE
8
Layer 1
10
176.047624
20
37.818632
11
177.333321
21
37.421644
0
LINE
8
Layer 1
10
177.333321
20
37.421644
11
181.113958
21
36.719256
0
LINE
8
Layer 1
10
181.113958
20
36.719256
11
183.539358
21
36.278372
0
LINE
8
Layer 1
10
183.539358
20
36.278372
11
185.158098
21
35.615788
0
LINE
8
Layer 1
10
185.158098
20
35.615788
11
185.696494
21
35.181300
0
LINE
8
Layer 1
10
185.696494
20
35.181300
11
186.071050
21
34.667317
0
LINE
8
Layer 1
10
186.071050
20
34.667317
11
186.294378
21
34.065815
0
LINE
8
Layer 1
10
186.294378
20
34.065815
11
186.379084
21
33.368770
0
LINE
8
Layer 1
10
186.379084
20
33.368770
11
186.253112
21
32.369298
0
LINE
8
Layer 1
10
186.253112
20
32.369298
11
185.897799
21
31.502096
0
LINE
8
Layer 1
10
185.897799
20
31.502096
11
185.240971
21
30.832996
0
LINE
8
Layer 1
10
185.240971
20
30.832996
11
184.279569
21
30.240259
0
LINE
8
Layer 1
10
184.279569
20
30.240259
11
183.196716
21
29.815068
0
LINE
8
Layer 1
10
183.196716
20
29.815068
11
182.175534
21
29.648602
0
LINE
8
Layer 1
10
182.175534
20
29.648602
11
181.292477
21
29.798806
0
LINE
8
Layer 1
10
181.292477
20
29.798806
11
180.283601
21
30.183914
0
LINE
8
Layer 1
10
180.283601
20
30.183914
11
179.392715
21
30.689597
0
LINE
8
Layer 1
10
179.392715
20
30.689597
11
178.863628
21
31.201529
0
LINE
8
Layer 1
10
178.863628
20
31.201529
11
178.688338
21
31.365146
0
LINE
8
Layer 1
10
178.688338
20
31.365146
11
178.413917
21
31.304279
0
LINE
8
Layer 1
10
178.413917
20
31.304279
11
177.303026
21
30.367704
0
LINE
8
Layer 1
10
177.303026
20
30.367704
11
175.983477
21
29.103151
0
LINE
8
Layer 1
10
175.983477
20
29.103151
11
176.968280
21
28.068326
0
LINE
8
Layer 1
10
176.968280
20
28.068326
11
178.115478
21
27.043645
0
LINE
8
Layer 1
10
178.115478
20
27.043645
11
179.301791
21
26.399737
0
LINE
8
Layer 1
10
179.301791
20
26.399737
11
180.661160
21
26.086230
0
LINE
8
Layer 1
10
180.661160
20
26.086230
11
182.327527
21
26.052752
0
LINE
8
Layer 1
10
182.327527
20
26.052752
11
184.322260
21
26.300335
0
LINE
8
Layer 1
10
184.322260
20
26.300335
11
185.996416
21
26.930971
0
LINE
8
Layer 1
10
185.996416
20
26.930971
11
185.996416
21
26.930971
0
LINE
8
Layer 1
10
205.715853
20
39.342032
11
207.806652
21
40.407079
0
LINE
8
Layer 1
10
207.806652
20
40.407079
11
209.618278
21
41.787770
0
LINE
8
Layer 1
10
209.618278
20
41.787770
11
211.147549
21
43.481176
0
LINE
8
Layer 1
10
211.147549
20
43.481176
11
212.391284
21
45.484373
0
LINE
8
Layer 1
10
212.391284
20
45.484373
11
213.171469
21
47.312930
0
LINE
8
Layer 1
10
213.171469
20
47.312930
11
213.655678
21
49.146190
0
LINE
8
Layer 1
10
213.655678
20
49.146190
11
213.845837
21
50.970266
0
LINE
8
Layer 1
10
213.845837
20
50.970266
11
213.743870
21
52.771269
0
LINE
8
Layer 1
10
213.743870
20
52.771269
11
213.351703
21
54.535312
0
LINE
8
Layer 1
10
213.351703
20
54.535312
11
212.671259
21
56.248507
0
LINE
8
Layer 1
10
212.671259
20
56.248507
11
211.704464
21
57.896967
0
LINE
8
Layer 1
10
211.704464
20
57.896967
11
210.453244
21
59.466805
0
LINE
8
Layer 1
10
210.453244
20
59.466805
11
208.786676
21
60.965503
0
LINE
8
Layer 1
10
208.786676
20
60.965503
11
206.875562
21
62.096280
0
LINE
8
Layer 1
10
206.875562
20
62.096280
11
204.763789
21
62.838697
0
LINE
8
Layer 1
10
204.763789
20
62.838697
11
202.495246
21
63.172320
0
LINE
8
Layer 1
10
202.495246
20
63.172320
11
200.419534
21
63.164891
0
LINE
8
Layer 1
10
200.419534
20
63.164891
11
198.788000
21
62.961610
0
LINE
8
Layer 1
10
198.788000
20
62.961610
11
196.278233
21
62.068057
0
LINE
8
Layer 1
10
196.278233
20
62.068057
11
194.070172
21
60.761053
0
LINE
8
Layer 1
10
194.070172
20
60.761053
11
192.201092
21
59.100612
0
LINE
8
Layer 1
10
192.201092
20
59.100612
11
190.708269
21
57.146746
0
LINE
8
Layer 1
10
190.708269
20
57.146746
11
189.628976
21
54.959468
0
LINE
8
Layer 1
10
189.628976
20
54.959468
11
189.000490
21
52.598793
0
LINE
8
Layer 1
10
189.000490
20
52.598793
11
188.860084
21
50.124732
0
LINE
8
Layer 1
10
188.860084
20
50.124732
11
189.245034
21
47.597300
0
LINE
8
Layer 1
10
189.245034
20
47.597300
11
189.788237
21
46.013597
0
LINE
8
Layer 1
10
189.788237
20
46.013597
11
190.558131
21
44.511568
0
LINE
8
Layer 1
10
190.558131
20
44.511568
11
191.527732
21
43.117412
0
LINE
8
Layer 1
10
191.527732
20
43.117412
11
192.670059
21
41.857327
0
LINE
8
Layer 1
10
192.670059
20
41.857327
11
193.958129
21
40.757514
0
LINE
8
Layer 1
10
193.958129
20
40.757514
11
195.364960
21
39.844170
0
LINE
8
Layer 1
10
195.364960
20
39.844170
11
196.863571
21
39.143495
0
LINE
8
Layer 1
10
196.863571
20
39.143495
11
198.426979
21
38.681688
0
LINE
8
Layer 1
10
198.426979
20
38.681688
11
200.173879
21
38.482635
0
LINE
8
Layer 1
10
200.173879
20
38.482635
11
202.109177
21
38.538859
0
LINE
8
Layer 1
10
202.109177
20
38.538859
11
204.025595
21
38.831584
0
LINE
8
Layer 1
10
204.025595
20
38.831584
11
205.715853
21
39.342032
0
LINE
8
Layer 1
10
205.715853
20
39.342032
11
205.715853
21
39.342032
0
LINE
8
Layer 1
10
198.459104
20
42.864267
11
197.023357
21
43.601325
0
LINE
8
Layer 1
10
197.023357
20
43.601325
11
195.637315
21
44.714771
0
LINE
8
Layer 1
10
195.637315
20
44.714771
11
194.440386
21
46.071297
0
LINE
8
Layer 1
10
194.440386
20
46.071297
11
193.571975
21
47.537596
0
LINE
8
Layer 1
10
193.571975
20
47.537596
11
193.122485
21
49.037552
0
LINE
8
Layer 1
10
193.122485
20
49.037552
11
192.922143
21
50.788345
0
LINE
8
Layer 1
10
192.922143
20
50.788345
11
192.982345
21
52.507747
0
LINE
8
Layer 1
10
192.982345
20
52.507747
11
193.314489
21
53.913529
0
LINE
8
Layer 1
10
193.314489
20
53.913529
11
194.372296
21
55.855822
0
LINE
8
Layer 1
10
194.372296
20
55.855822
11
195.788762
21
57.413817
0
LINE
8
Layer 1
10
195.788762
20
57.413817
11
197.534829
21
58.562642
0
LINE
8
Layer 1
10
197.534829
20
58.562642
11
199.581437
21
59.277425
0
LINE
8
Layer 1
10
199.581437
20
59.277425
11
201.084937
21
59.449850
0
LINE
8
Layer 1
10
201.084937
20
59.449850
11
202.587145
21
59.315718
0
LINE
8
Layer 1
10
202.587145
20
59.315718
11
204.048368
21
58.898875
0
LINE
8
Layer 1
10
204.048368
20
58.898875
11
205.428911
21
58.223167
0
LINE
8
Layer 1
10
205.428911
20
58.223167
11
206.689082
21
57.312439
0
LINE
8
Layer 1
10
206.689082
20
57.312439
11
207.789189
21
56.190540
0
LINE
8
Layer 1
10
207.789189
20
56.190540
11
208.689536
21
54.881313
0
LINE
8
Layer 1
10
208.689536
20
54.881313
11
209.350432
21
53.408605
0
LINE
8
Layer 1
10
209.350432
20
53.408605
11
209.617887
21
52.322383
0
LINE
8
Layer 1
10
209.617887
20
52.322383
11
209.722210
21
51.153036
0
LINE
8
Layer 1
10
209.722210
20
51.153036
11
209.477243
21
48.727346
0
LINE
8
Layer 1
10
209.477243
20
48.727346
11
208.687102
21
46.456285
0
LINE
8
Layer 1
10
208.687102
20
46.456285
11
208.109958
21
45.480227
0
LINE
8
Layer 1
10
208.109958
20
45.480227
11
207.423360
21
44.664607
0
LINE
8
Layer 1
10
207.423360
20
44.664607
11
206.542681
21
43.938494
0
LINE
8
Layer 1
10
206.542681
20
43.938494
11
205.535871
21
43.343975
0
LINE
8
Layer 1
10
205.535871
20
43.343975
11
204.431731
21
42.886833
0
LINE
8
Layer 1
10
204.431731
20
42.886833
11
203.259061
21
42.572854
0
LINE
8
Layer 1
10
203.259061
20
42.572854
11
202.046663
21
42.407823
0
LINE
8
Layer 1
10
202.046663
20
42.407823
11
200.823337
21
42.397525
0
LINE
8
Layer 1
10
200.823337
20
42.397525
11
199.617884
21
42.547745
0
LINE
8
Layer 1
10
199.617884
20
42.547745
11
198.459104
21
42.864267
0
LINE
8
Layer 1
10
198.459104
20
42.864267
11
198.459104
21
42.864267
0
LINE
8
Layer 1
10
102.748791
20
48.090729
11
105.358801
21
51.538616
0
LINE
8
Layer 1
10
105.358801
20
51.538616
11
105.886932
21
51.914475
0
LINE
8
Layer 1
10
105.886932
20
51.914475
11
106.268639
21
51.781098
0
LINE
8
Layer 1
10
106.268639
20
51.781098
11
108.860192
21
50.044968
0
LINE
8
Layer 1
10
108.860192
20
50.044968
11
110.845685
21
48.931785
0
LINE
8
Layer 1
10
110.845685
20
48.931785
11
111.699445
21
48.664988
0
LINE
8
Layer 1
10
111.699445
20
48.664988
11
112.586637
21
48.556949
0
LINE
8
Layer 1
10
112.586637
20
48.556949
11
114.385781
21
48.794666
0
LINE
8
Layer 1
10
114.385781
20
48.794666
11
116.092061
21
49.599988
0
LINE
8
Layer 1
10
116.092061
20
49.599988
11
117.554417
21
50.927968
0
LINE
8
Layer 1
10
117.554417
20
50.927968
11
118.778167
21
52.811985
0
LINE
8
Layer 1
10
118.778167
20
52.811985
11
119.150574
21
53.748213
0
LINE
8
Layer 1
10
119.150574
20
53.748213
11
119.362339
21
54.673608
0
LINE
8
Layer 1
10
119.362339
20
54.673608
11
119.412712
21
55.582936
0
LINE
8
Layer 1
10
119.412712
20
55.582936
11
119.300948
21
56.470960
0
LINE
8
Layer 1
10
119.300948
20
56.470960
11
119.026296
21
57.332448
0
LINE
8
Layer 1
10
119.026296
20
57.332448
11
118.588011
21
58.162165
0
LINE
8
Layer 1
10
118.588011
20
58.162165
11
117.968405
21
59.072569
0
LINE
8
Layer 1
10
117.968405
20
59.072569
11
117.231531
21
59.845212
0
LINE
8
Layer 1
10
117.231531
20
59.845212
11
113.563191
21
62.607467
0
LINE
8
Layer 1
10
113.563191
20
62.607467
11
110.415522
21
64.889744
0
LINE
8
Layer 1
10
110.415522
20
64.889744
11
106.860199
21
60.036637
0
LINE
8
Layer 1
10
106.860199
20
60.036637
11
99.942489
21
50.532451
0
LINE
8
Layer 1
10
99.942489
20
50.532451
11
96.580099
21
45.881372
0
LINE
8
Layer 1
10
96.580099
20
45.881372
11
98.034625
21
44.842498
0
LINE
8
Layer 1
10
98.034625
20
44.842498
11
99.641271
21
43.897640
0
LINE
8
Layer 1
10
99.641271
20
43.897640
11
102.748791
21
48.090729
0
LINE
8
Layer 1
10
102.748791
20
48.090729
11
102.748791
21
48.090729
0
LINE
8
Layer 1
10
110.780014
20
52.819622
11
108.860918
21
53.990638
0
LINE
8
Layer 1
10
108.860918
20
53.990638
11
108.303617
21
54.453428
0
LINE
8
Layer 1
10
108.303617
20
54.453428
11
108.103083
21
54.769856
0
LINE
8
Layer 1
10
108.103083
20
54.769856
11
109.837528
21
57.408468
0
LINE
8
Layer 1
10
109.837528
20
57.408468
11
111.002871
21
58.943642
0
LINE
8
Layer 1
10
111.002871
20
58.943642
11
111.423423
21
59.342003
0
LINE
8
Layer 1
10
111.423423
20
59.342003
11
111.803320
21
59.501814
0
LINE
8
Layer 1
10
111.803320
20
59.501814
11
112.193128
21
59.428776
0
LINE
8
Layer 1
10
112.193128
20
59.428776
11
112.643414
21
59.128589
0
LINE
8
Layer 1
10
112.643414
20
59.128589
11
113.927692
21
57.869571
0
LINE
8
Layer 1
10
113.927692
20
57.869571
11
114.899968
21
56.673618
0
LINE
8
Layer 1
10
114.899968
20
56.673618
11
115.158639
21
55.668333
0
LINE
8
Layer 1
10
115.158639
20
55.668333
11
114.928332
21
54.403016
0
LINE
8
Layer 1
10
114.928332
20
54.403016
11
114.321360
21
53.298446
0
LINE
8
Layer 1
10
114.321360
20
53.298446
11
113.463645
21
52.516785
0
LINE
8
Layer 1
10
113.463645
20
52.516785
11
112.481106
21
52.220196
0
LINE
8
Layer 1
10
112.481106
20
52.220196
11
111.743654
21
52.396277
0
LINE
8
Layer 1
10
111.743654
20
52.396277
11
110.780014
21
52.819622
0
LINE
8
Layer 1
10
110.780014
20
52.819622
11
110.780014
21
52.819622
0
LINE
8
Layer 1
10
160.314194
20
54.066671
11
164.165512
21
54.850486
0
LINE
8
Layer 1
10
164.165512
20
54.850486
11
167.976651
21
55.961611
0
LINE
8
Layer 1
10
167.976651
20
55.961611
11
171.837116
21
57.430145
0
LINE
8
Layer 1
10
171.837116
20
57.430145
11
175.836416
21
59.286185
0
LINE
8
Layer 1
10
175.836416
20
59.286185
11
181.652865
21
62.501777
0
LINE
8
Layer 1
10
181.652865
20
62.501777
11
187.161594
21
66.138474
0
LINE
8
Layer 1
10
187.161594
20
66.138474
11
192.299817
21
70.151164
0
LINE
8
Layer 1
10
192.299817
20
70.151164
11
197.004745
21
74.494737
0
LINE
8
Layer 1
10
197.004745
20
74.494737
11
199.487245
21
77.109530
0
LINE
8
Layer 1
10
199.487245
20
77.109530
11
201.828438
21
79.819105
0
LINE
8
Layer 1
10
201.828438
20
79.819105
11
204.030505
21
82.628561
0
LINE
8
Layer 1
10
204.030505
20
82.628561
11
206.095630
21
85.542997
0
LINE
8
Layer 1
10
206.095630
20
85.542997
11
208.025992
21
88.567515
0
LINE
8
Layer 1
10
208.025992
20
88.567515
11
209.823775
21
91.707212
0
LINE
8
Layer 1
10
209.823775
20
91.707212
11
211.491158
21
94.967190
0
LINE
8
Layer 1
10
211.491158
20
94.967190
11
213.030325
21
98.352547
0
LINE
8
Layer 1
10
213.030325
20
98.352547
11
214.443456
21
101.868383
0
LINE
8
Layer 1
10
214.443456
20
101.868383
11
215.732733
21
105.519798
0
LINE
8
Layer 1
10
215.732733
20
105.519798
11
216.900337
21
109.311891
0
LINE
8
Layer 1
10
216.900337
20
109.311891
11
217.948451
21
113.249763
0
LINE
8
Layer 1
10
217.948451
20
113.249763
11
219.694934
21
121.583239
0
LINE
8
Layer 1
10
219.694934
20
121.583239
11
220.989632
21
130.561024
0
LINE
8
Layer 1
10
220.989632
20
130.561024
11
221.637111
21
138.076435
0
LINE
8
Layer 1
10
221.637111
20
138.076435
11
221.720760
21
144.701752
0
LINE
8
Layer 1
10
221.720760
20
144.701752
11
221.548928
21
147.749861
0
LINE
8
Layer 1
10
221.548928
20
147.749861
11
221.233473
21
150.658530
0
LINE
8
Layer 1
10
221.233473
20
150.658530
11
220.773508
21
153.455453
0
LINE
8
Layer 1
10
220.773508
20
153.455453
11
220.168143
21
156.168324
0
LINE
8
Layer 1
10
220.168143
20
156.168324
11
218.588784
21
161.246880
0
LINE
8
Layer 1
10
218.588784
20
161.246880
11
217.822174
21
163.198661
0
LINE
8
Layer 1
10
217.822174
20
163.198661
11
217.353758
21
163.974357
0
LINE
8
Layer 1
10
217.353758
20
163.974357
11
216.204478
21
161.973841
0
LINE
8
Layer 1
10
216.204478
20
161.973841
11
215.427077
21
160.584975
0
LINE
8
Layer 1
10
215.427077
20
160.584975
11
214.496207
21
159.256537
0
LINE
8
Layer 1
10
214.496207
20
159.256537
11
212.286217
21
156.881397
0
LINE
8
Layer 1
10
212.286217
20
156.881397
11
211.063174
21
155.884920
0
LINE
8
Layer 1
10
211.063174
20
155.884920
11
209.798816
21
155.049322
0
LINE
8
Layer 1
10
209.798816
20
155.049322
11
208.521182
21
154.399716
0
LINE
8
Layer 1
10
208.521182
20
154.399716
11
207.258310
21
153.961214
0
LINE
8
Layer 1
10
207.258310
20
153.961214
11
205.932611
21
153.692150
0
LINE
8
Layer 1
10
205.932611
20
153.692150
11
204.649168
21
153.581889
0
LINE
8
Layer 1
10
204.649168
20
153.581889
11
203.413955
21
153.624970
0
LINE
8
Layer 1
10
203.413955
20
153.624970
11
202.232946
21
153.815934
0
LINE
8
Layer 1
10
202.232946
20
153.815934
11
201.112116
21
154.149320
0
LINE
8
Layer 1
10
201.112116
20
154.149320
11
200.057440
21
154.619667
0
LINE
8
Layer 1
10
200.057440
20
154.619667
11
198.170444
21
155.949407
0
LINE
8
Layer 1
10
198.170444
20
155.949407
11
196.619754
21
157.761473
0
LINE
8
Layer 1
10
196.619754
20
157.761473
11
195.453164
21
160.012182
0
LINE
8
Layer 1
10
195.453164
20
160.012182
11
194.718471
21
162.657854
0
LINE
8
Layer 1
10
194.718471
20
162.657854
11
194.463470
21
165.654807
0
LINE
8
Layer 1
10
194.463470
20
165.654807
11
194.851282
21
169.284693
0
LINE
8
Layer 1
10
194.851282
20
169.284693
11
195.728951
21
173.146390
0
LINE
8
Layer 1
10
195.728951
20
173.146390
11
196.694320
21
175.595498
0
LINE
8
Layer 1
10
196.694320
20
175.595498
11
198.326258
21
178.916190
0
LINE
8
Layer 1
10
198.326258
20
178.916190
11
200.605298
21
183.071258
0
LINE
8
Layer 1
10
200.605298
20
183.071258
11
203.511974
21
188.023492
0
LINE
8
Layer 1
10
203.511974
20
188.023492
11
207.931605
21
195.384025
0
LINE
8
Layer 1
10
207.931605
20
195.384025
11
205.982311
21
196.538849
0
LINE
8
Layer 1
10
205.982311
20
196.538849
11
203.637492
21
197.564640
0
LINE
8
Layer 1
10
203.637492
20
197.564640
11
200.222492
21
192.627508
0
LINE
8
Layer 1
10
200.222492
20
192.627508
11
195.353827
21
185.147915
0
LINE
8
Layer 1
10
195.353827
20
185.147915
11
193.591841
21
182.120289
0
LINE
8
Layer 1
10
193.591841
20
182.120289
11
192.104489
21
179.172746
0
LINE
8
Layer 1
10
192.104489
20
179.172746
11
190.894312
21
176.314012
0
LINE
8
Layer 1
10
190.894312
20
176.314012
11
189.963856
21
173.552813
0
LINE
8
Layer 1
10
189.963856
20
173.552813
11
189.315663
21
170.897878
0
LINE
8
Layer 1
10
189.315663
20
170.897878
11
188.952277
21
168.357931
0
LINE
8
Layer 1
10
188.952277
20
168.357931
11
188.876241
21
165.941699
0
LINE
8
Layer 1
10
188.876241
20
165.941699
11
189.090100
21
163.657909
0
LINE
8
Layer 1
10
189.090100
20
163.657909
11
189.502305
21
161.734973
0
LINE
8
Layer 1
10
189.502305
20
161.734973
11
190.103888
21
159.802699
0
LINE
8
Layer 1
10
190.103888
20
159.802699
11
190.869323
21
157.907520
0
LINE
8
Layer 1
10
190.869323
20
157.907520
11
191.773086
21
156.095871
0
LINE
8
Layer 1
10
191.773086
20
156.095871
11
192.789651
21
154.414185
0
LINE
8
Layer 1
10
192.789651
20
154.414185
11
193.893493
21
152.908896
0
LINE
8
Layer 1
10
193.893493
20
152.908896
11
195.059088
21
151.626438
0
LINE
8
Layer 1
10
195.059088
20
151.626438
11
196.260909
21
150.613245
0
LINE
8
Layer 1
10
196.260909
20
150.613245
11
198.041155
21
149.446482
0
LINE
8
Layer 1
10
198.041155
20
149.446482
11
199.792732
21
148.495073
0
LINE
8
Layer 1
10
199.792732
20
148.495073
11
201.461257
21
147.785434
0
LINE
8
Layer 1
10
201.461257
20
147.785434
11
202.992347
21
147.343975
0
LINE
8
Layer 1
10
202.992347
20
147.343975
11
204.610220
21
147.155175
0
LINE
8
Layer 1
10
204.610220
20
147.155175
11
206.237902
21
147.432127
0
LINE
8
Layer 1
10
206.237902
20
147.432127
11
207.845569
21
147.901726
0
LINE
8
Layer 1
10
207.845569
20
147.901726
11
209.183468
21
148.456123
0
LINE
8
Layer 1
10
209.183468
20
148.456123
11
210.551327
21
149.244005
0
LINE
8
Layer 1
10
210.551327
20
149.244005
11
212.248871
21
150.414061
0
LINE
8
Layer 1
10
212.248871
20
150.414061
11
214.386934
21
151.890511
0
LINE
8
Layer 1
10
214.386934
20
151.890511
11
215.016897
21
152.056474
0
LINE
8
Layer 1
10
215.016897
20
152.056474
11
215.420067
21
151.700628
0
LINE
8
Layer 1
10
215.420067
20
151.700628
11
215.645881
21
150.717747
0
LINE
8
Layer 1
10
215.645881
20
150.717747
11
215.743781
21
149.002606
0
LINE
8
Layer 1
10
215.743781
20
149.002606
11
215.753589
21
142.954640
0
LINE
8
Layer 1
10
215.753589
20
142.954640
11
215.629108
21
135.562696
0
LINE
8
Layer 1
10
215.629108
20
135.562696
11
215.247383
21
129.285025
0
LINE
8
Layer 1
10
215.247383
20
129.285025
11
214.549111
21
123.456885
0
LINE
8
Layer 1
10
214.549111
20
123.456885
11
213.474986
21
117.413529
0
LINE
8
Layer 1
10
213.474986
20
117.413529
11
211.849084
21
110.597509
0
LINE
8
Layer 1
10
211.849084
20
110.597509
11
209.786544
21
104.149946
0
LINE
8
Layer 1
10
209.786544
20
104.149946
11
207.285065
21
98.066808
0
LINE
8
Layer 1
10
207.285065
20
98.066808
11
204.342348
21
92.344066
0
LINE
8
Layer 1
10
204.342348
20
92.344066
11
200.956091
21
86.977688
0
LINE
8
Layer 1
10
200.956091
20
86.977688
11
197.123995
21
81.963645
0
LINE
8
Layer 1
10
197.123995
20
81.963645
11
192.843759
21
77.297906
0
LINE
8
Layer 1
10
192.843759
20
77.297906
11
188.113083
21
72.976441
0
LINE
8
Layer 1
10
188.113083
20
72.976441
11
183.077000
21
69.157540
0
LINE
8
Layer 1
10
183.077000
20
69.157540
11
177.586713
21
65.702868
0
LINE
8
Layer 1
10
177.586713
20
65.702868
11
171.936417
21
62.780818
0
LINE
8
Layer 1
10
171.936417
20
62.780818
11
169.143202
21
61.572149
0
LINE
8
Layer 1
10
169.143202
20
61.572149
11
166.420306
21
60.559783
0
LINE
8
Layer 1
10
166.420306
20
60.559783
11
163.173354
21
59.550690
0
LINE
8
Layer 1
10
163.173354
20
59.550690
11
160.372512
21
58.946411
0
LINE
8
Layer 1
10
160.372512
20
58.946411
11
157.446261
21
58.657850
0
LINE
8
Layer 1
10
157.446261
20
58.657850
11
153.823083
21
58.595906
0
LINE
8
Layer 1
10
153.823083
20
58.595906
11
149.146041
21
58.749746
0
LINE
8
Layer 1
10
149.146041
20
58.749746
11
147.538830
21
59.009822
0
LINE
8
Layer 1
10
147.538830
20
59.009822
11
145.638639
21
59.475926
0
LINE
8
Layer 1
10
145.638639
20
59.475926
11
142.901590
21
60.257455
0
LINE
8
Layer 1
10
142.901590
20
60.257455
11
140.460426
21
61.116393
0
LINE
8
Layer 1
10
140.460426
20
61.116393
11
137.927257
21
62.204575
0
LINE
8
Layer 1
10
137.927257
20
62.204575
11
134.914194
21
63.673832
0
LINE
8
Layer 1
10
134.914194
20
63.673832
11
129.840952
21
66.478740
0
LINE
8
Layer 1
10
129.840952
20
66.478740
11
125.337794
21
69.546133
0
LINE
8
Layer 1
10
125.337794
20
69.546133
11
120.977493
21
73.199984
0
LINE
8
Layer 1
10
120.977493
20
73.199984
11
116.332818
21
77.764265
0
LINE
8
Layer 1
10
116.332818
20
77.764265
11
111.861447
21
82.747978
0
LINE
8
Layer 1
10
111.861447
20
82.747978
11
107.872804
21
87.899579
0
LINE
8
Layer 1
10
107.872804
20
87.899579
11
104.359185
21
93.234500
0
LINE
8
Layer 1
10
104.359185
20
93.234500
11
101.312882
21
98.768175
0
LINE
8
Layer 1
10
101.312882
20
98.768175
11
98.726189
21
104.516037
0
LINE
8
Layer 1
10
98.726189
20
104.516037
11
96.591401
21
110.493521
0
LINE
8
Layer 1
10
96.591401
20
110.493521
11
94.900811
21
116.716059
0
LINE
8
Layer 1
10
94.900811
20
116.716059
11
93.646712
21
123.199085
0
LINE
8
Layer 1
10
93.646712
20
123.199085
11
93.272616
21
126.611212
0
LINE
8
Layer 1
10
93.272616
20
126.611212
11
93.061336
21
130.757705
0
LINE
8
Layer 1
10
93.061336
20
130.757705
11
93.081165
21
139.846205
0
LINE
8
Layer 1
10
93.081165
20
139.846205
11
93.289244
21
144.084424
0
LINE
8
Layer 1
10
93.289244
20
144.084424
11
93.614080
21
147.649430
0
LINE
8
Layer 1
10
93.614080
20
147.649430
11
94.044158
21
150.189328
0
LINE
8
Layer 1
10
94.044158
20
150.189328
11
94.295064
21
150.964895
0
LINE
8
Layer 1
10
94.295064
20
150.964895
11
94.567962
21
151.352225
0
LINE
8
Layer 1
10
94.567962
20
151.352225
11
94.901611
21
151.407067
0
LINE
8
Layer 1
10
94.901611
20
151.407067
11
95.459801
21
151.248634
0
LINE
8
Layer 1
10
95.459801
20
151.248634
11
97.507391
21
150.190110
0
LINE
8
Layer 1
10
97.507391
20
150.190110
11
100.383569
21
148.633831
0
LINE
8
Layer 1
10
100.383569
20
148.633831
11
102.679851
21
147.631836
0
LINE
8
Layer 1
10
102.679851
20
147.631836
11
104.650770
21
147.092167
0
LINE
8
Layer 1
10
104.650770
20
147.092167
11
106.550861
21
146.922863
0
LINE
8
Layer 1
10
106.550861
20
146.922863
11
107.846941
21
146.941051
0
LINE
8
Layer 1
10
107.846941
20
146.941051
11
108.781188
21
147.076041
0
LINE
8
Layer 1
10
108.781188
20
147.076041
11
109.682978
21
147.412386
0
LINE
8
Layer 1
10
109.682978
20
147.412386
11
110.881688
21
148.034640
0
LINE
8
Layer 1
10
110.881688
20
148.034640
11
112.304977
21
148.895821
0
LINE
8
Layer 1
10
112.304977
20
148.895821
11
113.609380
21
149.864937
0
LINE
8
Layer 1
10
113.609380
20
149.864937
11
114.795840
21
150.943149
0
LINE
8
Layer 1
10
114.795840
20
150.943149
11
115.865298
21
152.131615
0
LINE
8
Layer 1
10
115.865298
20
152.131615
11
116.818699
21
153.431497
0
LINE
8
Layer 1
10
116.818699
20
153.431497
11
117.656984
21
154.843952
0
LINE
8
Layer 1
10
117.656984
20
154.843952
11
118.991978
21
158.011224
0
LINE
8
Layer 1
10
118.991978
20
158.011224
11
119.731614
21
160.801467
0
LINE
8
Layer 1
10
119.731614
20
160.801467
11
120.129731
21
163.620055
0
LINE
8
Layer 1
10
120.129731
20
163.620055
11
120.182229
21
166.492980
0
LINE
8
Layer 1
10
120.182229
20
166.492980
11
119.885011
21
169.446234
0
LINE
8
Layer 1
10
119.885011
20
169.446234
11
119.233975
21
172.505809
0
LINE
8
Layer 1
10
119.233975
20
172.505809
11
118.225025
21
175.697698
0
LINE
8
Layer 1
10
118.225025
20
175.697698
11
116.854059
21
179.047893
0
LINE
8
Layer 1
10
116.854059
20
179.047893
11
115.116980
21
182.582385
0
LINE
8
Layer 1
10
115.116980
20
182.582385
11
110.556528
21
190.338213
0
LINE
8
Layer 1
10
110.556528
20
190.338213
11
106.247633
21
197.233825
0
LINE
8
Layer 1
10
106.247633
20
197.233825
11
103.620338
21
196.136168
0
LINE
8
Layer 1
10
103.620338
20
196.136168
11
101.047527
21
194.869624
0
LINE
8
Layer 1
10
101.047527
20
194.869624
11
104.890085
21
188.816618
0
LINE
8
Layer 1
10
104.890085
20
188.816618
11
107.817122
21
184.099244
0
LINE
8
Layer 1
10
107.817122
20
184.099244
11
110.268668
21
179.808826
0
LINE
8
Layer 1
10
110.268668
20
179.808826
11
112.184201
21
176.056821
0
LINE
8
Layer 1
10
112.184201
20
176.056821
11
113.503199
21
172.954688
0
LINE
8
Layer 1
10
113.503199
20
172.954688
11
114.230488
21
170.395308
0
LINE
8
Layer 1
10
114.230488
20
170.395308
11
114.514799
21
167.084640
0
LINE
8
Layer 1
10
114.514799
20
167.084640
11
114.544908
21
164.207505
0
LINE
8
Layer 1
10
114.544908
20
164.207505
11
114.346554
21
161.785325
0
LINE
8
Layer 1
10
114.346554
20
161.785325
11
113.904196
21
159.708980
0
LINE
8
Layer 1
10
113.904196
20
159.708980
11
113.202291
21
157.869351
0
LINE
8
Layer 1
10
113.202291
20
157.869351
11
112.032769
21
155.918416
0
LINE
8
Layer 1
10
112.032769
20
155.918416
11
110.623988
21
154.436494
0
LINE
8
Layer 1
10
110.623988
20
154.436494
11
109.006220
21
153.428252
0
LINE
8
Layer 1
10
109.006220
20
153.428252
11
107.209736
21
152.898356
0
LINE
8
Layer 1
10
107.209736
20
152.898356
11
105.264807
21
152.851472
0
LINE
8
Layer 1
10
105.264807
20
152.851472
11
103.201704
21
153.292267
0
LINE
8
Layer 1
10
103.201704
20
153.292267
11
101.050698
21
154.225408
0
LINE
8
Layer 1
10
101.050698
20
154.225408
11
98.842060
21
155.655560
0
LINE
8
Layer 1
10
98.842060
20
155.655560
11
97.345597
21
156.953429
0
LINE
8
Layer 1
10
97.345597
20
156.953429
11
95.807979
21
158.590666
0
LINE
8
Layer 1
10
95.807979
20
158.590666
11
94.339136
21
160.439793
0
LINE
8
Layer 1
10
94.339136
20
160.439793
11
93.048994
21
162.373335
0
LINE
8
Layer 1
10
93.048994
20
162.373335
11
92.081655
21
163.979764
0
LINE
8
Layer 1
10
92.081655
20
163.979764
11
91.380268
21
162.074981
0
LINE
8
Layer 1
10
91.380268
20
162.074981
11
90.331161
21
158.817460
0
LINE
8
Layer 1
10
90.331161
20
158.817460
11
89.387708
21
155.101935
0
LINE
8
Layer 1
10
89.387708
20
155.101935
11
88.612862
21
151.207218
0
LINE
8
Layer 1
10
88.612862
20
151.207218
11
88.069575
21
147.412123
0
LINE
8
Layer 1
10
88.069575
20
147.412123
11
87.832735
21
143.049350
0
LINE
8
Layer 1
10
87.832735
20
143.049350
11
87.777053
21
136.985426
0
LINE
8
Layer 1
10
87.777053
20
136.985426
11
87.894268
21
130.857702
0
LINE
8
Layer 1
10
87.894268
20
130.857702
11
88.176114
21
126.303529
0
LINE
8
Layer 1
10
88.176114
20
126.303529
11
89.341534
21
118.324724
0
LINE
8
Layer 1
10
89.341534
20
118.324724
11
90.104252
21
114.617238
0
LINE
8
Layer 1
10
90.104252
20
114.617238
11
91.000298
21
111.049286
0
LINE
8
Layer 1
10
91.000298
20
111.049286
11
92.039663
21
107.584564
0
LINE
8
Layer 1
10
92.039663
20
107.584564
11
93.232339
21
104.186765
0
LINE
8
Layer 1
10
93.232339
20
104.186765
11
94.588316
21
100.819583
0
LINE
8
Layer 1
10
94.588316
20
100.819583
11
96.117588
21
97.446711
0
LINE
8
Layer 1
10
96.117588
20
97.446711
11
98.227710
21
93.328215
0
LINE
8
Layer 1
10
98.227710
20
93.328215
11
100.558576
21
89.349655
0
LINE
8
Layer 1
10
100.558576
20
89.349655
11
103.126580
21
85.490391
0
LINE
8
Layer 1
10
103.126580
20
85.490391
11
105.948119
21
81.729786
0
LINE
8
Layer 1
10
105.948119
20
81.729786
11
109.039588
21
78.047201
0
LINE
8
Layer 1
10
109.039588
20
78.047201
11
112.417382
21
74.421997
0
LINE
8
Layer 1
10
112.417382
20
74.421997
11
116.097897
21
70.833538
0
LINE
8
Layer 1
10
116.097897
20
70.833538
11
120.097527
21
67.261184
0
LINE
8
Layer 1
10
120.097527
20
67.261184
11
122.532080
21
65.332647
0
LINE
8
Layer 1
10
122.532080
20
65.332647
11
125.299458
21
63.416656
0
LINE
8
Layer 1
10
125.299458
20
63.416656
11
128.308788
21
61.560792
0
LINE
8
Layer 1
10
128.308788
20
61.560792
11
131.469197
21
59.812635
0
LINE
8
Layer 1
10
131.469197
20
59.812635
11
134.689815
21
58.219763
0
LINE
8
Layer 1
10
134.689815
20
58.219763
11
137.879769
21
56.829756
0
LINE
8
Layer 1
10
137.879769
20
56.829756
11
140.948186
21
55.690195
0
LINE
8
Layer 1
10
140.948186
20
55.690195
11
143.804194
21
54.848658
0
LINE
8
Layer 1
10
143.804194
20
54.848658
11
147.806177
21
54.096087
0
LINE
8
Layer 1
10
147.806177
20
54.096087
11
152.125607
21
53.703826
0
LINE
8
Layer 1
10
152.125607
20
53.703826
11
156.411830
21
53.688484
0
LINE
8
Layer 1
10
156.411830
20
53.688484
11
160.314194
21
54.066671
0
LINE
8
Layer 1
10
160.314194
20
54.066671
11
160.314194
21
54.066671
0
LINE
8
Layer 1
10
91.127179
20
65.985847
11
91.867180
21
65.468436
0
LINE
8
Layer 1
10
91.867180
20
65.468436
11
93.326732
21
64.115089
0
LINE
8
Layer 1
10
93.326732
20
64.115089
11
95.262406
21
62.375283
0
LINE
8
Layer 1
10
95.262406
20
62.375283
11
96.864444
21
61.402433
0
LINE
8
Layer 1
10
96.864444
20
61.402433
11
97.614460
21
61.173183
0
LINE
8
Layer 1
10
97.614460
20
61.173183
11
98.370002
21
61.099151
0
LINE
8
Layer 1
10
98.370002
20
61.099151
11
100.016237
21
61.368048
0
LINE
8
Layer 1
10
100.016237
20
61.368048
11
101.851830
21
62.166157
0
LINE
8
Layer 1
10
101.851830
20
62.166157
11
103.395186
21
63.369606
0
LINE
8
Layer 1
10
103.395186
20
63.369606
11
104.567619
21
64.899210
0
LINE
8
Layer 1
10
104.567619
20
64.899210
11
105.290445
21
66.675785
0
LINE
8
Layer 1
10
105.290445
20
66.675785
11
105.436498
21
67.521914
0
LINE
8
Layer 1
10
105.436498
20
67.521914
11
105.419878
21
68.347851
0
LINE
8
Layer 1
10
105.419878
20
68.347851
11
105.216381
21
69.197934
0
LINE
8
Layer 1
10
105.216381
20
69.197934
11
104.801804
21
70.116502
0
LINE
8
Layer 1
10
104.801804
20
70.116502
11
103.242591
21
72.336452
0
LINE
8
Layer 1
10
103.242591
20
72.336452
11
100.548609
21
75.362418
0
LINE
8
Layer 1
10
100.548609
20
75.362418
11
98.299380
21
77.761307
0
LINE
8
Layer 1
10
98.299380
20
77.761307
11
96.915139
21
76.491307
0
LINE
8
Layer 1
10
96.915139
20
76.491307
11
88.308163
21
68.490674
0
LINE
8
Layer 1
10
88.308163
20
68.490674
11
81.085430
21
61.760041
0
LINE
8
Layer 1
10
81.085430
20
61.760041
11
82.350178
21
60.387044
0
LINE
8
Layer 1
10
82.350178
20
60.387044
11
83.614923
21
59.014047
0
LINE
8
Layer 1
10
83.614923
20
59.014047
11
87.257255
21
62.461010
0
LINE
8
Layer 1
10
87.257255
20
62.461010
11
91.127179
21
65.985847
0
LINE
8
Layer 1
10
91.127179
20
65.985847
11
91.127179
21
65.985847
0
LINE
8
Layer 1
10
96.955305
20
65.440560
11
95.069856
21
67.009699
0
LINE
8
Layer 1
10
95.069856
20
67.009699
11
94.311945
21
67.833450
0
LINE
8
Layer 1
10
94.311945
20
67.833450
11
94.051944
21
68.312657
0
LINE
8
Layer 1
10
94.051944
20
68.312657
11
96.300538
21
70.541047
0
LINE
8
Layer 1
10
96.300538
20
70.541047
11
98.467991
21
72.559031
0
LINE
8
Layer 1
10
98.467991
20
72.559031
11
99.088239
21
71.914614
0
LINE
8
Layer 1
10
99.088239
20
71.914614
11
99.917192
21
70.913045
0
LINE
8
Layer 1
10
99.917192
20
70.913045
11
100.634521
21
69.796445
0
LINE
8
Layer 1
10
100.634521
20
69.796445
11
101.139086
21
68.744321
0
LINE
8
Layer 1
10
101.139086
20
68.744321
11
101.329750
21
67.936183
0
LINE
8
Layer 1
10
101.329750
20
67.936183
11
101.071697
21
67.047727
0
LINE
8
Layer 1
10
101.071697
20
67.047727
11
100.234064
21
66.015881
0
LINE
8
Layer 1
10
100.234064
20
66.015881
11
99.384579
21
65.297439
0
LINE
8
Layer 1
10
99.384579
20
65.297439
11
98.616283
21
64.972832
0
LINE
8
Layer 1
10
98.616283
20
64.972832
11
97.837188
21
65.025919
0
LINE
8
Layer 1
10
97.837188
20
65.025919
11
96.955305
21
65.440560
0
LINE
8
Layer 1
10
96.955305
20
65.440560
11
96.955305
21
65.440560
0
LINE
8
Layer 1
10
161.412778
20
60.725177
11
164.173127
21
61.415919
0
LINE
8
Layer 1
10
164.173127
20
61.415919
11
166.871390
21
62.298392
0
LINE
8
Layer 1
10
166.871390
20
62.298392
11
169.705422
21
63.445172
0
LINE
8
Layer 1
10
169.705422
20
63.445172
11
172.873083
21
64.928832
0
LINE
8
Layer 1
10
172.873083
20
64.928832
11
178.706611
21
68.119414
0
LINE
8
Layer 1
10
178.706611
20
68.119414
11
183.609259
21
71.270196
0
LINE
8
Layer 1
10
183.609259
20
71.270196
11
187.012158
21
73.973354
0
LINE
8
Layer 1
10
187.012158
20
73.973354
11
190.382726
21
76.983400
0
LINE
8
Layer 1
10
190.382726
20
76.983400
11
193.554814
21
80.143639
0
LINE
8
Layer 1
10
193.554814
20
80.143639
11
196.362275
21
83.297381
0
LINE
8
Layer 1
10
196.362275
20
83.297381
11
198.725163
21
86.345316
0
LINE
8
Layer 1
10
198.725163
20
86.345316
11
200.963510
21
89.640012
0
LINE
8
Layer 1
10
200.963510
20
89.640012
11
203.072067
21
93.173228
0
LINE
8
Layer 1
10
203.072067
20
93.173228
11
205.045589
21
96.936721
0
LINE
8
Layer 1
10
205.045589
20
96.936721
11
206.753231
21
100.624434
0
LINE
8
Layer 1
10
206.753231
20
100.624434
11
208.265372
21
104.349748
0
LINE
8
Layer 1
10
208.265372
20
104.349748
11
209.592176
21
108.150585
0
LINE
8
Layer 1
10
209.592176
20
108.150585
11
210.743802
21
112.064868
0
LINE
8
Layer 1
10
210.743802
20
112.064868
11
211.730412
21
116.130520
0
LINE
8
Layer 1
10
211.730412
20
116.130520
11
212.562168
21
120.385463
0
LINE
8
Layer 1
10
212.562168
20
120.385463
11
213.249231
21
124.867619
0
LINE
8
Layer 1
10
213.249231
20
124.867619
11
213.801762
21
129.614910
0
LINE
8
Layer 1
10
213.801762
20
129.614910
11
214.153700
21
134.798026
0
LINE
8
Layer 1
10
214.153700
20
134.798026
11
214.396183
21
141.196428
0
LINE
8
Layer 1
10
214.396183
20
141.196428
11
214.473847
21
146.744212
0
LINE
8
Layer 1
10
214.473847
20
146.744212
11
214.331327
21
149.375475
0
LINE
8
Layer 1
10
214.331327
20
149.375475
11
214.140362
21
149.573687
0
LINE
8
Layer 1
10
214.140362
20
149.573687
11
213.825054
21
149.552450
0
LINE
8
Layer 1
10
213.825054
20
149.552450
11
212.383932
21
148.699858
0
LINE
8
Layer 1
10
212.383932
20
148.699858
11
210.179260
21
147.371792
0
LINE
8
Layer 1
10
210.179260
20
147.371792
11
208.104946
21
146.440267
0
LINE
8
Layer 1
10
208.104946
20
146.440267
11
206.112743
21
145.906932
0
LINE
8
Layer 1
10
206.112743
20
145.906932
11
204.154403
21
145.773438
0
LINE
8
Layer 1
10
204.154403
20
145.773438
11
202.181681
21
146.041437
0
LINE
8
Layer 1
10
202.181681
20
146.041437
11
200.146329
21
146.712579
0
LINE
8
Layer 1
10
200.146329
20
146.712579
11
198.000100
21
147.788515
0
LINE
8
Layer 1
10
198.000100
20
147.788515
11
195.694749
21
149.270895
0
LINE
8
Layer 1
10
195.694749
20
149.270895
11
193.596470
21
151.056957
0
LINE
8
Layer 1
10
193.596470
20
151.056957
11
191.744173
21
153.301541
0
LINE
8
Layer 1
10
191.744173
20
153.301541
11
190.124935
21
156.023133
0
LINE
8
Layer 1
10
190.124935
20
156.023133
11
188.725833
21
159.240220
0
LINE
8
Layer 1
10
188.725833
20
159.240220
11
188.120270
21
161.155739
0
LINE
8
Layer 1
10
188.120270
20
161.155739
11
187.706255
21
163.134910
0
LINE
8
Layer 1
10
187.706255
20
163.134910
11
187.483663
21
165.173610
0
LINE
8
Layer 1
10
187.483663
20
165.173610
11
187.452369
21
167.267716
0
LINE
8
Layer 1
10
187.452369
20
167.267716
11
187.612249
21
169.413107
0
LINE
8
Layer 1
10
187.612249
20
169.413107
11
187.963176
21
171.605658
0
LINE
8
Layer 1
10
187.963176
20
171.605658
11
188.505026
21
173.841247
0
LINE
8
Layer 1
10
188.505026
20
173.841247
11
189.237674
21
176.115751
0
LINE
8
Layer 1
10
189.237674
20
176.115751
11
190.501266
21
179.252698
0
LINE
8
Layer 1
10
190.501266
20
179.252698
11
192.142316
21
182.490298
0
LINE
8
Layer 1
10
192.142316
20
182.490298
11
194.502001
21
186.441609
0
LINE
8
Layer 1
10
194.502001
20
186.441609
11
197.921499
21
191.719694
0
LINE
8
Layer 1
10
197.921499
20
191.719694
11
200.873769
21
196.361984
0
LINE
8
Layer 1
10
200.873769
20
196.361984
11
201.916696
21
198.375837
0
LINE
8
Layer 1
10
201.916696
20
198.375837
11
182.750861
21
207.161497
0
LINE
8
Layer 1
10
182.750861
20
207.161497
11
163.633686
21
215.830472
0
LINE
8
Layer 1
10
163.633686
20
215.830472
11
163.540172
21
210.813679
0
LINE
8
Layer 1
10
163.540172
20
210.813679
11
163.570588
21
199.020671
0
LINE
8
Layer 1
10
163.570588
20
199.020671
11
163.878012
21
175.680144
0
LINE
8
Layer 1
10
163.878012
20
175.680144
11
164.039680
21
170.587870
0
LINE
8
Layer 1
10
164.039680
20
170.587870
11
167.891937
21
170.930976
0
LINE
8
Layer 1
10
167.891937
20
170.930976
11
175.604188
21
171.940106
0
LINE
8
Layer 1
10
175.604188
20
171.940106
11
182.926417
21
173.376336
0
LINE
8
Layer 1
10
182.926417
20
173.376336
11
185.118576
21
173.825479
0
LINE
8
Layer 1
10
185.118576
20
173.825479
11
185.705547
21
173.845962
0
LINE
8
Layer 1
10
185.705547
20
173.845962
11
186.030862
21
173.739480
0
LINE
8
Layer 1
10
186.030862
20
173.739480
11
186.223028
21
173.211925
0
LINE
8
Layer 1
10
186.223028
20
173.211925
11
186.329884
21
171.731479
0
LINE
8
Layer 1
10
186.329884
20
171.731479
11
186.341382
21
164.274246
0
LINE
8
Layer 1
10
186.341382
20
164.274246
11
186.208220
21
157.448112
0
LINE
8
Layer 1
10
186.208220
20
157.448112
11
185.973816
21
154.935115
0
LINE
8
Layer 1
10
185.973816
20
154.935115
11
184.924158
21
155.001384
0
LINE
8
Layer 1
10
184.924158
20
155.001384
11
182.806628
21
155.411701
0
LINE
8
Layer 1
10
182.806628
20
155.411701
11
175.413997
21
156.739873
0
LINE
8
Layer 1
10
175.413997
20
156.739873
11
168.100338
21
157.668259
0
LINE
8
Layer 1
10
168.100338
20
157.668259
11
165.644141
21
157.857060
0
LINE
8
Layer 1
10
165.644141
20
157.857060
11
165.799239
21
157.179182
0
LINE
8
Layer 1
10
165.799239
20
157.179182
11
166.452010
21
153.970939
0
LINE
8
Layer 1
10
166.452010
20
153.970939
11
167.193166
21
149.287885
0
LINE
8
Layer 1
10
167.193166
20
149.287885
11
168.262362
21
141.120196
0
LINE
8
Layer 1
10
168.262362
20
141.120196
11
168.539436
21
136.086396
0
LINE
8
Layer 1
10
168.539436
20
136.086396
11
168.634937
21
129.203130
0
LINE
8
Layer 1
10
168.634937
20
129.203130
11
168.547644
21
122.492842
0
LINE
8
Layer 1
10
168.547644
20
122.492842
11
168.276335
21
117.977974
0
LINE
8
Layer 1
10
168.276335
20
117.977974
11
167.527114
21
112.985319
0
LINE
8
Layer 1
10
167.527114
20
112.985319
11
166.655409
21
108.476086
0
LINE
8
Layer 1
10
166.655409
20
108.476086
11
165.614709
21
104.237519
0
LINE
8
Layer 1
10
165.614709
20
104.237519
11
164.358501
21
100.056863
0
LINE
8
Layer 1
10
164.358501
20
100.056863
11
163.497152
21
96.879164
0
LINE
8
Layer 1
10
163.497152
20
96.879164
11
163.213336
21
93.424640
0
LINE
8
Layer 1
10
163.213336
20
93.424640
11
163.212155
21
90.538945
0
LINE
8
Layer 1
10
163.212155
20
90.538945
11
163.461525
21
87.677875
0
LINE
8
Layer 1
10
163.461525
20
87.677875
11
164.005545
21
84.506096
0
LINE
8
Layer 1
10
164.005545
20
84.506096
11
164.888316
21
80.688273
0
LINE
8
Layer 1
10
164.888316
20
80.688273
11
165.782444
21
77.124128
0
LINE
8
Layer 1
10
165.782444
20
77.124128
11
163.965543
21
75.467162
0
LINE
8
Layer 1
10
163.965543
20
75.467162
11
161.140312
21
72.768746
0
LINE
8
Layer 1
10
161.140312
20
72.768746
11
158.903621
21
70.353549
0
LINE
8
Layer 1
10
158.903621
20
70.353549
11
157.198900
21
68.155355
0
LINE
8
Layer 1
10
157.198900
20
68.155355
11
155.969578
21
66.107948
0
LINE
8
Layer 1
10
155.969578
20
66.107948
11
155.315551
21
65.068230
0
LINE
8
Layer 1
10
155.315551
20
65.068230
11
154.790236
21
64.637974
0
LINE
8
Layer 1
10
154.790236
20
64.637974
11
154.311272
21
65.022029
0
LINE
8
Layer 1
10
154.311272
20
65.022029
11
153.765956
21
65.978529
0
LINE
8
Layer 1
10
153.765956
20
65.978529
11
152.641391
21
68.072777
0
LINE
8
Layer 1
10
152.641391
20
68.072777
11
150.996854
21
70.262290
0
LINE
8
Layer 1
10
150.996854
20
70.262290
11
148.609348
21
72.809011
0
LINE
8
Layer 1
10
148.609348
20
72.809011
11
145.255875
21
75.974885
0
LINE
8
Layer 1
10
145.255875
20
75.974885
11
143.885336
21
77.223462
0
LINE
8
Layer 1
10
143.885336
20
77.223462
11
144.624222
21
79.999552
0
LINE
8
Layer 1
10
144.624222
20
79.999552
11
145.448434
21
83.426057
0
LINE
8
Layer 1
10
145.448434
20
83.426057
11
146.028913
21
86.609449
0
LINE
8
Layer 1
10
146.028913
20
86.609449
11
146.372317
21
89.594184
0
LINE
8
Layer 1
10
146.372317
20
89.594184
11
146.485305
21
92.424716
0
LINE
8
Layer 1
10
146.485305
20
92.424716
11
146.452017
21
94.622969
0
LINE
8
Layer 1
10
146.452017
20
94.622969
11
146.236257
21
96.430411
0
LINE
8
Layer 1
10
146.236257
20
96.430411
11
145.664185
21
98.759889
0
LINE
8
Layer 1
10
145.664185
20
98.759889
11
144.561958
21
102.524250
0
LINE
8
Layer 1
10
144.561958
20
102.524250
11
142.810119
21
109.456077
0
LINE
8
Layer 1
10
142.810119
20
109.456077
11
141.512448
21
116.990196
0
LINE
8
Layer 1
10
141.512448
20
116.990196
11
141.145614
21
121.840237
0
LINE
8
Layer 1
10
141.145614
20
121.840237
11
140.991533
21
128.461030
0
LINE
8
Layer 1
10
140.991533
20
128.461030
11
141.060468
21
135.237795
0
LINE
8
Layer 1
10
141.060468
20
135.237795
11
141.362681
21
140.555751
0
LINE
8
Layer 1
10
141.362681
20
140.555751
11
142.502343
21
149.150803
0
LINE
8
Layer 1
10
142.502343
20
149.150803
11
143.663698
21
156.219085
0
LINE
8
Layer 1
10
143.663698
20
156.219085
11
143.938571
21
157.600218
0
LINE
8
Layer 1
10
143.938571
20
157.600218
11
143.466805
21
157.719219
0
LINE
8
Layer 1
10
143.466805
20
157.719219
11
142.163671
21
157.678715
0
LINE
8
Layer 1
10
142.163671
20
157.678715
11
137.802538
21
157.215221
0
LINE
8
Layer 1
10
137.802538
20
157.215221
11
132.333638
21
156.401788
0
LINE
8
Layer 1
10
132.333638
20
156.401788
11
127.235438
21
155.430471
0
LINE
8
Layer 1
10
127.235438
20
155.430471
11
124.867995
21
154.988523
0
LINE
8
Layer 1
10
124.867995
20
154.988523
11
123.919327
21
155.050174
0
LINE
8
Layer 1
10
123.919327
20
155.050174
11
123.771992
21
155.971312
0
LINE
8
Layer 1
10
123.771992
20
155.971312
11
123.671423
21
158.118961
0
LINE
8
Layer 1
10
123.671423
20
158.118961
11
123.605440
21
164.452987
0
LINE
8
Layer 1
10
123.605440
20
164.452987
11
123.711090
21
170.770629
0
LINE
8
Layer 1
10
123.711090
20
170.770629
11
123.825061
21
172.897799
0
LINE
8
Layer 1
10
123.825061
20
172.897799
11
123.978083
21
173.790266
0
LINE
8
Layer 1
10
123.978083
20
173.790266
11
125.029028
21
173.811827
0
LINE
8
Layer 1
10
125.029028
20
173.811827
11
127.576416
21
173.271674
0
LINE
8
Layer 1
10
127.576416
20
173.271674
11
134.631972
21
171.861429
0
LINE
8
Layer 1
10
134.631972
20
171.861429
11
141.769425
21
170.970705
0
LINE
8
Layer 1
10
141.769425
20
170.970705
11
144.757711
21
170.717737
0
LINE
8
Layer 1
10
144.757711
20
170.717737
11
146.076345
21
170.720868
0
LINE
8
Layer 1
10
146.076345
20
170.720868
11
146.203083
21
193.129038
0
LINE
8
Layer 1
10
146.203083
20
193.129038
11
146.131403
21
212.156539
0
LINE
8
Layer 1
10
146.131403
20
212.156539
11
145.983536
21
214.832472
0
LINE
8
Layer 1
10
145.983536
20
214.832472
11
145.864603
21
215.222892
0
LINE
8
Layer 1
10
145.864603
20
215.222892
11
145.709194
21
215.271866
0
LINE
8
Layer 1
10
145.709194
20
215.271866
11
107.591826
21
197.985400
0
LINE
8
Layer 1
10
107.591826
20
197.985400
11
110.098109
21
193.854863
0
LINE
8
Layer 1
10
110.098109
20
193.854863
11
114.281321
21
187.110841
0
LINE
8
Layer 1
10
114.281321
20
187.110841
11
117.235725
21
181.774604
0
LINE
8
Layer 1
10
117.235725
20
181.774604
11
119.280370
21
177.214554
0
LINE
8
Layer 1
10
119.280370
20
177.214554
11
120.734305
21
172.799087
0
LINE
8
Layer 1
10
120.734305
20
172.799087
11
121.143801
21
171.186767
0
LINE
8
Layer 1
10
121.143801
20
171.186767
11
121.374956
21
169.737827
0
LINE
8
Layer 1
10
121.374956
20
169.737827
11
121.503575
21
165.391307
0
LINE
8
Layer 1
10
121.503575
20
165.391307
11
121.389375
21
161.070450
0
LINE
8
Layer 1
10
121.389375
20
161.070450
11
121.151093
21
159.772762
0
LINE
8
Layer 1
10
121.151093
20
159.772762
11
120.711849
21
158.335751
0
LINE
8
Layer 1
10
120.711849
20
158.335751
11
119.920566
21
156.278520
0
LINE
8
Layer 1
10
119.920566
20
156.278520
11
118.923041
21
154.152719
0
LINE
8
Layer 1
10
118.923041
20
154.152719
11
117.859248
21
152.233054
0
LINE
8
Layer 1
10
117.859248
20
152.233054
11
116.869159
21
150.794232
0
LINE
8
Layer 1
10
116.869159
20
150.794232
11
115.820573
21
149.722964
0
LINE
8
Layer 1
10
115.820573
20
149.722964
11
114.406965
21
148.571659
0
LINE
8
Layer 1
10
114.406965
20
148.571659
11
112.793590
21
147.463658
0
LINE
8
Layer 1
10
112.793590
20
147.463658
11
111.145698
21
146.522302
0
LINE
8
Layer 1
10
111.145698
20
146.522302
11
109.795896
21
145.929277
0
LINE
8
Layer 1
10
109.795896
20
145.929277
11
108.463092
21
145.542056
0
LINE
8
Layer 1
10
108.463092
20
145.542056
11
107.113877
21
145.363934
0
LINE
8
Layer 1
10
107.113877
20
145.363934
11
105.714847
21
145.398207
0
LINE
8
Layer 1
10
105.714847
20
145.398207
11
104.232591
21
145.648169
0
LINE
8
Layer 1
10
104.232591
20
145.648169
11
102.633705
21
146.117117
0
LINE
8
Layer 1
10
102.633705
20
146.117117
11
98.952408
21
147.725153
0
LINE
8
Layer 1
10
98.952408
20
147.725153
11
95.474567
21
149.486422
0
LINE
8
Layer 1
10
95.474567
20
149.486422
11
95.163945
21
147.208308
0
LINE
8
Layer 1
10
95.163945
20
147.208308
11
94.643431
21
142.430877
0
LINE
8
Layer 1
10
94.643431
20
142.430877
11
94.384773
21
137.667357
0
LINE
8
Layer 1
10
94.384773
20
137.667357
11
94.386927
21
132.930202
0
LINE
8
Layer 1
10
94.386927
20
132.930202
11
94.648849
21
128.231864
0
LINE
8
Layer 1
10
94.648849
20
128.231864
11
95.169499
21
123.584797
0
LINE
8
Layer 1
10
95.169499
20
123.584797
11
95.947831
21
119.001454
0
LINE
8
Layer 1
10
95.947831
20
119.001454
11
96.982805
21
114.494288
0
LINE
8
Layer 1
10
96.982805
20
114.494288
11
98.273376
21
110.075751
0
LINE
8
Layer 1
10
98.273376
20
110.075751
11
99.382951
21
106.942642
0
LINE
8
Layer 1
10
99.382951
20
106.942642
11
100.694605
21
103.741665
0
LINE
8
Layer 1
10
100.694605
20
103.741665
11
103.836722
21
97.298302
0
LINE
8
Layer 1
10
103.836722
20
97.298302
11
107.524873
21
91.070052
0
LINE
8
Layer 1
10
107.524873
20
91.070052
11
109.519071
21
88.137967
0
LINE
8
Layer 1
10
109.519071
20
88.137967
11
111.584207
21
85.381307
0
LINE
8
Layer 1
10
111.584207
20
85.381307
11
115.597805
21
80.669377
0
LINE
8
Layer 1
10
115.597805
20
80.669377
11
120.003908
21
76.141462
0
LINE
8
Layer 1
10
120.003908
20
76.141462
11
124.423752
21
72.162625
0
LINE
8
Layer 1
10
124.423752
20
72.162625
11
128.478576
21
69.097931
0
LINE
8
Layer 1
10
128.478576
20
69.097931
11
131.203624
21
67.427215
0
LINE
8
Layer 1
10
131.203624
20
67.427215
11
134.489663
21
65.610811
0
LINE
8
Layer 1
10
134.489663
20
65.610811
11
137.790834
21
63.937870
0
LINE
8
Layer 1
10
137.790834
20
63.937870
11
140.561277
21
62.697541
0
LINE
8
Layer 1
10
140.561277
20
62.697541
11
143.167925
21
61.758369
0
LINE
8
Layer 1
10
143.167925
20
61.758369
11
145.788026
21
61.015813
0
LINE
8
Layer 1
10
145.788026
20
61.015813
11
148.414823
21
60.470510
0
LINE
8
Layer 1
10
148.414823
20
60.470510
11
151.041559
21
60.123101
0
LINE
8
Layer 1
10
151.041559
20
60.123101
11
153.661480
21
59.974224
0
LINE
8
Layer 1
10
153.661480
20
59.974224
11
156.267827
21
60.024518
0
LINE
8
Layer 1
10
156.267827
20
60.024518
11
158.853845
21
60.274623
0
LINE
8
Layer 1
10
158.853845
20
60.274623
11
161.412778
21
60.725177
0
LINE
8
Layer 1
10
161.412778
20
60.725177
11
161.412778
21
60.725177
0
LINE
8
Layer 1
10
232.506898
20
66.825196
11
235.473652
21
71.312032
0
LINE
8
Layer 1
10
235.473652
20
71.312032
11
235.195313
21
71.757217
0
LINE
8
Layer 1
10
235.195313
20
71.757217
11
234.376516
21
72.456996
0
LINE
8
Layer 1
10
234.376516
20
72.456996
11
233.423297
21
73.103001
0
LINE
8
Layer 1
10
233.423297
20
73.103001
11
232.741690
21
73.386863
0
LINE
8
Layer 1
10
232.741690
20
73.386863
11
230.705652
21
70.550309
0
LINE
8
Layer 1
10
230.705652
20
70.550309
11
228.864928
21
67.713758
0
LINE
8
Layer 1
10
228.864928
20
67.713758
11
227.115672
21
68.950174
0
LINE
8
Layer 1
10
227.115672
20
68.950174
11
218.908404
21
74.517298
0
LINE
8
Layer 1
10
218.908404
20
74.517298
11
212.450389
21
78.848006
0
LINE
8
Layer 1
10
212.450389
20
78.848006
11
211.655604
21
77.881325
0
LINE
8
Layer 1
10
211.655604
20
77.881325
11
210.437131
21
76.130970
0
LINE
8
Layer 1
10
210.437131
20
76.130970
11
210.341774
21
75.642681
0
LINE
8
Layer 1
10
210.341774
20
75.642681
11
210.559170
21
75.343258
0
LINE
8
Layer 1
10
210.559170
20
75.343258
11
220.145305
21
68.890690
0
LINE
8
Layer 1
10
220.145305
20
68.890690
11
229.524679
21
62.675838
0
LINE
8
Layer 1
10
229.524679
20
62.675838
11
232.506898
21
66.825196
0
LINE
8
Layer 1
10
232.506898
20
66.825196
11
232.506898
21
66.825196
0
LINE
8
Layer 1
10
156.572966
20
69.576863
11
158.501039
21
71.868302
0
LINE
8
Layer 1
10
158.501039
20
71.868302
11
161.114297
21
74.603322
0
LINE
8
Layer 1
10
161.114297
20
74.603322
11
164.215485
21
77.654223
0
LINE
8
Layer 1
10
164.215485
20
77.654223
11
163.537146
21
80.188954
0
LINE
8
Layer 1
10
163.537146
20
80.188954
11
162.657033
21
83.868912
0
LINE
8
Layer 1
10
162.657033
20
83.868912
11
162.091071
21
87.214766
0
LINE
8
Layer 1
10
162.091071
20
87.214766
11
161.817986
21
90.391914
0
LINE
8
Layer 1
10
161.817986
20
90.391914
11
161.816502
21
93.565751
0
LINE
8
Layer 1
10
161.816502
20
93.565751
11
162.126783
21
97.451853
0
LINE
8
Layer 1
10
162.126783
20
97.451853
11
162.495708
21
99.014455
0
LINE
8
Layer 1
10
162.495708
20
99.014455
11
163.134232
21
101.044640
0
LINE
8
Layer 1
10
163.134232
20
101.044640
11
165.065652
21
107.722537
0
LINE
8
Layer 1
10
165.065652
20
107.722537
11
165.775216
21
110.962504
0
LINE
8
Layer 1
10
165.775216
20
110.962504
11
166.329585
21
114.244332
0
LINE
8
Layer 1
10
166.329585
20
114.244332
11
166.740436
21
117.648907
0
LINE
8
Layer 1
10
166.740436
20
117.648907
11
167.019444
21
121.257115
0
LINE
8
Layer 1
10
167.019444
20
121.257115
11
167.228639
21
129.407974
0
LINE
8
Layer 1
10
167.228639
20
129.407974
11
167.106725
21
136.143194
0
LINE
8
Layer 1
10
167.106725
20
136.143194
11
166.702896
21
142.232585
0
LINE
8
Layer 1
10
166.702896
20
142.232585
11
165.960019
21
148.280891
0
LINE
8
Layer 1
10
165.960019
20
148.280891
11
164.820961
21
154.892855
0
LINE
8
Layer 1
10
164.820961
20
154.892855
11
164.265305
21
157.926744
0
LINE
8
Layer 1
10
164.265305
20
157.926744
11
162.713083
21
158.053529
0
LINE
8
Layer 1
10
162.713083
20
158.053529
11
161.616840
21
157.991352
0
LINE
8
Layer 1
10
161.616840
20
157.991352
11
161.160909
21
157.841863
0
LINE
8
Layer 1
10
161.160909
20
157.841863
11
161.584242
21
155.418147
0
LINE
8
Layer 1
10
161.584242
20
155.418147
11
162.007527
21
153.089813
0
LINE
8
Layer 1
10
162.007527
20
153.089813
11
155.271563
21
152.976147
0
LINE
8
Layer 1
10
155.271563
20
152.976147
11
148.404890
21
153.123573
0
LINE
8
Layer 1
10
148.404890
20
153.123573
11
148.464380
21
154.464128
0
LINE
8
Layer 1
10
148.464380
20
154.464128
11
148.852944
21
156.854085
0
LINE
8
Layer 1
10
148.852944
20
156.854085
11
149.031977
21
158.053529
0
LINE
8
Layer 1
10
149.031977
20
158.053529
11
147.328323
21
158.053529
0
LINE
8
Layer 1
10
147.328323
20
158.053529
11
146.119239
21
157.996900
0
LINE
8
Layer 1
10
146.119239
20
157.996900
11
145.727792
21
157.792390
0
LINE
8
Layer 1
10
145.727792
20
157.792390
11
145.422723
21
157.351549
0
LINE
8
Layer 1
10
145.422723
20
157.351549
11
144.904661
21
155.404281
0
LINE
8
Layer 1
10
144.904661
20
155.404281
11
144.230939
21
151.441901
0
LINE
8
Layer 1
10
144.230939
20
151.441901
11
143.451731
21
146.201630
0
LINE
8
Layer 1
10
143.451731
20
146.201630
11
142.870580
21
141.083553
0
LINE
8
Layer 1
10
142.870580
20
141.083553
11
142.487562
21
136.091982
0
LINE
8
Layer 1
10
142.487562
20
136.091982
11
142.302756
21
131.231224
0
LINE
8
Layer 1
10
142.302756
20
131.231224
11
142.316238
21
126.505589
0
LINE
8
Layer 1
10
142.316238
20
126.505589
11
142.528085
21
121.919387
0
LINE
8
Layer 1
10
142.528085
20
121.919387
11
142.938374
21
117.476927
0
LINE
8
Layer 1
10
142.938374
20
117.476927
11
143.547183
21
113.182519
0
LINE
8
Layer 1
10
143.547183
20
113.182519
11
145.097530
21
105.870242
0
LINE
8
Layer 1
10
145.097530
20
105.870242
11
146.023451
21
102.462855
0
LINE
8
Layer 1
10
146.023451
20
102.462855
11
146.916112
21
99.754447
0
LINE
8
Layer 1
10
146.916112
20
99.754447
11
147.307141
21
98.587440
0
LINE
8
Layer 1
10
147.307141
20
98.587440
11
147.553791
21
97.390354
0
LINE
8
Layer 1
10
147.553791
20
97.390354
11
147.813423
21
93.520108
0
LINE
8
Layer 1
10
147.813423
20
93.520108
11
147.829603
21
89.386542
0
LINE
8
Layer 1
10
147.829603
20
89.386542
11
147.355625
21
85.758996
0
LINE
8
Layer 1
10
147.355625
20
85.758996
11
146.099363
21
80.019085
0
LINE
8
Layer 1
10
146.099363
20
80.019085
11
145.457940
21
77.761307
0
LINE
8
Layer 1
10
145.457940
20
77.761307
11
148.864399
21
74.467522
0
LINE
8
Layer 1
10
148.864399
20
74.467522
11
151.671994
21
71.547078
0
LINE
8
Layer 1
10
151.671994
20
71.547078
11
153.540861
21
69.211848
0
LINE
8
Layer 1
10
153.540861
20
69.211848
11
154.485087
21
67.877867
0
LINE
8
Layer 1
10
154.485087
20
67.877867
11
154.971843
21
67.425632
0
LINE
8
Layer 1
10
154.971843
20
67.425632
11
156.572966
21
69.576863
0
LINE
8
Layer 1
10
156.572966
20
69.576863
11
156.572966
21
69.576863
0
LINE
8
Layer 1
10
153.684328
20
73.862483
11
151.379781
21
76.773666
0
LINE
8
Layer 1
10
151.379781
20
76.773666
11
150.188644
21
77.954956
0
LINE
8
Layer 1
10
150.188644
20
77.954956
11
149.153095
21
78.757317
0
LINE
8
Layer 1
10
149.153095
20
78.757317
11
148.233009
21
79.325964
0
LINE
8
Layer 1
10
148.233009
20
79.325964
11
148.627485
21
80.801413
0
LINE
8
Layer 1
10
148.627485
20
80.801413
11
149.628140
21
85.423741
0
LINE
8
Layer 1
10
149.628140
20
85.423741
11
150.154194
21
89.064521
0
LINE
8
Layer 1
10
150.154194
20
89.064521
11
150.154194
21
90.037974
0
LINE
8
Layer 1
10
150.154194
20
90.037974
11
154.910141
21
90.037974
0
LINE
8
Layer 1
10
154.910141
20
90.037974
11
159.666091
21
90.037974
0
LINE
8
Layer 1
10
159.666091
20
90.037974
11
159.838531
21
87.850751
0
LINE
8
Layer 1
10
159.838531
20
87.850751
11
160.250164
21
85.010812
0
LINE
8
Layer 1
10
160.250164
20
85.010812
11
161.294603
21
80.865751
0
LINE
8
Layer 1
10
161.294603
20
80.865751
11
161.292808
21
80.527205
0
LINE
8
Layer 1
10
161.292808
20
80.527205
11
161.106550
21
80.102372
0
LINE
8
Layer 1
10
161.106550
20
80.102372
11
160.105996
21
78.868400
0
LINE
8
Layer 1
10
160.105996
20
78.868400
11
158.001236
21
76.475371
0
LINE
8
Layer 1
10
158.001236
20
76.475371
11
156.298626
21
74.021863
0
LINE
8
Layer 1
10
156.298626
20
74.021863
11
154.960405
21
72.257974
0
LINE
8
Layer 1
10
154.960405
20
72.257974
11
153.684328
21
73.862483
0
LINE
8
Layer 1
10
153.684328
20
73.862483
11
153.684328
21
73.862483
0
LINE
8
Layer 1
10
150.154194
20
95.823529
11
150.154194
21
97.940196
0
LINE
8
Layer 1
10
150.154194
20
97.940196
11
155.128361
21
97.940196
0
LINE
8
Layer 1
10
155.128361
20
97.940196
11
160.102527
21
97.940196
0
LINE
8
Layer 1
10
160.102527
20
97.940196
11
159.926139
21
97.058251
0
LINE
8
Layer 1
10
159.926139
20
97.058251
11
159.749750
21
94.941585
0
LINE
8
Layer 1
10
159.749750
20
94.941585
11
159.749750
21
93.706863
0
LINE
8
Layer 1
10
159.749750
20
93.706863
11
154.951972
21
93.706863
0
LINE
8
Layer 1
10
154.951972
20
93.706863
11
150.154194
21
93.706863
0
LINE
8
Layer 1
10
150.154194
20
93.706863
11
150.154194
21
95.823529
0
LINE
8
Layer 1
10
150.154194
20
95.823529
11
150.154194
21
95.823529
0
LINE
8
Layer 1
10
148.888241
20
102.667418
11
148.284754
21
104.784085
0
LINE
8
Layer 1
10
148.284754
20
104.784085
11
148.375856
21
105.055605
0
LINE
8
Layer 1
10
148.375856
20
105.055605
11
149.182554
21
105.203785
0
LINE
8
Layer 1
10
149.182554
20
105.203785
11
154.932953
21
105.277974
0
LINE
8
Layer 1
10
154.932953
20
105.277974
11
159.730749
21
105.215797
0
LINE
8
Layer 1
10
159.730749
20
105.215797
11
161.727676
21
105.066307
0
LINE
8
Layer 1
10
161.727676
20
105.066307
11
161.241833
21
102.949640
0
LINE
8
Layer 1
10
161.241833
20
102.949640
11
160.753620
21
101.044640
0
LINE
8
Layer 1
10
160.753620
20
101.044640
11
155.050600
21
101.044640
0
LINE
8
Layer 1
10
155.050600
20
101.044640
11
149.347580
21
101.044640
0
LINE
8
Layer 1
10
149.347580
20
101.044640
11
148.888241
21
102.667418
0
LINE
8
Layer 1
10
148.888241
20
102.667418
11
148.888241
21
102.667418
0
LINE
8
Layer 1
10
146.926438
20
109.722974
11
146.580761
21
111.980751
0
LINE
8
Layer 1
10
146.580761
20
111.980751
11
146.422488
21
112.897974
0
LINE
8
Layer 1
10
146.422488
20
112.897974
11
154.920563
21
112.897974
0
LINE
8
Layer 1
10
154.920563
20
112.897974
11
162.074457
21
112.823509
0
LINE
8
Layer 1
10
162.074457
20
112.823509
11
163.180135
21
112.681797
0
LINE
8
Layer 1
10
163.180135
20
112.681797
11
163.418639
21
112.427202
0
LINE
8
Layer 1
10
163.418639
20
112.427202
11
163.107446
21
110.169424
0
LINE
8
Layer 1
10
163.107446
20
110.169424
11
162.796251
21
108.382418
0
LINE
8
Layer 1
10
162.796251
20
108.382418
11
154.955045
21
108.382418
0
LINE
8
Layer 1
10
154.955045
20
108.382418
11
147.113839
21
108.382418
0
LINE
8
Layer 1
10
147.113839
20
108.382418
11
146.926438
21
109.722974
0
LINE
8
Layer 1
10
146.926438
20
109.722974
11
146.926438
21
109.722974
0
LINE
8
Layer 1
10
146.071587
20
116.355196
11
145.855402
21
118.612974
0
LINE
8
Layer 1
10
145.855402
20
118.612974
11
145.752998
21
120.517974
0
LINE
8
Layer 1
10
145.752998
20
120.517974
11
155.045619
21
120.517974
0
LINE
8
Layer 1
10
155.045619
20
120.517974
11
164.338237
21
120.517974
0
LINE
8
Layer 1
10
164.338237
20
120.517974
11
164.137171
21
118.477462
0
LINE
8
Layer 1
10
164.137171
20
118.477462
11
163.801826
21
116.219684
0
LINE
8
Layer 1
10
163.801826
20
116.219684
11
161.139298
21
116.066240
0
LINE
8
Layer 1
10
161.139298
20
116.066240
11
154.926459
21
116.002418
0
LINE
8
Layer 1
10
154.926459
20
116.002418
11
148.002927
21
116.076739
0
LINE
8
Layer 1
10
148.002927
20
116.076739
11
146.543814
21
116.185248
0
LINE
8
Layer 1
10
146.543814
20
116.185248
11
146.071587
21
116.355196
0
LINE
8
Layer 1
10
146.071587
20
116.355196
11
146.071587
21
116.355196
0
LINE
8
Layer 1
10
145.356416
20
125.993138
11
145.356416
21
128.081636
0
LINE
8
Layer 1
10
145.356416
20
128.081636
11
152.482527
21
128.180361
0
LINE
8
Layer 1
10
152.482527
20
128.180361
11
162.078083
21
128.187794
0
LINE
8
Layer 1
10
162.078083
20
128.187794
11
164.547527
21
128.096501
0
LINE
8
Layer 1
10
164.547527
20
128.096501
11
164.547527
21
126.000572
0
LINE
8
Layer 1
10
164.547527
20
126.000572
11
164.547527
21
123.904640
0
LINE
8
Layer 1
10
164.547527
20
123.904640
11
154.951972
21
123.904640
0
LINE
8
Layer 1
10
154.951972
20
123.904640
11
145.356416
21
123.904640
0
LINE
8
Layer 1
10
145.356416
20
123.904640
11
145.356416
21
125.993138
0
LINE
8
Layer 1
10
145.356416
20
125.993138
11
145.356416
21
125.993138
0
LINE
8
Layer 1
10
145.415034
20
133.425921
11
145.497527
21
135.616863
0
LINE
8
Layer 1
10
145.497527
20
135.616863
11
154.858164
21
135.691194
0
LINE
8
Layer 1
10
154.858164
20
135.691194
11
164.218798
21
135.765526
0
LINE
8
Layer 1
10
164.218798
20
135.765526
11
164.373447
21
134.985639
0
LINE
8
Layer 1
10
164.373447
20
134.985639
11
164.599008
21
132.794640
0
LINE
8
Layer 1
10
164.599008
20
132.794640
11
164.669919
21
131.383529
0
LINE
8
Layer 1
10
164.669919
20
131.383529
11
155.001228
21
131.309254
0
LINE
8
Layer 1
10
155.001228
20
131.309254
11
145.332540
21
131.234982
0
LINE
8
Layer 1
10
145.332540
20
131.234982
11
145.415034
21
133.425921
0
LINE
8
Layer 1
10
145.415034
20
133.425921
11
145.415034
21
133.425921
0
LINE
8
Layer 1
10
151.173970
20
138.516010
11
145.843746
21
138.592935
0
LINE
8
Layer 1
10
145.843746
20
138.592935
11
146.020962
21
140.068232
0
LINE
8
Layer 1
10
146.020962
20
140.068232
11
146.200630
21
142.182607
0
LINE
8
Layer 1
10
146.200630
20
142.182607
11
146.203083
21
142.821685
0
LINE
8
Layer 1
10
146.203083
20
142.821685
11
154.881416
21
142.747052
0
LINE
8
Layer 1
10
154.881416
20
142.747052
11
163.559750
21
142.672418
0
LINE
8
Layer 1
10
163.559750
20
142.672418
11
163.774919
21
140.723885
0
LINE
8
Layer 1
10
163.774919
20
140.723885
11
163.916030
21
138.712279
0
LINE
8
Layer 1
10
163.916030
20
138.712279
11
159.318622
21
138.531716
0
LINE
8
Layer 1
10
159.318622
20
138.531716
11
151.173970
21
138.516010
0
LINE
8
Layer 1
10
151.173970
20
138.516010
11
151.173970
21
138.516010
0
LINE
8
Layer 1
10
146.895662
20
147.676263
11
147.231007
21
149.934041
0
LINE
8
Layer 1
10
147.231007
20
149.934041
11
149.591548
21
150.087485
0
LINE
8
Layer 1
10
149.591548
20
150.087485
11
155.078331
21
150.151307
0
LINE
8
Layer 1
10
155.078331
20
150.151307
11
162.791377
21
150.151307
0
LINE
8
Layer 1
10
162.791377
20
150.151307
11
162.949650
21
149.234085
0
LINE
8
Layer 1
10
162.949650
20
149.234085
11
163.295327
21
146.976307
0
LINE
8
Layer 1
10
163.295327
20
146.976307
11
163.482728
21
145.635751
0
LINE
8
Layer 1
10
163.482728
20
145.635751
11
155.088661
21
145.635751
0
LINE
8
Layer 1
10
155.088661
20
145.635751
11
146.694596
21
145.635751
0
LINE
8
Layer 1
10
146.694596
20
145.635751
11
146.895662
21
147.676263
0
LINE
8
Layer 1
10
146.895662
20
147.676263
11
146.895662
21
147.676263
0
LINE
8
Layer 1
10
83.041970
20
72.575547
11
84.837261
21
73.091823
0
LINE
8
Layer 1
10
84.837261
20
73.091823
11
86.466599
21
73.828238
0
LINE
8
Layer 1
10
86.466599
20
73.828238
11
87.924048
21
74.761438
0
LINE
8
Layer 1
10
87.924048
20
74.761438
11
89.203677
21
75.868069
0
LINE
8
Layer 1
10
89.203677
20
75.868069
11
90.299550
21
77.124774
0
LINE
8
Layer 1
10
90.299550
20
77.124774
11
91.205735
21
78.508200
0
LINE
8
Layer 1
10
91.205735
20
78.508200
11
91.916298
21
79.994990
0
LINE
8
Layer 1
10
91.916298
20
79.994990
11
92.425305
21
81.561791
0
LINE
8
Layer 1
10
92.425305
20
81.561791
11
92.726822
21
83.185247
0
LINE
8
Layer 1
10
92.726822
20
83.185247
11
92.814917
21
84.842004
0
LINE
8
Layer 1
10
92.814917
20
84.842004
11
92.683655
21
86.508706
0
LINE
8
Layer 1
10
92.683655
20
86.508706
11
92.327103
21
88.161998
0
LINE
8
Layer 1
10
92.327103
20
88.161998
11
91.739327
21
89.778526
0
LINE
8
Layer 1
10
91.739327
20
89.778526
11
90.914394
21
91.334935
0
LINE
8
Layer 1
10
90.914394
20
91.334935
11
89.846370
21
92.807869
0
LINE
8
Layer 1
10
89.846370
20
92.807869
11
88.529321
21
94.173974
0
LINE
8
Layer 1
10
88.529321
20
94.173974
11
86.853183
21
95.461778
0
LINE
8
Layer 1
10
86.853183
20
95.461778
11
85.055407
21
96.422040
0
LINE
8
Layer 1
10
85.055407
20
96.422040
11
83.166875
21
97.052682
0
LINE
8
Layer 1
10
83.166875
20
97.052682
11
81.218468
21
97.351627
0
LINE
8
Layer 1
10
81.218468
20
97.351627
11
79.241066
21
97.316797
0
LINE
8
Layer 1
10
79.241066
20
97.316797
11
77.265551
21
96.946113
0
LINE
8
Layer 1
10
77.265551
20
96.946113
11
75.322804
21
96.237500
0
LINE
8
Layer 1
10
75.322804
20
96.237500
11
73.443705
21
95.188879
0
LINE
8
Layer 1
10
73.443705
20
95.188879
11
72.174177
21
94.211167
0
LINE
8
Layer 1
10
72.174177
20
94.211167
11
71.057769
21
93.075095
0
LINE
8
Layer 1
10
71.057769
20
93.075095
11
70.105113
21
91.802866
0
LINE
8
Layer 1
10
70.105113
20
91.802866
11
69.326843
21
90.416686
0
LINE
8
Layer 1
10
69.326843
20
90.416686
11
68.733590
21
88.938756
0
LINE
8
Layer 1
10
68.733590
20
88.938756
11
68.335989
21
87.391283
0
LINE
8
Layer 1
10
68.335989
20
87.391283
11
68.144671
21
85.796470
0
LINE
8
Layer 1
10
68.144671
20
85.796470
11
68.170270
21
84.176520
0
LINE
8
Layer 1
10
68.170270
20
84.176520
11
68.561671
21
81.802596
0
LINE
8
Layer 1
10
68.561671
20
81.802596
11
69.324702
21
79.682341
0
LINE
8
Layer 1
10
69.324702
20
79.682341
11
70.481833
21
77.768550
0
LINE
8
Layer 1
10
70.481833
20
77.768550
11
72.055533
21
76.014016
0
LINE
8
Layer 1
10
72.055533
20
76.014016
11
73.322771
21
74.924142
0
LINE
8
Layer 1
10
73.322771
20
74.924142
11
74.617378
21
74.023778
0
LINE
8
Layer 1
10
74.617378
20
74.023778
11
75.940822
21
73.312462
0
LINE
8
Layer 1
10
75.940822
20
73.312462
11
77.294570
21
72.789737
0
LINE
8
Layer 1
10
77.294570
20
72.789737
11
78.680092
21
72.455142
0
LINE
8
Layer 1
10
78.680092
20
72.455142
11
80.098854
21
72.308219
0
LINE
8
Layer 1
10
80.098854
20
72.308219
11
81.552324
21
72.348507
0
LINE
8
Layer 1
10
81.552324
20
72.348507
11
83.041970
21
72.575547
0
LINE
8
Layer 1
10
83.041970
20
72.575547
11
83.041970
21
72.575547
0
LINE
8
Layer 1
10
76.570230
20
77.337130
11
75.438770
21
77.995364
0
LINE
8
Layer 1
10
75.438770
20
77.995364
11
74.467301
21
78.748549
0
LINE
8
Layer 1
10
74.467301
20
78.748549
11
73.656528
21
79.595463
0
LINE
8
Layer 1
10
73.656528
20
79.595463
11
73.007155
21
80.534885
0
LINE
8
Layer 1
10
73.007155
20
80.534885
11
72.519888
21
81.565594
0
LINE
8
Layer 1
10
72.519888
20
81.565594
11
72.195431
21
82.686368
0
LINE
8
Layer 1
10
72.195431
20
82.686368
11
72.034489
21
83.895986
0
LINE
8
Layer 1
10
72.034489
20
83.895986
11
72.037767
21
85.193226
0
LINE
8
Layer 1
10
72.037767
20
85.193226
11
72.301167
21
86.908711
0
LINE
8
Layer 1
10
72.301167
20
86.908711
11
72.847229
21
88.466124
0
LINE
8
Layer 1
10
72.847229
20
88.466124
11
73.652168
21
89.843399
0
LINE
8
Layer 1
10
73.652168
20
89.843399
11
74.692199
21
91.018467
0
LINE
8
Layer 1
10
74.692199
20
91.018467
11
75.943536
21
91.969261
0
LINE
8
Layer 1
10
75.943536
20
91.969261
11
77.382393
21
92.673713
0
LINE
8
Layer 1
10
77.382393
20
92.673713
11
78.984985
21
93.109755
0
LINE
8
Layer 1
10
78.984985
20
93.109755
11
80.727527
21
93.255321
0
LINE
8
Layer 1
10
80.727527
20
93.255321
11
82.343379
21
93.139423
0
LINE
8
Layer 1
10
82.343379
20
93.139423
11
83.759519
21
92.778401
0
LINE
8
Layer 1
10
83.759519
20
92.778401
11
85.086094
21
92.131787
0
LINE
8
Layer 1
10
85.086094
20
92.131787
11
86.433254
21
91.159116
0
LINE
8
Layer 1
10
86.433254
20
91.159116
11
87.296297
21
90.282976
0
LINE
8
Layer 1
10
87.296297
20
90.282976
11
87.995169
21
89.234979
0
LINE
8
Layer 1
10
87.995169
20
89.234979
11
88.522085
21
88.055006
0
LINE
8
Layer 1
10
88.522085
20
88.055006
11
88.869258
21
86.782936
0
LINE
8
Layer 1
10
88.869258
20
86.782936
11
89.028906
21
85.458651
0
LINE
8
Layer 1
10
89.028906
20
85.458651
11
88.993242
21
84.122031
0
LINE
8
Layer 1
10
88.993242
20
84.122031
11
88.754482
21
82.812956
0
LINE
8
Layer 1
10
88.754482
20
82.812956
11
88.304841
21
81.571307
0
LINE
8
Layer 1
10
88.304841
20
81.571307
11
87.690593
21
80.431308
0
LINE
8
Layer 1
10
87.690593
20
80.431308
11
86.980755
21
79.440475
0
LINE
8
Layer 1
10
86.980755
20
79.440475
11
86.173043
21
78.597317
0
LINE
8
Layer 1
10
86.173043
20
78.597317
11
85.265174
21
77.900349
0
LINE
8
Layer 1
10
85.265174
20
77.900349
11
84.254861
21
77.348082
0
LINE
8
Layer 1
10
84.254861
20
77.348082
11
83.139820
21
76.939028
0
LINE
8
Layer 1
10
83.139820
20
76.939028
11
81.917767
21
76.671699
0
LINE
8
Layer 1
10
81.917767
20
76.671699
11
80.586416
21
76.544607
0
LINE
8
Layer 1
10
80.586416
20
76.544607
11
78.406892
21
76.604558
0
LINE
8
Layer 1
10
78.406892
20
76.604558
11
77.586214
21
76.859039
0
LINE
8
Layer 1
10
77.586214
20
76.859039
11
76.570230
21
77.337130
0
LINE
8
Layer 1
10
76.570230
20
77.337130
11
76.570230
21
77.337130
0
LINE
8
Layer 1
10
239.512980
20
78.752931
11
240.395102
21
80.445548
0
LINE
8
Layer 1
10
240.395102
20
80.445548
11
229.926701
21
85.785918
0
LINE
8
Layer 1
10
229.926701
20
85.785918
11
219.458303
21
91.126290
0
LINE
8
Layer 1
10
219.458303
20
91.126290
11
218.504397
21
89.433612
0
LINE
8
Layer 1
10
218.504397
20
89.433612
11
217.886757
21
88.181748
0
LINE
8
Layer 1
10
217.886757
20
88.181748
11
217.741319
21
87.548898
0
LINE
8
Layer 1
10
217.741319
20
87.548898
11
228.013999
21
82.238894
0
LINE
8
Layer 1
10
228.013999
20
82.238894
11
238.348639
21
77.096058
0
LINE
8
Layer 1
10
238.348639
20
77.096058
11
238.807081
21
77.568020
0
LINE
8
Layer 1
10
238.807081
20
77.568020
11
239.512980
21
78.752931
0
LINE
8
Layer 1
10
239.512980
20
78.752931
11
239.512980
21
78.752931
0
LINE
8
Layer 1
10
245.405196
20
92.436863
11
246.761498
21
96.286897
0
LINE
8
Layer 1
10
246.761498
20
96.286897
11
247.098167
21
97.809410
0
LINE
8
Layer 1
10
247.098167
20
97.809410
11
247.206942
21
99.119544
0
LINE
8
Layer 1
10
247.206942
20
99.119544
11
247.087641
21
100.259264
0
LINE
8
Layer 1
10
247.087641
20
100.259264
11
246.740085
21
101.270539
0
LINE
8
Layer 1
10
246.740085
20
101.270539
11
246.164093
21
102.195336
0
LINE
8
Layer 1
10
246.164093
20
102.195336
11
245.359484
21
103.075621
0
LINE
8
Layer 1
10
245.359484
20
103.075621
11
244.290317
21
103.876233
0
LINE
8
Layer 1
10
244.290317
20
103.876233
11
242.996259
21
104.509774
0
LINE
8
Layer 1
10
242.996259
20
104.509774
11
241.604699
21
104.926430
0
LINE
8
Layer 1
10
241.604699
20
104.926430
11
240.243027
21
105.076385
0
LINE
8
Layer 1
10
240.243027
20
105.076385
11
238.783236
21
104.906563
0
LINE
8
Layer 1
10
238.783236
20
104.906563
11
237.485422
21
104.197565
0
LINE
8
Layer 1
10
237.485422
20
104.197565
11
236.238629
21
103.318742
0
LINE
8
Layer 1
10
236.238629
20
103.318742
11
236.057132
21
104.086691
0
LINE
8
Layer 1
10
236.057132
20
104.086691
11
235.797837
21
104.832874
0
LINE
8
Layer 1
10
235.797837
20
104.832874
11
235.393119
21
105.526712
0
LINE
8
Layer 1
10
235.393119
20
105.526712
11
234.206177
21
106.714300
0
LINE
8
Layer 1
10
234.206177
20
106.714300
11
232.613818
21
107.563340
0
LINE
8
Layer 1
10
232.613818
20
107.563340
11
230.733558
21
107.987722
0
LINE
8
Layer 1
10
230.733558
20
107.987722
11
228.951120
21
107.915849
0
LINE
8
Layer 1
10
228.951120
20
107.915849
11
227.417936
21
107.345853
0
LINE
8
Layer 1
10
227.417936
20
107.345853
11
226.129361
21
106.275033
0
LINE
8
Layer 1
10
226.129361
20
106.275033
11
225.080751
21
104.700688
0
LINE
8
Layer 1
10
225.080751
20
104.700688
11
223.101445
21
100.105541
0
LINE
8
Layer 1
10
223.101445
20
100.105541
11
222.262864
21
97.871585
0
LINE
8
Layer 1
10
222.262864
20
97.871585
11
221.986715
21
96.851380
0
LINE
8
Layer 1
10
221.986715
20
96.851380
11
225.499765
21
95.336818
0
LINE
8
Layer 1
10
225.499765
20
95.336818
11
232.879202
21
92.378319
0
LINE
8
Layer 1
10
232.879202
20
92.378319
11
240.219850
21
89.519255
0
LINE
8
Layer 1
10
240.219850
20
89.519255
11
243.616534
21
88.303001
0
LINE
8
Layer 1
10
243.616534
20
88.303001
11
245.405196
21
92.436863
0
LINE
8
Layer 1
10
245.405196
20
92.436863
11
245.405196
21
92.436863
0
LINE
8
Layer 1
10
238.630861
20
94.213161
11
235.412088
21
95.587724
0
LINE
8
Layer 1
10
235.412088
20
95.587724
11
235.511116
21
96.271588
0
LINE
8
Layer 1
10
235.511116
20
96.271588
11
236.075680
21
97.620986
0
LINE
8
Layer 1
10
236.075680
20
97.620986
11
236.847568
21
99.091155
0
LINE
8
Layer 1
10
236.847568
20
99.091155
11
237.568565
21
100.137333
0
LINE
8
Layer 1
10
237.568565
20
100.137333
11
238.113245
21
100.680569
0
LINE
8
Layer 1
10
238.113245
20
100.680569
11
238.574311
21
100.957420
0
LINE
8
Layer 1
10
238.574311
20
100.957420
11
239.151427
21
101.036300
0
LINE
8
Layer 1
10
239.151427
20
101.036300
11
240.044255
21
100.985625
0
LINE
8
Layer 1
10
240.044255
20
100.985625
11
241.311302
21
100.721858
0
LINE
8
Layer 1
10
241.311302
20
100.721858
11
242.316014
21
100.176996
0
LINE
8
Layer 1
10
242.316014
20
100.176996
11
243.027321
21
99.375419
0
LINE
8
Layer 1
10
243.027321
20
99.375419
11
243.414149
21
98.341507
0
LINE
8
Layer 1
10
243.414149
20
98.341507
11
243.340160
21
97.215105
0
LINE
8
Layer 1
10
243.340160
20
97.215105
11
242.966839
21
95.590490
0
LINE
8
Layer 1
10
242.966839
20
95.590490
11
242.453695
21
94.039138
0
LINE
8
Layer 1
10
242.453695
20
94.039138
11
241.960236
21
93.132523
0
LINE
8
Layer 1
10
241.960236
20
93.132523
11
240.889448
21
93.365085
0
LINE
8
Layer 1
10
240.889448
20
93.365085
11
238.630861
21
94.213161
0
LINE
8
Layer 1
10
238.630861
20
94.213161
11
238.630861
21
94.213161
0
LINE
8
Layer 1
10
229.597176
20
97.883949
11
226.722511
21
99.145101
0
LINE
8
Layer 1
10
226.722511
20
99.145101
11
226.638123
21
99.360738
0
LINE
8
Layer 1
10
226.638123
20
99.360738
11
226.686106
21
99.766557
0
LINE
8
Layer 1
10
226.686106
20
99.766557
11
227.090189
21
100.941765
0
LINE
8
Layer 1
10
227.090189
20
100.941765
11
227.756779
21
102.256766
0
LINE
8
Layer 1
10
227.756779
20
102.256766
11
228.507891
21
103.297598
0
LINE
8
Layer 1
10
228.507891
20
103.297598
11
229.095624
21
103.724796
0
LINE
8
Layer 1
10
229.095624
20
103.724796
11
229.798914
21
103.947125
0
LINE
8
Layer 1
10
229.798914
20
103.947125
11
230.565590
21
103.979825
0
LINE
8
Layer 1
10
230.565590
20
103.979825
11
231.343485
21
103.838137
0
LINE
8
Layer 1
10
231.343485
20
103.838137
11
232.080429
21
103.537300
0
LINE
8
Layer 1
10
232.080429
20
103.537300
11
232.724254
21
103.092555
0
LINE
8
Layer 1
10
232.724254
20
103.092555
11
233.222790
21
102.519140
0
LINE
8
Layer 1
10
233.222790
20
102.519140
11
233.523869
21
101.832297
0
LINE
8
Layer 1
10
233.523869
20
101.832297
11
233.593832
21
100.610815
0
LINE
8
Layer 1
10
233.593832
20
100.610815
11
233.135701
21
98.812282
0
LINE
8
Layer 1
10
233.135701
20
98.812282
11
232.316026
21
96.825616
0
LINE
8
Layer 1
10
232.316026
20
96.825616
11
229.597176
21
97.883949
0
LINE
8
Layer 1
10
229.597176
20
97.883949
11
229.597176
21
97.883949
0
LINE
8
Layer 1
10
63.155980
20
106.941118
11
61.870228
21
112.328170
0
LINE
8
Layer 1
10
61.870228
20
112.328170
11
61.662730
21
113.714007
0
LINE
8
Layer 1
10
61.662730
20
113.714007
11
61.739292
21
114.260046
0
LINE
8
Layer 1
10
61.739292
20
114.260046
11
65.209191
21
115.143875
0
LINE
8
Layer 1
10
65.209191
20
115.143875
11
67.709788
21
115.603360
0
LINE
8
Layer 1
10
67.709788
20
115.603360
11
68.301648
21
115.614708
0
LINE
8
Layer 1
10
68.301648
20
115.614708
11
68.559020
21
115.491294
0
LINE
8
Layer 1
10
68.559020
20
115.491294
11
69.580128
21
111.699074
0
LINE
8
Layer 1
10
69.580128
20
111.699074
11
70.426343
21
108.178400
0
LINE
8
Layer 1
10
70.426343
20
108.178400
11
71.430063
21
108.362677
0
LINE
8
Layer 1
10
71.430063
20
108.362677
11
73.168121
21
108.781238
0
LINE
8
Layer 1
10
73.168121
20
108.781238
11
73.701601
21
109.009331
0
LINE
8
Layer 1
10
73.701601
20
109.009331
11
73.782662
21
109.347703
0
LINE
8
Layer 1
10
73.782662
20
109.347703
11
72.837438
21
113.176191
0
LINE
8
Layer 1
10
72.837438
20
113.176191
11
72.310017
21
115.814946
0
LINE
8
Layer 1
10
72.310017
20
115.814946
11
72.266290
21
116.468831
0
LINE
8
Layer 1
10
72.266290
20
116.468831
11
72.364010
21
116.718035
0
LINE
8
Layer 1
10
72.364010
20
116.718035
11
75.250658
21
117.459435
0
LINE
8
Layer 1
10
75.250658
20
117.459435
11
77.369055
21
117.819438
0
LINE
8
Layer 1
10
77.369055
20
117.819438
11
78.460690
21
113.924311
0
LINE
8
Layer 1
10
78.460690
20
113.924311
11
79.345962
21
110.156721
0
LINE
8
Layer 1
10
79.345962
20
110.156721
11
80.911528
21
110.520649
0
LINE
8
Layer 1
10
80.911528
20
110.520649
11
82.581634
21
110.989118
0
LINE
8
Layer 1
10
82.581634
20
110.989118
11
81.385926
21
116.604825
0
LINE
8
Layer 1
10
81.385926
20
116.604825
11
79.876021
21
122.312913
0
LINE
8
Layer 1
10
79.876021
20
122.312913
11
78.370549
21
122.136127
0
LINE
8
Layer 1
10
78.370549
20
122.136127
11
74.403816
21
121.339569
0
LINE
8
Layer 1
10
74.403816
20
121.339569
11
60.593955
21
118.208038
0
LINE
8
Layer 1
10
60.593955
20
118.208038
11
57.535719
21
117.392083
0
LINE
8
Layer 1
10
57.535719
20
117.392083
11
57.131277
21
117.104544
0
LINE
8
Layer 1
10
57.131277
20
117.104544
11
57.128323
21
116.750852
0
LINE
8
Layer 1
10
57.128323
20
116.750852
11
58.443763
21
111.206317
0
LINE
8
Layer 1
10
58.443763
20
111.206317
11
59.703067
21
105.939675
0
LINE
8
Layer 1
10
59.703067
20
105.939675
11
59.842739
21
105.811167
0
LINE
8
Layer 1
10
59.842739
20
105.811167
11
60.172623
21
105.785443
0
LINE
8
Layer 1
10
60.172623
20
105.785443
11
61.539673
21
106.050596
0
LINE
8
Layer 1
10
61.539673
20
106.050596
11
62.883568
21
106.491079
0
LINE
8
Layer 1
10
62.883568
20
106.491079
11
63.130025
21
106.701854
0
LINE
8
Layer 1
10
63.130025
20
106.701854
11
63.155980
21
106.941118
0
LINE
8
Layer 1
10
63.155980
20
106.941118
11
63.155980
21
106.941118
0
LINE
8
Layer 1
10
251.471972
20
109.454377
11
252.459750
21
114.994631
0
LINE
8
Layer 1
10
252.459750
20
114.994631
11
253.447527
21
120.531509
0
LINE
8
Layer 1
10
253.447527
20
120.531509
11
252.139504
21
121.026437
0
LINE
8
Layer 1
10
252.139504
20
121.026437
11
250.225343
21
121.364640
0
LINE
8
Layer 1
10
250.225343
20
121.364640
11
250.023320
21
121.148422
0
LINE
8
Layer 1
10
250.023320
20
121.148422
11
249.800608
21
120.479192
0
LINE
8
Layer 1
10
249.800608
20
120.479192
11
249.260995
21
117.658253
0
LINE
8
Layer 1
10
249.260995
20
117.658253
11
248.548734
21
113.831771
0
LINE
8
Layer 1
10
248.548734
20
113.831771
11
245.369354
21
114.280217
0
LINE
8
Layer 1
10
245.369354
20
114.280217
11
241.702677
21
115.002378
0
LINE
8
Layer 1
10
241.702677
20
115.002378
11
241.598859
21
115.266744
0
LINE
8
Layer 1
10
241.598859
20
115.266744
11
241.620601
21
115.972482
0
LINE
8
Layer 1
10
241.620601
20
115.972482
11
242.054247
21
118.855877
0
LINE
8
Layer 1
10
242.054247
20
118.855877
11
242.492885
21
121.776717
0
LINE
8
Layer 1
10
242.492885
20
121.776717
11
242.513318
21
122.498353
0
LINE
8
Layer 1
10
242.513318
20
122.498353
11
242.407344
21
122.796467
0
LINE
8
Layer 1
10
242.407344
20
122.796467
11
240.751929
21
123.167926
0
LINE
8
Layer 1
10
240.751929
20
123.167926
11
239.816308
21
123.220756
0
LINE
8
Layer 1
10
239.816308
20
123.220756
11
239.312617
21
123.130584
0
LINE
8
Layer 1
10
239.312617
20
123.130584
11
238.532896
21
119.425158
0
LINE
8
Layer 1
10
238.532896
20
119.425158
11
237.841257
21
115.824296
0
LINE
8
Layer 1
10
237.841257
20
115.824296
11
235.484138
21
116.132653
0
LINE
8
Layer 1
10
235.484138
20
116.132653
11
232.679158
21
116.692917
0
LINE
8
Layer 1
10
232.679158
20
116.692917
11
232.540385
21
116.931065
0
LINE
8
Layer 1
10
232.540385
20
116.931065
11
232.598056
21
117.824882
0
LINE
8
Layer 1
10
232.598056
20
117.824882
11
233.551634
21
123.530050
0
LINE
8
Layer 1
10
233.551634
20
123.530050
11
233.616374
21
124.050884
0
LINE
8
Layer 1
10
233.616374
20
124.050884
11
233.487878
21
124.353362
0
LINE
8
Layer 1
10
233.487878
20
124.353362
11
232.126065
21
124.754149
0
LINE
8
Layer 1
10
232.126065
20
124.754149
11
230.395162
21
124.935237
0
LINE
8
Layer 1
10
230.395162
20
124.935237
11
229.295628
21
119.207590
0
LINE
8
Layer 1
10
229.295628
20
119.207590
11
228.456180
21
113.524134
0
LINE
8
Layer 1
10
228.456180
20
113.524134
11
239.379009
21
111.355814
0
LINE
8
Layer 1
10
239.379009
20
111.355814
11
250.836972
21
109.262734
0
LINE
8
Layer 1
10
250.836972
20
109.262734
11
251.285441
21
109.305148
0
LINE
8
Layer 1
10
251.285441
20
109.305148
11
251.471972
21
109.454377
0
LINE
8
Layer 1
10
251.471972
20
109.454377
11
251.471972
21
109.454377
0
LINE
8
Layer 1
10
70.341970
20
125.348472
11
72.808695
21
126.147092
0
LINE
8
Layer 1
10
72.808695
20
126.147092
11
74.967851
21
127.413970
0
LINE
8
Layer 1
10
74.967851
20
127.413970
11
76.748885
21
129.096299
0
LINE
8
Layer 1
10
76.748885
20
129.096299
11
78.081248
21
131.141272
0
LINE
8
Layer 1
10
78.081248
20
131.141272
11
78.547595
21
132.188301
0
LINE
8
Layer 1
10
78.547595
20
132.188301
11
78.799934
21
133.326327
0
LINE
8
Layer 1
10
78.799934
20
133.326327
11
78.989067
21
138.534024
0
LINE
8
Layer 1
10
78.989067
20
138.534024
11
79.085051
21
144.273405
0
LINE
8
Layer 1
10
79.085051
20
144.273405
11
67.417956
21
144.071885
0
LINE
8
Layer 1
10
67.417956
20
144.071885
11
55.653339
21
143.785347
0
LINE
8
Layer 1
10
55.653339
20
143.785347
11
55.595094
21
139.317854
0
LINE
8
Layer 1
10
55.595094
20
139.317854
11
55.750191
21
135.527684
0
LINE
8
Layer 1
10
55.750191
20
135.527684
11
56.198758
21
132.736184
0
LINE
8
Layer 1
10
56.198758
20
132.736184
11
57.034265
21
130.583459
0
LINE
8
Layer 1
10
57.034265
20
130.583459
11
58.350178
21
128.709612
0
LINE
8
Layer 1
10
58.350178
20
128.709612
11
59.416237
21
127.657055
0
LINE
8
Layer 1
10
59.416237
20
127.657055
11
60.657164
21
126.770844
0
LINE
8
Layer 1
10
60.657164
20
126.770844
11
62.047369
21
126.058150
0
LINE
8
Layer 1
10
62.047369
20
126.058150
11
63.561265
21
125.526146
0
LINE
8
Layer 1
10
63.561265
20
125.526146
11
65.173261
21
125.182004
0
LINE
8
Layer 1
10
65.173261
20
125.182004
11
66.857770
21
125.032896
0
LINE
8
Layer 1
10
66.857770
20
125.032896
11
68.589203
21
125.085995
0
LINE
8
Layer 1
10
68.589203
20
125.085995
11
70.341970
21
125.348472
0
LINE
8
Layer 1
10
70.341970
20
125.348472
11
70.341970
21
125.348472
0
LINE
8
Layer 1
10
64.076416
20
129.650459
11
62.861107
21
130.170080
0
LINE
8
Layer 1
10
62.861107
20
130.170080
11
61.843923
21
130.783364
0
LINE
8
Layer 1
10
61.843923
20
130.783364
11
61.013744
21
131.508374
0
LINE
8
Layer 1
10
61.013744
20
131.508374
11
60.359447
21
132.363169
0
LINE
8
Layer 1
10
60.359447
20
132.363169
11
59.869910
21
133.365811
0
LINE
8
Layer 1
10
59.869910
20
133.365811
11
59.534011
21
134.534360
0
LINE
8
Layer 1
10
59.534011
20
134.534360
11
59.340628
21
135.886877
0
LINE
8
Layer 1
10
59.340628
20
135.886877
11
59.278639
21
137.441424
0
LINE
8
Layer 1
10
59.278639
20
137.441424
11
59.278639
21
139.900575
0
LINE
8
Layer 1
10
59.278639
20
139.900575
11
67.226287
21
140.088662
0
LINE
8
Layer 1
10
67.226287
20
140.088662
11
75.340176
21
140.108443
0
LINE
8
Layer 1
10
75.340176
20
140.108443
11
75.491035
21
137.205466
0
LINE
8
Layer 1
10
75.491035
20
137.205466
11
75.355706
21
134.743071
0
LINE
8
Layer 1
10
75.355706
20
134.743071
11
74.836864
21
133.151234
0
LINE
8
Layer 1
10
74.836864
20
133.151234
11
74.297978
21
132.214478
0
LINE
8
Layer 1
10
74.297978
20
132.214478
11
73.650829
21
131.412410
0
LINE
8
Layer 1
10
73.650829
20
131.412410
11
72.890163
21
130.742365
0
LINE
8
Layer 1
10
72.890163
20
130.742365
11
72.010726
21
130.201679
0
LINE
8
Layer 1
10
72.010726
20
130.201679
11
71.007265
21
129.787688
0
LINE
8
Layer 1
10
71.007265
20
129.787688
11
69.874525
21
129.497729
0
LINE
8
Layer 1
10
69.874525
20
129.497729
11
67.200193
21
129.279249
0
LINE
8
Layer 1
10
67.200193
20
129.279249
11
65.401484
21
129.393402
0
LINE
8
Layer 1
10
65.401484
20
129.393402
11
64.076416
21
129.650459
0
LINE
8
Layer 1
10
64.076416
20
129.650459
11
64.076416
21
129.650459
0
LINE
8
Layer 1
10
254.068707
20
130.748529
11
254.133483
21
132.590300
0
LINE
8
Layer 1
10
254.133483
20
132.590300
11
249.094216
21
133.055730
0
LINE
8
Layer 1
10
249.094216
20
133.055730
11
243.944716
21
133.595601
0
LINE
8
Layer 1
10
243.944716
20
133.595601
11
244.124062
21
133.859732
0
LINE
8
Layer 1
10
244.124062
20
133.859732
11
245.145888
21
134.586907
0
LINE
8
Layer 1
10
245.145888
20
134.586907
11
251.225914
21
138.432842
0
LINE
8
Layer 1
10
251.225914
20
138.432842
11
254.789858
21
140.655881
0
LINE
8
Layer 1
10
254.789858
20
140.655881
11
254.980059
21
142.754821
0
LINE
8
Layer 1
10
254.980059
20
142.754821
11
255.077270
21
144.946748
0
LINE
8
Layer 1
10
255.077270
20
144.946748
11
249.488683
21
141.549927
0
LINE
8
Layer 1
10
249.488683
20
141.549927
11
245.593479
21
139.140909
0
LINE
8
Layer 1
10
245.593479
20
139.140909
11
243.945639
21
138.249601
0
LINE
8
Layer 1
10
243.945639
20
138.249601
11
243.720053
21
139.503452
0
LINE
8
Layer 1
10
243.720053
20
139.503452
11
243.350957
21
140.534792
0
LINE
8
Layer 1
10
243.350957
20
140.534792
11
242.643102
21
141.560987
0
LINE
8
Layer 1
10
242.643102
20
141.560987
11
241.695919
21
142.466017
0
LINE
8
Layer 1
10
241.695919
20
142.466017
11
240.608838
21
143.133857
0
LINE
8
Layer 1
10
240.608838
20
143.133857
11
239.201235
21
143.527133
0
LINE
8
Layer 1
10
239.201235
20
143.527133
11
237.492593
21
143.655528
0
LINE
8
Layer 1
10
237.492593
20
143.655528
11
235.781055
21
143.519691
0
LINE
8
Layer 1
10
235.781055
20
143.519691
11
234.364764
21
143.120271
0
LINE
8
Layer 1
10
234.364764
20
143.120271
11
233.444861
21
142.557243
0
LINE
8
Layer 1
10
233.444861
20
142.557243
11
232.627258
21
141.769467
0
LINE
8
Layer 1
10
232.627258
20
141.769467
11
231.952275
21
140.804296
0
LINE
8
Layer 1
10
231.952275
20
140.804296
11
231.460232
21
139.709085
0
LINE
8
Layer 1
10
231.460232
20
139.709085
11
231.152578
21
137.929807
0
LINE
8
Layer 1
10
231.152578
20
137.929807
11
230.824788
21
134.981044
0
LINE
8
Layer 1
10
230.824788
20
134.981044
11
230.602745
21
132.179358
0
LINE
8
Layer 1
10
230.602745
20
132.179358
11
230.612335
21
130.841315
0
LINE
8
Layer 1
10
230.612335
20
130.841315
11
240.960754
21
129.918333
0
LINE
8
Layer 1
10
240.960754
20
129.918333
11
252.928572
21
129.021101
0
LINE
8
Layer 1
10
252.928572
20
129.021101
11
253.961838
21
128.984640
0
LINE
8
Layer 1
10
253.961838
20
128.984640
11
254.068707
21
130.748529
0
LINE
8
Layer 1
10
254.068707
20
130.748529
11
254.068707
21
130.748529
0
LINE
8
Layer 1
10
235.701109
20
134.273990
11
234.182471
21
134.378926
0
LINE
8
Layer 1
10
234.182471
20
134.378926
11
234.365876
21
135.939423
0
LINE
8
Layer 1
10
234.365876
20
135.939423
11
234.786374
21
137.811913
0
LINE
8
Layer 1
10
234.786374
20
137.811913
11
235.125424
21
138.493260
0
LINE
8
Layer 1
10
235.125424
20
138.493260
11
235.558749
21
139.012338
0
LINE
8
Layer 1
10
235.558749
20
139.012338
11
236.092653
21
139.374894
0
LINE
8
Layer 1
10
236.092653
20
139.374894
11
236.733441
21
139.586673
0
LINE
8
Layer 1
10
236.733441
20
139.586673
11
238.360884
21
139.580888
0
LINE
8
Layer 1
10
238.360884
20
139.580888
11
239.465189
21
139.232268
0
LINE
8
Layer 1
10
239.465189
20
139.232268
11
240.203581
21
138.533620
0
LINE
8
Layer 1
10
240.203581
20
138.533620
11
240.617022
21
137.420516
0
LINE
8
Layer 1
10
240.617022
20
137.420516
11
240.746472
21
135.828529
0
LINE
8
Layer 1
10
240.746472
20
135.828529
11
240.747527
21
134.064640
0
LINE
8
Layer 1
10
240.747527
20
134.064640
11
238.983639
21
134.116846
0
LINE
8
Layer 1
10
238.983639
20
134.116846
11
235.701109
21
134.273990
0
LINE
8
Layer 1
10
235.701109
20
134.273990
11
235.701109
21
134.273990
0
LINE
8
Layer 1
10
285.004877
20
144.436307
11
284.958347
21
145.158422
0
LINE
8
Layer 1
10
284.958347
20
145.158422
11
284.526828
21
146.879362
0
LINE
8
Layer 1
10
284.526828
20
146.879362
11
282.367595
21
153.820196
0
LINE
8
Layer 1
10
282.367595
20
153.820196
11
279.768906
21
161.497684
0
LINE
8
Layer 1
10
279.768906
20
161.497684
11
279.149360
21
162.739091
0
LINE
8
Layer 1
10
279.149360
20
162.739091
11
278.585922
21
163.237827
0
LINE
8
Layer 1
10
278.585922
20
163.237827
11
277.568725
21
163.642136
0
LINE
8
Layer 1
10
277.568725
20
163.642136
11
280.120892
21
155.503454
0
LINE
8
Layer 1
10
280.120892
20
155.503454
11
282.254771
21
148.828778
0
LINE
8
Layer 1
10
282.254771
20
148.828778
11
282.511266
21
147.574750
0
LINE
8
Layer 1
10
282.511266
20
147.574750
11
282.395648
21
147.087364
0
LINE
8
Layer 1
10
282.395648
20
147.087364
11
282.179419
21
147.014902
0
LINE
8
Layer 1
10
282.179419
20
147.014902
11
281.727434
21
147.082340
0
LINE
8
Layer 1
10
281.727434
20
147.082340
11
279.738689
21
147.788154
0
LINE
8
Layer 1
10
279.738689
20
147.788154
11
268.779554
21
152.542178
0
LINE
8
Layer 1
10
268.779554
20
152.542178
11
254.294194
21
158.970517
0
LINE
8
Layer 1
10
254.294194
20
158.970517
11
252.036416
21
159.959350
0
LINE
8
Layer 1
10
252.036416
20
159.959350
11
238.948391
21
165.792218
0
LINE
8
Layer 1
10
238.948391
20
165.792218
11
229.193632
21
170.349393
0
LINE
8
Layer 1
10
229.193632
20
170.349393
11
227.989826
21
173.300444
0
LINE
8
Layer 1
10
227.989826
20
173.300444
11
225.665854
21
179.848058
0
LINE
8
Layer 1
10
225.665854
20
179.848058
11
222.826792
21
187.822873
0
LINE
8
Layer 1
10
222.826792
20
187.822873
11
222.183120
21
189.000688
0
LINE
8
Layer 1
10
222.183120
20
189.000688
11
221.571521
21
189.442338
0
LINE
8
Layer 1
10
221.571521
20
189.442338
11
220.518318
21
189.847285
0
LINE
8
Layer 1
10
220.518318
20
189.847285
11
223.769137
21
179.766254
0
LINE
8
Layer 1
10
223.769137
20
179.766254
11
227.100483
21
169.765751
0
LINE
8
Layer 1
10
227.100483
20
169.765751
11
235.970115
21
165.727919
0
LINE
8
Layer 1
10
235.970115
20
165.727919
11
256.128639
21
156.494203
0
LINE
8
Layer 1
10
256.128639
20
156.494203
11
277.639894
21
146.669738
0
LINE
8
Layer 1
10
277.639894
20
146.669738
11
282.393360
21
144.591460
0
LINE
8
Layer 1
10
282.393360
20
144.591460
11
284.129254
21
143.962140
0
LINE
8
Layer 1
10
284.129254
20
143.962140
11
284.644313
21
144.093292
0
LINE
8
Layer 1
10
284.644313
20
144.093292
11
285.004877
21
144.436307
0
LINE
8
Layer 1
10
285.004877
20
144.436307
11
285.004877
21
144.436307
0
LINE
8
Layer 1
10
43.039055
20
151.542488
11
71.397010
21
164.171932
0
LINE
8
Layer 1
10
71.397010
20
164.171932
11
83.374270
21
169.483529
0
LINE
8
Layer 1
10
83.374270
20
169.483529
11
86.839267
21
179.502418
0
LINE
8
Layer 1
10
86.839267
20
179.502418
11
90.313674
21
189.729305
0
LINE
8
Layer 1
10
90.313674
20
189.729305
11
89.952266
21
189.697390
0
LINE
8
Layer 1
10
89.952266
20
189.697390
11
89.070138
21
189.328575
0
LINE
8
Layer 1
10
89.070138
20
189.328575
11
87.817190
21
188.719847
0
LINE
8
Layer 1
10
87.817190
20
188.719847
11
85.358921
21
181.500577
0
LINE
8
Layer 1
10
85.358921
20
181.500577
11
81.925183
21
171.746476
0
LINE
8
Layer 1
10
81.925183
20
171.746476
11
81.186279
21
170.219930
0
LINE
8
Layer 1
10
81.186279
20
170.219930
11
80.912996
21
169.926103
0
LINE
8
Layer 1
10
80.912996
20
169.926103
11
80.647323
21
169.804983
0
LINE
8
Layer 1
10
80.647323
20
169.804983
11
68.309750
21
164.386026
0
LINE
8
Layer 1
10
68.309750
20
164.386026
11
47.001972
21
154.892525
0
LINE
8
Layer 1
10
47.001972
20
154.892525
11
36.960872
21
150.264424
0
LINE
8
Layer 1
10
36.960872
20
150.264424
11
36.071505
21
149.869085
0
LINE
8
Layer 1
10
36.071505
20
149.869085
11
32.055991
21
148.272469
0
LINE
8
Layer 1
10
32.055991
20
148.272469
11
29.056233
21
147.033321
0
LINE
8
Layer 1
10
29.056233
20
147.033321
11
28.428534
21
146.925120
0
LINE
8
Layer 1
10
28.428534
20
146.925120
11
28.102764
21
147.073025
0
LINE
8
Layer 1
10
28.102764
20
147.073025
11
28.006648
21
147.578232
0
LINE
8
Layer 1
10
28.006648
20
147.578232
11
28.277152
21
148.872089
0
LINE
8
Layer 1
10
28.277152
20
148.872089
11
30.371717
21
155.513529
0
LINE
8
Layer 1
10
30.371717
20
155.513529
11
32.956534
21
163.741679
0
LINE
8
Layer 1
10
32.956534
20
163.741679
11
32.626157
21
163.735014
0
LINE
8
Layer 1
10
32.626157
20
163.735014
11
31.924052
21
163.459456
0
LINE
8
Layer 1
10
31.924052
20
163.459456
11
31.319573
21
163.038436
0
LINE
8
Layer 1
10
31.319573
20
163.038436
11
30.703737
21
161.914434
0
LINE
8
Layer 1
10
30.703737
20
161.914434
11
28.043497
21
154.246967
0
LINE
8
Layer 1
10
28.043497
20
154.246967
11
25.985670
21
147.882951
0
LINE
8
Layer 1
10
25.985670
20
147.882951
11
25.129750
21
144.863078
0
LINE
8
Layer 1
10
25.129750
20
144.863078
11
25.284768
21
144.354132
0
LINE
8
Layer 1
10
25.284768
20
144.354132
11
25.894064
21
144.224640
0
LINE
8
Layer 1
10
25.894064
20
144.224640
11
31.245684
21
146.374258
0
LINE
8
Layer 1
10
31.245684
20
146.374258
11
43.039055
21
151.542488
0
LINE
8
Layer 1
10
43.039055
20
151.542488
11
43.039055
21
151.542488
0
LINE
8
Layer 1
10
32.761180
20
150.219946
11
33.656629
21
150.637290
0
LINE
8
Layer 1
10
33.656629
20
150.637290
11
34.111010
21
150.966881
0
LINE
8
Layer 1
10
34.111010
20
150.966881
11
34.257696
21
151.371676
0
LINE
8
Layer 1
10
34.257696
20
151.371676
11
34.230062
21
152.014628
0
LINE
8
Layer 1
10
34.230062
20
152.014628
11
34.304436
21
152.885843
0
LINE
8
Layer 1
10
34.304436
20
152.885843
11
34.645500
21
154.389968
0
LINE
8
Layer 1
10
34.645500
20
154.389968
11
36.228534
21
159.683831
0
LINE
8
Layer 1
10
36.228534
20
159.683831
11
37.523957
21
163.796423
0
LINE
8
Layer 1
10
37.523957
20
163.796423
11
37.942967
21
165.698984
0
LINE
8
Layer 1
10
37.942967
20
165.698984
11
37.819137
21
166.015926
0
LINE
8
Layer 1
10
37.819137
20
166.015926
11
37.470590
21
166.013667
0
LINE
8
Layer 1
10
37.470590
20
166.013667
11
36.091853
21
165.362622
0
LINE
8
Layer 1
10
36.091853
20
165.362622
11
35.455160
21
164.938729
0
LINE
8
Layer 1
10
35.455160
20
164.938729
11
34.866092
21
163.936700
0
LINE
8
Layer 1
10
34.866092
20
163.936700
11
32.493520
21
157.143744
0
LINE
8
Layer 1
10
32.493520
20
157.143744
11
29.927527
21
149.240979
0
LINE
8
Layer 1
10
29.927527
20
149.240979
11
30.046574
21
149.154197
0
LINE
8
Layer 1
10
30.046574
20
149.154197
11
30.481124
21
149.261687
0
LINE
8
Layer 1
10
30.481124
20
149.261687
11
32.761180
21
150.219946
0
LINE
8
Layer 1
10
32.761180
20
150.219946
11
32.761180
21
150.219946
0
LINE
8
Layer 1
10
277.989098
20
157.055292
11
275.418304
21
164.880990
0
LINE
8
Layer 1
10
275.418304
20
164.880990
11
273.675695
21
165.673924
0
LINE
8
Layer 1
10
273.675695
20
165.673924
11
271.841891
21
166.378817
0
LINE
8
Layer 1
10
271.841891
20
166.378817
11
274.336391
21
159.640205
0
LINE
8
Layer 1
10
274.336391
20
159.640205
11
276.383490
21
154.094074
0
LINE
8
Layer 1
10
276.383490
20
154.094074
11
276.759619
21
152.698284
0
LINE
8
Layer 1
10
276.759619
20
152.698284
11
276.826472
21
151.837325
0
LINE
8
Layer 1
10
276.826472
20
151.837325
11
276.730861
21
150.685012
0
LINE
8
Layer 1
10
276.730861
20
150.685012
11
278.561032
21
149.872960
0
LINE
8
Layer 1
10
278.561032
20
149.872960
11
280.475546
21
149.145252
0
LINE
8
Layer 1
10
280.475546
20
149.145252
11
277.989098
21
157.055292
0
LINE
8
Layer 1
10
277.989098
20
157.055292
11
277.989098
21
157.055292
0
LINE
8
Layer 1
10
36.605752
20
152.197418
11
37.540168
21
154.994453
0
LINE
8
Layer 1
10
37.540168
20
154.994453
11
39.077158
21
160.205384
0
LINE
8
Layer 1
10
39.077158
20
160.205384
11
40.483697
21
165.271049
0
LINE
8
Layer 1
10
40.483697
20
165.271049
11
41.026763
21
167.632287
0
LINE
8
Layer 1
10
41.026763
20
167.632287
11
40.864362
21
167.683018
0
LINE
8
Layer 1
10
40.864362
20
167.683018
11
40.655118
21
167.490611
0
LINE
8
Layer 1
10
40.655118
20
167.490611
11
40.065218
21
166.300662
0
LINE
8
Layer 1
10
40.065218
20
166.300662
11
37.983617
21
160.170196
0
LINE
8
Layer 1
10
37.983617
20
160.170196
11
36.105058
21
153.543842
0
LINE
8
Layer 1
10
36.105058
20
153.543842
11
35.822899
21
151.851251
0
LINE
8
Layer 1
10
35.822899
20
151.851251
11
35.849129
21
151.423602
0
LINE
8
Layer 1
10
35.849129
20
151.423602
11
35.988052
21
151.280196
0
LINE
8
Layer 1
10
35.988052
20
151.280196
11
36.605752
21
152.197418
0
LINE
8
Layer 1
10
36.605752
20
152.197418
11
36.605752
21
152.197418
0
LINE
8
Layer 1
10
273.255232
20
158.337501
11
270.544392
21
165.300132
0
LINE
8
Layer 1
10
270.544392
20
165.300132
11
269.539290
21
167.417327
0
LINE
8
Layer 1
10
269.539290
20
167.417327
11
269.126442
21
167.874847
0
LINE
8
Layer 1
10
269.126442
20
167.874847
11
268.814677
21
167.870307
0
LINE
8
Layer 1
10
268.814677
20
167.870307
11
270.797051
21
161.761026
0
LINE
8
Layer 1
10
270.797051
20
161.761026
11
272.920861
21
155.521818
0
LINE
8
Layer 1
10
272.920861
20
155.521818
11
273.449420
21
154.099579
0
LINE
8
Layer 1
10
273.449420
20
154.099579
11
274.463804
21
152.267974
0
LINE
8
Layer 1
10
274.463804
20
152.267974
11
275.037527
21
151.421307
0
LINE
8
Layer 1
10
275.037527
20
151.421307
11
275.121017
21
152.410835
0
LINE
8
Layer 1
10
275.121017
20
152.410835
11
275.048211
21
153.141141
0
LINE
8
Layer 1
10
275.048211
20
153.141141
11
274.727110
21
154.327462
0
LINE
8
Layer 1
10
274.727110
20
154.327462
11
273.255232
21
158.337501
0
LINE
8
Layer 1
10
273.255232
20
158.337501
11
273.255232
21
158.337501
0
LINE
8
Layer 1
10
272.209700
20
153.185196
11
267.212798
21
167.507974
0
LINE
8
Layer 1
10
267.212798
20
167.507974
11
266.937781
21
168.144205
0
LINE
8
Layer 1
10
266.937781
20
168.144205
11
266.525954
21
168.627175
0
LINE
8
Layer 1
10
266.525954
20
168.627175
11
264.614637
21
169.706358
0
LINE
8
Layer 1
10
264.614637
20
169.706358
11
262.293933
21
170.662896
0
LINE
8
Layer 1
10
262.293933
20
170.662896
11
264.614039
21
164.372290
0
LINE
8
Layer 1
10
264.614039
20
164.372290
11
267.023307
21
158.007961
0
LINE
8
Layer 1
10
267.023307
20
158.007961
11
267.221652
21
156.891147
0
LINE
8
Layer 1
10
267.221652
20
156.891147
11
267.070038
21
156.065920
0
LINE
8
Layer 1
10
267.070038
20
156.065920
11
266.818943
21
155.096907
0
LINE
8
Layer 1
10
266.818943
20
155.096907
11
269.376011
21
153.919247
0
LINE
8
Layer 1
10
269.376011
20
153.919247
11
272.003110
21
152.793202
0
LINE
8
Layer 1
10
272.003110
20
152.793202
11
272.299376
21
152.827833
0
LINE
8
Layer 1
10
272.299376
20
152.827833
11
272.209700
21
153.185196
0
LINE
8
Layer 1
10
272.209700
20
153.185196
11
272.209700
21
153.185196
0
LINE
8
Layer 1
10
41.534227
20
154.111390
11
43.387950
21
155.030915
0
LINE
8
Layer 1
10
43.387950
20
155.030915
11
43.553502
21
155.391404
0
LINE
8
Layer 1
10
43.553502
20
155.391404
11
43.451058
21
155.910548
0
LINE
8
Layer 1
10
43.451058
20
155.910548
11
43.308083
21
156.847934
0
LINE
8
Layer 1
10
43.308083
20
156.847934
11
43.536097
21
158.129836
0
LINE
8
Layer 1
10
43.536097
20
158.129836
11
45.857250
21
164.372290
0
LINE
8
Layer 1
10
45.857250
20
164.372290
11
48.172370
21
170.664982
0
LINE
8
Layer 1
10
48.172370
20
170.664982
11
45.639518
21
169.659685
0
LINE
8
Layer 1
10
45.639518
20
169.659685
11
42.989153
21
168.387006
0
LINE
8
Layer 1
10
42.989153
20
168.387006
11
39.561239
21
156.040684
0
LINE
8
Layer 1
10
39.561239
20
156.040684
11
38.794103
21
153.418421
0
LINE
8
Layer 1
10
38.794103
20
153.418421
11
38.676243
21
153.074865
0
LINE
8
Layer 1
10
38.676243
20
153.074865
11
38.892916
21
153.025077
0
LINE
8
Layer 1
10
38.892916
20
153.025077
11
41.534227
21
154.111390
0
LINE
8
Layer 1
10
41.534227
20
154.111390
11
41.534227
21
154.111390
0
LINE
8
Layer 1
10
263.514586
20
163.032279
11
260.775786
21
170.131336
0
LINE
8
Layer 1
10
260.775786
20
170.131336
11
260.170535
21
171.468186
0
LINE
8
Layer 1
10
260.170535
20
171.468186
11
259.613931
21
172.187379
0
LINE
8
Layer 1
10
259.613931
20
172.187379
11
259.245298
21
172.319474
0
LINE
8
Layer 1
10
259.245298
20
172.319474
11
259.091972
21
172.244797
0
LINE
8
Layer 1
10
259.091972
20
172.244797
11
263.755519
21
158.759085
0
LINE
8
Layer 1
10
263.755519
20
158.759085
11
264.806148
21
156.642418
0
LINE
8
Layer 1
10
264.806148
20
156.642418
11
265.441972
21
155.654640
0
LINE
8
Layer 1
10
265.441972
20
155.654640
11
265.527734
21
156.682279
0
LINE
8
Layer 1
10
265.527734
20
156.682279
11
265.455467
21
157.444185
0
LINE
8
Layer 1
10
265.455467
20
157.444185
11
265.120225
21
158.679610
0
LINE
8
Layer 1
10
265.120225
20
158.679610
11
263.514586
21
163.032279
0
LINE
8
Layer 1
10
263.514586
20
163.032279
11
263.514586
21
163.032279
0
LINE
8
Layer 1
10
45.995390
20
157.266578
11
47.208442
21
160.336986
0
LINE
8
Layer 1
10
47.208442
20
160.336986
11
49.422087
21
166.610007
0
LINE
8
Layer 1
10
49.422087
20
166.610007
11
50.856853
21
171.002239
0
LINE
8
Layer 1
10
50.856853
20
171.002239
11
51.035570
21
171.888102
0
LINE
8
Layer 1
10
51.035570
20
171.888102
11
50.912841
21
172.113341
0
LINE
8
Layer 1
10
50.912841
20
172.113341
11
50.503493
21
171.478394
0
LINE
8
Layer 1
10
50.503493
20
171.478394
11
49.750575
21
169.859271
0
LINE
8
Layer 1
10
49.750575
20
169.859271
11
47.704696
21
164.910362
0
LINE
8
Layer 1
10
47.704696
20
164.910362
11
45.756526
21
159.750342
0
LINE
8
Layer 1
10
45.756526
20
159.750342
11
44.887391
21
156.862941
0
LINE
8
Layer 1
10
44.887391
20
156.862941
11
44.985136
21
156.335916
0
LINE
8
Layer 1
10
44.985136
20
156.335916
11
45.242419
21
156.242098
0
LINE
8
Layer 1
10
45.242419
20
156.242098
11
45.599188
21
156.559611
0
LINE
8
Layer 1
10
45.599188
20
156.559611
11
45.995390
21
157.266578
0
LINE
8
Layer 1
10
45.995390
20
157.266578
11
45.995390
21
157.266578
0
LINE
8
Layer 1
10
128.705305
20
157.192782
11
134.632630
21
158.265575
0
LINE
8
Layer 1
10
134.632630
20
158.265575
11
140.872478
21
159.003036
0
LINE
8
Layer 1
10
140.872478
20
159.003036
11
147.731518
21
159.432481
0
LINE
8
Layer 1
10
147.731518
20
159.432481
11
155.516416
21
159.581232
0
LINE
8
Layer 1
10
155.516416
20
159.581232
11
162.840362
21
159.462700
0
LINE
8
Layer 1
10
162.840362
20
159.462700
11
169.300412
21
159.038729
0
LINE
8
Layer 1
10
169.300412
20
159.038729
11
175.446663
21
158.256691
0
LINE
8
Layer 1
10
175.446663
20
158.256691
11
181.829210
21
157.063959
0
LINE
8
Layer 1
10
181.829210
20
157.063959
11
184.867527
21
156.420476
0
LINE
8
Layer 1
10
184.867527
20
156.420476
11
184.867527
21
164.424812
0
LINE
8
Layer 1
10
184.867527
20
164.424812
11
184.794857
21
170.757048
0
LINE
8
Layer 1
10
184.794857
20
170.757048
11
184.686555
21
172.003062
0
LINE
8
Layer 1
10
184.686555
20
172.003062
11
184.514750
21
172.316275
0
LINE
8
Layer 1
10
184.514750
20
172.316275
11
181.342968
21
171.544399
0
LINE
8
Layer 1
10
181.342968
20
171.544399
11
176.667844
21
170.676639
0
LINE
8
Layer 1
10
176.667844
20
170.676639
11
171.488812
21
169.881636
0
LINE
8
Layer 1
10
171.488812
20
169.881636
11
166.805305
21
169.328033
0
LINE
8
Layer 1
10
166.805305
20
169.328033
11
161.940471
21
169.077403
0
LINE
8
Layer 1
10
161.940471
20
169.077403
11
155.566472
21
168.991988
0
LINE
8
Layer 1
10
155.566472
20
168.991988
11
149.132167
21
169.072358
0
LINE
8
Layer 1
10
149.132167
20
169.072358
11
144.086416
21
169.319084
0
LINE
8
Layer 1
10
144.086416
20
169.319084
11
138.732436
21
169.888369
0
LINE
8
Layer 1
10
138.732436
20
169.888369
11
133.391099
21
170.648407
0
LINE
8
Layer 1
10
133.391099
20
170.648407
11
128.723116
21
171.493260
0
LINE
8
Layer 1
10
128.723116
20
171.493260
11
125.389194
21
172.316989
0
LINE
8
Layer 1
10
125.389194
20
172.316989
11
125.217382
21
172.001227
0
LINE
8
Layer 1
10
125.217382
20
172.001227
11
125.109080
21
170.747223
0
LINE
8
Layer 1
10
125.109080
20
170.747223
11
125.036416
21
164.375654
0
LINE
8
Layer 1
10
125.036416
20
164.375654
11
125.109984
21
157.544130
0
LINE
8
Layer 1
10
125.109984
20
157.544130
11
125.258086
21
156.587711
0
LINE
8
Layer 1
10
125.258086
20
156.587711
11
125.376341
21
156.462299
0
LINE
8
Layer 1
10
125.376341
20
156.462299
11
125.530305
21
156.472261
0
LINE
8
Layer 1
10
125.530305
20
156.472261
11
128.705305
21
157.192782
0
LINE
8
Layer 1
10
128.705305
20
157.192782
11
128.705305
21
157.192782
0
LINE
8
Layer 1
10
50.583219
20
158.133994
11
52.855962
21
159.271446
0
LINE
8
Layer 1
10
52.855962
20
159.271446
11
53.096971
21
159.622849
0
LINE
8
Layer 1
10
53.096971
20
159.622849
11
53.007875
21
160.038994
0
LINE
8
Layer 1
10
53.007875
20
160.038994
11
52.849312
21
160.922655
0
LINE
8
Layer 1
10
52.849312
20
160.922655
11
53.097055
21
162.281394
0
LINE
8
Layer 1
10
53.097055
20
162.281394
11
55.430527
21
168.615741
0
LINE
8
Layer 1
10
55.430527
20
168.615741
11
57.749618
21
174.916626
0
LINE
8
Layer 1
10
57.749618
20
174.916626
11
57.011692
21
174.725663
0
LINE
8
Layer 1
10
57.011692
20
174.725663
11
55.540990
21
174.109148
0
LINE
8
Layer 1
10
55.540990
20
174.109148
11
54.060373
21
173.393391
0
LINE
8
Layer 1
10
54.060373
20
173.393391
11
53.292697
21
172.904700
0
LINE
8
Layer 1
10
53.292697
20
172.904700
11
50.799557
21
165.816235
0
LINE
8
Layer 1
10
50.799557
20
165.816235
11
48.107165
21
158.292207
0
LINE
8
Layer 1
10
48.107165
20
158.292207
11
47.733267
21
157.345827
0
LINE
8
Layer 1
10
47.733267
20
157.345827
11
47.706022
21
157.039849
0
LINE
8
Layer 1
10
47.706022
20
157.039849
11
47.802887
21
156.924640
0
LINE
8
Layer 1
10
47.802887
20
156.924640
11
50.583219
21
158.133994
0
LINE
8
Layer 1
10
50.583219
20
158.133994
11
50.583219
21
158.133994
0
LINE
8
Layer 1
10
262.760861
20
157.093655
11
262.371710
21
158.151988
0
LINE
8
Layer 1
10
262.371710
20
158.151988
11
259.655448
21
165.854860
0
LINE
8
Layer 1
10
259.655448
20
165.854860
11
257.151821
21
172.942448
0
LINE
8
Layer 1
10
257.151821
20
172.942448
11
255.034384
21
174.064129
0
LINE
8
Layer 1
10
255.034384
20
174.064129
11
252.951488
21
174.867118
0
LINE
8
Layer 1
10
252.951488
20
174.867118
11
255.047296
21
168.607808
0
LINE
8
Layer 1
10
255.047296
20
168.607808
11
256.782884
21
163.356313
0
LINE
8
Layer 1
10
256.782884
20
163.356313
11
257.118537
21
161.912877
0
LINE
8
Layer 1
10
257.118537
20
161.912877
11
257.206053
21
160.875751
0
LINE
8
Layer 1
10
257.206053
20
160.875751
11
257.189526
21
159.323529
0
LINE
8
Layer 1
10
257.189526
20
159.323529
11
259.763525
21
158.150721
0
LINE
8
Layer 1
10
259.763525
20
158.150721
11
262.271721
21
157.058261
0
LINE
8
Layer 1
10
262.271721
20
157.058261
11
262.671100
21
156.969388
0
LINE
8
Layer 1
10
262.671100
20
156.969388
11
262.760861
21
157.093655
0
LINE
8
Layer 1
10
262.760861
20
157.093655
11
262.760861
21
157.093655
0
LINE
8
Layer 1
10
253.306397
20
168.919085
11
250.969916
21
175.191502
0
LINE
8
Layer 1
10
250.969916
20
175.191502
11
250.294113
21
176.419985
0
LINE
8
Layer 1
10
250.294113
20
176.419985
11
250.050443
21
176.621394
0
LINE
8
Layer 1
10
250.050443
20
176.621394
11
249.858592
21
176.572000
0
LINE
8
Layer 1
10
249.858592
20
176.572000
11
251.291146
21
171.565474
0
LINE
8
Layer 1
10
251.291146
20
171.565474
11
253.554312
21
164.262418
0
LINE
8
Layer 1
10
253.554312
20
164.262418
11
254.256881
21
162.278043
0
LINE
8
Layer 1
10
254.256881
20
162.278043
11
254.923380
21
160.875751
0
LINE
8
Layer 1
10
254.923380
20
160.875751
11
255.564194
21
159.887974
0
LINE
8
Layer 1
10
255.564194
20
159.887974
11
255.645581
21
160.875751
0
LINE
8
Layer 1
10
255.645581
20
160.875751
11
255.108869
21
163.362549
0
LINE
8
Layer 1
10
255.108869
20
163.362549
11
253.306397
21
168.919085
0
LINE
8
Layer 1
10
253.306397
20
168.919085
11
253.306397
21
168.919085
0
LINE
8
Layer 1
10
58.383845
20
169.121974
11
60.880854
21
176.583165
0
LINE
8
Layer 1
10
60.880854
20
176.583165
11
60.344318
21
176.324503
0
LINE
8
Layer 1
10
60.344318
20
176.324503
11
59.172956
21
173.882467
0
LINE
8
Layer 1
10
59.172956
20
173.882467
11
57.185134
21
168.892149
0
LINE
8
Layer 1
10
57.185134
20
168.892149
11
55.313173
21
163.791098
0
LINE
8
Layer 1
10
55.313173
20
163.791098
11
54.489398
21
161.016863
0
LINE
8
Layer 1
10
54.489398
20
161.016863
11
54.501161
21
160.170196
0
LINE
8
Layer 1
10
54.501161
20
160.170196
11
55.148398
21
160.961090
0
LINE
8
Layer 1
10
55.148398
20
160.961090
11
56.365797
21
163.684593
0
LINE
8
Layer 1
10
56.365797
20
163.684593
11
58.383845
21
169.121974
0
LINE
8
Layer 1
10
58.383845
20
169.121974
11
58.383845
21
169.121974
0
LINE
8
Layer 1
10
60.292333
20
162.419631
11
62.576030
21
163.456428
0
LINE
8
Layer 1
10
62.576030
20
163.456428
11
62.292422
21
164.518961
0
LINE
8
Layer 1
10
62.292422
20
164.518961
11
62.204847
21
165.275165
0
LINE
8
Layer 1
10
62.204847
20
165.275165
11
62.447966
21
166.446461
0
LINE
8
Layer 1
10
62.447966
20
166.446461
11
64.598412
21
172.303197
0
LINE
8
Layer 1
10
64.598412
20
172.303197
11
67.081583
21
179.131324
0
LINE
8
Layer 1
10
67.081583
20
179.131324
11
64.930466
21
178.310354
0
LINE
8
Layer 1
10
64.930466
20
178.310354
11
62.885772
21
177.382957
0
LINE
8
Layer 1
10
62.885772
20
177.382957
11
60.210858
21
169.764354
0
LINE
8
Layer 1
10
60.210858
20
169.764354
11
57.374147
21
161.604260
0
LINE
8
Layer 1
10
57.374147
20
161.604260
11
57.293878
21
161.261965
0
LINE
8
Layer 1
10
57.293878
20
161.261965
11
57.542316
21
161.224758
0
LINE
8
Layer 1
10
57.542316
20
161.224758
11
60.292333
21
162.419631
0
LINE
8
Layer 1
10
60.292333
20
162.419631
11
60.292333
21
162.419631
0
LINE
8
Layer 1
10
252.768199
20
161.896953
11
250.293708
21
169.771698
0
LINE
8
Layer 1
10
250.293708
20
169.771698
11
247.994492
21
177.189683
0
LINE
8
Layer 1
10
247.994492
20
177.189683
11
245.735678
21
178.205534
0
LINE
8
Layer 1
10
245.735678
20
178.205534
11
243.386088
21
179.130610
0
LINE
8
Layer 1
10
243.386088
20
179.130610
11
245.871122
21
172.315454
0
LINE
8
Layer 1
10
245.871122
20
172.315454
11
247.988230
21
166.513165
0
LINE
8
Layer 1
10
247.988230
20
166.513165
11
248.249443
21
165.317415
0
LINE
8
Layer 1
10
248.249443
20
165.317415
11
248.183603
21
164.573969
0
LINE
8
Layer 1
10
248.183603
20
164.573969
11
247.920276
21
163.556863
0
LINE
8
Layer 1
10
247.920276
20
163.556863
11
250.048900
21
162.520554
0
LINE
8
Layer 1
10
250.048900
20
162.520554
11
252.405589
21
161.516794
0
LINE
8
Layer 1
10
252.405589
20
161.516794
11
252.790303
21
161.544398
0
LINE
8
Layer 1
10
252.790303
20
161.544398
11
252.768199
21
161.896953
0
LINE
8
Layer 1
10
252.768199
20
161.896953
11
252.768199
21
161.896953
0
LINE
8
Layer 1
10
72.825305
20
183.750255
11
130.963083
21
210.196179
0
LINE
8
Layer 1
10
130.963083
20
210.196179
11
145.779750
21
216.943971
0
LINE
8
Layer 1
10
145.779750
20
216.943971
11
145.860747
21
219.519672
0
LINE
8
Layer 1
10
145.860747
20
219.519672
11
145.941742
21
222.095376
0
LINE
8
Layer 1
10
145.941742
20
222.095376
11
143.885192
21
221.156609
0
LINE
8
Layer 1
10
143.885192
20
221.156609
11
47.143083
21
176.981592
0
LINE
8
Layer 1
10
47.143083
20
176.981592
11
32.533257
21
170.201913
0
LINE
8
Layer 1
10
32.533257
20
170.201913
11
26.188084
21
167.046735
0
LINE
8
Layer 1
10
26.188084
20
167.046735
11
25.829320
21
166.487223
0
LINE
8
Layer 1
10
25.829320
20
166.487223
11
25.721662
21
165.939891
0
LINE
8
Layer 1
10
25.721662
20
165.939891
11
25.866258
21
165.369973
0
LINE
8
Layer 1
10
25.866258
20
165.369973
11
26.264255
21
164.742704
0
LINE
8
Layer 1
10
26.264255
20
164.742704
11
26.758614
21
164.257119
0
LINE
8
Layer 1
10
26.758614
20
164.257119
11
27.335782
21
163.961503
0
LINE
8
Layer 1
10
27.335782
20
163.961503
11
28.010783
21
163.850985
0
LINE
8
Layer 1
10
28.010783
20
163.850985
11
28.798639
21
163.920695
0
LINE
8
Layer 1
10
28.798639
20
163.920695
11
72.825305
21
183.750255
0
LINE
8
Layer 1
10
72.825305
20
183.750255
11
72.825305
21
183.750255
0
LINE
8
Layer 1
10
284.107241
20
164.611891
11
284.643886
21
165.739264
0
LINE
8
Layer 1
10
284.643886
20
165.739264
11
284.652769
21
166.477923
0
LINE
8
Layer 1
10
284.652769
20
166.477923
11
284.145313
21
167.123073
0
LINE
8
Layer 1
10
284.145313
20
167.123073
11
265.310895
21
175.949195
0
LINE
8
Layer 1
10
265.310895
20
175.949195
11
224.453842
21
194.766808
0
LINE
8
Layer 1
10
224.453842
20
194.766808
11
183.384328
21
213.562614
0
LINE
8
Layer 1
10
183.384328
20
213.562614
11
163.912527
21
222.323313
0
LINE
8
Layer 1
10
163.912527
20
222.323313
11
163.648409
21
222.326667
0
LINE
8
Layer 1
10
163.648409
20
222.326667
11
163.499407
21
222.045940
0
LINE
8
Layer 1
10
163.499407
20
222.045940
11
163.418639
21
220.039960
0
LINE
8
Layer 1
10
163.418639
20
220.039960
11
163.418639
21
217.613890
0
LINE
8
Layer 1
10
163.418639
20
217.613890
11
164.476972
21
217.076189
0
LINE
8
Layer 1
10
164.476972
20
217.076189
11
223.787807
21
190.008705
0
LINE
8
Layer 1
10
223.787807
20
190.008705
11
281.387527
21
163.984692
0
LINE
8
Layer 1
10
281.387527
20
163.984692
11
282.079059
21
163.914021
0
LINE
8
Layer 1
10
282.079059
20
163.914021
11
282.855485
21
164.016359
0
LINE
8
Layer 1
10
282.855485
20
164.016359
11
283.577861
21
164.259663
0
LINE
8
Layer 1
10
283.577861
20
164.259663
11
284.107241
21
164.611891
0
LINE
8
Layer 1
10
284.107241
20
164.611891
11
284.107241
21
164.611891
0
LINE
8
Layer 1
10
64.845729
20
165.602974
11
67.809130
21
173.553477
0
LINE
8
Layer 1
10
67.809130
20
173.553477
11
69.513839
21
178.521381
0
LINE
8
Layer 1
10
69.513839
20
178.521381
11
70.194636
21
180.816052
0
LINE
8
Layer 1
10
70.194636
20
180.816052
11
70.019187
21
180.849682
0
LINE
8
Layer 1
10
70.019187
20
180.849682
11
69.782493
21
180.640099
0
LINE
8
Layer 1
10
69.782493
20
180.640099
11
69.085048
21
179.406710
0
LINE
8
Layer 1
10
69.085048
20
179.406710
11
66.511622
21
173.090919
0
LINE
8
Layer 1
10
66.511622
20
173.090919
11
64.102902
21
166.352486
0
LINE
8
Layer 1
10
64.102902
20
166.352486
11
63.808267
21
164.955511
0
LINE
8
Layer 1
10
63.808267
20
164.955511
11
63.856990
21
164.642222
0
LINE
8
Layer 1
10
63.856990
20
164.642222
11
64.024448
21
164.544640
0
LINE
8
Layer 1
10
64.024448
20
164.544640
11
64.360678
21
164.855526
0
LINE
8
Layer 1
10
64.360678
20
164.855526
11
64.845729
21
165.602974
0
LINE
8
Layer 1
10
64.845729
20
165.602974
11
64.845729
21
165.602974
0
LINE
8
Layer 1
10
246.674194
20
165.403578
11
246.253007
21
167.063610
0
LINE
8
Layer 1
10
246.253007
20
167.063610
11
245.240364
21
169.848578
0
LINE
8
Layer 1
10
245.240364
20
169.848578
11
242.528968
21
176.821307
0
LINE
8
Layer 1
10
242.528968
20
176.821307
11
241.090616
21
180.201013
0
LINE
8
Layer 1
10
241.090616
20
180.201013
11
240.631502
21
180.832148
0
LINE
8
Layer 1
10
240.631502
20
180.832148
11
240.299172
21
180.841469
0
LINE
8
Layer 1
10
240.299172
20
180.841469
11
240.299302
21
180.357818
0
LINE
8
Layer 1
10
240.299302
20
180.357818
11
240.551778
21
179.447159
0
LINE
8
Layer 1
10
240.551778
20
179.447159
11
242.975872
21
172.518984
0
LINE
8
Layer 1
10
242.975872
20
172.518984
11
245.281054
21
166.315813
0
LINE
8
Layer 1
10
245.281054
20
166.315813
11
245.952157
21
164.959632
0
LINE
8
Layer 1
10
245.952157
20
164.959632
11
246.397707
21
164.544640
0
LINE
8
Layer 1
10
246.397707
20
164.544640
11
246.592977
21
164.796954
0
LINE
8
Layer 1
10
246.592977
20
164.796954
11
246.674194
21
165.403578
0
LINE
8
Layer 1
10
246.674194
20
165.403578
11
246.674194
21
165.403578
0
LINE
8
Layer 1
10
70.621923
20
166.990911
11
71.216530
21
167.256856
0
LINE
8
Layer 1
10
71.216530
20
167.256856
11
71.509866
21
167.530781
0
LINE
8
Layer 1
10
71.509866
20
167.530781
11
71.582678
21
167.969942
0
LINE
8
Layer 1
10
71.582678
20
167.969942
11
71.515712
21
168.731596
0
LINE
8
Layer 1
10
71.515712
20
168.731596
11
71.518036
21
169.638635
0
LINE
8
Layer 1
10
71.518036
20
169.638635
11
71.821402
21
170.936348
0
LINE
8
Layer 1
10
71.821402
20
170.936348
11
73.926294
21
176.661146
0
LINE
8
Layer 1
10
73.926294
20
176.661146
11
76.407024
21
183.352553
0
LINE
8
Layer 1
10
76.407024
20
183.352553
11
72.314661
21
181.592624
0
LINE
8
Layer 1
10
72.314661
20
181.592624
11
69.726889
21
174.382145
0
LINE
8
Layer 1
10
69.726889
20
174.382145
11
66.777489
21
166.169729
0
LINE
8
Layer 1
10
66.777489
20
166.169729
11
66.328550
21
165.113708
0
LINE
8
Layer 1
10
66.328550
20
165.113708
11
67.954150
21
165.840156
0
LINE
8
Layer 1
10
67.954150
20
165.840156
11
70.621923
21
166.990911
0
LINE
8
Layer 1
10
70.621923
20
166.990911
11
70.621923
21
166.990911
0
LINE
8
Layer 1
10
243.695451
20
166.090208
11
240.751456
21
174.316754
0
LINE
8
Layer 1
10
240.751456
20
174.316754
11
238.141908
21
181.609114
0
LINE
8
Layer 1
10
238.141908
20
181.609114
11
234.057955
21
183.343288
0
LINE
8
Layer 1
10
234.057955
20
183.343288
11
236.550770
21
176.669883
0
LINE
8
Layer 1
10
236.550770
20
176.669883
11
238.642559
21
170.952517
0
LINE
8
Layer 1
10
238.642559
20
170.952517
11
238.948879
21
169.648688
0
LINE
8
Layer 1
10
238.948879
20
169.648688
11
238.954493
21
168.747488
0
LINE
8
Layer 1
10
238.954493
20
168.747488
11
238.808057
21
167.447000
0
LINE
8
Layer 1
10
238.808057
20
167.447000
11
241.400570
21
166.296950
0
LINE
8
Layer 1
10
241.400570
20
166.296950
11
244.049237
21
165.127991
0
LINE
8
Layer 1
10
244.049237
20
165.127991
11
243.695451
21
166.090208
0
LINE
8
Layer 1
10
243.695451
20
166.090208
11
243.695451
21
166.090208
0
LINE
8
Layer 1
10
74.626306
20
170.894640
11
79.512789
21
185.044563
0
LINE
8
Layer 1
10
79.512789
20
185.044563
11
79.337015
21
185.080760
0
LINE
8
Layer 1
10
79.337015
20
185.080760
11
79.101222
21
184.876446
0
LINE
8
Layer 1
10
79.101222
20
184.876446
11
78.408043
21
183.659564
0
LINE
8
Layer 1
10
78.408043
20
183.659564
11
75.844575
21
177.385751
0
LINE
8
Layer 1
10
75.844575
20
177.385751
11
73.467512
21
170.947252
0
LINE
8
Layer 1
10
73.467512
20
170.947252
11
73.113959
21
169.604359
0
LINE
8
Layer 1
10
73.113959
20
169.604359
11
73.081303
21
168.777974
0
LINE
8
Layer 1
10
73.081303
20
168.777974
11
73.143671
21
168.633720
0
LINE
8
Layer 1
10
73.143671
20
168.633720
11
73.276884
21
168.652154
0
LINE
8
Layer 1
10
73.276884
20
168.652154
11
73.688875
21
169.085329
0
LINE
8
Layer 1
10
73.688875
20
169.085329
11
74.626306
21
170.894640
0
LINE
8
Layer 1
10
74.626306
20
170.894640
11
74.626306
21
170.894640
0
LINE
8
Layer 1
10
237.486774
20
169.722063
11
235.245439
21
175.833529
0
LINE
8
Layer 1
10
235.245439
20
175.833529
11
232.559891
21
182.813980
0
LINE
8
Layer 1
10
232.559891
20
182.813980
11
231.672084
21
184.695360
0
LINE
8
Layer 1
10
231.672084
20
184.695360
11
231.288196
21
185.097367
0
LINE
8
Layer 1
10
231.288196
20
185.097367
11
230.988159
21
185.077125
0
LINE
8
Layer 1
10
230.988159
20
185.077125
11
231.675623
21
182.634401
0
LINE
8
Layer 1
10
231.675623
20
182.634401
11
233.459518
21
177.418601
0
LINE
8
Layer 1
10
233.459518
20
177.418601
11
235.403731
21
172.079918
0
LINE
8
Layer 1
10
235.403731
20
172.079918
11
236.572146
21
169.268544
0
LINE
8
Layer 1
10
236.572146
20
169.268544
11
237.039548
21
168.762771
0
LINE
8
Layer 1
10
237.039548
20
168.762771
11
237.380960
21
168.686215
0
LINE
8
Layer 1
10
237.380960
20
168.686215
11
237.546621
21
169.014203
0
LINE
8
Layer 1
10
237.546621
20
169.014203
11
237.486774
21
169.722063
0
LINE
8
Layer 1
10
237.486774
20
169.722063
11
237.486774
21
169.722063
0
LINE
8
Layer 1
10
78.328639
20
170.445263
11
80.304194
21
171.332378
0
LINE
8
Layer 1
10
80.304194
20
171.332378
11
83.060080
21
179.411328
0
LINE
8
Layer 1
10
83.060080
20
179.411328
11
85.741191
21
187.554845
0
LINE
8
Layer 1
10
85.741191
20
187.554845
11
83.552366
21
186.594804
0
LINE
8
Layer 1
10
83.552366
20
186.594804
11
81.438313
21
185.570196
0
LINE
8
Layer 1
10
81.438313
20
185.570196
11
78.864739
21
178.232418
0
LINE
8
Layer 1
10
78.864739
20
178.232418
11
75.964085
21
170.086316
0
LINE
8
Layer 1
10
75.964085
20
170.086316
11
75.764803
21
169.567625
0
LINE
8
Layer 1
10
75.764803
20
169.567625
11
75.777462
21
169.447437
0
LINE
8
Layer 1
10
75.777462
20
169.447437
11
75.910484
21
169.426926
0
LINE
8
Layer 1
10
75.910484
20
169.426926
11
78.328639
21
170.445263
0
LINE
8
Layer 1
10
78.328639
20
170.445263
11
78.328639
21
170.445263
0
LINE
8
Layer 1
10
234.379403
20
170.434305
11
231.465236
21
178.548194
0
LINE
8
Layer 1
10
231.465236
20
178.548194
11
228.987954
21
185.570196
0
LINE
8
Layer 1
10
228.987954
20
185.570196
11
226.894963
21
186.592151
0
LINE
8
Layer 1
10
226.894963
20
186.592151
11
224.728603
21
187.553597
0
LINE
8
Layer 1
10
224.728603
20
187.553597
11
227.409714
21
179.415093
0
LINE
8
Layer 1
10
227.409714
20
179.415093
11
230.164194
21
171.337100
0
LINE
8
Layer 1
10
230.164194
20
171.337100
11
232.280861
21
170.359928
0
LINE
8
Layer 1
10
232.280861
20
170.359928
11
234.606908
21
169.362586
0
LINE
8
Layer 1
10
234.606908
20
169.362586
11
234.626448
21
169.669084
0
LINE
8
Layer 1
10
234.626448
20
169.669084
11
234.379403
21
170.434305
0
LINE
8
Layer 1
10
234.379403
20
170.434305
11
234.379403
21
170.434305
0
LINE
8
Layer 1
10
28.798639
20
170.180186
11
29.786416
21
170.712074
0
LINE
8
Layer 1
10
29.786416
20
170.712074
11
28.798639
21
171.136812
0
LINE
8
Layer 1
10
28.798639
20
171.136812
11
21.179740
21
174.379565
0
LINE
8
Layer 1
10
21.179740
20
174.379565
11
17.321208
21
176.059374
0
LINE
8
Layer 1
10
17.321208
20
176.059374
11
15.102920
21
177.155132
0
LINE
8
Layer 1
10
15.102920
20
177.155132
11
14.195744
21
177.856042
0
LINE
8
Layer 1
10
14.195744
20
177.856042
11
14.130968
21
178.117554
0
LINE
8
Layer 1
10
14.130968
20
178.117554
11
14.270545
21
178.351304
0
LINE
8
Layer 1
10
14.270545
20
178.351304
11
26.823084
21
184.313692
0
LINE
8
Layer 1
10
26.823084
20
184.313692
11
52.505305
21
196.217083
0
LINE
8
Layer 1
10
52.505305
20
196.217083
11
62.338228
21
200.669084
0
LINE
8
Layer 1
10
62.338228
20
200.669084
11
66.757527
21
202.447282
0
LINE
8
Layer 1
10
66.757527
20
202.447282
11
69.798681
21
201.444992
0
LINE
8
Layer 1
10
69.798681
20
201.444992
11
75.936035
21
199.009294
0
LINE
8
Layer 1
10
75.936035
20
199.009294
11
84.267878
21
195.557640
0
LINE
8
Layer 1
10
84.267878
20
195.557640
11
85.531590
21
196.105949
0
LINE
8
Layer 1
10
85.531590
20
196.105949
11
86.795305
21
196.654259
0
LINE
8
Layer 1
10
86.795305
20
196.654259
11
85.384194
21
197.273294
0
LINE
8
Layer 1
10
85.384194
20
197.273294
11
75.722709
21
201.267466
0
LINE
8
Layer 1
10
75.722709
20
201.267466
11
67.472334
21
204.642604
0
LINE
8
Layer 1
10
67.472334
20
204.642604
11
60.200486
21
201.273097
0
LINE
8
Layer 1
10
60.200486
20
201.273097
11
34.443083
21
189.435063
0
LINE
8
Layer 1
10
34.443083
20
189.435063
11
13.168961
21
179.638443
0
LINE
8
Layer 1
10
13.168961
20
179.638443
11
10.714808
21
178.378665
0
LINE
8
Layer 1
10
10.714808
20
178.378665
11
10.428060
21
178.130942
0
LINE
8
Layer 1
10
10.428060
20
178.130942
11
10.347091
21
177.937056
0
LINE
8
Layer 1
10
10.347091
20
177.937056
11
10.311500
21
177.468380
0
LINE
8
Layer 1
10
10.311500
20
177.468380
11
10.515747
21
177.062150
0
LINE
8
Layer 1
10
10.515747
20
177.062150
11
19.003468
21
173.278263
0
LINE
8
Layer 1
10
19.003468
20
173.278263
11
27.669750
21
169.665052
0
LINE
8
Layer 1
10
27.669750
20
169.665052
11
28.798639
21
170.180186
0
LINE
8
Layer 1
10
28.798639
20
170.180186
11
28.798639
21
170.180186
0
LINE
8
Layer 1
10
291.406411
20
173.281681
11
297.298392
21
175.814240
0
LINE
8
Layer 1
10
297.298392
20
175.814240
11
299.971178
21
177.086404
0
LINE
8
Layer 1
10
299.971178
20
177.086404
11
300.245778
21
177.435895
0
LINE
8
Layer 1
10
300.245778
20
177.435895
11
300.108497
21
177.855403
0
LINE
8
Layer 1
10
300.108497
20
177.855403
11
299.240485
21
178.507376
0
LINE
8
Layer 1
10
299.240485
20
178.507376
11
297.322893
21
179.554259
0
LINE
8
Layer 1
10
297.322893
20
179.554259
11
289.063575
21
183.482538
0
LINE
8
Layer 1
10
289.063575
20
183.482538
11
272.779750
21
190.939807
0
LINE
8
Layer 1
10
272.779750
20
190.939807
11
251.996979
21
200.496049
0
LINE
8
Layer 1
10
251.996979
20
200.496049
11
243.067541
21
204.640321
0
LINE
8
Layer 1
10
243.067541
20
204.640321
11
233.653657
21
200.807269
0
LINE
8
Layer 1
10
233.653657
20
200.807269
11
224.013883
21
196.748329
0
LINE
8
Layer 1
10
224.013883
20
196.748329
11
224.216190
21
196.450609
0
LINE
8
Layer 1
10
224.216190
20
196.450609
11
225.019788
21
196.052017
0
LINE
8
Layer 1
10
225.019788
20
196.052017
11
226.251581
21
195.581589
0
LINE
8
Layer 1
10
226.251581
20
195.581589
11
234.557886
21
199.000993
0
LINE
8
Layer 1
10
234.557886
20
199.000993
11
243.334834
21
202.559356
0
LINE
8
Layer 1
10
243.334834
20
202.559356
11
245.435253
21
201.798348
0
LINE
8
Layer 1
10
245.435253
20
201.798348
11
251.480141
21
199.134106
0
LINE
8
Layer 1
10
251.480141
20
199.134106
11
277.859750
21
186.988032
0
LINE
8
Layer 1
10
277.859750
20
186.988032
11
292.394188
21
180.248585
0
LINE
8
Layer 1
10
292.394188
20
180.248585
11
295.203825
21
178.874936
0
LINE
8
Layer 1
10
295.203825
20
178.874936
11
295.945486
21
178.381100
0
LINE
8
Layer 1
10
295.945486
20
178.381100
11
296.259769
21
177.959487
0
LINE
8
Layer 1
10
296.259769
20
177.959487
11
296.157717
21
177.567770
0
LINE
8
Layer 1
10
296.157717
20
177.567770
11
295.650377
21
177.163622
0
LINE
8
Layer 1
10
295.650377
20
177.163622
11
293.464008
21
176.148729
0
LINE
8
Layer 1
10
293.464008
20
176.148729
11
285.535201
21
172.800419
0
LINE
8
Layer 1
10
285.535201
20
172.800419
11
280.510646
21
170.672117
0
LINE
8
Layer 1
10
280.510646
20
170.672117
11
281.584087
21
170.171347
0
LINE
8
Layer 1
10
281.584087
20
170.171347
11
282.939744
21
169.761075
0
LINE
8
Layer 1
10
282.939744
20
169.761075
11
291.406411
21
173.281681
0
LINE
8
Layer 1
10
291.406411
20
173.281681
11
291.406411
21
173.281681
0
LINE
8
Layer 1
10
162.396929
20
170.980851
11
162.130847
21
206.752517
0
LINE
8
Layer 1
10
162.130847
20
206.752517
11
161.457626
21
268.825751
0
LINE
8
Layer 1
10
161.457626
20
268.825751
11
161.275894
21
285.249748
0
LINE
8
Layer 1
10
161.275894
20
285.249748
11
161.031930
21
294.049420
0
LINE
8
Layer 1
10
161.031930
20
294.049420
11
160.826101
21
296.687232
0
LINE
8
Layer 1
10
160.826101
20
296.687232
11
160.532104
21
298.735483
0
LINE
8
Layer 1
10
160.532104
20
298.735483
11
159.582787
21
302.818656
0
LINE
8
Layer 1
10
159.582787
20
302.818656
11
157.825649
21
308.683874
0
LINE
8
Layer 1
10
157.825649
20
308.683874
11
156.800752
21
311.415727
0
LINE
8
Layer 1
10
156.800752
20
311.415727
11
155.744418
21
313.824177
0
LINE
8
Layer 1
10
155.744418
20
313.824177
11
154.954496
21
315.373969
0
LINE
8
Layer 1
10
154.954496
20
315.373969
11
154.660845
21
315.730641
0
LINE
8
Layer 1
10
154.660845
20
315.730641
11
154.384805
21
315.792520
0
LINE
8
Layer 1
10
154.384805
20
315.792520
11
154.088927
21
315.547620
0
LINE
8
Layer 1
10
154.088927
20
315.547620
11
153.735763
21
314.983959
0
LINE
8
Layer 1
10
153.735763
20
314.983959
11
152.707789
21
312.852418
0
LINE
8
Layer 1
10
152.707789
20
312.852418
11
151.120209
21
309.129758
0
LINE
8
Layer 1
10
151.120209
20
309.129758
11
149.817171
21
305.350511
0
LINE
8
Layer 1
10
149.817171
20
305.350511
11
148.758145
21
301.381735
0
LINE
8
Layer 1
10
148.758145
20
301.381735
11
147.902603
21
297.090485
0
LINE
8
Layer 1
10
147.902603
20
297.090485
11
147.586685
21
294.741220
0
LINE
8
Layer 1
10
147.586685
20
294.741220
11
147.415739
21
291.165699
0
LINE
8
Layer 1
10
147.415739
20
291.165699
11
147.332082
21
272.819374
0
LINE
8
Layer 1
10
147.332082
20
272.819374
11
147.519901
21
211.464085
0
LINE
8
Layer 1
10
147.519901
20
211.464085
11
147.707615
21
171.035751
0
LINE
8
Layer 1
10
147.707615
20
171.035751
11
149.918682
21
171.035751
0
LINE
8
Layer 1
10
149.918682
20
171.035751
11
152.129750
21
171.035751
0
LINE
8
Layer 1
10
152.129750
20
171.035751
11
152.129750
21
231.912205
0
LINE
8
Layer 1
10
152.129750
20
231.912205
11
152.129750
21
292.788659
0
LINE
8
Layer 1
10
152.129750
20
292.788659
11
152.898193
21
296.997419
0
LINE
8
Layer 1
10
152.898193
20
296.997419
11
153.396256
21
299.477823
0
LINE
8
Layer 1
10
153.396256
20
299.477823
11
153.817890
21
300.901744
0
LINE
8
Layer 1
10
153.817890
20
300.901744
11
154.231353
21
301.428632
0
LINE
8
Layer 1
10
154.231353
20
301.428632
11
154.704900
21
301.217934
0
LINE
8
Layer 1
10
154.704900
20
301.217934
11
155.151108
21
299.910294
0
LINE
8
Layer 1
10
155.151108
20
299.910294
11
155.831506
21
297.158793
0
LINE
8
Layer 1
10
155.831506
20
297.158793
11
156.678678
21
293.379085
0
LINE
8
Layer 1
10
156.678678
20
293.379085
11
156.918513
21
232.277974
0
LINE
8
Layer 1
10
156.918513
20
232.277974
11
157.184048
21
171.120390
0
LINE
8
Layer 1
10
157.184048
20
171.120390
11
161.355871
21
170.806892
0
LINE
8
Layer 1
10
161.355871
20
170.806892
11
162.033166
21
170.835980
0
LINE
8
Layer 1
10
162.033166
20
170.835980
11
162.396929
21
170.980851
0
LINE
8
Layer 1
10
162.396929
20
170.980851
11
162.396929
21
170.980851
0
LINE
8
Layer 1
10
155.709225
20
171.698931
11
155.540651
21
232.741557
0
LINE
8
Layer 1
10
155.540651
20
232.741557
11
155.154240
21
287.030461
0
LINE
8
Layer 1
10
155.154240
20
287.030461
11
154.862922
21
295.023170
0
LINE
8
Layer 1
10
154.862922
20
295.023170
11
154.655097
21
296.323908
0
LINE
8
Layer 1
10
154.655097
20
296.323908
11
154.391490
21
296.624641
0
LINE
8
Layer 1
10
154.391490
20
296.624641
11
154.130537
21
296.283163
0
LINE
8
Layer 1
10
154.130537
20
296.283163
11
153.928845
21
294.876630
0
LINE
8
Layer 1
10
153.928845
20
294.876630
11
153.673078
21
286.575810
0
LINE
8
Layer 1
10
153.673078
20
286.575810
11
153.540861
21
231.975017
0
LINE
8
Layer 1
10
153.540861
20
231.975017
11
153.540861
21
171.244122
0
LINE
8
Layer 1
10
153.540861
20
171.244122
11
154.563606
21
171.410088
0
LINE
8
Layer 1
10
154.563606
20
171.410088
11
155.709225
21
171.698931
0
LINE
8
Layer 1
10
155.709225
20
171.698931
11
155.709225
21
171.698931
0
LINE
8
Layer 1
10
33.596416
20
172.437865
11
35.148639
21
173.248907
0
LINE
8
Layer 1
10
35.148639
20
173.248907
11
34.160861
21
173.654926
0
LINE
8
Layer 1
10
34.160861
20
173.654926
11
27.810861
21
175.987278
0
LINE
8
Layer 1
10
27.810861
20
175.987278
11
23.292085
21
177.730417
0
LINE
8
Layer 1
10
23.292085
20
177.730417
11
22.231684
21
178.305929
0
LINE
8
Layer 1
10
22.231684
20
178.305929
11
21.582019
21
178.863501
0
LINE
8
Layer 1
10
21.582019
20
178.863501
11
20.715400
21
179.813387
0
LINE
8
Layer 1
10
20.715400
20
179.813387
11
18.665958
21
178.881792
0
LINE
8
Layer 1
10
18.665958
20
178.881792
11
16.616517
21
177.950196
0
LINE
8
Layer 1
10
16.616517
20
177.950196
11
24.048134
21
174.796518
0
LINE
8
Layer 1
10
24.048134
20
174.796518
11
31.761972
21
171.634833
0
LINE
8
Layer 1
10
31.761972
20
171.634833
11
33.596416
21
172.437865
0
LINE
8
Layer 1
10
33.596416
20
172.437865
11
33.596416
21
172.437865
0
LINE
8
Layer 1
10
286.377352
20
174.768284
11
293.905884
21
177.936375
0
LINE
8
Layer 1
10
293.905884
20
177.936375
11
291.823704
21
178.893258
0
LINE
8
Layer 1
10
291.823704
20
178.893258
11
289.741525
21
179.850141
0
LINE
8
Layer 1
10
289.741525
20
179.850141
11
288.806297
21
178.829612
0
LINE
8
Layer 1
10
288.806297
20
178.829612
11
287.688782
21
177.809085
0
LINE
8
Layer 1
10
287.688782
20
177.809085
11
276.783808
21
173.855422
0
LINE
8
Layer 1
10
276.783808
20
173.855422
11
275.143426
21
173.239800
0
LINE
8
Layer 1
10
275.143426
20
173.239800
11
276.783808
21
172.441636
0
LINE
8
Layer 1
10
276.783808
20
172.441636
11
278.636510
21
171.621834
0
LINE
8
Layer 1
10
278.636510
20
171.621834
11
286.377352
21
174.768284
0
LINE
8
Layer 1
10
286.377352
20
174.768284
11
286.377352
21
174.768284
0
LINE
8
Layer 1
10
38.049431
20
174.377790
11
38.216235
21
174.576372
0
LINE
8
Layer 1
10
38.216235
20
174.576372
11
37.549662
21
174.975487
0
LINE
8
Layer 1
10
37.549662
20
174.975487
11
30.737590
21
177.748554
0
LINE
8
Layer 1
10
30.737590
20
177.748554
11
24.182637
21
180.203940
0
LINE
8
Layer 1
10
24.182637
20
180.203940
11
22.747254
21
180.550079
0
LINE
8
Layer 1
10
22.747254
20
180.550079
11
22.413828
21
180.526574
0
LINE
8
Layer 1
10
22.413828
20
180.526574
11
22.307528
21
180.381092
0
LINE
8
Layer 1
10
22.307528
20
180.381092
11
22.619859
21
179.908187
0
LINE
8
Layer 1
10
22.619859
20
179.908187
11
23.575503
21
179.316388
0
LINE
8
Layer 1
10
23.575503
20
179.316388
11
27.528639
21
177.719050
0
LINE
8
Layer 1
10
27.528639
20
177.719050
11
34.160861
21
175.288784
0
LINE
8
Layer 1
10
34.160861
20
175.288784
11
37.100890
21
174.246458
0
LINE
8
Layer 1
10
37.100890
20
174.246458
11
37.662656
21
174.203239
0
LINE
8
Layer 1
10
37.662656
20
174.203239
11
38.049431
21
174.377790
0
LINE
8
Layer 1
10
38.049431
20
174.377790
11
38.049431
21
174.377790
0
LINE
8
Layer 1
10
276.233153
20
175.293316
11
282.917420
21
177.707335
0
LINE
8
Layer 1
10
282.917420
20
177.707335
11
286.858784
21
179.283898
0
LINE
8
Layer 1
10
286.858784
20
179.283898
11
287.836436
21
179.890737
0
LINE
8
Layer 1
10
287.836436
20
179.890737
11
288.160855
21
180.381092
0
LINE
8
Layer 1
10
288.160855
20
180.381092
11
287.868276
21
180.521728
0
LINE
8
Layer 1
10
287.868276
20
180.521728
11
287.133700
21
180.469198
0
LINE
8
Layer 1
10
287.133700
20
180.469198
11
285.197522
21
179.918679
0
LINE
8
Layer 1
10
285.197522
20
179.918679
11
278.196878
21
177.085698
0
LINE
8
Layer 1
10
278.196878
20
177.085698
11
273.706731
21
175.186537
0
LINE
8
Layer 1
10
273.706731
20
175.186537
11
272.648630
21
174.642467
0
LINE
8
Layer 1
10
272.648630
20
174.642467
11
272.411323
21
174.382512
0
LINE
8
Layer 1
10
272.411323
20
174.382512
11
272.769142
21
174.204752
0
LINE
8
Layer 1
10
272.769142
20
174.204752
11
273.282060
21
174.239310
0
LINE
8
Layer 1
10
273.282060
20
174.239310
11
276.233153
21
175.293316
0
LINE
8
Layer 1
10
276.233153
20
175.293316
11
276.233153
21
175.293316
0
LINE
8
Layer 1
10
43.039185
20
176.716162
11
44.949073
21
177.609906
0
LINE
8
Layer 1
10
44.949073
20
177.609906
11
38.919974
21
179.822531
0
LINE
8
Layer 1
10
38.919974
20
179.822531
11
32.636268
21
182.038789
0
LINE
8
Layer 1
10
32.636268
20
182.038789
11
31.360341
21
183.182232
0
LINE
8
Layer 1
10
31.360341
20
183.182232
11
30.338951
21
184.322043
0
LINE
8
Layer 1
10
30.338951
20
184.322043
11
27.522684
21
182.993812
0
LINE
8
Layer 1
10
27.522684
20
182.993812
11
24.706417
21
181.665581
0
LINE
8
Layer 1
10
24.706417
20
181.665581
11
25.835306
21
181.312713
0
LINE
8
Layer 1
10
25.835306
20
181.312713
11
33.455305
21
178.270349
0
LINE
8
Layer 1
10
33.455305
20
178.270349
11
38.254670
21
176.386716
0
LINE
8
Layer 1
10
38.254670
20
176.386716
11
40.537869
21
175.701638
0
LINE
8
Layer 1
10
40.537869
20
175.701638
11
43.039185
21
176.716162
0
LINE
8
Layer 1
10
43.039185
20
176.716162
11
43.039185
21
176.716162
0
LINE
8
Layer 1
10
276.314041
20
177.974913
11
283.221966
21
180.771840
0
LINE
8
Layer 1
10
283.221966
20
180.771840
11
284.915300
21
181.411321
0
LINE
8
Layer 1
10
284.915300
20
181.411321
11
285.342569
21
181.587539
0
LINE
8
Layer 1
10
285.342569
20
181.587539
11
285.272307
21
181.818328
0
LINE
8
Layer 1
10
285.272307
20
181.818328
11
282.959838
21
182.993163
0
LINE
8
Layer 1
10
282.959838
20
182.993163
11
280.157688
21
184.308840
0
LINE
8
Layer 1
10
280.157688
20
184.308840
11
279.126371
21
183.246186
0
LINE
8
Layer 1
10
279.126371
20
183.246186
11
278.375350
21
182.613623
0
LINE
8
Layer 1
10
278.375350
20
182.613623
11
277.191163
21
181.976271
0
LINE
8
Layer 1
10
277.191163
20
181.976271
11
271.860535
21
179.927803
0
LINE
8
Layer 1
10
271.860535
20
179.927803
11
265.739440
21
177.558652
0
LINE
8
Layer 1
10
265.739440
20
177.558652
11
270.105152
21
175.556511
0
LINE
8
Layer 1
10
270.105152
20
175.556511
11
276.314041
21
177.974913
0
LINE
8
Layer 1
10
276.314041
20
177.974913
11
276.314041
21
177.974913
0
LINE
8
Layer 1
10
47.804341
20
178.846638
11
45.825822
21
179.844062
0
LINE
8
Layer 1
10
45.825822
20
179.844062
11
41.093320
21
181.790218
0
LINE
8
Layer 1
10
41.093320
20
181.790218
11
36.023236
21
183.727750
0
LINE
8
Layer 1
10
36.023236
20
183.727750
11
33.031972
21
184.699306
0
LINE
8
Layer 1
10
33.031972
20
184.699306
11
31.761972
21
184.887026
0
LINE
8
Layer 1
10
31.761972
20
184.887026
11
32.657999
21
184.099722
0
LINE
8
Layer 1
10
32.657999
20
184.099722
11
34.285825
21
183.186010
0
LINE
8
Layer 1
10
34.285825
20
183.186010
11
37.173555
21
182.054669
0
LINE
8
Layer 1
10
37.173555
20
182.054669
11
43.474194
21
179.733962
0
LINE
8
Layer 1
10
43.474194
20
179.733962
11
46.450476
21
178.754563
0
LINE
8
Layer 1
10
46.450476
20
178.754563
11
47.316959
21
178.669382
0
LINE
8
Layer 1
10
47.316959
20
178.669382
11
47.804341
21
178.846638
0
LINE
8
Layer 1
10
47.804341
20
178.846638
11
47.804341
21
178.846638
0
LINE
8
Layer 1
10
266.758318
20
179.674040
11
272.497527
21
181.754142
0
LINE
8
Layer 1
10
272.497527
20
181.754142
11
276.781839
21
183.354926
0
LINE
8
Layer 1
10
276.781839
20
183.354926
11
277.779061
21
183.898988
0
LINE
8
Layer 1
10
277.779061
20
183.898988
11
278.274695
21
184.391641
0
LINE
8
Layer 1
10
278.274695
20
184.391641
11
278.440478
21
184.696233
0
LINE
8
Layer 1
10
278.440478
20
184.696233
11
278.397957
21
184.838611
0
LINE
8
Layer 1
10
278.397957
20
184.838611
11
277.411411
21
184.752265
0
LINE
8
Layer 1
10
277.411411
20
184.752265
11
275.337620
21
184.169290
0
LINE
8
Layer 1
10
275.337620
20
184.169290
11
268.616972
21
181.459386
0
LINE
8
Layer 1
10
268.616972
20
181.459386
11
264.481093
21
179.749688
0
LINE
8
Layer 1
10
264.481093
20
179.749688
11
262.760861
21
178.897421
0
LINE
8
Layer 1
10
262.760861
20
178.897421
11
263.025130
21
178.671733
0
LINE
8
Layer 1
10
263.025130
20
178.671733
11
263.798700
21
178.729678
0
LINE
8
Layer 1
10
263.798700
20
178.729678
11
266.758318
21
179.674040
0
LINE
8
Layer 1
10
266.758318
20
179.674040
11
266.758318
21
179.674040
0
LINE
8
Layer 1
10
52.765664
20
181.132788
11
54.578244
21
181.965428
0
LINE
8
Layer 1
10
54.578244
20
181.965428
11
53.047886
21
182.536725
0
LINE
8
Layer 1
10
53.047886
20
182.536725
11
46.578639
21
184.895868
0
LINE
8
Layer 1
10
46.578639
20
184.895868
11
42.416535
21
186.525309
0
LINE
8
Layer 1
10
42.416535
20
186.525309
11
41.392232
21
187.090856
0
LINE
8
Layer 1
10
41.392232
20
187.090856
11
40.736413
21
187.648613
0
LINE
8
Layer 1
10
40.736413
20
187.648613
11
40.111570
21
188.258007
0
LINE
8
Layer 1
10
40.111570
20
188.258007
11
39.448506
21
188.392999
0
LINE
8
Layer 1
10
39.448506
20
188.392999
11
38.255619
21
187.979935
0
LINE
8
Layer 1
10
38.255619
20
187.979935
11
36.041307
21
186.945160
0
LINE
8
Layer 1
10
36.041307
20
186.945160
11
34.111754
21
186.029984
0
LINE
8
Layer 1
10
34.111754
20
186.029984
11
35.476863
21
185.603775
0
LINE
8
Layer 1
10
35.476863
20
185.603775
11
43.333083
21
182.521233
0
LINE
8
Layer 1
10
43.333083
20
182.521233
11
48.460819
21
180.526028
0
LINE
8
Layer 1
10
48.460819
20
180.526028
11
49.771910
21
180.128567
0
LINE
8
Layer 1
10
49.771910
20
180.128567
11
50.388639
21
180.082526
0
LINE
8
Layer 1
10
50.388639
20
180.082526
11
52.765664
21
181.132788
0
LINE
8
Layer 1
10
52.765664
20
181.132788
11
52.765664
21
181.132788
0
LINE
8
Layer 1
10
275.594061
20
185.832682
11
275.923835
21
186.010105
0
LINE
8
Layer 1
10
275.923835
20
186.010105
11
275.732110
21
186.271921
0
LINE
8
Layer 1
10
275.732110
20
186.271921
11
272.984581
21
187.585957
0
LINE
8
Layer 1
10
272.984581
20
187.585957
11
270.649412
21
188.628906
0
LINE
8
Layer 1
10
270.649412
20
188.628906
11
269.739025
21
187.656309
0
LINE
8
Layer 1
10
269.739025
20
187.656309
11
269.080671
21
187.094174
0
LINE
8
Layer 1
10
269.080671
20
187.094174
11
268.058098
21
186.527779
0
LINE
8
Layer 1
10
268.058098
20
186.527779
11
263.889750
21
184.895868
0
LINE
8
Layer 1
10
263.889750
20
184.895868
11
257.446230
21
182.546351
0
LINE
8
Layer 1
10
257.446230
20
182.546351
11
255.941601
21
181.984681
0
LINE
8
Layer 1
10
255.941601
20
181.984681
11
258.243380
21
180.914424
0
LINE
8
Layer 1
10
258.243380
20
180.914424
11
260.545159
21
179.844169
0
LINE
8
Layer 1
10
260.545159
20
179.844169
11
267.791345
21
182.742820
0
LINE
8
Layer 1
10
267.791345
20
182.742820
11
275.594061
21
185.832682
0
LINE
8
Layer 1
10
275.594061
20
185.832682
11
275.594061
21
185.832682
0
LINE
8
Layer 1
10
57.255356
20
183.135837
11
57.107159
21
183.366713
0
LINE
8
Layer 1
10
57.107159
20
183.366713
11
56.283656
21
183.821385
0
LINE
8
Layer 1
10
56.283656
20
183.821385
11
52.598690
21
185.407997
0
LINE
8
Layer 1
10
52.598690
20
185.407997
11
44.993791
21
188.375276
0
LINE
8
Layer 1
10
44.993791
20
188.375276
11
43.179227
21
188.942274
0
LINE
8
Layer 1
10
43.179227
20
188.942274
11
42.122688
21
189.097974
0
LINE
8
Layer 1
10
42.122688
20
189.097974
11
41.140301
21
189.097974
0
LINE
8
Layer 1
10
41.140301
20
189.097974
11
41.890532
21
188.507836
0
LINE
8
Layer 1
10
41.890532
20
188.507836
11
43.848520
21
187.569659
0
LINE
8
Layer 1
10
43.848520
20
187.569659
11
47.502485
21
186.142746
0
LINE
8
Layer 1
10
47.502485
20
186.142746
11
54.198639
21
183.648102
0
LINE
8
Layer 1
10
54.198639
20
183.648102
11
56.269469
21
182.962229
0
LINE
8
Layer 1
10
56.269469
20
182.962229
11
56.822646
21
182.954232
0
LINE
8
Layer 1
10
56.822646
20
182.954232
11
57.255356
21
183.135837
0
LINE
8
Layer 1
10
57.255356
20
183.135837
11
57.255356
21
183.135837
0
LINE
8
Layer 1
10
258.211266
20
184.415585
11
264.935027
21
186.845293
0
LINE
8
Layer 1
10
264.935027
20
186.845293
11
267.042781
21
187.688426
0
LINE
8
Layer 1
10
267.042781
20
187.688426
11
268.462805
21
188.447197
0
LINE
8
Layer 1
10
268.462805
20
188.447197
11
269.393083
21
189.145892
0
LINE
8
Layer 1
10
269.393083
20
189.145892
11
267.981972
21
189.022826
0
LINE
8
Layer 1
10
267.981972
20
189.022826
11
266.570861
21
188.766887
0
LINE
8
Layer 1
10
266.570861
20
188.766887
11
265.159750
21
188.324357
0
LINE
8
Layer 1
10
265.159750
20
188.324357
11
258.289719
21
185.563496
0
LINE
8
Layer 1
10
258.289719
20
185.563496
11
254.276023
21
183.859623
0
LINE
8
Layer 1
10
254.276023
20
183.859623
11
253.379092
21
183.378206
0
LINE
8
Layer 1
10
253.379092
20
183.378206
11
253.209719
21
183.137886
0
LINE
8
Layer 1
10
253.209719
20
183.137886
11
253.608941
21
182.954651
0
LINE
8
Layer 1
10
253.608941
20
182.954651
11
254.263451
21
183.026778
0
LINE
8
Layer 1
10
254.263451
20
183.026778
11
258.211266
21
184.415585
0
LINE
8
Layer 1
10
258.211266
20
184.415585
11
258.211266
21
184.415585
0
LINE
8
Layer 1
10
61.577330
20
185.185355
11
62.897956
21
185.868161
0
LINE
8
Layer 1
10
62.897956
20
185.868161
11
63.376384
21
186.266816
0
LINE
8
Layer 1
10
63.376384
20
186.266816
11
57.104071
21
188.690682
0
LINE
8
Layer 1
10
57.104071
20
188.690682
11
51.986581
21
190.661139
0
LINE
8
Layer 1
10
51.986581
20
190.661139
11
50.756886
21
191.288164
0
LINE
8
Layer 1
10
50.756886
20
191.288164
11
50.040848
21
191.842554
0
LINE
8
Layer 1
10
50.040848
20
191.842554
11
48.911959
21
192.769089
0
LINE
8
Layer 1
10
48.911959
20
192.769089
11
46.329316
21
191.688804
0
LINE
8
Layer 1
10
46.329316
20
191.688804
11
44.041238
21
190.460955
0
LINE
8
Layer 1
10
44.041238
20
190.460955
11
44.946598
21
190.072289
0
LINE
8
Layer 1
10
44.946598
20
190.072289
11
46.287154
21
189.619396
0
LINE
8
Layer 1
10
46.287154
20
189.619396
11
52.963637
21
186.829380
0
LINE
8
Layer 1
10
52.963637
20
186.829380
11
59.397240
21
184.308860
0
LINE
8
Layer 1
10
59.397240
20
184.308860
11
61.577330
21
185.185355
0
LINE
8
Layer 1
10
61.577330
20
185.185355
11
61.577330
21
185.185355
0
LINE
8
Layer 1
10
258.728399
20
187.320772
11
266.416355
21
190.509085
0
LINE
8
Layer 1
10
266.416355
20
190.509085
11
264.117534
21
191.699503
0
LINE
8
Layer 1
10
264.117534
20
191.699503
11
261.556429
21
192.769089
0
LINE
8
Layer 1
10
261.556429
20
192.769089
11
260.427541
21
191.842071
0
LINE
8
Layer 1
10
260.427541
20
191.842071
11
259.725961
21
191.293988
0
LINE
8
Layer 1
10
259.725961
20
191.293988
11
258.548970
21
190.688112
0
LINE
8
Layer 1
10
258.548970
20
190.688112
11
253.729750
21
188.836780
0
LINE
8
Layer 1
10
253.729750
20
188.836780
11
247.248624
21
186.499974
0
LINE
8
Layer 1
10
247.248624
20
186.499974
11
246.923919
21
186.334596
0
LINE
8
Layer 1
10
246.923919
20
186.334596
11
246.982644
21
186.134787
0
LINE
8
Layer 1
10
246.982644
20
186.134787
11
248.659735
21
185.277136
0
LINE
8
Layer 1
10
248.659735
20
185.277136
11
250.907527
21
184.292090
0
LINE
8
Layer 1
10
250.907527
20
184.292090
11
258.728399
21
187.320772
0
LINE
8
Layer 1
10
258.728399
20
187.320772
11
258.728399
21
187.320772
0
LINE
8
Layer 1
10
66.556944
20
187.361912
11
66.650949
21
187.454675
0
LINE
8
Layer 1
10
66.650949
20
187.454675
11
66.609156
21
187.571898
0
LINE
8
Layer 1
10
66.609156
20
187.571898
11
65.876655
21
187.992713
0
LINE
8
Layer 1
10
65.876655
20
187.992713
11
60.125305
21
190.370748
0
LINE
8
Layer 1
10
60.125305
20
190.370748
11
53.083543
21
193.062016
0
LINE
8
Layer 1
10
53.083543
20
193.062016
11
51.487032
21
193.497395
0
LINE
8
Layer 1
10
51.487032
20
193.497395
11
50.827652
21
193.440087
0
LINE
8
Layer 1
10
50.827652
20
193.440087
11
50.781916
21
193.258352
0
LINE
8
Layer 1
10
50.781916
20
193.258352
11
50.949443
21
193.022568
0
LINE
8
Layer 1
10
50.949443
20
193.022568
11
51.896497
21
192.403568
0
LINE
8
Layer 1
10
51.896497
20
192.403568
11
56.044033
21
190.678833
0
LINE
8
Layer 1
10
56.044033
20
190.678833
11
62.806416
21
188.171094
0
LINE
8
Layer 1
10
62.806416
20
188.171094
11
65.497426
21
187.233161
0
LINE
8
Layer 1
10
65.497426
20
187.233161
11
66.119214
21
187.188345
0
LINE
8
Layer 1
10
66.119214
20
187.188345
11
66.556944
21
187.361912
0
LINE
8
Layer 1
10
66.556944
20
187.361912
11
66.556944
21
187.361912
0
LINE
8
Layer 1
10
249.542119
20
188.909466
11
256.604979
21
191.471697
0
LINE
8
Layer 1
10
256.604979
20
191.471697
11
258.091822
21
192.071544
0
LINE
8
Layer 1
10
258.091822
20
192.071544
11
259.165451
21
192.642753
0
LINE
8
Layer 1
10
259.165451
20
192.642753
11
259.729794
21
193.123614
0
LINE
8
Layer 1
10
259.729794
20
193.123614
11
259.790960
21
193.310881
0
LINE
8
Layer 1
10
259.790960
20
193.310881
11
259.688776
21
193.452420
0
LINE
8
Layer 1
10
259.688776
20
193.452420
11
259.137829
21
193.485455
0
LINE
8
Layer 1
10
259.137829
20
193.485455
11
258.173390
21
193.340122
0
LINE
8
Layer 1
10
258.173390
20
193.340122
11
256.331347
21
192.780130
0
LINE
8
Layer 1
10
256.331347
20
192.780130
11
249.692434
21
190.057995
0
LINE
8
Layer 1
10
249.692434
20
190.057995
11
245.202935
21
188.166450
0
LINE
8
Layer 1
10
245.202935
20
188.166450
11
244.144456
21
187.624117
0
LINE
8
Layer 1
10
244.144456
20
187.624117
11
243.906878
21
187.364734
0
LINE
8
Layer 1
10
243.906878
20
187.364734
11
244.264722
21
187.190439
0
LINE
8
Layer 1
10
244.264722
20
187.190439
11
244.930910
21
187.282259
0
LINE
8
Layer 1
10
244.930910
20
187.282259
11
249.542119
21
188.909466
0
LINE
8
Layer 1
10
249.542119
20
188.909466
11
249.542119
21
188.909466
0
LINE
8
Layer 1
10
70.823294
20
189.426636
11
72.186230
21
190.115009
0
LINE
8
Layer 1
10
72.186230
20
190.115009
11
72.623643
21
190.515886
0
LINE
8
Layer 1
10
72.623643
20
190.515886
11
66.495625
21
192.848403
0
LINE
8
Layer 1
10
66.495625
20
192.848403
11
60.293464
21
195.024640
0
LINE
8
Layer 1
10
60.293464
20
195.024640
11
59.148023
21
196.059989
0
LINE
8
Layer 1
10
59.148023
20
196.059989
11
58.199517
21
197.095339
0
LINE
8
Layer 1
10
58.199517
20
197.095339
11
55.775744
21
196.015348
0
LINE
8
Layer 1
10
55.775744
20
196.015348
11
53.351972
21
194.732103
0
LINE
8
Layer 1
10
53.351972
20
194.732103
11
53.662857
21
194.502639
0
LINE
8
Layer 1
10
53.662857
20
194.502639
11
54.410305
21
194.236360
0
LINE
8
Layer 1
10
54.410305
20
194.236360
11
61.959750
21
191.255173
0
LINE
8
Layer 1
10
61.959750
20
191.255173
11
68.626067
21
188.550002
0
LINE
8
Layer 1
10
68.626067
20
188.550002
11
70.823294
21
189.426636
0
LINE
8
Layer 1
10
70.823294
20
189.426636
11
70.823294
21
189.426636
0
LINE
8
Layer 1
10
248.790861
20
191.368245
11
256.058083
21
194.234576
0
LINE
8
Layer 1
10
256.058083
20
194.234576
11
257.116416
21
194.723035
0
LINE
8
Layer 1
10
257.116416
20
194.723035
11
254.641683
21
196.047583
0
LINE
8
Layer 1
10
254.641683
20
196.047583
11
252.166950
21
197.177948
0
LINE
8
Layer 1
10
252.166950
20
197.177948
11
251.325572
21
196.114362
0
LINE
8
Layer 1
10
251.325572
20
196.114362
11
250.646396
21
195.359365
0
LINE
8
Layer 1
10
250.646396
20
195.359365
11
250.194990
21
195.037707
0
LINE
8
Layer 1
10
250.194990
20
195.037707
11
238.348639
21
190.778491
0
LINE
8
Layer 1
10
238.348639
20
190.778491
11
237.501972
21
190.436559
0
LINE
8
Layer 1
10
237.501972
20
190.436559
11
239.477527
21
189.489492
0
LINE
8
Layer 1
10
239.477527
20
189.489492
11
241.038569
21
188.857896
0
LINE
8
Layer 1
10
241.038569
20
188.857896
11
242.017527
21
188.669306
0
LINE
8
Layer 1
10
242.017527
20
188.669306
11
248.790861
21
191.368245
0
LINE
8
Layer 1
10
248.790861
20
191.368245
11
248.790861
21
191.368245
0
LINE
8
Layer 1
10
75.607102
20
191.607017
11
75.806503
21
191.821667
0
LINE
8
Layer 1
10
75.806503
20
191.821667
11
75.748213
21
191.997034
0
LINE
8
Layer 1
10
75.748213
20
191.997034
11
68.733083
21
194.828868
0
LINE
8
Layer 1
10
68.733083
20
194.828868
11
61.705252
21
197.454918
0
LINE
8
Layer 1
10
61.705252
20
197.454918
11
60.263584
21
197.792546
0
LINE
8
Layer 1
10
60.263584
20
197.792546
11
59.942578
21
197.754257
0
LINE
8
Layer 1
10
59.942578
20
197.754257
11
59.843083
21
197.591900
0
LINE
8
Layer 1
10
59.843083
20
197.591900
11
60.174159
21
197.118333
0
LINE
8
Layer 1
10
60.174159
20
197.118333
11
61.240930
21
196.501857
0
LINE
8
Layer 1
10
61.240930
20
196.501857
11
66.022804
21
194.628592
0
LINE
8
Layer 1
10
66.022804
20
194.628592
11
72.543083
21
192.219179
0
LINE
8
Layer 1
10
72.543083
20
192.219179
11
74.740463
21
191.432397
0
LINE
8
Layer 1
10
74.740463
20
191.432397
11
75.221385
21
191.423254
0
LINE
8
Layer 1
10
75.221385
20
191.423254
11
75.607102
21
191.607017
0
LINE
8
Layer 1
10
75.607102
20
191.607017
11
75.607102
21
191.607017
0
LINE
8
Layer 1
10
239.584600
20
192.872733
11
246.391972
21
195.321425
0
LINE
8
Layer 1
10
246.391972
20
195.321425
11
249.531604
21
196.625030
0
LINE
8
Layer 1
10
249.531604
20
196.625030
11
250.347459
21
197.166506
0
LINE
8
Layer 1
10
250.347459
20
197.166506
11
250.625305
21
197.615268
0
LINE
8
Layer 1
10
250.625305
20
197.615268
11
250.522465
21
197.768133
0
LINE
8
Layer 1
10
250.522465
20
197.768133
11
250.197113
21
197.798603
0
LINE
8
Layer 1
10
250.197113
20
197.798603
11
248.777905
21
197.460807
0
LINE
8
Layer 1
10
248.777905
20
197.460807
11
242.158639
21
194.969378
0
LINE
8
Layer 1
10
242.158639
20
194.969378
11
235.112645
21
192.155019
0
LINE
8
Layer 1
10
235.112645
20
192.155019
11
234.633635
21
191.888870
0
LINE
8
Layer 1
10
234.633635
20
191.888870
11
234.830422
21
191.626092
0
LINE
8
Layer 1
10
234.830422
20
191.626092
11
235.150725
21
191.434486
0
LINE
8
Layer 1
10
235.150725
20
191.434486
11
235.670031
21
191.478793
0
LINE
8
Layer 1
10
235.670031
20
191.478793
11
239.584600
21
192.872733
0
LINE
8
Layer 1
10
239.584600
20
192.872733
11
239.584600
21
192.872733
0
LINE
8
Layer 1
10
80.189578
20
193.748361
11
82.237622
21
194.729862
0
LINE
8
Layer 1
10
82.237622
20
194.729862
11
81.270910
21
195.130273
0
LINE
8
Layer 1
10
81.270910
20
195.130273
11
66.851434
21
200.951307
0
LINE
8
Layer 1
10
66.851434
20
200.951307
11
64.597860
21
200.042458
0
LINE
8
Layer 1
10
64.597860
20
200.042458
11
62.665305
21
198.982638
0
LINE
8
Layer 1
10
62.665305
20
198.982638
11
63.723639
21
198.457120
0
LINE
8
Layer 1
10
63.723639
20
198.457120
11
71.273083
21
195.459926
0
LINE
8
Layer 1
10
71.273083
20
195.459926
11
77.952862
21
192.777674
0
LINE
8
Layer 1
10
77.952862
20
192.777674
11
80.189578
21
193.748361
0
LINE
8
Layer 1
10
80.189578
20
193.748361
11
80.189578
21
193.748361
0
LINE
8
Layer 1
10
239.874400
20
195.690662
11
247.636439
21
198.803525
0
LINE
8
Layer 1
10
247.636439
20
198.803525
11
247.804458
21
198.940699
0
LINE
8
Layer 1
10
247.804458
20
198.940699
11
247.642556
21
199.155638
0
LINE
8
Layer 1
10
247.642556
20
199.155638
11
246.131777
21
199.971948
0
LINE
8
Layer 1
10
246.131777
20
199.971948
11
243.758418
21
200.954369
0
LINE
8
Layer 1
10
243.758418
20
200.954369
11
235.874712
21
197.913656
0
LINE
8
Layer 1
10
235.874712
20
197.913656
11
228.334878
21
194.723777
0
LINE
8
Layer 1
10
228.334878
20
194.723777
11
230.193058
21
193.714870
0
LINE
8
Layer 1
10
230.193058
20
193.714870
11
232.395511
21
192.793888
0
LINE
8
Layer 1
10
232.395511
20
192.793888
11
239.874400
21
195.690662
0
LINE
8
Layer 1
10
239.874400
20
195.690662
11
239.874400
21
195.690662
0
LINE
8
Layer 1
10
48.937782
20
197.714297
11
50.460748
21
198.509060
0
LINE
8
Layer 1
10
50.460748
20
198.509060
11
51.094194
21
199.020780
0
LINE
8
Layer 1
10
51.094194
20
199.020780
11
49.854211
21
204.021676
0
LINE
8
Layer 1
10
49.854211
20
204.021676
11
47.894150
21
211.784770
0
LINE
8
Layer 1
10
47.894150
20
211.784770
11
46.101881
21
219.583967
0
LINE
8
Layer 1
10
46.101881
20
219.583967
11
44.526359
21
227.195260
0
LINE
8
Layer 1
10
44.526359
20
227.195260
11
43.216539
21
234.394640
0
LINE
8
Layer 1
10
43.216539
20
234.394640
11
41.898493
21
243.445177
0
LINE
8
Layer 1
10
41.898493
20
243.445177
11
41.215880
21
251.857795
0
LINE
8
Layer 1
10
41.215880
20
251.857795
11
40.927788
21
257.185397
0
LINE
8
Layer 1
10
40.927788
20
257.185397
11
39.545040
21
258.772239
0
LINE
8
Layer 1
10
39.545040
20
258.772239
11
37.115530
21
261.346863
0
LINE
8
Layer 1
10
37.115530
20
261.346863
11
36.068739
21
262.334640
0
LINE
8
Layer 1
10
36.068739
20
262.334640
11
36.226840
21
254.855751
0
LINE
8
Layer 1
10
36.226840
20
254.855751
11
36.422604
21
249.661814
0
LINE
8
Layer 1
10
36.422604
20
249.661814
11
36.803823
21
244.490227
0
LINE
8
Layer 1
10
36.803823
20
244.490227
11
37.394546
21
239.195381
0
LINE
8
Layer 1
10
37.394546
20
239.195381
11
38.218820
21
233.631665
0
LINE
8
Layer 1
10
38.218820
20
233.631665
11
39.300692
21
227.653470
0
LINE
8
Layer 1
10
39.300692
20
227.653470
11
40.664209
21
221.115185
0
LINE
8
Layer 1
10
40.664209
20
221.115185
11
44.332367
21
205.775907
0
LINE
8
Layer 1
10
44.332367
20
205.775907
11
46.578639
21
196.815352
0
LINE
8
Layer 1
10
46.578639
20
196.815352
11
46.641101
21
196.739983
0
LINE
8
Layer 1
10
46.641101
20
196.739983
11
46.941801
21
196.821508
0
LINE
8
Layer 1
10
46.941801
20
196.821508
11
48.937782
21
197.714297
0
LINE
8
Layer 1
10
48.937782
20
197.714297
11
48.937782
21
197.714297
0
LINE
8
Layer 1
10
263.749866
20
199.751863
11
265.882667
21
207.453288
0
LINE
8
Layer 1
10
265.882667
20
207.453288
11
268.000317
21
216.706480
0
LINE
8
Layer 1
10
268.000317
20
216.706480
11
269.928605
21
226.683415
0
LINE
8
Layer 1
10
269.928605
20
226.683415
11
271.493319
21
236.556073
0
LINE
8
Layer 1
10
271.493319
20
236.556073
11
272.450185
21
244.555823
0
LINE
8
Layer 1
10
272.450185
20
244.555823
11
273.142973
21
252.354029
0
LINE
8
Layer 1
10
273.142973
20
252.354029
11
273.454015
21
258.335455
0
LINE
8
Layer 1
10
273.454015
20
258.335455
11
273.429610
21
260.140114
0
LINE
8
Layer 1
10
273.429610
20
260.140114
11
273.265643
21
260.884865
0
LINE
8
Layer 1
10
273.265643
20
260.884865
11
272.363600
21
260.262692
0
LINE
8
Layer 1
10
272.363600
20
260.262692
11
270.615238
21
258.507018
0
LINE
8
Layer 1
10
270.615238
20
258.507018
11
268.264194
21
255.944158
0
LINE
8
Layer 1
10
268.264194
20
255.944158
11
267.934158
21
250.991074
0
LINE
8
Layer 1
10
267.934158
20
250.991074
11
267.531223
21
246.266937
0
LINE
8
Layer 1
10
267.531223
20
246.266937
11
266.927444
21
241.112207
0
LINE
8
Layer 1
10
266.927444
20
241.112207
11
265.157294
21
229.736001
0
LINE
8
Layer 1
10
265.157294
20
229.736001
11
262.703583
21
217.312531
0
LINE
8
Layer 1
10
262.703583
20
217.312531
11
259.646191
21
204.291873
0
LINE
8
Layer 1
10
259.646191
20
204.291873
11
258.527527
21
199.475454
0
LINE
8
Layer 1
10
258.527527
20
199.475454
11
259.059797
21
198.997474
0
LINE
8
Layer 1
10
259.059797
20
198.997474
11
260.291039
21
198.285400
0
LINE
8
Layer 1
10
260.291039
20
198.285400
11
261.672904
21
197.626850
0
LINE
8
Layer 1
10
261.672904
20
197.626850
11
262.657042
21
197.309444
0
LINE
8
Layer 1
10
262.657042
20
197.309444
11
263.109860
21
198.015756
0
LINE
8
Layer 1
10
263.109860
20
198.015756
11
263.749866
21
199.751863
0
LINE
8
Layer 1
10
263.749866
20
199.751863
11
263.749866
21
199.751863
0
LINE
8
Layer 1
10
100.224677
20
202.830907
11
101.781706
21
203.650780
0
LINE
8
Layer 1
10
101.781706
20
203.650780
11
102.352012
21
204.171463
0
LINE
8
Layer 1
10
102.352012
20
204.171463
11
100.667391
21
208.044147
0
LINE
8
Layer 1
10
100.667391
20
208.044147
11
99.196543
21
211.661412
0
LINE
8
Layer 1
10
99.196543
20
211.661412
11
97.814893
21
215.537818
0
LINE
8
Layer 1
10
97.814893
20
215.537818
11
96.535838
21
219.621060
0
LINE
8
Layer 1
10
96.535838
20
219.621060
11
95.372773
21
223.858831
0
LINE
8
Layer 1
10
95.372773
20
223.858831
11
94.339094
21
228.198825
0
LINE
8
Layer 1
10
94.339094
20
228.198825
11
93.448195
21
232.588736
0
LINE
8
Layer 1
10
93.448195
20
232.588736
11
92.713472
21
236.976258
0
LINE
8
Layer 1
10
92.713472
20
236.976258
11
92.148321
21
241.309085
0
LINE
8
Layer 1
10
92.148321
20
241.309085
11
91.502507
21
247.057847
0
LINE
8
Layer 1
10
91.502507
20
247.057847
11
91.310861
21
248.714384
0
LINE
8
Layer 1
10
91.310861
20
248.714384
11
88.629750
21
249.935783
0
LINE
8
Layer 1
10
88.629750
20
249.935783
11
85.698045
21
251.172020
0
LINE
8
Layer 1
10
85.698045
20
251.172020
11
85.580247
21
250.797959
0
LINE
8
Layer 1
10
85.580247
20
250.797959
11
85.599028
21
249.725306
0
LINE
8
Layer 1
10
85.599028
20
249.725306
11
85.991035
21
245.916929
0
LINE
8
Layer 1
10
85.991035
20
245.916929
11
86.763484
21
240.612308
0
LINE
8
Layer 1
10
86.763484
20
240.612308
11
87.805791
21
234.676863
0
LINE
8
Layer 1
10
87.805791
20
234.676863
11
89.992202
21
225.008561
0
LINE
8
Layer 1
10
89.992202
20
225.008561
11
92.699208
21
215.270850
0
LINE
8
Layer 1
10
92.699208
20
215.270850
11
95.716846
21
206.505234
0
LINE
8
Layer 1
10
95.716846
20
206.505234
11
97.028843
21
203.142169
0
LINE
8
Layer 1
10
97.028843
20
203.142169
11
97.711466
21
201.797974
0
LINE
8
Layer 1
10
97.711466
20
201.797974
11
100.224677
21
202.830907
0
LINE
8
Layer 1
10
100.224677
20
202.830907
11
100.224677
21
202.830907
0
LINE
8
Layer 1
10
212.778586
20
204.549640
11
215.532874
21
212.385167
0
LINE
8
Layer 1
10
215.532874
20
212.385167
11
218.047683
21
220.773190
0
LINE
8
Layer 1
10
218.047683
20
220.773190
11
220.224505
21
229.357354
0
LINE
8
Layer 1
10
220.224505
20
229.357354
11
221.964834
21
237.781307
0
LINE
8
Layer 1
10
221.964834
20
237.781307
11
223.178529
21
245.703462
0
LINE
8
Layer 1
10
223.178529
20
245.703462
11
223.683108
21
250.565356
0
LINE
8
Layer 1
10
223.683108
20
250.565356
11
220.970577
21
249.502629
0
LINE
8
Layer 1
10
220.970577
20
249.502629
11
218.128472
21
248.127943
0
LINE
8
Layer 1
10
218.128472
20
248.127943
11
217.331679
21
243.002418
0
LINE
8
Layer 1
10
217.331679
20
243.002418
11
215.957644
21
234.144268
0
LINE
8
Layer 1
10
215.957644
20
234.144268
11
214.066034
21
225.516186
0
LINE
8
Layer 1
10
214.066034
20
225.516186
11
211.650744
21
217.093998
0
LINE
8
Layer 1
10
211.650744
20
217.093998
11
208.705667
21
208.853529
0
LINE
8
Layer 1
10
208.705667
20
208.853529
11
207.113742
21
204.681701
0
LINE
8
Layer 1
10
207.113742
20
204.681701
11
207.676699
21
204.115335
0
LINE
8
Layer 1
10
207.676699
20
204.115335
11
209.279750
21
203.224045
0
LINE
8
Layer 1
10
209.279750
20
203.224045
11
211.686572
21
202.104207
0
LINE
8
Layer 1
10
211.686572
20
202.104207
11
212.778586
21
204.549640
0
LINE
8
Layer 1
10
212.778586
20
204.549640
11
212.778586
21
204.549640
0
LINE
8
Layer 1
10
125.086745
20
214.141425
11
145.912944
21
223.807536
0
LINE
8
Layer 1
10
145.912944
20
223.807536
11
93.407673
21
247.753158
0
LINE
8
Layer 1
10
93.407673
20
247.753158
11
93.260768
21
247.647313
0
LINE
8
Layer 1
10
93.260768
20
247.647313
11
93.180075
21
247.220521
0
LINE
8
Layer 1
10
93.180075
20
247.220521
11
93.199899
21
245.529350
0
LINE
8
Layer 1
10
93.199899
20
245.529350
11
93.842377
21
239.673420
0
LINE
8
Layer 1
10
93.842377
20
239.673420
11
95.056233
21
232.189396
0
LINE
8
Layer 1
10
95.056233
20
232.189396
11
96.562596
21
225.081307
0
LINE
8
Layer 1
10
96.562596
20
225.081307
11
98.402557
21
218.711577
0
LINE
8
Layer 1
10
98.402557
20
218.711577
11
100.687477
21
212.030590
0
LINE
8
Layer 1
10
100.687477
20
212.030590
11
102.786040
21
206.759684
0
LINE
8
Layer 1
10
102.786040
20
206.759684
11
103.568149
21
205.190929
0
LINE
8
Layer 1
10
103.568149
20
205.190929
11
104.066924
21
204.620196
0
LINE
8
Layer 1
10
104.066924
20
204.620196
11
125.086745
21
214.141425
0
LINE
8
Layer 1
10
125.086745
20
214.141425
11
125.086745
21
214.141425
0
LINE
8
Layer 1
10
207.468199
20
209.730286
11
209.660298
21
215.843087
0
LINE
8
Layer 1
10
209.660298
20
215.843087
11
211.617208
21
222.232613
0
LINE
8
Layer 1
10
211.617208
20
222.232613
11
213.286687
21
228.713453
0
LINE
8
Layer 1
10
213.286687
20
228.713453
11
214.616493
21
235.100196
0
LINE
8
Layer 1
10
214.616493
20
235.100196
11
215.789422
21
242.792114
0
LINE
8
Layer 1
10
215.789422
20
242.792114
11
216.122232
21
245.794626
0
LINE
8
Layer 1
10
216.122232
20
245.794626
11
216.141709
21
247.100087
0
LINE
8
Layer 1
10
216.141709
20
247.100087
11
208.009065
21
243.572038
0
LINE
8
Layer 1
10
208.009065
20
243.572038
11
190.288020
21
235.618775
0
LINE
8
Layer 1
10
190.288020
20
235.618775
11
172.597282
21
227.583247
0
LINE
8
Layer 1
10
172.597282
20
227.583247
11
164.555559
21
223.808400
0
LINE
8
Layer 1
10
164.555559
20
223.808400
11
170.924018
21
220.750427
0
LINE
8
Layer 1
10
170.924018
20
220.750427
11
184.966850
21
214.317313
0
LINE
8
Layer 1
10
184.966850
20
214.317313
11
199.054218
21
207.974350
0
LINE
8
Layer 1
10
199.054218
20
207.974350
11
205.556285
21
205.186833
0
LINE
8
Layer 1
10
205.556285
20
205.186833
11
207.468199
21
209.730286
0
LINE
8
Layer 1
10
207.468199
20
209.730286
11
207.468199
21
209.730286
0
LINE
8
Layer 1
10
205.187527
20
243.928005
11
254.389721
21
266.256482
0
LINE
8
Layer 1
10
254.389721
20
266.256482
11
263.203789
21
270.095751
0
LINE
8
Layer 1
10
263.203789
20
270.095751
11
263.432791
21
270.024918
0
LINE
8
Layer 1
10
263.432791
20
270.024918
11
263.610245
21
269.779645
0
LINE
8
Layer 1
10
263.610245
20
269.779645
11
263.824526
21
268.569153
0
LINE
8
Layer 1
10
263.824526
20
268.569153
11
263.788717
21
261.891980
0
LINE
8
Layer 1
10
263.788717
20
261.891980
11
263.775478
21
254.746469
0
LINE
8
Layer 1
10
263.775478
20
254.746469
11
264.005475
21
254.425011
0
LINE
8
Layer 1
10
264.005475
20
254.425011
11
264.313179
21
254.291307
0
LINE
8
Layer 1
10
264.313179
20
254.291307
11
268.705068
21
258.622977
0
LINE
8
Layer 1
10
268.705068
20
258.622977
11
278.754490
21
269.037418
0
LINE
8
Layer 1
10
278.754490
20
269.037418
11
293.730996
21
284.783343
0
LINE
8
Layer 1
10
293.730996
20
284.783343
11
295.911947
21
287.184033
0
LINE
8
Layer 1
10
295.911947
20
287.184033
11
296.266023
21
287.766893
0
LINE
8
Layer 1
10
296.266023
20
287.766893
11
273.892246
21
286.897612
0
LINE
8
Layer 1
10
273.892246
20
286.897612
11
250.959761
21
285.749184
0
LINE
8
Layer 1
10
250.959761
20
285.749184
11
250.487677
21
285.505376
0
LINE
8
Layer 1
10
250.487677
20
285.505376
11
250.395317
21
285.067454
0
LINE
8
Layer 1
10
250.395317
20
285.067454
11
251.991788
21
283.431379
0
LINE
8
Layer 1
10
251.991788
20
283.431379
11
255.705305
21
280.242891
0
LINE
8
Layer 1
10
255.705305
20
280.242891
11
260.575002
21
276.096832
0
LINE
8
Layer 1
10
260.575002
20
276.096832
11
261.239550
21
275.297621
0
LINE
8
Layer 1
10
261.239550
20
275.297621
11
261.274749
21
275.074545
0
LINE
8
Layer 1
10
261.274749
20
275.074545
11
261.167327
21
274.915088
0
LINE
8
Layer 1
10
261.167327
20
274.915088
11
239.054194
21
264.717403
0
LINE
8
Layer 1
10
239.054194
20
264.717403
11
190.370861
21
242.424450
0
LINE
8
Layer 1
10
190.370861
20
242.424450
11
163.559750
21
230.122916
0
LINE
8
Layer 1
10
163.559750
20
230.122916
11
163.478396
21
227.515846
0
LINE
8
Layer 1
10
163.478396
20
227.515846
11
163.485394
21
225.341774
0
LINE
8
Layer 1
10
163.485394
20
225.341774
11
163.626640
21
225.094180
0
LINE
8
Layer 1
10
163.626640
20
225.094180
11
163.901730
21
225.173788
0
LINE
8
Layer 1
10
163.901730
20
225.173788
11
205.187527
21
243.928005
0
LINE
8
Layer 1
10
205.187527
20
243.928005
11
205.187527
21
243.928005
0
LINE
8
Layer 1
10
264.931991
20
258.061144
11
265.177589
21
264.621896
0
LINE
8
Layer 1
10
265.177589
20
264.621896
11
265.569829
21
269.491518
0
LINE
8
Layer 1
10
265.569829
20
269.491518
11
265.757324
21
270.628794
0
LINE
8
Layer 1
10
265.757324
20
270.628794
11
265.961086
21
271.082615
0
LINE
8
Layer 1
10
265.961086
20
271.082615
11
278.084997
21
277.992530
0
LINE
8
Layer 1
10
278.084997
20
277.992530
11
289.754084
21
284.683276
0
LINE
8
Layer 1
10
289.754084
20
284.683276
11
265.254435
21
276.175083
0
LINE
8
Layer 1
10
265.254435
20
276.175083
11
263.373565
21
275.487833
0
LINE
8
Layer 1
10
263.373565
20
275.487833
11
258.481102
21
279.577137
0
LINE
8
Layer 1
10
258.481102
20
279.577137
11
255.000484
21
282.578306
0
LINE
8
Layer 1
10
255.000484
20
282.578306
11
253.502456
21
284.051451
0
LINE
8
Layer 1
10
253.502456
20
284.051451
11
253.534802
21
284.380970
0
LINE
8
Layer 1
10
253.534802
20
284.380970
11
253.733588
21
284.632569
0
LINE
8
Layer 1
10
253.733588
20
284.632569
11
271.035326
21
285.633428
0
LINE
8
Layer 1
10
271.035326
20
285.633428
11
289.421401
21
286.521965
0
LINE
8
Layer 1
10
289.421401
20
286.521965
11
290.625456
21
286.481915
0
LINE
8
Layer 1
10
290.625456
20
286.481915
11
290.918711
21
286.310225
0
LINE
8
Layer 1
10
290.918711
20
286.310225
11
291.125741
21
286.000850
0
LINE
8
Layer 1
10
291.125741
20
286.000850
11
291.813319
21
284.932205
0
LINE
8
Layer 1
10
291.813319
20
284.932205
11
291.878043
21
284.743648
0
LINE
8
Layer 1
10
291.878043
20
284.743648
11
291.778796
21
284.444490
0
LINE
8
Layer 1
10
291.778796
20
284.444490
11
290.864823
21
283.261605
0
LINE
8
Layer 1
10
290.864823
20
283.261605
11
284.609992
21
276.788214
0
LINE
8
Layer 1
10
284.609992
20
276.788214
11
271.388936
21
263.392974
0
LINE
8
Layer 1
10
271.388936
20
263.392974
11
267.311291
21
259.356755
0
LINE
8
Layer 1
10
267.311291
20
259.356755
11
265.417554
21
257.677974
0
LINE
8
Layer 1
10
265.417554
20
257.677974
11
265.135277
21
257.790530
0
LINE
8
Layer 1
10
265.135277
20
257.790530
11
264.931991
21
258.061144
0
LINE
8
Layer 1
10
264.931991
20
258.061144
11
264.931991
21
258.061144
0
LINE
8
Layer 1
10
284.799447
20
279.193430
11
286.234237
21
280.812220
0
LINE
8
Layer 1
10
286.234237
20
280.812220
11
282.470324
21
278.726813
0
LINE
8
Layer 1
10
282.470324
20
278.726813
11
272.920861
21
273.400912
0
LINE
8
Layer 1
10
272.920861
20
273.400912
11
267.135305
21
270.160423
0
LINE
8
Layer 1
10
267.135305
20
270.160423
11
266.948293
21
268.364200
0
LINE
8
Layer 1
10
266.948293
20
268.364200
11
266.639283
21
263.476870
0
LINE
8
Layer 1
10
266.639283
20
263.476870
11
266.517284
21
260.385766
0
LINE
8
Layer 1
10
266.517284
20
260.385766
11
274.940974
21
268.980203
0
LINE
8
Layer 1
10
274.940974
20
268.980203
11
284.799447
21
279.193430
0
LINE
8
Layer 1
10
284.799447
20
279.193430
11
284.799447
21
279.193430
0
LINE
8
Layer 1
10
273.245902
20
280.563046
11
283.824957
21
284.371111
0
LINE
8
Layer 1
10
283.824957
20
284.371111
11
284.263907
21
284.625087
0
LINE
8
Layer 1
10
284.263907
20
284.625087
11
284.081594
21
284.716594
0
LINE
8
Layer 1
10
284.081594
20
284.716594
11
282.375300
21
284.645690
0
LINE
8
Layer 1
10
282.375300
20
284.645690
11
268.546416
21
284.052936
0
LINE
8
Layer 1
10
268.546416
20
284.052936
11
256.780436
21
283.406638
0
LINE
8
Layer 1
10
256.780436
20
283.406638
11
256.722036
21
283.172140
0
LINE
8
Layer 1
10
256.722036
20
283.172140
11
257.159269
21
282.622923
0
LINE
8
Layer 1
10
257.159269
20
282.622923
11
259.884881
21
280.204647
0
LINE
8
Layer 1
10
259.884881
20
280.204647
11
263.509235
21
277.170758
0
LINE
8
Layer 1
10
263.509235
20
277.170758
11
273.245902
21
280.563046
0
LINE
8
Layer 1
10
273.245902
20
280.563046
11
273.245902
21
280.563046
0
LINE
8
Layer 1
10
145.720836
20
230.598308
11
67.463083
21
266.522750
0
LINE
8
Layer 1
10
67.463083
20
266.522750
11
53.704917
21
272.919055
0
LINE
8
Layer 1
10
53.704917
20
272.919055
11
50.357833
21
274.583123
0
LINE
8
Layer 1
10
50.357833
20
274.583123
11
49.259750
21
275.275274
0
LINE
8
Layer 1
10
49.259750
20
275.275274
11
50.834902
21
276.879425
0
LINE
8
Layer 1
10
50.834902
20
276.879425
11
54.621972
21
280.135395
0
LINE
8
Layer 1
10
54.621972
20
280.135395
11
58.433323
21
283.365393
0
LINE
8
Layer 1
10
58.433323
20
283.365393
11
60.066854
21
284.907104
0
LINE
8
Layer 1
10
60.066854
20
284.907104
11
60.018049
21
285.233806
0
LINE
8
Layer 1
10
60.018049
20
285.233806
11
59.784632
21
285.542617
0
LINE
8
Layer 1
10
59.784632
20
285.542617
11
52.548514
21
286.051476
0
LINE
8
Layer 1
10
52.548514
20
286.051476
11
36.960546
21
286.866425
0
LINE
8
Layer 1
10
36.960546
20
286.866425
11
21.391021
21
287.577506
0
LINE
8
Layer 1
10
21.391021
20
287.577506
11
14.210234
21
287.774758
0
LINE
8
Layer 1
10
14.210234
20
287.774758
11
14.661661
21
287.070524
0
LINE
8
Layer 1
10
14.661661
20
287.070524
11
17.004153
21
284.487796
0
LINE
8
Layer 1
10
17.004153
20
284.487796
11
31.586740
21
269.161858
0
LINE
8
Layer 1
10
31.586740
20
269.161858
11
41.741926
21
258.659532
0
LINE
8
Layer 1
10
41.741926
20
258.659532
11
46.191740
21
254.291307
0
LINE
8
Layer 1
10
46.191740
20
254.291307
11
46.484231
21
254.368483
0
LINE
8
Layer 1
10
46.484231
20
254.368483
11
46.630625
21
255.178672
0
LINE
8
Layer 1
10
46.630625
20
255.178672
11
46.701541
21
262.470039
0
LINE
8
Layer 1
10
46.701541
20
262.470039
11
46.792437
21
268.684884
0
LINE
8
Layer 1
10
46.792437
20
268.684884
11
46.929530
21
269.740674
0
LINE
8
Layer 1
10
46.929530
20
269.740674
11
47.164591
21
270.030730
0
LINE
8
Layer 1
10
47.164591
20
270.030730
11
60.239471
21
264.299013
0
LINE
8
Layer 1
10
60.239471
20
264.299013
11
91.050147
21
250.395605
0
LINE
8
Layer 1
10
91.050147
20
250.395605
11
140.135305
21
228.115972
0
LINE
8
Layer 1
10
140.135305
20
228.115972
11
145.779750
21
225.558977
0
LINE
8
Layer 1
10
145.779750
20
225.558977
11
145.861947
21
227.975501
0
LINE
8
Layer 1
10
145.861947
20
227.975501
11
145.854400
21
229.742767
0
LINE
8
Layer 1
10
145.854400
20
229.742767
11
145.720836
21
230.598308
0
LINE
8
Layer 1
10
145.720836
20
230.598308
11
145.720836
21
230.598308
0
LINE
8
Layer 1
10
38.398597
20
263.998340
11
25.300128
21
277.360806
0
LINE
8
Layer 1
10
25.300128
20
277.360806
11
19.401779
21
283.476238
0
LINE
8
Layer 1
10
19.401779
20
283.476238
11
18.643697
21
284.525308
0
LINE
8
Layer 1
10
18.643697
20
284.525308
11
18.600568
21
284.792307
0
LINE
8
Layer 1
10
18.600568
20
284.792307
11
18.700672
21
284.980806
0
LINE
8
Layer 1
10
18.700672
20
284.980806
11
19.314702
21
286.064204
0
LINE
8
Layer 1
10
19.314702
20
286.064204
11
19.456567
21
286.370877
0
LINE
8
Layer 1
10
19.456567
20
286.370877
11
19.713017
21
286.533007
0
LINE
8
Layer 1
10
19.713017
20
286.533007
11
20.970867
21
286.538537
0
LINE
8
Layer 1
10
20.970867
20
286.538537
11
39.409432
21
285.641706
0
LINE
8
Layer 1
10
39.409432
20
285.641706
11
51.483558
21
285.029071
0
LINE
8
Layer 1
10
51.483558
20
285.029071
11
56.695546
21
284.656829
0
LINE
8
Layer 1
10
56.695546
20
284.656829
11
56.937045
21
284.352927
0
LINE
8
Layer 1
10
56.937045
20
284.352927
11
57.010724
21
283.933763
0
LINE
8
Layer 1
10
57.010724
20
283.933763
11
56.919451
21
283.533038
0
LINE
8
Layer 1
10
56.919451
20
283.533038
11
56.666096
21
283.284450
0
LINE
8
Layer 1
10
56.666096
20
283.284450
11
51.684332
21
279.289400
0
LINE
8
Layer 1
10
51.684332
20
279.289400
11
48.040744
21
276.384029
0
LINE
8
Layer 1
10
48.040744
20
276.384029
11
47.075013
21
275.754574
0
LINE
8
Layer 1
10
47.075013
20
275.754574
11
46.606319
21
275.620714
0
LINE
8
Layer 1
10
46.606319
20
275.620714
11
20.713706
21
284.682675
0
LINE
8
Layer 1
10
20.713706
20
284.682675
11
32.352635
21
278.013741
0
LINE
8
Layer 1
10
32.352635
20
278.013741
11
44.489435
21
271.098349
0
LINE
8
Layer 1
10
44.489435
20
271.098349
11
44.717255
21
270.666856
0
LINE
8
Layer 1
10
44.717255
20
270.666856
11
44.909008
21
269.593382
0
LINE
8
Layer 1
10
44.909008
20
269.593382
11
45.298250
21
264.605920
0
LINE
8
Layer 1
10
45.298250
20
264.605920
11
45.533242
21
258.052926
0
LINE
8
Layer 1
10
45.533242
20
258.052926
11
45.295416
21
257.800136
0
LINE
8
Layer 1
10
45.295416
20
257.800136
11
44.925666
21
257.718896
0
LINE
8
Layer 1
10
44.925666
20
257.718896
11
42.817064
21
259.580363
0
LINE
8
Layer 1
10
42.817064
20
259.580363
11
38.398597
21
263.998340
0
LINE
8
Layer 1
10
38.398597
20
263.998340
11
38.398597
21
263.998340
0
LINE
8
Layer 1
10
43.730700
20
265.272365
11
43.500229
21
268.604814
0
LINE
8
Layer 1
10
43.500229
20
268.604814
11
43.274025
21
270.113689
0
LINE
8
Layer 1
10
43.274025
20
270.113689
11
33.596416
21
275.593217
0
LINE
8
Layer 1
10
33.596416
20
275.593217
11
26.323374
21
279.550082
0
LINE
8
Layer 1
10
26.323374
20
279.550082
11
25.037141
21
280.126520
0
LINE
8
Layer 1
10
25.037141
20
280.126520
11
24.873601
21
280.118704
0
LINE
8
Layer 1
10
24.873601
20
280.118704
11
24.988639
21
279.934281
0
LINE
8
Layer 1
10
24.988639
20
279.934281
11
43.904456
21
260.567859
0
LINE
8
Layer 1
10
43.904456
20
260.567859
11
43.730700
21
265.272365
0
LINE
8
Layer 1
10
43.730700
20
265.272365
11
43.730700
21
265.272365
0
LINE
8
Layer 1
10
50.210531
20
279.954220
11
53.744941
21
283.028842
0
LINE
8
Layer 1
10
53.744941
20
283.028842
11
53.182643
21
283.275295
0
LINE
8
Layer 1
10
53.182643
20
283.275295
11
51.445197
21
283.481100
0
LINE
8
Layer 1
10
51.445197
20
283.481100
11
26.117528
21
284.754487
0
LINE
8
Layer 1
10
26.117528
20
284.754487
11
26.116318
21
284.690889
0
LINE
8
Layer 1
10
26.116318
20
284.690889
11
26.456990
21
284.513378
0
LINE
8
Layer 1
10
26.456990
20
284.513378
11
28.055431
21
283.858597
0
LINE
8
Layer 1
10
28.055431
20
283.858597
11
34.160861
21
281.643853
0
LINE
8
Layer 1
10
34.160861
20
281.643853
11
44.885305
21
277.865253
0
LINE
8
Layer 1
10
44.885305
20
277.865253
11
46.781898
21
277.166953
0
LINE
8
Layer 1
10
46.781898
20
277.166953
11
50.210531
21
279.954220
0
LINE
8
Layer 1
10
50.210531
20
279.954220
11
50.210531
21
279.954220
0
LINE
8
Layer 1
10
190.229750
20
243.923978
11
216.899750
21
256.127295
0
LINE
8
Layer 1
10
216.899750
20
256.127295
11
216.980589
21
258.547751
0
LINE
8
Layer 1
10
216.980589
20
258.547751
11
217.061429
21
260.968208
0
LINE
8
Layer 1
10
217.061429
20
260.968208
11
213.170589
21
263.105384
0
LINE
8
Layer 1
10
213.170589
20
263.105384
11
206.049554
21
266.808133
0
LINE
8
Layer 1
10
206.049554
20
266.808133
11
199.411874
21
269.784119
0
LINE
8
Layer 1
10
199.411874
20
269.784119
11
192.790680
21
272.224044
0
LINE
8
Layer 1
10
192.790680
20
272.224044
11
185.719105
21
274.318611
0
LINE
8
Layer 1
10
185.719105
20
274.318611
11
180.755646
21
275.786059
0
LINE
8
Layer 1
10
180.755646
20
275.786059
11
177.092891
21
277.277440
0
LINE
8
Layer 1
10
177.092891
20
277.277440
11
175.587500
21
278.112841
0
LINE
8
Layer 1
10
175.587500
20
278.112841
11
174.213152
21
279.051108
0
LINE
8
Layer 1
10
174.213152
20
279.051108
11
171.598742
21
281.365415
0
LINE
8
Layer 1
10
171.598742
20
281.365415
11
169.606938
21
283.591518
0
LINE
8
Layer 1
10
169.606938
20
283.591518
11
168.212076
21
285.539025
0
LINE
8
Layer 1
10
168.212076
20
285.539025
11
167.228639
21
287.294520
0
LINE
8
Layer 1
10
167.228639
20
287.294520
11
165.010011
21
287.302914
0
LINE
8
Layer 1
10
165.010011
20
287.302914
11
162.791380
21
287.311307
0
LINE
8
Layer 1
10
162.791380
20
287.311307
11
162.969852
21
261.558529
0
LINE
8
Layer 1
10
162.969852
20
261.558529
11
163.206061
21
238.439992
0
LINE
8
Layer 1
10
163.206061
20
238.439992
11
163.345852
21
233.300328
0
LINE
8
Layer 1
10
163.345852
20
233.300328
11
163.513273
21
231.717096
0
LINE
8
Layer 1
10
163.513273
20
231.717096
11
190.229750
21
243.923978
0
LINE
8
Layer 1
10
190.229750
20
243.923978
11
190.229750
21
243.923978
0
LINE
8
Layer 1
10
145.920861
20
259.794640
11
145.920861
21
287.311307
0
LINE
8
Layer 1
10
145.920861
20
287.311307
11
144.015861
21
287.308838
0
LINE
8
Layer 1
10
144.015861
20
287.308838
11
142.110861
21
287.306371
0
LINE
8
Layer 1
10
142.110861
20
287.306371
11
140.983761
21
285.544949
0
LINE
8
Layer 1
10
140.983761
20
285.544949
11
139.523998
21
283.629754
0
LINE
8
Layer 1
10
139.523998
20
283.629754
11
137.597094
21
281.498619
0
LINE
8
Layer 1
10
137.597094
20
281.498619
11
134.792759
21
279.036677
0
LINE
8
Layer 1
10
134.792759
20
279.036677
11
133.284028
21
278.011501
0
LINE
8
Layer 1
10
133.284028
20
278.011501
11
131.645756
21
277.093847
0
LINE
8
Layer 1
10
131.645756
20
277.093847
11
127.805087
21
275.492078
0
LINE
8
Layer 1
10
127.805087
20
275.492078
11
122.919750
21
274.053320
0
LINE
8
Layer 1
10
122.919750
20
274.053320
11
116.167193
21
272.077146
0
LINE
8
Layer 1
10
116.167193
20
272.077146
11
109.572654
21
269.636454
0
LINE
8
Layer 1
10
109.572654
20
269.636454
11
102.984162
21
266.668900
0
LINE
8
Layer 1
10
102.984162
20
266.668900
11
96.249750
21
263.112140
0
LINE
8
Layer 1
10
96.249750
20
263.112140
11
92.721972
21
261.055770
0
LINE
8
Layer 1
10
92.721972
20
261.055770
11
92.557357
21
260.293300
0
LINE
8
Layer 1
10
92.557357
20
260.293300
11
92.580861
21
258.669338
0
LINE
8
Layer 1
10
92.580861
20
258.669338
11
92.721972
21
256.506788
0
LINE
8
Layer 1
10
92.721972
20
256.506788
11
119.109750
21
244.414223
0
LINE
8
Layer 1
10
119.109750
20
244.414223
11
145.709194
21
232.299818
0
LINE
8
Layer 1
10
145.709194
20
232.299818
11
145.858684
21
240.367411
0
LINE
8
Layer 1
10
145.858684
20
240.367411
11
145.920861
21
259.794640
0
LINE
8
Layer 1
10
145.920861
20
259.794640
11
145.920861
21
259.794640
0
LINE
8
Layer 1
10
221.647887
20
258.353365
11
224.319188
21
259.593201
0
LINE
8
Layer 1
10
224.319188
20
259.593201
11
224.524017
21
262.871421
0
LINE
8
Layer 1
10
224.524017
20
262.871421
11
224.606193
21
267.365342
0
LINE
8
Layer 1
10
224.606193
20
267.365342
11
224.412883
21
272.913065
0
LINE
8
Layer 1
10
224.412883
20
272.913065
11
223.983151
21
278.797778
0
LINE
8
Layer 1
10
223.983151
20
278.797778
11
223.356063
21
284.302668
0
LINE
8
Layer 1
10
223.356063
20
284.302668
11
223.069167
21
287.340601
0
LINE
8
Layer 1
10
223.069167
20
287.340601
11
223.183264
21
287.971937
0
LINE
8
Layer 1
10
223.183264
20
287.971937
11
223.473518
21
288.157974
0
LINE
8
Layer 1
10
223.473518
20
288.157974
11
225.810707
21
286.577109
0
LINE
8
Layer 1
10
225.810707
20
286.577109
11
228.713636
21
284.487397
0
LINE
8
Layer 1
10
228.713636
20
284.487397
11
231.685505
21
282.544780
0
LINE
8
Layer 1
10
231.685505
20
282.544780
11
234.720221
21
280.752312
0
LINE
8
Layer 1
10
234.720221
20
280.752312
11
237.811689
21
279.113044
0
LINE
8
Layer 1
10
237.811689
20
279.113044
11
240.953814
21
277.630029
0
LINE
8
Layer 1
10
240.953814
20
277.630029
11
244.140501
21
276.306320
0
LINE
8
Layer 1
10
244.140501
20
276.306320
11
247.365656
21
275.144971
0
LINE
8
Layer 1
10
247.365656
20
275.144971
11
250.623183
21
274.149033
0
LINE
8
Layer 1
10
250.623183
20
274.149033
11
254.153083
21
273.164822
0
LINE
8
Layer 1
10
254.153083
20
273.164822
11
256.662753
21
274.327617
0
LINE
8
Layer 1
10
256.662753
20
274.327617
11
258.377177
21
275.224887
0
LINE
8
Layer 1
10
258.377177
20
275.224887
11
258.920530
21
275.731145
0
LINE
8
Layer 1
10
258.920530
20
275.731145
11
256.479040
21
277.782878
0
LINE
8
Layer 1
10
256.479040
20
277.782878
11
255.169767
21
278.835387
0
LINE
8
Layer 1
10
255.169767
20
278.835387
11
254.200954
21
279.428792
0
LINE
8
Layer 1
10
254.200954
20
279.428792
11
253.101184
21
279.777884
0
LINE
8
Layer 1
10
253.101184
20
279.777884
11
251.399040
21
280.097450
0
LINE
8
Layer 1
10
251.399040
20
280.097450
11
246.962649
21
281.176215
0
LINE
8
Layer 1
10
246.962649
20
281.176215
11
242.317108
21
282.895464
0
LINE
8
Layer 1
10
242.317108
20
282.895464
11
237.507440
21
285.235866
0
LINE
8
Layer 1
10
237.507440
20
285.235866
11
232.578670
21
288.178088
0
LINE
8
Layer 1
10
232.578670
20
288.178088
11
229.697460
21
290.128197
0
LINE
8
Layer 1
10
229.697460
20
290.128197
11
227.122570
21
292.060890
0
LINE
8
Layer 1
10
227.122570
20
292.060890
11
224.520167
21
294.241386
0
LINE
8
Layer 1
10
224.520167
20
294.241386
11
221.556416
21
296.934906
0
LINE
8
Layer 1
10
221.556416
20
296.934906
11
217.926201
21
300.202531
0
LINE
8
Layer 1
10
217.926201
20
300.202531
11
214.360639
21
303.169612
0
LINE
8
Layer 1
10
214.360639
20
303.169612
11
210.862198
21
305.834543
0
LINE
8
Layer 1
10
210.862198
20
305.834543
11
207.433342
21
308.195721
0
LINE
8
Layer 1
10
207.433342
20
308.195721
11
204.076537
21
310.251540
0
LINE
8
Layer 1
10
204.076537
20
310.251540
11
200.794249
21
312.000396
0
LINE
8
Layer 1
10
200.794249
20
312.000396
11
197.588942
21
313.440684
0
LINE
8
Layer 1
10
197.588942
20
313.440684
11
194.463083
21
314.570799
0
LINE
8
Layer 1
10
194.463083
20
314.570799
11
192.065026
21
315.182406
0
LINE
8
Layer 1
10
192.065026
20
315.182406
11
189.271825
21
315.714061
0
LINE
8
Layer 1
10
189.271825
20
315.714061
11
186.299921
21
316.041534
0
LINE
8
Layer 1
10
186.299921
20
316.041534
11
183.686797
21
315.854534
0
LINE
8
Layer 1
10
183.686797
20
315.854534
11
180.346186
21
315.139692
0
LINE
8
Layer 1
10
180.346186
20
315.139692
11
178.797685
21
314.590971
0
LINE
8
Layer 1
10
178.797685
20
314.590971
11
177.318942
21
313.908779
0
LINE
8
Layer 1
10
177.318942
20
313.908779
11
174.536392
21
312.126174
0
LINE
8
Layer 1
10
174.536392
20
312.126174
11
171.929860
21
309.756257
0
LINE
8
Layer 1
10
171.929860
20
309.756257
11
169.866750
21
307.343428
0
LINE
8
Layer 1
10
169.866750
20
307.343428
11
169.309017
21
306.479473
0
LINE
8
Layer 1
10
169.309017
20
306.479473
11
169.136054
21
305.937974
0
LINE
8
Layer 1
10
169.136054
20
305.937974
11
168.719254
21
304.950196
0
LINE
8
Layer 1
10
168.719254
20
304.950196
11
168.031192
21
303.117272
0
LINE
8
Layer 1
10
168.031192
20
303.117272
11
167.580702
21
300.879766
0
LINE
8
Layer 1
10
167.580702
20
300.879766
11
167.362089
21
298.366676
0
LINE
8
Layer 1
10
167.362089
20
298.366676
11
167.369657
21
295.707001
0
LINE
8
Layer 1
10
167.369657
20
295.707001
11
167.597711
21
293.029739
0
LINE
8
Layer 1
10
167.597711
20
293.029739
11
168.040557
21
290.463889
0
LINE
8
Layer 1
10
168.040557
20
290.463889
11
168.692499
21
288.138449
0
LINE
8
Layer 1
10
168.692499
20
288.138449
11
169.547842
21
286.182418
0
LINE
8
Layer 1
10
169.547842
20
286.182418
11
170.880921
21
284.265583
0
LINE
8
Layer 1
10
170.880921
20
284.265583
11
172.705135
21
282.222016
0
LINE
8
Layer 1
10
172.705135
20
282.222016
11
174.915664
21
280.329444
0
LINE
8
Layer 1
10
174.915664
20
280.329444
11
177.477978
21
278.786959
0
LINE
8
Layer 1
10
177.477978
20
278.786959
11
180.694469
21
277.443550
0
LINE
8
Layer 1
10
180.694469
20
277.443550
11
184.867527
21
276.148205
0
LINE
8
Layer 1
10
184.867527
20
276.148205
11
192.659021
21
273.839661
0
LINE
8
Layer 1
10
192.659021
20
273.839661
11
199.260861
21
271.431602
0
LINE
8
Layer 1
10
199.260861
20
271.431602
11
203.270488
21
269.708629
0
LINE
8
Layer 1
10
203.270488
20
269.708629
11
208.069989
21
267.438392
0
LINE
8
Layer 1
10
208.069989
20
267.438392
11
212.768814
21
265.057020
0
LINE
8
Layer 1
10
212.768814
20
265.057020
11
216.476416
21
263.000640
0
LINE
8
Layer 1
10
216.476416
20
263.000640
11
218.593083
21
261.731057
0
LINE
8
Layer 1
10
218.593083
20
261.731057
11
218.507254
21
259.422293
0
LINE
8
Layer 1
10
218.507254
20
259.422293
11
218.521468
21
257.749112
0
LINE
8
Layer 1
10
218.521468
20
257.749112
11
218.699004
21
257.113529
0
LINE
8
Layer 1
10
218.699004
20
257.113529
11
221.647887
21
258.353365
0
LINE
8
Layer 1
10
221.647887
20
258.353365
11
221.647887
21
258.353365
0
LINE
8
Layer 1
10
207.932062
20
278.012672
11
196.988819
21
283.928834
0
LINE
8
Layer 1
10
196.988819
20
283.928834
11
195.934203
21
283.390808
0
LINE
8
Layer 1
10
195.934203
20
283.390808
11
194.407149
21
282.719191
0
LINE
8
Layer 1
10
194.407149
20
282.719191
11
192.760685
21
282.189186
0
LINE
8
Layer 1
10
192.760685
20
282.189186
11
191.038853
21
281.804779
0
LINE
8
Layer 1
10
191.038853
20
281.804779
11
189.285693
21
281.569954
0
LINE
8
Layer 1
10
189.285693
20
281.569954
11
187.545248
21
281.488696
0
LINE
8
Layer 1
10
187.545248
20
281.488696
11
185.861556
21
281.564990
0
LINE
8
Layer 1
10
185.861556
20
281.564990
11
184.278661
21
281.802819
0
LINE
8
Layer 1
10
184.278661
20
281.802819
11
182.840602
21
282.206169
0
LINE
8
Layer 1
10
182.840602
20
282.206169
11
181.014717
21
283.059237
0
LINE
8
Layer 1
10
181.014717
20
283.059237
11
179.154343
21
284.263331
0
LINE
8
Layer 1
10
179.154343
20
284.263331
11
177.459881
21
285.671204
0
LINE
8
Layer 1
10
177.459881
20
285.671204
11
176.131734
21
287.135607
0
LINE
8
Layer 1
10
176.131734
20
287.135607
11
174.610324
21
289.506181
0
LINE
8
Layer 1
10
174.610324
20
289.506181
11
173.554979
21
291.949591
0
LINE
8
Layer 1
10
173.554979
20
291.949591
11
172.939114
21
294.546009
0
LINE
8
Layer 1
10
172.939114
20
294.546009
11
172.736143
21
297.375608
0
LINE
8
Layer 1
10
172.736143
20
297.375608
11
172.927736
21
299.798342
0
LINE
8
Layer 1
10
172.927736
20
299.798342
11
173.499145
21
302.034537
0
LINE
8
Layer 1
10
173.499145
20
302.034537
11
174.431690
21
304.062456
0
LINE
8
Layer 1
10
174.431690
20
304.062456
11
175.706687
21
305.860359
0
LINE
8
Layer 1
10
175.706687
20
305.860359
11
177.305456
21
307.406507
0
LINE
8
Layer 1
10
177.305456
20
307.406507
11
179.209314
21
308.679159
0
LINE
8
Layer 1
10
179.209314
20
308.679159
11
181.399579
21
309.656578
0
LINE
8
Layer 1
10
181.399579
20
309.656578
11
183.857570
21
310.317024
0
LINE
8
Layer 1
10
183.857570
20
310.317024
11
187.048338
21
310.661255
0
LINE
8
Layer 1
10
187.048338
20
310.661255
11
190.559777
21
310.594824
0
LINE
8
Layer 1
10
190.559777
20
310.594824
11
194.049828
21
310.143047
0
LINE
8
Layer 1
10
194.049828
20
310.143047
11
197.176430
21
309.331241
0
LINE
8
Layer 1
10
197.176430
20
309.331241
11
200.179109
21
307.909782
0
LINE
8
Layer 1
10
200.179109
20
307.909782
11
203.743332
21
305.620543
0
LINE
8
Layer 1
10
203.743332
20
305.620543
11
207.519619
21
302.711035
0
LINE
8
Layer 1
10
207.519619
20
302.711035
11
211.158489
21
299.428770
0
LINE
8
Layer 1
10
211.158489
20
299.428770
11
213.367043
21
297.104593
0
LINE
8
Layer 1
10
213.367043
20
297.104593
11
215.110976
21
294.913021
0
LINE
8
Layer 1
10
215.110976
20
294.913021
11
216.409028
21
292.827708
0
LINE
8
Layer 1
10
216.409028
20
292.827708
11
217.279937
21
290.822309
0
LINE
8
Layer 1
10
217.279937
20
290.822309
11
217.780392
21
288.603387
0
LINE
8
Layer 1
10
217.780392
20
288.603387
11
218.334112
21
285.077642
0
LINE
8
Layer 1
10
218.334112
20
285.077642
11
219.158812
21
277.292418
0
LINE
8
Layer 1
10
219.158812
20
277.292418
11
219.458433
21
273.411863
0
LINE
8
Layer 1
10
219.458433
20
273.411863
11
219.486481
21
272.376676
0
LINE
8
Layer 1
10
219.486481
20
272.376676
11
219.398746
21
272.149605
0
LINE
8
Layer 1
10
219.398746
20
272.149605
11
219.237803
21
272.083908
0
LINE
8
Layer 1
10
219.237803
20
272.083908
11
207.932062
21
278.012672
0
LINE
8
Layer 1
10
207.932062
20
278.012672
11
207.932062
21
278.012672
0
LINE
8
Layer 1
10
93.850861
20
263.428113
11
100.880524
21
267.279193
0
LINE
8
Layer 1
10
100.880524
20
267.279193
11
108.135137
21
270.610439
0
LINE
8
Layer 1
10
108.135137
20
270.610439
11
115.620668
21
273.424338
0
LINE
8
Layer 1
10
115.620668
20
273.424338
11
123.343083
21
275.723378
0
LINE
8
Layer 1
10
123.343083
20
275.723378
11
126.243891
21
276.563111
0
LINE
8
Layer 1
10
126.243891
20
276.563111
11
128.834916
21
277.499205
0
LINE
8
Layer 1
10
128.834916
20
277.499205
11
131.148793
21
278.552806
0
LINE
8
Layer 1
10
131.148793
20
278.552806
11
133.218159
21
279.745061
0
LINE
8
Layer 1
10
133.218159
20
279.745061
11
135.075650
21
281.097115
0
LINE
8
Layer 1
10
135.075650
20
281.097115
11
136.753902
21
282.630114
0
LINE
8
Layer 1
10
136.753902
20
282.630114
11
138.285551
21
284.365203
0
LINE
8
Layer 1
10
138.285551
20
284.365203
11
139.703234
21
286.323529
0
LINE
8
Layer 1
10
139.703234
20
286.323529
11
141.568706
21
288.884941
0
LINE
8
Layer 1
10
141.568706
20
288.884941
11
141.914572
21
289.497617
0
LINE
8
Layer 1
10
141.914572
20
289.497617
11
142.193093
21
290.635065
0
LINE
8
Layer 1
10
142.193093
20
290.635065
11
142.524247
21
293.954001
0
LINE
8
Layer 1
10
142.524247
20
293.954001
11
142.514473
21
297.781206
0
LINE
8
Layer 1
10
142.514473
20
297.781206
11
142.116076
21
301.056133
0
LINE
8
Layer 1
10
142.116076
20
301.056133
11
141.506079
21
302.939201
0
LINE
8
Layer 1
10
141.506079
20
302.939201
11
140.526432
21
304.786248
0
LINE
8
Layer 1
10
140.526432
20
304.786248
11
139.119756
21
306.687400
0
LINE
8
Layer 1
10
139.119756
20
306.687400
11
137.228670
21
308.732784
0
LINE
8
Layer 1
10
137.228670
20
308.732784
11
135.395100
21
310.437923
0
LINE
8
Layer 1
10
135.395100
20
310.437923
11
133.618574
21
311.816695
0
LINE
8
Layer 1
10
133.618574
20
311.816695
11
131.795435
21
312.941186
0
LINE
8
Layer 1
10
131.795435
20
312.941186
11
129.822025
21
313.883480
0
LINE
8
Layer 1
10
129.822025
20
313.883480
11
127.340506
21
314.746404
0
LINE
8
Layer 1
10
127.340506
20
314.746404
11
124.781545
21
315.279942
0
LINE
8
Layer 1
10
124.781545
20
315.279942
11
122.137928
21
315.483332
0
LINE
8
Layer 1
10
122.137928
20
315.483332
11
119.402441
21
315.355816
0
LINE
8
Layer 1
10
119.402441
20
315.355816
11
116.567871
21
314.896634
0
LINE
8
Layer 1
10
116.567871
20
314.896634
11
113.627005
21
314.105025
0
LINE
8
Layer 1
10
113.627005
20
314.105025
11
110.572628
21
312.980230
0
LINE
8
Layer 1
10
110.572628
20
312.980230
11
107.397527
21
311.521489
0
LINE
8
Layer 1
10
107.397527
20
311.521489
11
102.997046
21
309.045491
0
LINE
8
Layer 1
10
102.997046
20
309.045491
11
98.437083
21
305.921891
0
LINE
8
Layer 1
10
98.437083
20
305.921891
11
93.498887
21
301.988151
0
LINE
8
Layer 1
10
93.498887
20
301.988151
11
87.963708
21
297.081734
0
LINE
8
Layer 1
10
87.963708
20
297.081734
11
84.041578
21
293.606792
0
LINE
8
Layer 1
10
84.041578
20
293.606792
11
80.470586
21
290.811022
0
LINE
8
Layer 1
10
80.470586
20
290.811022
11
76.711805
21
288.304574
0
LINE
8
Layer 1
10
76.711805
20
288.304574
11
72.226311
21
285.697600
0
LINE
8
Layer 1
10
72.226311
20
285.697600
11
68.118957
21
283.637685
0
LINE
8
Layer 1
10
68.118957
20
283.637685
11
63.782412
21
281.799539
0
LINE
8
Layer 1
10
63.782412
20
281.799539
11
59.980093
21
280.479406
0
LINE
8
Layer 1
10
59.980093
20
280.479406
11
58.517837
21
280.106170
0
LINE
8
Layer 1
10
58.517837
20
280.106170
11
57.475419
21
279.973529
0
LINE
8
Layer 1
10
57.475419
20
279.973529
11
56.679964
21
279.720958
0
LINE
8
Layer 1
10
56.679964
20
279.720958
11
55.460349
21
278.956718
0
LINE
8
Layer 1
10
55.460349
20
278.956718
11
51.693674
21
275.854073
0
LINE
8
Layer 1
10
51.693674
20
275.854073
11
51.591140
21
275.637524
0
LINE
8
Layer 1
10
51.591140
20
275.637524
11
51.811023
21
275.372947
0
LINE
8
Layer 1
10
51.811023
20
275.372947
11
53.528118
21
274.464899
0
LINE
8
Layer 1
10
53.528118
20
274.464899
11
55.750861
21
273.421907
0
LINE
8
Layer 1
10
55.750861
20
273.421907
11
57.726416
21
273.904383
0
LINE
8
Layer 1
10
57.726416
20
273.904383
11
60.965215
21
274.812266
0
LINE
8
Layer 1
10
60.965215
20
274.812266
11
64.309262
21
275.971271
0
LINE
8
Layer 1
10
64.309262
20
275.971271
11
67.708545
21
277.356624
0
LINE
8
Layer 1
10
67.708545
20
277.356624
11
71.113056
21
278.943555
0
LINE
8
Layer 1
10
71.113056
20
278.943555
11
74.472783
21
280.707289
0
LINE
8
Layer 1
10
74.472783
20
280.707289
11
77.737717
21
282.623054
0
LINE
8
Layer 1
10
77.737717
20
282.623054
11
80.857846
21
284.666079
0
LINE
8
Layer 1
10
80.857846
20
284.666079
11
83.783162
21
286.811590
0
LINE
8
Layer 1
10
83.783162
20
286.811590
11
85.030584
21
287.682939
0
LINE
8
Layer 1
10
85.030584
20
287.682939
11
85.853437
21
288.020829
0
LINE
8
Layer 1
10
85.853437
20
288.020829
11
86.108089
21
287.990012
0
LINE
8
Layer 1
10
86.108089
20
287.990012
11
86.259526
21
287.826171
0
LINE
8
Layer 1
10
86.259526
20
287.826171
11
86.256656
21
287.099875
0
LINE
8
Layer 1
10
86.256656
20
287.099875
11
85.626806
21
282.792190
0
LINE
8
Layer 1
10
85.626806
20
282.792190
11
85.115235
21
276.998795
0
LINE
8
Layer 1
10
85.115235
20
276.998795
11
84.792948
21
270.745484
0
LINE
8
Layer 1
10
84.792948
20
270.745484
11
84.730948
21
265.058057
0
LINE
8
Layer 1
10
84.730948
20
265.058057
11
84.819750
21
260.161473
0
LINE
8
Layer 1
10
84.819750
20
260.161473
11
87.783083
21
258.805113
0
LINE
8
Layer 1
10
87.783083
20
258.805113
11
90.746416
21
257.448756
0
LINE
8
Layer 1
10
90.746416
20
257.448756
11
90.887527
21
259.599859
0
LINE
8
Layer 1
10
90.887527
20
259.599859
11
91.028639
21
261.750962
0
LINE
8
Layer 1
10
91.028639
20
261.750962
11
93.850861
21
263.428113
0
LINE
8
Layer 1
10
93.850861
20
263.428113
11
93.850861
21
263.428113
0
LINE
8
Layer 1
10
91.294043
20
274.499516
11
91.875287
21
281.139601
0
LINE
8
Layer 1
10
91.875287
20
281.139601
11
92.602183
21
286.876513
0
LINE
8
Layer 1
10
92.602183
20
286.876513
11
93.126837
21
289.612014
0
LINE
8
Layer 1
10
93.126837
20
289.612014
11
93.856035
21
291.869813
0
LINE
8
Layer 1
10
93.856035
20
291.869813
11
94.901962
21
293.922315
0
LINE
8
Layer 1
10
94.901962
20
293.922315
11
96.376803
21
296.041928
0
LINE
8
Layer 1
10
96.376803
20
296.041928
11
98.166534
21
298.123585
0
LINE
8
Layer 1
10
98.166534
20
298.123585
11
100.356387
21
300.283460
0
LINE
8
Layer 1
10
100.356387
20
300.283460
11
102.821560
21
302.429406
0
LINE
8
Layer 1
10
102.821560
20
302.429406
11
105.437250
21
304.469278
0
LINE
8
Layer 1
10
105.437250
20
304.469278
11
108.078654
21
306.310926
0
LINE
8
Layer 1
10
108.078654
20
306.310926
11
110.620969
21
307.862206
0
LINE
8
Layer 1
10
110.620969
20
307.862206
11
112.939392
21
309.030970
0
LINE
8
Layer 1
10
112.939392
20
309.030970
11
114.909120
21
309.725071
0
LINE
8
Layer 1
10
114.909120
20
309.725071
11
118.386215
21
310.323918
0
LINE
8
Layer 1
10
118.386215
20
310.323918
11
122.002702
21
310.523163
0
LINE
8
Layer 1
10
122.002702
20
310.523163
11
125.399081
21
310.322860
0
LINE
8
Layer 1
10
125.399081
20
310.322860
11
128.215856
21
309.723065
0
LINE
8
Layer 1
10
128.215856
20
309.723065
11
130.210819
21
308.892657
0
LINE
8
Layer 1
10
130.210819
20
308.892657
11
131.981657
21
307.810546
0
LINE
8
Layer 1
10
131.981657
20
307.810546
11
133.515293
21
306.495218
0
LINE
8
Layer 1
10
133.515293
20
306.495218
11
134.798651
21
304.965157
0
LINE
8
Layer 1
10
134.798651
20
304.965157
11
135.818657
21
303.238850
0
LINE
8
Layer 1
10
135.818657
20
303.238850
11
136.562234
21
301.334782
0
LINE
8
Layer 1
10
136.562234
20
301.334782
11
137.016307
21
299.271439
0
LINE
8
Layer 1
10
137.016307
20
299.271439
11
137.167801
21
297.067306
0
LINE
8
Layer 1
10
137.167801
20
297.067306
11
137.090093
21
295.389198
0
LINE
8
Layer 1
10
137.090093
20
295.389198
11
136.864528
21
293.765524
0
LINE
8
Layer 1
10
136.864528
20
293.765524
11
136.493079
21
292.201216
0
LINE
8
Layer 1
10
136.493079
20
292.201216
11
135.977719
21
290.701206
0
LINE
8
Layer 1
10
135.977719
20
290.701206
11
135.320422
21
289.270426
0
LINE
8
Layer 1
10
135.320422
20
289.270426
11
134.523162
21
287.913809
0
LINE
8
Layer 1
10
134.523162
20
287.913809
11
133.587911
21
286.636286
0
LINE
8
Layer 1
10
133.587911
20
286.636286
11
132.516643
21
285.442790
0
LINE
8
Layer 1
10
132.516643
20
285.442790
11
130.412474
21
283.672945
0
LINE
8
Layer 1
10
130.412474
20
283.672945
11
128.104704
21
282.404152
0
LINE
8
Layer 1
10
128.104704
20
282.404152
11
125.602160
21
281.640140
0
LINE
8
Layer 1
10
125.602160
20
281.640140
11
122.913671
21
281.384640
0
LINE
8
Layer 1
10
122.913671
20
281.384640
11
120.995249
21
281.523671
0
LINE
8
Layer 1
10
120.995249
20
281.523671
11
118.925843
21
281.908240
0
LINE
8
Layer 1
10
118.925843
20
281.908240
11
116.911714
21
282.489558
0
LINE
8
Layer 1
10
116.911714
20
282.489558
11
115.159121
21
283.218839
0
LINE
8
Layer 1
10
115.159121
20
283.218839
11
113.694368
21
283.961086
0
LINE
8
Layer 1
10
113.694368
20
283.961086
11
102.925948
21
278.173792
0
LINE
8
Layer 1
10
102.925948
20
278.173792
11
91.634869
21
272.187667
0
LINE
8
Layer 1
10
91.634869
20
272.187667
11
91.349766
21
272.137198
0
LINE
8
Layer 1
10
91.349766
20
272.137198
11
91.215537
21
272.386240
0
LINE
8
Layer 1
10
91.215537
20
272.386240
11
91.294043
21
274.499516
0
LINE
8
Layer 1
10
91.294043
20
274.499516
11
91.294043
21
274.499516
0
LINE
8
Layer 1
10
165.870326
20
297.968487
11
165.820907
21
298.069901
0
LINE
8
Layer 1
10
165.820907
20
298.069901
11
165.781293
21
297.983361
0
LINE
8
Layer 1
10
165.781293
20
297.983361
11
165.747587
21
297.330197
0
LINE
8
Layer 1
10
165.747587
20
297.330197
11
165.787664
21
296.720417
0
LINE
8
Layer 1
10
165.787664
20
296.720417
11
165.876021
21
296.839598
0
LINE
8
Layer 1
10
165.876021
20
296.839598
11
165.870326
21
297.968487
0
LINE
8
Layer 1
10
165.870326
20
297.968487
11
165.870326
21
297.968487
0
LINE
8
Layer 1
10
163.744628
20
303.391133
11
165.928280
21
304.141655
0
LINE
8
Layer 1
10
165.928280
20
304.141655
11
165.922898
21
304.232981
0
LINE
8
Layer 1
10
165.922898
20
304.232981
11
165.669172
21
304.181648
0
LINE
8
Layer 1
10
165.669172
20
304.181648
11
163.552505
21
303.682764
0
LINE
8
Layer 1
10
163.552505
20
303.682764
11
161.443083
21
303.093749
0
LINE
8
Layer 1
10
161.443083
20
303.093749
11
161.197657
21
302.882815
0
LINE
8
Layer 1
10
161.197657
20
302.882815
11
161.517484
21
302.864399
0
LINE
8
Layer 1
10
161.517484
20
302.864399
11
163.744628
21
303.391133
0
LINE
8
Layer 1
10
163.744628
20
303.391133
11
163.744628
21
303.391133
 0 
ENDSEC
 0 
EOF
