  0
SECTION
  2
HEADER
  9
$ACADVER
  1
AC1009
  9
$EXTMAX
 10
1928.0
 20
1968.0
 30
0.0
  9
$EXTMIN
 10
72.0
 20
31.0
 30
0.0
  9
$INSUNITS
 70
     4
  9
$LUNITS
 70
     2
  9
$LUPREC
 70
     4
  9
$MEASUREMENT
 70
     1
  0
ENDSEC
  0
SECTION
  2
TABLES
  0
TABLE
  2
LAYER
 70
     1
  0
LAYER
  2
0
 70
     0
 62
     3
  6
Continuous
  0
LAYER
  2
Default
 70
     0
 62
     3
  6
Continuous
  0
ENDTAB
  0
TABLE
  2
APPID
 70
     1
  0
APPID
  2
ACAD
 70
     0
  0
ENDTAB
  0
ENDSEC
  0
SECTION
  2
ENTITIES
  0
POLYLINE
  8
Default
 66
     1
 10
0.0
 20
0.0
 30
0.0
 70
     1
  0
VERTEX
  8
Default
 10
867.0
 20
1337.0
 42
0.0
  0
VERTEX
  8
Default
 10
868.088235
 20
1337.647059
 42
0.0
  0
VERTEX
  8
Default
 10
876.0
 20
1340.0
 42
0.0
  0
VERTEX
  8
Default
 10
882.0
 20
1346.0
 42
0.0
  0
VERTEX
  8
Default
 10
886.7
 20
1355.1
 42
0.0
  0
VERTEX
  8
Default
 10
890.352941
 20
1368.911765
 42
0.0
  0
VERTEX
  8
Default
 10
892.42
 20
1380.94
 42
0.0
  0
VERTEX
  8
Default
 10
893.405405
 20
1386.932432
 42
0.0
  0
VERTEX
  8
Default
 10
895.0
 20
1398.0
 42
0.0
  0
VERTEX
  8
Default
 10
895.0
 20
1493.0
 42
0.0
  0
VERTEX
  8
Default
 10
894.439024
 20
1494.04878
 42
0.0
  0
VERTEX
  8
Default
 10
890.445545
 20
1533.044554
 42
0.0
  0
VERTEX
  8
Default
 10
886.560976
 20
1570.95122
 42
0.0
  0
VERTEX
  8
Default
 10
882.647059
 20
1586.911765
 42
0.0
  0
VERTEX
  8
Default
 10
875.647059
 20
1615.911765
 42
0.0
  0
VERTEX
  8
Default
 10
866.3
 20
1649.1
 42
0.0
  0
VERTEX
  8
Default
 10
858.7
 20
1669.9
 42
0.0
  0
VERTEX
  8
Default
 10
853.769231
 20
1679.846154
 42
0.0
  0
VERTEX
  8
Default
 10
850.2
 20
1686.1
 42
0.0
  0
VERTEX
  8
Default
 10
837.24
 20
1705.18
 42
0.0
  0
VERTEX
  8
Default
 10
828.245902
 20
1716.204918
 42
0.0
  0
VERTEX
  8
Default
 10
821.0
 20
1725.0
 42
0.0
  0
VERTEX
  8
Default
 10
802.0
 20
1744.0
 42
0.0
  0
VERTEX
  8
Default
 10
784.795082
 20
1758.754098
 42
0.0
  0
VERTEX
  8
Default
 10
762.153846
 20
1776.230769
 42
0.0
  0
VERTEX
  8
Default
 10
752.153846
 20
1783.230769
 42
0.0
  0
VERTEX
  8
Default
 10
736.9
 20
1792.8
 42
0.0
  0
VERTEX
  8
Default
 10
736.1
 20
1793.2
 42
0.0
  0
VERTEX
  8
Default
 10
722.0
 20
1801.0
 42
0.0
  0
VERTEX
  8
Default
 10
720.0
 20
1801.0
 42
0.0
  0
VERTEX
  8
Default
 10
717.0
 20
1798.0
 42
0.0
  0
VERTEX
  8
Default
 10
709.3
 20
1780.9
 42
0.0
  0
VERTEX
  8
Default
 10
701.7
 20
1761.1
 42
0.0
  0
VERTEX
  8
Default
 10
696.352941
 20
1745.911765
 42
0.0
  0
VERTEX
  8
Default
 10
686.647059
 20
1703.088235
 42
0.0
  0
VERTEX
  8
Default
 10
685.478336
 20
1689.980069
 42
0.0
  0
VERTEX
  8
Default
 10
684.521664
 20
1667.019931
 42
0.0
  0
VERTEX
  8
Default
 10
684.0
 20
1666.0
 42
0.0
  0
VERTEX
  8
Default
 10
684.0
 20
1626.0
 42
0.0
  0
VERTEX
  8
Default
 10
684.58
 20
1624.94
 42
0.0
  0
VERTEX
  8
Default
 10
686.42
 20
1612.06
 42
0.0
  0
VERTEX
  8
Default
 10
689.352941
 20
1599.088235
 42
0.0
  0
VERTEX
  8
Default
 10
692.352941
 20
1587.088235
 42
0.0
  0
VERTEX
  8
Default
 10
698.8
 20
1566.9
 42
0.0
  0
VERTEX
  8
Default
 10
700.3
 20
1563.1
 42
0.0
  0
VERTEX
  8
Default
 10
719.2
 20
1524.1
 42
0.0
  0
VERTEX
  8
Default
 10
720.3
 20
1521.1
 42
0.0
  0
VERTEX
  8
Default
 10
735.230769
 20
1489.153846
 42
0.0
  0
VERTEX
  8
Default
 10
760.8
 20
1444.9
 42
0.0
  0
VERTEX
  8
Default
 10
777.24
 20
1419.18
 42
0.0
  0
VERTEX
  8
Default
 10
780.230769
 20
1415.153846
 42
0.0
  0
VERTEX
  8
Default
 10
800.756098
 20
1387.804878
 42
0.0
  0
VERTEX
  8
Default
 10
808.0
 20
1379.0
 42
0.0
  0
VERTEX
  8
Default
 10
830.0
 20
1357.0
 42
0.0
  0
VERTEX
  8
Default
 10
839.22069
 20
1349.248276
 42
0.0
  0
VERTEX
  8
Default
 10
846.153846
 20
1344.230769
 42
0.0
  0
VERTEX
  8
Default
 10
846.846154
 20
1343.769231
 42
0.0
  0
VERTEX
  8
Default
 10
853.1
 20
1340.3
 42
0.0
  0
VERTEX
  8
Default
 10
854.9
 20
1339.7
 42
0.0
  0
VERTEX
  8
Default
 10
864.088235
 20
1337.352941
 42
0.0
  0
SEQEND
  0
POLYLINE
  8
Default
 66
     1
 10
0.0
 20
0.0
 30
0.0
 70
     1
  0
VERTEX
  8
Default
 10
984.0
 20
1242.0
 42
0.0
  0
VERTEX
  8
Default
 10
995.1
 20
1246.8
 42
0.0
  0
VERTEX
  8
Default
 10
996.0
 20
1247.0
 42
0.0
  0
VERTEX
  8
Default
 10
1005.0
 20
1256.0
 42
0.0
  0
VERTEX
  8
Default
 10
1010.0
 20
1268.0
 42
0.0
  0
VERTEX
  8
Default
 10
1010.0
 20
1281.0
 42
0.0
  0
VERTEX
  8
Default
 10
1006.8
 20
1289.9
 42
0.0
  0
VERTEX
  8
Default
 10
1006.2
 20
1291.1
 42
0.0
  0
VERTEX
  8
Default
 10
1002.0
 20
1298.0
 42
0.0
  0
VERTEX
  8
Default
 10
1000.0
 20
1300.0
 42
0.0
  0
VERTEX
  8
Default
 10
990.9
 20
1305.8
 42
0.0
  0
VERTEX
  8
Default
 10
984.0
 20
1309.0
 42
0.0
  0
VERTEX
  8
Default
 10
969.0
 20
1309.0
 42
0.0
  0
VERTEX
  8
Default
 10
967.9
 20
1308.3
 42
0.0
  0
VERTEX
  8
Default
 10
962.153846
 20
1305.769231
 42
0.0
  0
VERTEX
  8
Default
 10
959.153846
 20
1303.769231
 42
0.0
  0
VERTEX
  8
Default
 10
951.0
 20
1298.0
 42
0.0
  0
VERTEX
  8
Default
 10
946.769231
 20
1292.153846
 42
0.0
  0
VERTEX
  8
Default
 10
944.3
 20
1287.9
 42
0.0
  0
VERTEX
  8
Default
 10
942.615385
 20
1281.076923
 42
0.0
  0
VERTEX
  8
Default
 10
942.0
 20
1280.0
 42
0.0
  0
VERTEX
  8
Default
 10
942.0
 20
1272.0
 42
0.0
  0
VERTEX
  8
Default
 10
943.405405
 20
1266.067568
 42
0.0
  0
VERTEX
  8
Default
 10
943.7
 20
1264.9
 42
0.0
  0
VERTEX
  8
Default
 10
945.4
 20
1260.2
 42
0.0
  0
VERTEX
  8
Default
 10
948.0
 20
1255.0
 42
0.0
  0
VERTEX
  8
Default
 10
956.0
 20
1247.0
 42
0.0
  0
VERTEX
  8
Default
 10
958.9
 20
1245.8
 42
0.0
  0
VERTEX
  8
Default
 10
965.088235
 20
1243.352941
 42
0.0
  0
VERTEX
  8
Default
 10
967.911765
 20
1242.647059
 42
0.0
  0
SEQEND
  0
POLYLINE
  8
Default
 66
     1
 10
0.0
 20
0.0
 30
0.0
 70
     1
  0
VERTEX
  8
Default
 10
1238.0
 20
1238.0
 42
0.0
  0
VERTEX
  8
Default
 10
1239.6
 20
1240.2
 42
0.0
  0
VERTEX
  8
Default
 10
1251.8
 20
1268.1
 42
0.0
  0
VERTEX
  8
Default
 10
1256.769231
 20
1277.153846
 42
0.0
  0
VERTEX
  8
Default
 10
1258.8
 20
1281.1
 42
0.0
  0
VERTEX
  8
Default
 10
1272.769231
 20
1303.153846
 42
0.0
  0
VERTEX
  8
Default
 10
1277.76
 20
1310.18
 42
0.0
  0
VERTEX
  8
Default
 10
1302.756098
 20
1342.195122
 42
0.0
  0
VERTEX
  8
Default
 10
1310.756098
 20
1352.195122
 42
0.0
  0
VERTEX
  8
Default
 10
1341.0
 20
1390.0
 42
0.0
  0
VERTEX
  8
Default
 10
1360.0
 20
1409.0
 42
0.0
  0
VERTEX
  8
Default
 10
1385.22069
 20
1431.751724
 42
0.0
  0
VERTEX
  8
Default
 10
1414.204918
 20
1456.754098
 42
0.0
  0
VERTEX
  8
Default
 10
1423.195122
 20
1463.756098
 42
0.0
  0
VERTEX
  8
Default
 10
1450.153846
 20
1482.769231
 42
0.0
  0
VERTEX
  8
Default
 10
1456.153846
 20
1486.769231
 42
0.0
  0
VERTEX
  8
Default
 10
1464.0
 20
1492.0
 42
0.0
  0
VERTEX
  8
Default
 10
1468.0
 20
1496.0
 42
0.0
  0
VERTEX
  8
Default
 10
1480.647059
 20
1528.088235
 42
0.0
  0
VERTEX
  8
Default
 10
1481.352941
 20
1530.911765
 42
0.0
  0
VERTEX
  8
Default
 10
1483.569231
 20
1541.053846
 42
0.0
  0
VERTEX
  8
Default
 10
1490.42
 20
1593.94
 42
0.0
  0
VERTEX
  8
Default
 10
1492.0
 20
1602.0
 42
0.0
  0
VERTEX
  8
Default
 10
1492.0
 20
1633.0
 42
0.0
  0
VERTEX
  8
Default
 10
1490.468966
 20
1643.027586
 42
0.0
  0
VERTEX
  8
Default
 10
1489.531034
 20
1658.972414
 42
0.0
  0
VERTEX
  8
Default
 10
1488.0
 20
1665.0
 42
0.0
  0
VERTEX
  8
Default
 10
1483.0
 20
1669.0
 42
0.0
  0
VERTEX
  8
Default
 10
1472.0
 20
1669.0
 42
0.0
  0
VERTEX
  8
Default
 10
1462.088235
 20
1666.647059
 42
0.0
  0
VERTEX
  8
Default
 10
1428.9
 20
1657.3
 42
0.0
  0
VERTEX
  8
Default
 10
1398.1
 20
1645.7
 42
0.0
  0
VERTEX
  8
Default
 10
1378.1
 20
1635.8
 42
0.0
  0
VERTEX
  8
Default
 10
1356.153846
 20
1622.769231
 42
0.0
  0
VERTEX
  8
Default
 10
1353.846154
 20
1621.230769
 42
0.0
  0
VERTEX
  8
Default
 10
1335.195122
 20
1607.756098
 42
0.0
  0
VERTEX
  8
Default
 10
1330.211765
 20
1603.752941
 42
0.0
  0
VERTEX
  8
Default
 10
1321.0
 20
1596.0
 42
0.0
  0
VERTEX
  8
Default
 10
1316.245902
 20
1589.795082
 42
0.0
  0
VERTEX
  8
Default
 10
1310.7
 20
1576.1
 42
0.0
  0
VERTEX
  8
Default
 10
1309.7
 20
1573.1
 42
0.0
  0
VERTEX
  8
Default
 10
1283.8
 20
1509.1
 42
0.0
  0
VERTEX
  8
Default
 10
1282.3
 20
1505.9
 42
0.0
  0
VERTEX
  8
Default
 10
1269.2
 20
1478.9
 42
0.0
  0
VERTEX
  8
Default
 10
1268.2
 20
1476.9
 42
0.0
  0
VERTEX
  8
Default
 10
1252.769231
 20
1447.153846
 42
0.0
  0
VERTEX
  8
Default
 10
1242.2
 20
1429.9
 42
0.0
  0
VERTEX
  8
Default
 10
1210.76
 20
1383.18
 42
0.0
  0
VERTEX
  8
Default
 10
1208.24
 20
1379.82
 42
0.0
  0
VERTEX
  8
Default
 10
1192.756098
 20
1359.195122
 42
0.0
  0
VERTEX
  8
Default
 10
1189.243902
 20
1354.804878
 42
0.0
  0
VERTEX
  8
Default
 10
1189.0
 20
1354.0
 42
0.0
  0
VERTEX
  8
Default
 10
1152.0
 20
1317.0
 42
0.0
  0
VERTEX
  8
Default
 10
1151.0
 20
1317.0
 42
0.0
  0
VERTEX
  8
Default
 10
1143.0
 20
1309.0
 42
0.0
  0
VERTEX
  8
Default
 10
1142.0
 20
1305.0
 42
0.0
  0
VERTEX
  8
Default
 10
1150.846154
 20
1300.769231
 42
0.0
  0
VERTEX
  8
Default
 10
1157.1
 20
1297.2
 42
0.0
  0
VERTEX
  8
Default
 10
1186.153846
 20
1278.230769
 42
0.0
  0
VERTEX
  8
Default
 10
1198.18
 20
1269.24
 42
0.0
  0
VERTEX
  8
Default
 10
1229.204918
 20
1242.245902
 42
0.0
  0
VERTEX
  8
Default
 10
1229.846154
 20
1241.769231
 42
0.0
  0
VERTEX
  8
Default
 10
1235.206897
 20
1238.517241
 42
0.0
  0
SEQEND
  0
POLYLINE
  8
Default
 66
     1
 10
0.0
 20
0.0
 30
0.0
 70
     1
  0
VERTEX
  8
Default
 10
1087.0
 20
1223.0
 42
0.0
  0
VERTEX
  8
Default
 10
1090.911765
 20
1224.352941
 42
0.0
  0
VERTEX
  8
Default
 10
1099.0
 20
1228.0
 42
0.0
  0
VERTEX
  8
Default
 10
1106.0
 20
1235.0
 42
0.0
  0
VERTEX
  8
Default
 10
1107.8
 20
1239.1
 42
0.0
  0
VERTEX
  8
Default
 10
1108.2
 20
1239.9
 42
0.0
  0
VERTEX
  8
Default
 10
1110.647059
 20
1246.088235
 42
0.0
  0
VERTEX
  8
Default
 10
1111.58
 20
1250.06
 42
0.0
  0
VERTEX
  8
Default
 10
1113.0
 20
1259.0
 42
0.0
  0
VERTEX
  8
Default
 10
1112.42
 20
1260.06
 42
0.0
  0
VERTEX
  8
Default
 10
1111.58
 20
1265.94
 42
0.0
  0
VERTEX
  8
Default
 10
1108.769231
 20
1273.846154
 42
0.0
  0
VERTEX
  8
Default
 10
1107.0
 20
1277.0
 42
0.0
  0
VERTEX
  8
Default
 10
1102.0
 20
1282.0
 42
0.0
  0
VERTEX
  8
Default
 10
1098.153846
 20
1284.230769
 42
0.0
  0
VERTEX
  8
Default
 10
1092.9
 20
1286.7
 42
0.0
  0
VERTEX
  8
Default
 10
1084.0
 20
1289.0
 42
0.0
  0
VERTEX
  8
Default
 10
1071.0
 20
1289.0
 42
0.0
  0
VERTEX
  8
Default
 10
1060.9
 20
1284.2
 42
0.0
  0
VERTEX
  8
Default
 10
1054.0
 20
1279.0
 42
0.0
  0
VERTEX
  8
Default
 10
1049.769231
 20
1273.153846
 42
0.0
  0
VERTEX
  8
Default
 10
1047.3
 20
1267.9
 42
0.0
  0
VERTEX
  8
Default
 10
1045.7
 20
1263.1
 42
0.0
  0
VERTEX
  8
Default
 10
1045.0
 20
1262.0
 42
0.0
  0
VERTEX
  8
Default
 10
1045.0
 20
1248.0
 42
0.0
  0
VERTEX
  8
Default
 10
1046.384615
 20
1243.076923
 42
0.0
  0
VERTEX
  8
Default
 10
1049.24
 20
1237.18
 42
0.0
  0
VERTEX
  8
Default
 10
1052.0
 20
1233.0
 42
0.0
  0
VERTEX
  8
Default
 10
1055.0
 20
1230.0
 42
0.0
  0
VERTEX
  8
Default
 10
1059.9
 20
1226.8
 42
0.0
  0
VERTEX
  8
Default
 10
1066.088235
 20
1224.352941
 42
0.0
  0
VERTEX
  8
Default
 10
1068.911765
 20
1223.647059
 42
0.0
  0
SEQEND
  0
POLYLINE
  8
Default
 66
     1
 10
0.0
 20
0.0
 30
0.0
 70
     1
  0
VERTEX
  8
Default
 10
867.0
 20
1217.0
 42
0.0
  0
VERTEX
  8
Default
 10
880.0
 20
1222.0
 42
0.0
  0
VERTEX
  8
Default
 10
888.0
 20
1230.0
 42
0.0
  0
VERTEX
  8
Default
 10
889.769231
 20
1233.153846
 42
0.0
  0
VERTEX
  8
Default
 10
894.0
 20
1245.0
 42
0.0
  0
VERTEX
  8
Default
 10
894.0
 20
1255.0
 42
0.0
  0
VERTEX
  8
Default
 10
892.615385
 20
1259.923077
 42
0.0
  0
VERTEX
  8
Default
 10
892.2
 20
1261.1
 42
0.0
  0
VERTEX
  8
Default
 10
888.0
 20
1270.0
 42
0.0
  0
VERTEX
  8
Default
 10
881.0
 20
1277.0
 42
0.0
  0
VERTEX
  8
Default
 10
874.846154
 20
1280.769231
 42
0.0
  0
VERTEX
  8
Default
 10
874.1
 20
1281.2
 42
0.0
  0
VERTEX
  8
Default
 10
863.0
 20
1285.0
 42
0.0
  0
VERTEX
  8
Default
 10
857.0
 20
1285.0
 42
0.0
  0
VERTEX
  8
Default
 10
855.94
 20
1284.42
 42
0.0
  0
VERTEX
  8
Default
 10
848.9
 20
1283.3
 42
0.0
  0
VERTEX
  8
Default
 10
841.9
 20
1280.2
 42
0.0
  0
VERTEX
  8
Default
 10
841.153846
 20
1279.769231
 42
0.0
  0
VERTEX
  8
Default
 10
837.0
 20
1277.0
 42
0.0
  0
VERTEX
  8
Default
 10
829.769231
 20
1265.153846
 42
0.0
  0
VERTEX
  8
Default
 10
826.0
 20
1256.0
 42
0.0
  0
VERTEX
  8
Default
 10
826.0
 20
1243.0
 42
0.0
  0
VERTEX
  8
Default
 10
827.352941
 20
1239.088235
 42
0.0
  0
VERTEX
  8
Default
 10
829.230769
 20
1234.153846
 42
0.0
  0
VERTEX
  8
Default
 10
830.769231
 20
1231.846154
 42
0.0
  0
VERTEX
  8
Default
 10
831.0
 20
1231.0
 42
0.0
  0
VERTEX
  8
Default
 10
840.0
 20
1222.0
 42
0.0
  0
VERTEX
  8
Default
 10
842.1
 20
1221.2
 42
0.0
  0
VERTEX
  8
Default
 10
844.1
 20
1220.2
 42
0.0
  0
VERTEX
  8
Default
 10
854.032995
 20
1217.461929
 42
0.0
  0
SEQEND
  0
POLYLINE
  8
Default
 66
     1
 10
0.0
 20
0.0
 30
0.0
 70
     1
  0
VERTEX
  8
Default
 10
667.0
 20
1202.0
 42
0.0
  0
VERTEX
  8
Default
 10
668.06
 20
1202.58
 42
0.0
  0
VERTEX
  8
Default
 10
673.94
 20
1203.42
 42
0.0
  0
VERTEX
  8
Default
 10
683.0
 20
1206.0
 42
0.0
  0
VERTEX
  8
Default
 10
688.0
 20
1211.0
 42
0.0
  0
VERTEX
  8
Default
 10
688.647059
 20
1214.088235
 42
0.0
  0
VERTEX
  8
Default
 10
689.352941
 20
1216.911765
 42
0.0
  0
VERTEX
  8
Default
 10
690.0
 20
1218.0
 42
0.0
  0
VERTEX
  8
Default
 10
690.0
 20
1224.0
 42
0.0
  0
VERTEX
  8
Default
 10
687.7
 20
1230.9
 42
0.0
  0
VERTEX
  8
Default
 10
686.647059
 20
1234.911765
 42
0.0
  0
VERTEX
  8
Default
 10
681.8
 20
1246.9
 42
0.0
  0
VERTEX
  8
Default
 10
671.8
 20
1268.9
 42
0.0
  0
VERTEX
  8
Default
 10
665.769231
 20
1278.846154
 42
0.0
  0
VERTEX
  8
Default
 10
647.2
 20
1309.1
 42
0.0
  0
VERTEX
  8
Default
 10
640.243902
 20
1318.195122
 42
0.0
  0
VERTEX
  8
Default
 10
631.754098
 20
1328.795082
 42
0.0
  0
VERTEX
  8
Default
 10
606.243902
 20
1360.195122
 42
0.0
  0
VERTEX
  8
Default
 10
606.0
 20
1361.0
 42
0.0
  0
VERTEX
  8
Default
 10
549.0
 20
1418.0
 42
0.0
  0
VERTEX
  8
Default
 10
537.773756
 20
1427.751131
 42
0.0
  0
VERTEX
  8
Default
 10
529.783186
 20
1434.752212
 42
0.0
  0
VERTEX
  8
Default
 10
507.153846
 20
1452.230769
 42
0.0
  0
VERTEX
  8
Default
 10
501.846154
 20
1455.769231
 42
0.0
  0
VERTEX
  8
Default
 10
486.1
 20
1466.2
 42
0.0
  0
VERTEX
  8
Default
 10
481.846154
 20
1468.769231
 42
0.0
  0
VERTEX
  8
Default
 10
463.9
 20
1477.8
 42
0.0
  0
VERTEX
  8
Default
 10
463.1
 20
1478.2
 42
0.0
  0
VERTEX
  8
Default
 10
447.9
 20
1484.7
 42
0.0
  0
VERTEX
  8
Default
 10
444.9
 20
1485.7
 42
0.0
  0
VERTEX
  8
Default
 10
429.088235
 20
1490.352941
 42
0.0
  0
VERTEX
  8
Default
 10
404.946154
 20
1494.569231
 42
0.0
  0
VERTEX
  8
Default
 10
369.967005
 20
1497.538071
 42
0.0
  0
VERTEX
  8
Default
 10
333.0
 20
1500.0
 42
0.0
  0
VERTEX
  8
Default
 10
318.0
 20
1500.0
 42
0.0
  0
VERTEX
  8
Default
 10
300.06
 20
1497.58
 42
0.0
  0
VERTEX
  8
Default
 10
297.1
 20
1496.7
 42
0.0
  0
VERTEX
  8
Default
 10
295.9
 20
1496.2
 42
0.0
  0
VERTEX
  8
Default
 10
295.0
 20
1496.0
 42
0.0
  0
VERTEX
  8
Default
 10
292.0
 20
1493.0
 42
0.0
  0
VERTEX
  8
Default
 10
292.0
 20
1479.0
 42
0.0
  0
VERTEX
  8
Default
 10
300.3
 20
1453.1
 42
0.0
  0
VERTEX
  8
Default
 10
302.3
 20
1448.1
 42
0.0
  0
VERTEX
  8
Default
 10
322.8
 20
1391.9
 42
0.0
  0
VERTEX
  8
Default
 10
334.2
 20
1373.1
 42
0.0
  0
VERTEX
  8
Default
 10
340.769231
 20
1360.846154
 42
0.0
  0
VERTEX
  8
Default
 10
344.769231
 20
1354.846154
 42
0.0
  0
VERTEX
  8
Default
 10
364.0
 20
1332.0
 42
0.0
  0
VERTEX
  8
Default
 10
374.0
 20
1322.0
 42
0.0
  0
VERTEX
  8
Default
 10
389.195122
 20
1309.243902
 42
0.0
  0
VERTEX
  8
Default
 10
403.153846
 20
1299.230769
 42
0.0
  0
VERTEX
  8
Default
 10
409.9
 20
1294.8
 42
0.0
  0
VERTEX
  8
Default
 10
445.9
 20
1274.8
 42
0.0
  0
VERTEX
  8
Default
 10
452.153846
 20
1271.230769
 42
0.0
  0
VERTEX
  8
Default
 10
498.1
 20
1247.2
 42
0.0
  0
VERTEX
  8
Default
 10
506.1
 20
1243.2
 42
0.0
  0
VERTEX
  8
Default
 10
526.1
 20
1234.3
 42
0.0
  0
VERTEX
  8
Default
 10
534.9
 20
1230.8
 42
0.0
  0
VERTEX
  8
Default
 10
571.088235
 20
1218.352941
 42
0.0
  0
VERTEX
  8
Default
 10
586.911765
 20
1213.647059
 42
0.0
  0
VERTEX
  8
Default
 10
615.076923
 20
1206.384615
 42
0.0
  0
VERTEX
  8
Default
 10
624.932432
 20
1204.594595
 42
0.0
  0
VERTEX
  8
Default
 10
640.955446
 20
1202.554455
 42
0.0
  0
SEQEND
  0
POLYLINE
  8
Default
 66
     1
 10
0.0
 20
0.0
 30
0.0
 70
     1
  0
VERTEX
  8
Default
 10
978.0
 20
1169.0
 42
0.0
  0
VERTEX
  8
Default
 10
982.923077
 20
1170.384615
 42
0.0
  0
VERTEX
  8
Default
 10
987.9
 20
1172.2
 42
0.0
  0
VERTEX
  8
Default
 10
989.1
 20
1172.8
 42
0.0
  0
VERTEX
  8
Default
 10
990.0
 20
1173.0
 42
0.0
  0
VERTEX
  8
Default
 10
996.0
 20
1179.0
 42
0.0
  0
VERTEX
  8
Default
 10
998.615385
 20
1186.076923
 42
0.0
  0
VERTEX
  8
Default
 10
999.384615
 20
1189.923077
 42
0.0
  0
VERTEX
  8
Default
 10
1000.0
 20
1191.0
 42
0.0
  0
VERTEX
  8
Default
 10
1000.0
 20
1196.0
 42
0.0
  0
VERTEX
  8
Default
 10
996.769231
 20
1204.846154
 42
0.0
  0
VERTEX
  8
Default
 10
995.230769
 20
1207.153846
 42
0.0
  0
VERTEX
  8
Default
 10
995.0
 20
1208.0
 42
0.0
  0
VERTEX
  8
Default
 10
990.0
 20
1213.0
 42
0.0
  0
VERTEX
  8
Default
 10
981.0
 20
1217.0
 42
0.0
  0
VERTEX
  8
Default
 10
975.0
 20
1217.0
 42
0.0
  0
VERTEX
  8
Default
 10
966.1
 20
1214.8
 42
0.0
  0
VERTEX
  8
Default
 10
964.9
 20
1214.2
 42
0.0
  0
VERTEX
  8
Default
 10
959.0
 20
1211.0
 42
0.0
  0
VERTEX
  8
Default
 10
955.0
 20
1207.0
 42
0.0
  0
VERTEX
  8
Default
 10
954.2
 20
1204.9
 42
0.0
  0
VERTEX
  8
Default
 10
953.8
 20
1204.1
 42
0.0
  0
VERTEX
  8
Default
 10
951.0
 20
1196.0
 42
0.0
  0
VERTEX
  8
Default
 10
951.0
 20
1192.0
 42
0.0
  0
VERTEX
  8
Default
 10
952.405405
 20
1186.067568
 42
0.0
  0
VERTEX
  8
Default
 10
953.3
 20
1183.1
 42
0.0
  0
VERTEX
  8
Default
 10
957.0
 20
1177.0
 42
0.0
  0
VERTEX
  8
Default
 10
960.0
 20
1174.0
 42
0.0
  0
VERTEX
  8
Default
 10
963.153846
 20
1172.230769
 42
0.0
  0
VERTEX
  8
Default
 10
965.1
 20
1171.3
 42
0.0
  0
VERTEX
  8
Default
 10
973.067568
 20
1169.405405
 42
0.0
  0
SEQEND
  0
POLYLINE
  8
Default
 66
     1
 10
0.0
 20
0.0
 30
0.0
 70
     1
  0
VERTEX
  8
Default
 10
780.0
 20
1157.0
 42
0.0
  0
VERTEX
  8
Default
 10
789.1
 20
1160.8
 42
0.0
  0
VERTEX
  8
Default
 10
795.0
 20
1164.0
 42
0.0
  0
VERTEX
  8
Default
 10
804.0
 20
1173.0
 42
0.0
  0
VERTEX
  8
Default
 10
806.7
 20
1179.1
 42
0.0
  0
VERTEX
  8
Default
 10
807.3
 20
1180.9
 42
0.0
  0
VERTEX
  8
Default
 10
809.0
 20
1186.0
 42
0.0
  0
VERTEX
  8
Default
 10
809.0
 20
1197.0
 42
0.0
  0
VERTEX
  8
Default
 10
805.8
 20
1204.9
 42
0.0
  0
VERTEX
  8
Default
 10
805.2
 20
1206.1
 42
0.0
  0
VERTEX
  8
Default
 10
800.0
 20
1214.0
 42
0.0
  0
VERTEX
  8
Default
 10
789.9
 20
1220.8
 42
0.0
  0
VERTEX
  8
Default
 10
789.1
 20
1221.2
 42
0.0
  0
VERTEX
  8
Default
 10
782.0
 20
1224.0
 42
0.0
  0
VERTEX
  8
Default
 10
766.0
 20
1224.0
 42
0.0
  0
VERTEX
  8
Default
 10
759.1
 20
1220.8
 42
0.0
  0
VERTEX
  8
Default
 10
757.9
 20
1220.2
 42
0.0
  0
VERTEX
  8
Default
 10
751.0
 20
1216.0
 42
0.0
  0
VERTEX
  8
Default
 10
748.0
 20
1213.0
 42
0.0
  0
VERTEX
  8
Default
 10
743.2
 20
1204.9
 42
0.0
  0
VERTEX
  8
Default
 10
742.8
 20
1204.1
 42
0.0
  0
VERTEX
  8
Default
 10
741.0
 20
1199.0
 42
0.0
  0
VERTEX
  8
Default
 10
741.0
 20
1185.0
 42
0.0
  0
VERTEX
  8
Default
 10
742.352941
 20
1181.088235
 42
0.0
  0
VERTEX
  8
Default
 10
744.230769
 20
1176.153846
 42
0.0
  0
VERTEX
  8
Default
 10
746.8
 20
1171.9
 42
0.0
  0
VERTEX
  8
Default
 10
747.0
 20
1171.0
 42
0.0
  0
VERTEX
  8
Default
 10
756.0
 20
1162.0
 42
0.0
  0
VERTEX
  8
Default
 10
756.846154
 20
1161.769231
 42
0.0
  0
VERTEX
  8
Default
 10
764.088235
 20
1158.352941
 42
0.0
  0
VERTEX
  8
Default
 10
766.911765
 20
1157.647059
 42
0.0
  0
SEQEND
  0
POLYLINE
  8
Default
 66
     1
 10
0.0
 20
0.0
 30
0.0
 70
     1
  0
VERTEX
  8
Default
 10
1184.0
 20
1157.0
 42
0.0
  0
VERTEX
  8
Default
 10
1194.1
 20
1160.8
 42
0.0
  0
VERTEX
  8
Default
 10
1202.0
 20
1166.0
 42
0.0
  0
VERTEX
  8
Default
 10
1206.0
 20
1170.0
 42
0.0
  0
VERTEX
  8
Default
 10
1209.8
 20
1177.1
 42
0.0
  0
VERTEX
  8
Default
 10
1210.2
 20
1177.9
 42
0.0
  0
VERTEX
  8
Default
 10
1213.0
 20
1186.0
 42
0.0
  0
VERTEX
  8
Default
 10
1213.0
 20
1195.0
 42
0.0
  0
VERTEX
  8
Default
 10
1209.8
 20
1204.9
 42
0.0
  0
VERTEX
  8
Default
 10
1209.2
 20
1206.1
 42
0.0
  0
VERTEX
  8
Default
 10
1206.0
 20
1212.0
 42
0.0
  0
VERTEX
  8
Default
 10
1200.0
 20
1218.0
 42
0.0
  0
VERTEX
  8
Default
 10
1192.9
 20
1221.7
 42
0.0
  0
VERTEX
  8
Default
 10
1191.1
 20
1222.3
 42
0.0
  0
VERTEX
  8
Default
 10
1188.0
 20
1224.0
 42
0.0
  0
VERTEX
  8
Default
 10
1170.0
 20
1224.0
 42
0.0
  0
VERTEX
  8
Default
 10
1161.1
 20
1219.8
 42
0.0
  0
VERTEX
  8
Default
 10
1159.9
 20
1219.2
 42
0.0
  0
VERTEX
  8
Default
 10
1156.0
 20
1217.0
 42
0.0
  0
VERTEX
  8
Default
 10
1149.0
 20
1210.0
 42
0.0
  0
VERTEX
  8
Default
 10
1145.3
 20
1201.9
 42
0.0
  0
VERTEX
  8
Default
 10
1144.7
 20
1200.1
 42
0.0
  0
VERTEX
  8
Default
 10
1144.0
 20
1199.0
 42
0.0
  0
VERTEX
  8
Default
 10
1144.0
 20
1184.0
 42
0.0
  0
VERTEX
  8
Default
 10
1145.3
 20
1181.1
 42
0.0
  0
VERTEX
  8
Default
 10
1148.24
 20
1174.18
 42
0.0
  0
VERTEX
  8
Default
 10
1151.0
 20
1170.0
 42
0.0
  0
VERTEX
  8
Default
 10
1158.0
 20
1163.0
 42
0.0
  0
VERTEX
  8
Default
 10
1161.9
 20
1160.8
 42
0.0
  0
VERTEX
  8
Default
 10
1170.911765
 20
1157.647059
 42
0.0
  0
SEQEND
  0
POLYLINE
  8
Default
 66
     1
 10
0.0
 20
0.0
 30
0.0
 70
     1
  0
VERTEX
  8
Default
 10
1050.0
 20
1154.0
 42
0.0
  0
VERTEX
  8
Default
 10
1051.067568
 20
1154.594595
 42
0.0
  0
VERTEX
  8
Default
 10
1062.0
 20
1157.0
 42
0.0
  0
VERTEX
  8
Default
 10
1070.0
 20
1165.0
 42
0.0
  0
VERTEX
  8
Default
 10
1070.8
 20
1167.1
 42
0.0
  0
VERTEX
  8
Default
 10
1071.2
 20
1167.9
 42
0.0
  0
VERTEX
  8
Default
 10
1074.0
 20
1177.0
 42
0.0
  0
VERTEX
  8
Default
 10
1074.0
 20
1184.0
 42
0.0
  0
VERTEX
  8
Default
 10
1071.8
 20
1189.9
 42
0.0
  0
VERTEX
  8
Default
 10
1071.2
 20
1191.1
 42
0.0
  0
VERTEX
  8
Default
 10
1070.0
 20
1194.0
 42
0.0
  0
VERTEX
  8
Default
 10
1066.0
 20
1198.0
 42
0.0
  0
VERTEX
  8
Default
 10
1058.9
 20
1201.8
 42
0.0
  0
VERTEX
  8
Default
 10
1053.0
 20
1204.0
 42
0.0
  0
VERTEX
  8
Default
 10
1043.0
 20
1204.0
 42
0.0
  0
VERTEX
  8
Default
 10
1041.9
 20
1203.3
 42
0.0
  0
VERTEX
  8
Default
 10
1036.153846
 20
1200.769231
 42
0.0
  0
VERTEX
  8
Default
 10
1033.846154
 20
1199.230769
 42
0.0
  0
VERTEX
  8
Default
 10
1033.0
 20
1199.0
 42
0.0
  0
VERTEX
  8
Default
 10
1028.0
 20
1194.0
 42
0.0
  0
VERTEX
  8
Default
 10
1024.0
 20
1186.0
 42
0.0
  0
VERTEX
  8
Default
 10
1024.0
 20
1173.0
 42
0.0
  0
VERTEX
  8
Default
 10
1026.2
 20
1168.1
 42
0.0
  0
VERTEX
  8
Default
 10
1026.8
 20
1166.9
 42
0.0
  0
VERTEX
  8
Default
 10
1029.0
 20
1163.0
 42
0.0
  0
VERTEX
  8
Default
 10
1032.0
 20
1160.0
 42
0.0
  0
VERTEX
  8
Default
 10
1039.088235
 20
1156.352941
 42
0.0
  0
SEQEND
  0
POLYLINE
  8
Default
 66
     1
 10
0.0
 20
0.0
 30
0.0
 70
     1
  0
VERTEX
  8
Default
 10
899.0
 20
1151.0
 42
0.0
  0
VERTEX
  8
Default
 10
907.1
 20
1153.8
 42
0.0
  0
VERTEX
  8
Default
 10
908.0
 20
1154.0
 42
0.0
  0
VERTEX
  8
Default
 10
914.0
 20
1160.0
 42
0.0
  0
VERTEX
  8
Default
 10
915.7
 20
1165.1
 42
0.0
  0
VERTEX
  8
Default
 10
916.3
 20
1166.9
 42
0.0
  0
VERTEX
  8
Default
 10
918.0
 20
1178.0
 42
0.0
  0
VERTEX
  8
Default
 10
916.3
 20
1185.1
 42
0.0
  0
VERTEX
  8
Default
 10
914.0
 20
1191.0
 42
0.0
  0
VERTEX
  8
Default
 10
909.0
 20
1196.0
 42
0.0
  0
VERTEX
  8
Default
 10
906.9
 20
1196.7
 42
0.0
  0
VERTEX
  8
Default
 10
905.1
 20
1197.3
 42
0.0
  0
VERTEX
  8
Default
 10
900.0
 20
1199.0
 42
0.0
  0
VERTEX
  8
Default
 10
886.0
 20
1199.0
 42
0.0
  0
VERTEX
  8
Default
 10
881.153846
 20
1196.769231
 42
0.0
  0
VERTEX
  8
Default
 10
878.846154
 20
1195.230769
 42
0.0
  0
VERTEX
  8
Default
 10
878.0
 20
1195.0
 42
0.0
  0
VERTEX
  8
Default
 10
872.0
 20
1189.0
 42
0.0
  0
VERTEX
  8
Default
 10
869.8
 20
1184.1
 42
0.0
  0
VERTEX
  8
Default
 10
869.0
 20
1183.0
 42
0.0
  0
VERTEX
  8
Default
 10
869.0
 20
1168.0
 42
0.0
  0
VERTEX
  8
Default
 10
872.0
 20
1161.0
 42
0.0
  0
VERTEX
  8
Default
 10
879.0
 20
1154.0
 42
0.0
  0
VERTEX
  8
Default
 10
881.1
 20
1153.2
 42
0.0
  0
VERTEX
  8
Default
 10
888.037931
 20
1151.455172
 42
0.0
  0
SEQEND
  0
POLYLINE
  8
Default
 66
     1
 10
0.0
 20
0.0
 30
0.0
 70
     1
  0
VERTEX
  8
Default
 10
980.0
 20
1117.0
 42
0.0
  0
VERTEX
  8
Default
 10
981.1
 20
1117.7
 42
0.0
  0
VERTEX
  8
Default
 10
987.0
 20
1120.0
 42
0.0
  0
VERTEX
  8
Default
 10
990.0
 20
1123.0
 42
0.0
  0
VERTEX
  8
Default
 10
990.230769
 20
1123.846154
 42
0.0
  0
VERTEX
  8
Default
 10
994.0
 20
1133.0
 42
0.0
  0
VERTEX
  8
Default
 10
994.0
 20
1139.0
 42
0.0
  0
VERTEX
  8
Default
 10
992.7
 20
1141.9
 42
0.0
  0
VERTEX
  8
Default
 10
992.2
 20
1143.1
 42
0.0
  0
VERTEX
  8
Default
 10
992.0
 20
1144.0
 42
0.0
  0
VERTEX
  8
Default
 10
986.0
 20
1150.0
 42
0.0
  0
VERTEX
  8
Default
 10
983.9
 20
1150.7
 42
0.0
  0
VERTEX
  8
Default
 10
982.1
 20
1151.3
 42
0.0
  0
VERTEX
  8
Default
 10
981.0
 20
1152.0
 42
0.0
  0
VERTEX
  8
Default
 10
977.0
 20
1152.0
 42
0.0
  0
VERTEX
  8
Default
 10
975.94
 20
1151.42
 42
0.0
  0
VERTEX
  8
Default
 10
968.9
 20
1150.2
 42
0.0
  0
VERTEX
  8
Default
 10
966.0
 20
1149.0
 42
0.0
  0
VERTEX
  8
Default
 10
960.0
 20
1143.0
 42
0.0
  0
VERTEX
  8
Default
 10
959.2
 20
1140.9
 42
0.0
  0
VERTEX
  8
Default
 10
958.8
 20
1140.1
 42
0.0
  0
VERTEX
  8
Default
 10
958.0
 20
1139.0
 42
0.0
  0
VERTEX
  8
Default
 10
958.0
 20
1129.0
 42
0.0
  0
VERTEX
  8
Default
 10
959.8
 20
1125.9
 42
0.0
  0
VERTEX
  8
Default
 10
960.0
 20
1125.0
 42
0.0
  0
VERTEX
  8
Default
 10
966.0
 20
1119.0
 42
0.0
  0
VERTEX
  8
Default
 10
967.9
 20
1118.7
 42
0.0
  0
VERTEX
  8
Default
 10
972.04878
 20
1117.439024
 42
0.0
  0
SEQEND
  0
POLYLINE
  8
Default
 66
     1
 10
0.0
 20
0.0
 30
0.0
 70
     1
  0
VERTEX
  8
Default
 10
838.0
 20
1109.0
 42
0.0
  0
VERTEX
  8
Default
 10
847.0
 20
1112.0
 42
0.0
  0
VERTEX
  8
Default
 10
856.0
 20
1121.0
 42
0.0
  0
VERTEX
  8
Default
 10
859.0
 20
1132.0
 42
0.0
  0
VERTEX
  8
Default
 10
859.0
 20
1134.0
 42
0.0
  0
VERTEX
  8
Default
 10
856.2
 20
1143.1
 42
0.0
  0
VERTEX
  8
Default
 10
855.0
 20
1146.0
 42
0.0
  0
VERTEX
  8
Default
 10
849.0
 20
1152.0
 42
0.0
  0
VERTEX
  8
Default
 10
843.9
 20
1154.8
 42
0.0
  0
VERTEX
  8
Default
 10
843.1
 20
1155.2
 42
0.0
  0
VERTEX
  8
Default
 10
839.0
 20
1157.0
 42
0.0
  0
VERTEX
  8
Default
 10
825.0
 20
1157.0
 42
0.0
  0
VERTEX
  8
Default
 10
820.153846
 20
1153.769231
 42
0.0
  0
VERTEX
  8
Default
 10
817.846154
 20
1152.230769
 42
0.0
  0
VERTEX
  8
Default
 10
817.0
 20
1152.0
 42
0.0
  0
VERTEX
  8
Default
 10
812.0
 20
1147.0
 42
0.0
  0
VERTEX
  8
Default
 10
808.0
 20
1139.0
 42
0.0
  0
VERTEX
  8
Default
 10
808.0
 20
1126.0
 42
0.0
  0
VERTEX
  8
Default
 10
811.0
 20
1119.0
 42
0.0
  0
VERTEX
  8
Default
 10
818.0
 20
1112.0
 42
0.0
  0
VERTEX
  8
Default
 10
818.9
 20
1111.8
 42
0.0
  0
VERTEX
  8
Default
 10
825.032995
 20
1109.461929
 42
0.0
  0
SEQEND
  0
POLYLINE
  8
Default
 66
     1
 10
0.0
 20
0.0
 30
0.0
 70
     1
  0
VERTEX
  8
Default
 10
1126.0
 20
1109.0
 42
0.0
  0
VERTEX
  8
Default
 10
1135.0
 20
1112.0
 42
0.0
  0
VERTEX
  8
Default
 10
1141.0
 20
1118.0
 42
0.0
  0
VERTEX
  8
Default
 10
1141.230769
 20
1118.846154
 42
0.0
  0
VERTEX
  8
Default
 10
1145.0
 20
1128.0
 42
0.0
  0
VERTEX
  8
Default
 10
1145.0
 20
1137.0
 42
0.0
  0
VERTEX
  8
Default
 10
1143.647059
 20
1140.911765
 42
0.0
  0
VERTEX
  8
Default
 10
1141.0
 20
1147.0
 42
0.0
  0
VERTEX
  8
Default
 10
1135.0
 20
1153.0
 42
0.0
  0
VERTEX
  8
Default
 10
1134.153846
 20
1153.230769
 42
0.0
  0
VERTEX
  8
Default
 10
1127.0
 20
1157.0
 42
0.0
  0
VERTEX
  8
Default
 10
1115.0
 20
1157.0
 42
0.0
  0
VERTEX
  8
Default
 10
1111.1
 20
1154.8
 42
0.0
  0
VERTEX
  8
Default
 10
1109.9
 20
1154.2
 42
0.0
  0
VERTEX
  8
Default
 10
1106.0
 20
1152.0
 42
0.0
  0
VERTEX
  8
Default
 10
1100.0
 20
1146.0
 42
0.0
  0
VERTEX
  8
Default
 10
1098.2
 20
1141.9
 42
0.0
  0
VERTEX
  8
Default
 10
1097.8
 20
1141.1
 42
0.0
  0
VERTEX
  8
Default
 10
1096.0
 20
1135.0
 42
0.0
  0
VERTEX
  8
Default
 10
1096.0
 20
1131.0
 42
0.0
  0
VERTEX
  8
Default
 10
1097.405405
 20
1125.067568
 42
0.0
  0
VERTEX
  8
Default
 10
1097.7
 20
1123.9
 42
0.0
  0
VERTEX
  8
Default
 10
1099.230769
 20
1120.153846
 42
0.0
  0
VERTEX
  8
Default
 10
1101.0
 20
1117.0
 42
0.0
  0
VERTEX
  8
Default
 10
1105.0
 20
1113.0
 42
0.0
  0
VERTEX
  8
Default
 10
1108.2
 20
1111.4
 42
0.0
  0
VERTEX
  8
Default
 10
1114.035294
 20
1109.458824
 42
0.0
  0
SEQEND
  0
POLYLINE
  8
Default
 66
     1
 10
0.0
 20
0.0
 30
0.0
 70
     1
  0
VERTEX
  8
Default
 10
1031.0
 20
1107.0
 42
0.0
  0
VERTEX
  8
Default
 10
1039.1
 20
1109.8
 42
0.0
  0
VERTEX
  8
Default
 10
1040.0
 20
1110.0
 42
0.0
  0
VERTEX
  8
Default
 10
1045.0
 20
1115.0
 42
0.0
  0
VERTEX
  8
Default
 10
1047.0
 20
1120.0
 42
0.0
  0
VERTEX
  8
Default
 10
1047.0
 20
1130.0
 42
0.0
  0
VERTEX
  8
Default
 10
1046.2
 20
1131.1
 42
0.0
  0
VERTEX
  8
Default
 10
1045.0
 20
1135.0
 42
0.0
  0
VERTEX
  8
Default
 10
1041.0
 20
1139.0
 42
0.0
  0
VERTEX
  8
Default
 10
1037.846154
 20
1140.769231
 42
0.0
  0
VERTEX
  8
Default
 10
1034.0
 20
1143.0
 42
0.0
  0
VERTEX
  8
Default
 10
1025.0
 20
1143.0
 42
0.0
  0
VERTEX
  8
Default
 10
1016.846154
 20
1139.230769
 42
0.0
  0
VERTEX
  8
Default
 10
1016.0
 20
1139.0
 42
0.0
  0
VERTEX
  8
Default
 10
1013.0
 20
1136.0
 42
0.0
  0
VERTEX
  8
Default
 10
1011.0
 20
1129.0
 42
0.0
  0
VERTEX
  8
Default
 10
1011.0
 20
1121.0
 42
0.0
  0
VERTEX
  8
Default
 10
1013.8
 20
1113.9
 42
0.0
  0
VERTEX
  8
Default
 10
1014.0
 20
1113.0
 42
0.0
  0
VERTEX
  8
Default
 10
1018.0
 20
1109.0
 42
0.0
  0
VERTEX
  8
Default
 10
1024.053846
 20
1107.430769
 42
0.0
  0
SEQEND
  0
POLYLINE
  8
Default
 66
     1
 10
0.0
 20
0.0
 30
0.0
 70
     1
  0
VERTEX
  8
Default
 10
920.0
 20
1103.0
 42
0.0
  0
VERTEX
  8
Default
 10
928.1
 20
1105.8
 42
0.0
  0
VERTEX
  8
Default
 10
929.0
 20
1106.0
 42
0.0
  0
VERTEX
  8
Default
 10
933.0
 20
1110.0
 42
0.0
  0
VERTEX
  8
Default
 10
934.7
 20
1114.1
 42
0.0
  0
VERTEX
  8
Default
 10
935.3
 20
1115.9
 42
0.0
  0
VERTEX
  8
Default
 10
936.0
 20
1117.0
 42
0.0
  0
VERTEX
  8
Default
 10
936.0
 20
1127.0
 42
0.0
  0
VERTEX
  8
Default
 10
934.2
 20
1130.1
 42
0.0
  0
VERTEX
  8
Default
 10
934.0
 20
1131.0
 42
0.0
  0
VERTEX
  8
Default
 10
929.0
 20
1136.0
 42
0.0
  0
VERTEX
  8
Default
 10
922.0
 20
1140.0
 42
0.0
  0
VERTEX
  8
Default
 10
914.0
 20
1140.0
 42
0.0
  0
VERTEX
  8
Default
 10
907.9
 20
1137.2
 42
0.0
  0
VERTEX
  8
Default
 10
907.0
 20
1137.0
 42
0.0
  0
VERTEX
  8
Default
 10
903.0
 20
1133.0
 42
0.0
  0
VERTEX
  8
Default
 10
900.0
 20
1127.0
 42
0.0
  0
VERTEX
  8
Default
 10
900.0
 20
1118.0
 42
0.0
  0
VERTEX
  8
Default
 10
901.352941
 20
1114.088235
 42
0.0
  0
VERTEX
  8
Default
 10
901.8
 20
1112.9
 42
0.0
  0
VERTEX
  8
Default
 10
904.0
 20
1109.0
 42
0.0
  0
VERTEX
  8
Default
 10
906.0
 20
1107.0
 42
0.0
  0
VERTEX
  8
Default
 10
909.2
 20
1105.4
 42
0.0
  0
VERTEX
  8
Default
 10
910.9
 20
1104.7
 42
0.0
  0
VERTEX
  8
Default
 10
915.067568
 20
1103.405405
 42
0.0
  0
SEQEND
  0
POLYLINE
  8
Default
 66
     1
 10
0.0
 20
0.0
 30
0.0
 70
     1
  0
VERTEX
  8
Default
 10
978.0
 20
1080.0
 42
0.0
  0
VERTEX
  8
Default
 10
983.1
 20
1081.8
 42
0.0
  0
VERTEX
  8
Default
 10
984.0
 20
1082.0
 42
0.0
  0
VERTEX
  8
Default
 10
988.0
 20
1086.0
 42
0.0
  0
VERTEX
  8
Default
 10
989.0
 20
1089.0
 42
0.0
  0
VERTEX
  8
Default
 10
989.0
 20
1096.0
 42
0.0
  0
VERTEX
  8
Default
 10
987.8
 20
1097.9
 42
0.0
  0
VERTEX
  8
Default
 10
986.0
 20
1101.0
 42
0.0
  0
VERTEX
  8
Default
 10
982.1
 20
1103.2
 42
0.0
  0
VERTEX
  8
Default
 10
979.0
 20
1105.0
 42
0.0
  0
VERTEX
  8
Default
 10
972.0
 20
1105.0
 42
0.0
  0
VERTEX
  8
Default
 10
970.9
 20
1104.2
 42
0.0
  0
VERTEX
  8
Default
 10
968.0
 20
1103.0
 42
0.0
  0
VERTEX
  8
Default
 10
963.0
 20
1098.0
 42
0.0
  0
VERTEX
  8
Default
 10
962.0
 20
1096.0
 42
0.0
  0
VERTEX
  8
Default
 10
962.0
 20
1087.0
 42
0.0
  0
VERTEX
  8
Default
 10
966.0
 20
1082.0
 42
0.0
  0
VERTEX
  8
Default
 10
968.088235
 20
1081.352941
 42
0.0
  0
VERTEX
  8
Default
 10
970.911765
 20
1080.647059
 42
0.0
  0
SEQEND
  0
POLYLINE
  8
Default
 66
     1
 10
0.0
 20
0.0
 30
0.0
 70
     1
  0
VERTEX
  8
Default
 10
876.0
 20
1074.0
 42
0.0
  0
VERTEX
  8
Default
 10
881.1
 20
1075.7
 42
0.0
  0
VERTEX
  8
Default
 10
883.0
 20
1076.0
 42
0.0
  0
VERTEX
  8
Default
 10
889.0
 20
1082.0
 42
0.0
  0
VERTEX
  8
Default
 10
889.2
 20
1082.9
 42
0.0
  0
VERTEX
  8
Default
 10
891.0
 20
1087.0
 42
0.0
  0
VERTEX
  8
Default
 10
891.0
 20
1096.0
 42
0.0
  0
VERTEX
  8
Default
 10
889.6
 20
1098.8
 42
0.0
  0
VERTEX
  8
Default
 10
888.230769
 20
1101.153846
 42
0.0
  0
VERTEX
  8
Default
 10
888.0
 20
1102.0
 42
0.0
  0
VERTEX
  8
Default
 10
884.0
 20
1106.0
 42
0.0
  0
VERTEX
  8
Default
 10
879.0
 20
1109.0
 42
0.0
  0
VERTEX
  8
Default
 10
868.0
 20
1109.0
 42
0.0
  0
VERTEX
  8
Default
 10
866.9
 20
1108.2
 42
0.0
  0
VERTEX
  8
Default
 10
863.0
 20
1106.0
 42
0.0
  0
VERTEX
  8
Default
 10
860.0
 20
1103.0
 42
0.0
  0
VERTEX
  8
Default
 10
856.0
 20
1095.0
 42
0.0
  0
VERTEX
  8
Default
 10
856.0
 20
1087.0
 42
0.0
  0
VERTEX
  8
Default
 10
860.0
 20
1079.0
 42
0.0
  0
VERTEX
  8
Default
 10
862.0
 20
1077.0
 42
0.0
  0
VERTEX
  8
Default
 10
869.053846
 20
1074.430769
 42
0.0
  0
SEQEND
  0
POLYLINE
  8
Default
 66
     1
 10
0.0
 20
0.0
 30
0.0
 70
     1
  0
VERTEX
  8
Default
 10
1082.0
 20
1074.0
 42
0.0
  0
VERTEX
  8
Default
 10
1083.088235
 20
1074.647059
 42
0.0
  0
VERTEX
  8
Default
 10
1091.0
 20
1077.0
 42
0.0
  0
VERTEX
  8
Default
 10
1096.0
 20
1082.0
 42
0.0
  0
VERTEX
  8
Default
 10
1096.2
 20
1082.9
 42
0.0
  0
VERTEX
  8
Default
 10
1098.0
 20
1088.0
 42
0.0
  0
VERTEX
  8
Default
 10
1098.0
 20
1095.0
 42
0.0
  0
VERTEX
  8
Default
 10
1097.2
 20
1096.1
 42
0.0
  0
VERTEX
  8
Default
 10
1095.0
 20
1101.0
 42
0.0
  0
VERTEX
  8
Default
 10
1090.0
 20
1106.0
 42
0.0
  0
VERTEX
  8
Default
 10
1089.153846
 20
1106.230769
 42
0.0
  0
VERTEX
  8
Default
 10
1084.0
 20
1109.0
 42
0.0
  0
VERTEX
  8
Default
 10
1075.0
 20
1109.0
 42
0.0
  0
VERTEX
  8
Default
 10
1073.153846
 20
1107.769231
 42
0.0
  0
VERTEX
  8
Default
 10
1070.846154
 20
1106.230769
 42
0.0
  0
VERTEX
  8
Default
 10
1070.0
 20
1106.0
 42
0.0
  0
VERTEX
  8
Default
 10
1066.0
 20
1102.0
 42
0.0
  0
VERTEX
  8
Default
 10
1063.0
 20
1097.0
 42
0.0
  0
VERTEX
  8
Default
 10
1063.0
 20
1085.0
 42
0.0
  0
VERTEX
  8
Default
 10
1064.8
 20
1081.9
 42
0.0
  0
VERTEX
  8
Default
 10
1065.0
 20
1081.0
 42
0.0
  0
VERTEX
  8
Default
 10
1070.0
 20
1076.0
 42
0.0
  0
VERTEX
  8
Default
 10
1070.9
 20
1075.8
 42
0.0
  0
VERTEX
  8
Default
 10
1077.067568
 20
1074.405405
 42
0.0
  0
SEQEND
  0
POLYLINE
  8
Default
 66
     1
 10
0.0
 20
0.0
 30
0.0
 70
     1
  0
VERTEX
  8
Default
 10
1018.0
 20
1073.0
 42
0.0
  0
VERTEX
  8
Default
 10
1021.0
 20
1074.0
 42
0.0
  0
VERTEX
  8
Default
 10
1025.0
 20
1078.0
 42
0.0
  0
VERTEX
  8
Default
 10
1026.3
 20
1081.9
 42
0.0
  0
VERTEX
  8
Default
 10
1027.0
 20
1083.0
 42
0.0
  0
VERTEX
  8
Default
 10
1027.0
 20
1089.0
 42
0.0
  0
VERTEX
  8
Default
 10
1024.0
 20
1094.0
 42
0.0
  0
VERTEX
  8
Default
 10
1023.18
 20
1094.24
 42
0.0
  0
VERTEX
  8
Default
 10
1016.0
 20
1098.0
 42
0.0
  0
VERTEX
  8
Default
 10
1010.0
 20
1098.0
 42
0.0
  0
VERTEX
  8
Default
 10
1003.0
 20
1093.0
 42
0.0
  0
VERTEX
  8
Default
 10
1002.769231
 20
1092.153846
 42
0.0
  0
VERTEX
  8
Default
 10
1001.0
 20
1090.0
 42
0.0
  0
VERTEX
  8
Default
 10
1001.0
 20
1081.0
 42
0.0
  0
VERTEX
  8
Default
 10
1002.0
 20
1079.0
 42
0.0
  0
VERTEX
  8
Default
 10
1007.0
 20
1074.0
 42
0.0
  0
SEQEND
  0
POLYLINE
  8
Default
 66
     1
 10
0.0
 20
0.0
 30
0.0
 70
     1
  0
VERTEX
  8
Default
 10
1242.0
 20
1072.0
 42
0.0
  0
VERTEX
  8
Default
 10
1246.923077
 20
1073.384615
 42
0.0
  0
VERTEX
  8
Default
 10
1255.1
 20
1075.8
 42
0.0
  0
VERTEX
  8
Default
 10
1257.1
 20
1076.8
 42
0.0
  0
VERTEX
  8
Default
 10
1260.0
 20
1078.0
 42
0.0
  0
VERTEX
  8
Default
 10
1267.0
 20
1085.0
 42
0.0
  0
VERTEX
  8
Default
 10
1272.0
 20
1097.0
 42
0.0
  0
VERTEX
  8
Default
 10
1272.0
 20
1112.0
 42
0.0
  0
VERTEX
  8
Default
 10
1270.7
 20
1114.9
 42
0.0
  0
VERTEX
  8
Default
 10
1267.769231
 20
1121.846154
 42
0.0
  0
VERTEX
  8
Default
 10
1266.0
 20
1125.0
 42
0.0
  0
VERTEX
  8
Default
 10
1261.0
 20
1130.0
 42
0.0
  0
VERTEX
  8
Default
 10
1253.846154
 20
1134.769231
 42
0.0
  0
VERTEX
  8
Default
 10
1248.9
 20
1136.7
 42
0.0
  0
VERTEX
  8
Default
 10
1247.1
 20
1137.3
 42
0.0
  0
VERTEX
  8
Default
 10
1246.0
 20
1138.0
 42
0.0
  0
VERTEX
  8
Default
 10
1230.0
 20
1138.0
 42
0.0
  0
VERTEX
  8
Default
 10
1224.1
 20
1135.7
 42
0.0
  0
VERTEX
  8
Default
 10
1222.9
 20
1135.2
 42
0.0
  0
VERTEX
  8
Default
 10
1215.0
 20
1131.0
 42
0.0
  0
VERTEX
  8
Default
 10
1211.0
 20
1127.0
 42
0.0
  0
VERTEX
  8
Default
 10
1209.230769
 20
1123.846154
 42
0.0
  0
VERTEX
  8
Default
 10
1207.230769
 20
1120.846154
 42
0.0
  0
VERTEX
  8
Default
 10
1204.0
 20
1111.0
 42
0.0
  0
VERTEX
  8
Default
 10
1204.0
 20
1101.0
 42
0.0
  0
VERTEX
  8
Default
 10
1206.3
 20
1093.1
 42
0.0
  0
VERTEX
  8
Default
 10
1206.8
 20
1091.9
 42
0.0
  0
VERTEX
  8
Default
 10
1210.0
 20
1086.0
 42
0.0
  0
VERTEX
  8
Default
 10
1218.0
 20
1078.0
 42
0.0
  0
VERTEX
  8
Default
 10
1224.1
 20
1075.2
 42
0.0
  0
VERTEX
  8
Default
 10
1224.9
 20
1074.8
 42
0.0
  0
VERTEX
  8
Default
 10
1234.04878
 20
1072.439024
 42
0.0
  0
SEQEND
  0
POLYLINE
  8
Default
 66
     1
 10
0.0
 20
0.0
 30
0.0
 70
     1
  0
VERTEX
  8
Default
 10
935.0
 20
1070.0
 42
0.0
  0
VERTEX
  8
Default
 10
936.076923
 20
1070.615385
 42
0.0
  0
VERTEX
  8
Default
 10
940.0
 20
1071.0
 42
0.0
  0
VERTEX
  8
Default
 10
945.0
 20
1076.0
 42
0.0
  0
VERTEX
  8
Default
 10
946.352941
 20
1081.911765
 42
0.0
  0
VERTEX
  8
Default
 10
947.0
 20
1083.0
 42
0.0
  0
VERTEX
  8
Default
 10
947.0
 20
1085.0
 42
0.0
  0
VERTEX
  8
Default
 10
946.3
 20
1086.1
 42
0.0
  0
VERTEX
  8
Default
 10
945.0
 20
1090.0
 42
0.0
  0
VERTEX
  8
Default
 10
941.0
 20
1094.0
 42
0.0
  0
VERTEX
  8
Default
 10
940.1
 20
1094.2
 42
0.0
  0
VERTEX
  8
Default
 10
939.0
 20
1095.0
 42
0.0
  0
VERTEX
  8
Default
 10
929.0
 20
1095.0
 42
0.0
  0
VERTEX
  8
Default
 10
926.0
 20
1093.0
 42
0.0
  0
VERTEX
  8
Default
 10
924.0
 20
1091.0
 42
0.0
  0
VERTEX
  8
Default
 10
923.769231
 20
1090.153846
 42
0.0
  0
VERTEX
  8
Default
 10
922.0
 20
1088.0
 42
0.0
  0
VERTEX
  8
Default
 10
922.0
 20
1078.0
 42
0.0
  0
VERTEX
  8
Default
 10
923.0
 20
1076.0
 42
0.0
  0
VERTEX
  8
Default
 10
927.0
 20
1072.0
 42
0.0
  0
VERTEX
  8
Default
 10
934.1
 20
1070.2
 42
0.0
  0
SEQEND
  0
POLYLINE
  8
Default
 66
     1
 10
0.0
 20
0.0
 30
0.0
 70
     1
  0
VERTEX
  8
Default
 10
716.0
 20
1057.0
 42
0.0
  0
VERTEX
  8
Default
 10
720.923077
 20
1058.384615
 42
0.0
  0
VERTEX
  8
Default
 10
731.0
 20
1063.0
 42
0.0
  0
VERTEX
  8
Default
 10
736.0
 20
1068.0
 42
0.0
  0
VERTEX
  8
Default
 10
737.769231
 20
1071.153846
 42
0.0
  0
VERTEX
  8
Default
 10
738.2
 20
1071.9
 42
0.0
  0
VERTEX
  8
Default
 10
741.647059
 20
1081.088235
 42
0.0
  0
VERTEX
  8
Default
 10
743.0
 20
1085.0
 42
0.0
  0
VERTEX
  8
Default
 10
743.0
 20
1099.0
 42
0.0
  0
VERTEX
  8
Default
 10
742.3
 20
1100.1
 42
0.0
  0
VERTEX
  8
Default
 10
738.0
 20
1111.0
 42
0.0
  0
VERTEX
  8
Default
 10
732.0
 20
1117.0
 42
0.0
  0
VERTEX
  8
Default
 10
728.846154
 20
1118.769231
 42
0.0
  0
VERTEX
  8
Default
 10
725.846154
 20
1120.769231
 42
0.0
  0
VERTEX
  8
Default
 10
714.0
 20
1125.0
 42
0.0
  0
VERTEX
  8
Default
 10
704.0
 20
1125.0
 42
0.0
  0
VERTEX
  8
Default
 10
701.1
 20
1123.7
 42
0.0
  0
VERTEX
  8
Default
 10
692.9
 20
1120.2
 42
0.0
  0
VERTEX
  8
Default
 10
692.153846
 20
1119.769231
 42
0.0
  0
VERTEX
  8
Default
 10
684.0
 20
1114.0
 42
0.0
  0
VERTEX
  8
Default
 10
680.243902
 20
1108.804878
 42
0.0
  0
VERTEX
  8
Default
 10
677.2
 20
1102.9
 42
0.0
  0
VERTEX
  8
Default
 10
676.8
 20
1102.1
 42
0.0
  0
VERTEX
  8
Default
 10
675.0
 20
1096.0
 42
0.0
  0
VERTEX
  8
Default
 10
675.0
 20
1085.0
 42
0.0
  0
VERTEX
  8
Default
 10
676.384615
 20
1080.076923
 42
0.0
  0
VERTEX
  8
Default
 10
679.2
 20
1073.1
 42
0.0
  0
VERTEX
  8
Default
 10
680.0
 20
1071.0
 42
0.0
  0
VERTEX
  8
Default
 10
688.0
 20
1063.0
 42
0.0
  0
VERTEX
  8
Default
 10
691.9
 20
1060.8
 42
0.0
  0
VERTEX
  8
Default
 10
702.911765
 20
1057.647059
 42
0.0
  0
SEQEND
  0
POLYLINE
  8
Default
 66
     1
 10
0.0
 20
0.0
 30
0.0
 70
     1
  0
VERTEX
  8
Default
 10
615.0
 20
1052.0
 42
0.0
  0
VERTEX
  8
Default
 10
616.769231
 20
1054.153846
 42
0.0
  0
VERTEX
  8
Default
 10
622.647059
 20
1073.088235
 42
0.0
  0
VERTEX
  8
Default
 10
635.3
 20
1116.9
 42
0.0
  0
VERTEX
  8
Default
 10
641.7
 20
1131.1
 42
0.0
  0
VERTEX
  8
Default
 10
653.2
 20
1156.9
 42
0.0
  0
VERTEX
  8
Default
 10
654.0
 20
1158.0
 42
0.0
  0
VERTEX
  8
Default
 10
654.0
 20
1160.0
 42
0.0
  0
VERTEX
  8
Default
 10
652.0
 20
1162.0
 42
0.0
  0
VERTEX
  8
Default
 10
607.932432
 20
1169.594595
 42
0.0
  0
VERTEX
  8
Default
 10
601.923077
 20
1170.615385
 42
0.0
  0
VERTEX
  8
Default
 10
579.088235
 20
1175.352941
 42
0.0
  0
VERTEX
  8
Default
 10
547.1
 20
1186.3
 42
0.0
  0
VERTEX
  8
Default
 10
499.1
 20
1205.3
 42
0.0
  0
VERTEX
  8
Default
 10
483.9
 20
1211.8
 42
0.0
  0
VERTEX
  8
Default
 10
464.153846
 20
1221.230769
 42
0.0
  0
VERTEX
  8
Default
 10
448.9
 20
1229.8
 42
0.0
  0
VERTEX
  8
Default
 10
406.9
 20
1253.8
 42
0.0
  0
VERTEX
  8
Default
 10
395.846154
 20
1260.769231
 42
0.0
  0
VERTEX
  8
Default
 10
349.846154
 20
1292.769231
 42
0.0
  0
VERTEX
  8
Default
 10
345.82
 20
1295.76
 42
0.0
  0
VERTEX
  8
Default
 10
340.9
 20
1298.7
 42
0.0
  0
VERTEX
  8
Default
 10
338.0
 20
1300.0
 42
0.0
  0
VERTEX
  8
Default
 10
294.0
 20
1300.0
 42
0.0
  0
VERTEX
  8
Default
 10
279.06
 20
1297.58
 42
0.0
  0
VERTEX
  8
Default
 10
231.911765
 20
1289.352941
 42
0.0
  0
VERTEX
  8
Default
 10
224.9
 20
1287.3
 42
0.0
  0
VERTEX
  8
Default
 10
199.1
 20
1277.8
 42
0.0
  0
VERTEX
  8
Default
 10
197.9
 20
1277.2
 42
0.0
  0
VERTEX
  8
Default
 10
173.0
 20
1266.0
 42
0.0
  0
VERTEX
  8
Default
 10
170.0
 20
1263.0
 42
0.0
  0
VERTEX
  8
Default
 10
170.0
 20
1261.0
 42
0.0
  0
VERTEX
  8
Default
 10
171.3
 20
1258.1
 42
0.0
  0
VERTEX
  8
Default
 10
175.8
 20
1249.9
 42
0.0
  0
VERTEX
  8
Default
 10
188.769231
 20
1228.846154
 42
0.0
  0
VERTEX
  8
Default
 10
195.769231
 20
1218.846154
 42
0.0
  0
VERTEX
  8
Default
 10
215.756098
 20
1192.804878
 42
0.0
  0
VERTEX
  8
Default
 10
230.751724
 20
1175.77931
 42
0.0
  0
VERTEX
  8
Default
 10
231.0
 20
1175.0
 42
0.0
  0
VERTEX
  8
Default
 10
244.0
 20
1162.0
 42
0.0
  0
VERTEX
  8
Default
 10
248.18
 20
1159.24
 42
0.0
  0
VERTEX
  8
Default
 10
248.804878
 20
1158.756098
 42
0.0
  0
VERTEX
  8
Default
 10
273.153846
 20
1140.230769
 42
0.0
  0
VERTEX
  8
Default
 10
286.0
 20
1132.0
 42
0.0
  0
VERTEX
  8
Default
 10
290.0
 20
1126.0
 42
0.0
  0
VERTEX
  8
Default
 10
290.9
 20
1125.8
 42
0.0
  0
VERTEX
  8
Default
 10
351.99194
 20
1124.508329
 42
0.0
  0
VERTEX
  8
Default
 10
364.964706
 20
1123.541176
 42
0.0
  0
VERTEX
  8
Default
 10
376.962069
 20
1122.544828
 42
0.0
  0
VERTEX
  8
Default
 10
402.946154
 20
1119.569231
 42
0.0
  0
VERTEX
  8
Default
 10
420.932432
 20
1116.594595
 42
0.0
  0
VERTEX
  8
Default
 10
480.911765
 20
1103.647059
 42
0.0
  0
VERTEX
  8
Default
 10
517.911765
 20
1094.647059
 42
0.0
  0
VERTEX
  8
Default
 10
539.1
 20
1087.2
 42
0.0
  0
VERTEX
  8
Default
 10
566.1
 20
1076.2
 42
0.0
  0
VERTEX
  8
Default
 10
584.846154
 20
1066.769231
 42
0.0
  0
VERTEX
  8
Default
 10
594.153846
 20
1061.230769
 42
0.0
  0
VERTEX
  8
Default
 10
606.1
 20
1055.2
 42
0.0
  0
SEQEND
  0
POLYLINE
  8
Default
 66
     1
 10
0.0
 20
0.0
 30
0.0
 70
     1
  0
VERTEX
  8
Default
 10
907.0
 20
1049.0
 42
0.0
  0
VERTEX
  8
Default
 10
910.0
 20
1050.0
 42
0.0
  0
VERTEX
  8
Default
 10
916.0
 20
1056.0
 42
0.0
  0
VERTEX
  8
Default
 10
916.3
 20
1057.9
 42
0.0
  0
VERTEX
  8
Default
 10
917.0
 20
1059.0
 42
0.0
  0
VERTEX
  8
Default
 10
917.0
 20
1065.0
 42
0.0
  0
VERTEX
  8
Default
 10
915.8
 20
1066.9
 42
0.0
  0
VERTEX
  8
Default
 10
915.0
 20
1069.0
 42
0.0
  0
VERTEX
  8
Default
 10
912.0
 20
1072.0
 42
0.0
  0
VERTEX
  8
Default
 10
908.1
 20
1074.2
 42
0.0
  0
VERTEX
  8
Default
 10
907.0
 20
1075.0
 42
0.0
  0
VERTEX
  8
Default
 10
899.0
 20
1075.0
 42
0.0
  0
VERTEX
  8
Default
 10
897.9
 20
1074.2
 42
0.0
  0
VERTEX
  8
Default
 10
895.0
 20
1073.0
 42
0.0
  0
VERTEX
  8
Default
 10
891.0
 20
1069.0
 42
0.0
  0
VERTEX
  8
Default
 10
890.8
 20
1068.1
 42
0.0
  0
VERTEX
  8
Default
 10
890.0
 20
1067.0
 42
0.0
  0
VERTEX
  8
Default
 10
890.0
 20
1057.0
 42
0.0
  0
VERTEX
  8
Default
 10
891.0
 20
1055.0
 42
0.0
  0
VERTEX
  8
Default
 10
896.0
 20
1050.0
 42
0.0
  0
SEQEND
  0
POLYLINE
  8
Default
 66
     1
 10
0.0
 20
0.0
 30
0.0
 70
     1
  0
VERTEX
  8
Default
 10
1052.0
 20
1049.0
 42
0.0
  0
VERTEX
  8
Default
 10
1053.088235
 20
1049.647059
 42
0.0
  0
VERTEX
  8
Default
 10
1056.0
 20
1050.0
 42
0.0
  0
VERTEX
  8
Default
 10
1062.0
 20
1056.0
 42
0.0
  0
VERTEX
  8
Default
 10
1063.0
 20
1064.0
 42
0.0
  0
VERTEX
  8
Default
 10
1059.0
 20
1071.0
 42
0.0
  0
VERTEX
  8
Default
 10
1052.0
 20
1075.0
 42
0.0
  0
VERTEX
  8
Default
 10
1047.0
 20
1075.0
 42
0.0
  0
VERTEX
  8
Default
 10
1039.0
 20
1070.0
 42
0.0
  0
VERTEX
  8
Default
 10
1038.769231
 20
1069.153846
 42
0.0
  0
VERTEX
  8
Default
 10
1037.0
 20
1067.0
 42
0.0
  0
VERTEX
  8
Default
 10
1037.0
 20
1057.0
 42
0.0
  0
VERTEX
  8
Default
 10
1038.0
 20
1055.0
 42
0.0
  0
VERTEX
  8
Default
 10
1042.0
 20
1051.0
 42
0.0
  0
VERTEX
  8
Default
 10
1044.088235
 20
1050.352941
 42
0.0
  0
VERTEX
  8
Default
 10
1046.911765
 20
1049.647059
 42
0.0
  0
SEQEND
  0
POLYLINE
  8
Default
 66
     1
 10
0.0
 20
0.0
 30
0.0
 70
     1
  0
VERTEX
  8
Default
 10
1166.0
 20
1048.0
 42
0.0
  0
VERTEX
  8
Default
 10
1167.067568
 20
1048.594595
 42
0.0
  0
VERTEX
  8
Default
 10
1178.0
 20
1051.0
 42
0.0
  0
VERTEX
  8
Default
 10
1184.0
 20
1057.0
 42
0.0
  0
VERTEX
  8
Default
 10
1184.8
 20
1059.1
 42
0.0
  0
VERTEX
  8
Default
 10
1185.2
 20
1059.9
 42
0.0
  0
VERTEX
  8
Default
 10
1186.569231
 20
1064.053846
 42
0.0
  0
VERTEX
  8
Default
 10
1187.5
 20
1072.0
 42
0.0
  0
VERTEX
  8
Default
 10
1185.7
 20
1080.9
 42
0.0
  0
VERTEX
  8
Default
 10
1183.0
 20
1087.0
 42
0.0
  0
VERTEX
  8
Default
 10
1179.0
 20
1091.0
 42
0.0
  0
VERTEX
  8
Default
 10
1178.153846
 20
1091.230769
 42
0.0
  0
VERTEX
  8
Default
 10
1170.0
 20
1096.0
 42
0.0
  0
VERTEX
  8
Default
 10
1156.0
 20
1096.0
 42
0.0
  0
VERTEX
  8
Default
 10
1150.195122
 20
1092.756098
 42
0.0
  0
VERTEX
  8
Default
 10
1144.0
 20
1088.0
 42
0.0
  0
VERTEX
  8
Default
 10
1143.769231
 20
1087.153846
 42
0.0
  0
VERTEX
  8
Default
 10
1139.352941
 20
1079.911765
 42
0.0
  0
VERTEX
  8
Default
 10
1138.0
 20
1076.0
 42
0.0
  0
VERTEX
  8
Default
 10
1138.0
 20
1067.0
 42
0.0
  0
VERTEX
  8
Default
 10
1139.352941
 20
1063.088235
 42
0.0
  0
VERTEX
  8
Default
 10
1141.230769
 20
1059.153846
 42
0.0
  0
VERTEX
  8
Default
 10
1143.0
 20
1056.0
 42
0.0
  0
VERTEX
  8
Default
 10
1145.0
 20
1054.0
 42
0.0
  0
VERTEX
  8
Default
 10
1148.153846
 20
1052.230769
 42
0.0
  0
VERTEX
  8
Default
 10
1152.088235
 20
1050.352941
 42
0.0
  0
VERTEX
  8
Default
 10
1154.911765
 20
1049.647059
 42
0.0
  0
VERTEX
  8
Default
 10
1160.06
 20
1048.42
 42
0.0
  0
SEQEND
  0
POLYLINE
  8
Default
 66
     1
 10
0.0
 20
0.0
 30
0.0
 70
     1
  0
VERTEX
  8
Default
 10
786.0
 20
1038.0
 42
0.0
  0
VERTEX
  8
Default
 10
797.1
 20
1040.7
 42
0.0
  0
VERTEX
  8
Default
 10
803.0
 20
1043.0
 42
0.0
  0
VERTEX
  8
Default
 10
807.0
 20
1047.0
 42
0.0
  0
VERTEX
  8
Default
 10
809.647059
 20
1053.088235
 42
0.0
  0
VERTEX
  8
Default
 10
810.352941
 20
1055.911765
 42
0.0
  0
VERTEX
  8
Default
 10
811.0
 20
1057.0
 42
0.0
  0
VERTEX
  8
Default
 10
811.0
 20
1066.0
 42
0.0
  0
VERTEX
  8
Default
 10
808.7
 20
1071.9
 42
0.0
  0
VERTEX
  8
Default
 10
808.2
 20
1073.1
 42
0.0
  0
VERTEX
  8
Default
 10
807.0
 20
1076.0
 42
0.0
  0
VERTEX
  8
Default
 10
802.0
 20
1081.0
 42
0.0
  0
VERTEX
  8
Default
 10
793.0
 20
1086.0
 42
0.0
  0
VERTEX
  8
Default
 10
782.0
 20
1086.0
 42
0.0
  0
VERTEX
  8
Default
 10
776.9
 20
1084.2
 42
0.0
  0
VERTEX
  8
Default
 10
769.0
 20
1080.0
 42
0.0
  0
VERTEX
  8
Default
 10
763.8
 20
1073.1
 42
0.0
  0
VERTEX
  8
Default
 10
761.0
 20
1068.0
 42
0.0
  0
VERTEX
  8
Default
 10
761.0
 20
1054.0
 42
0.0
  0
VERTEX
  8
Default
 10
764.0
 20
1048.0
 42
0.0
  0
VERTEX
  8
Default
 10
770.0
 20
1042.0
 42
0.0
  0
VERTEX
  8
Default
 10
772.1
 20
1041.2
 42
0.0
  0
VERTEX
  8
Default
 10
772.9
 20
1040.8
 42
0.0
  0
VERTEX
  8
Default
 10
778.053846
 20
1039.430769
 42
0.0
  0
VERTEX
  8
Default
 10
784.946154
 20
1038.569231
 42
0.0
  0
SEQEND
  0
POLYLINE
  8
Default
 66
     1
 10
0.0
 20
0.0
 30
0.0
 70
     1
  0
VERTEX
  8
Default
 10
1112.0
 20
1029.0
 42
0.0
  0
VERTEX
  8
Default
 10
1119.0
 20
1031.0
 42
0.0
  0
VERTEX
  8
Default
 10
1126.0
 20
1038.0
 42
0.0
  0
VERTEX
  8
Default
 10
1126.3
 20
1039.9
 42
0.0
  0
VERTEX
  8
Default
 10
1128.0
 20
1045.0
 42
0.0
  0
VERTEX
  8
Default
 10
1128.0
 20
1051.0
 42
0.0
  0
VERTEX
  8
Default
 10
1125.8
 20
1055.9
 42
0.0
  0
VERTEX
  8
Default
 10
1125.2
 20
1057.1
 42
0.0
  0
VERTEX
  8
Default
 10
1125.0
 20
1058.0
 42
0.0
  0
VERTEX
  8
Default
 10
1122.0
 20
1061.0
 42
0.0
  0
VERTEX
  8
Default
 10
1114.9
 20
1064.7
 42
0.0
  0
VERTEX
  8
Default
 10
1112.0
 20
1066.0
 42
0.0
  0
VERTEX
  8
Default
 10
1106.0
 20
1066.0
 42
0.0
  0
VERTEX
  8
Default
 10
1100.9
 20
1063.2
 42
0.0
  0
VERTEX
  8
Default
 10
1100.0
 20
1063.0
 42
0.0
  0
VERTEX
  8
Default
 10
1094.0
 20
1057.0
 42
0.0
  0
VERTEX
  8
Default
 10
1092.8
 20
1054.1
 42
0.0
  0
VERTEX
  8
Default
 10
1092.0
 20
1053.0
 42
0.0
  0
VERTEX
  8
Default
 10
1092.0
 20
1042.0
 42
0.0
  0
VERTEX
  8
Default
 10
1092.7
 20
1040.9
 42
0.0
  0
VERTEX
  8
Default
 10
1095.0
 20
1036.0
 42
0.0
  0
VERTEX
  8
Default
 10
1099.0
 20
1032.0
 42
0.0
  0
VERTEX
  8
Default
 10
1101.1
 20
1031.3
 42
0.0
  0
VERTEX
  8
Default
 10
1102.9
 20
1030.7
 42
0.0
  0
VERTEX
  8
Default
 10
1107.067568
 20
1029.405405
 42
0.0
  0
SEQEND
  0
POLYLINE
  8
Default
 66
     1
 10
0.0
 20
0.0
 30
0.0
 70
     1
  0
VERTEX
  8
Default
 10
846.0
 20
1023.0
 42
0.0
  0
VERTEX
  8
Default
 10
851.0
 20
1025.0
 42
0.0
  0
VERTEX
  8
Default
 10
856.0
 20
1030.0
 42
0.0
  0
VERTEX
  8
Default
 10
858.352941
 20
1037.911765
 42
0.0
  0
VERTEX
  8
Default
 10
859.0
 20
1039.0
 42
0.0
  0
VERTEX
  8
Default
 10
859.0
 20
1043.0
 42
0.0
  0
VERTEX
  8
Default
 10
857.0
 20
1050.0
 42
0.0
  0
VERTEX
  8
Default
 10
851.0
 20
1056.0
 42
0.0
  0
VERTEX
  8
Default
 10
850.1
 20
1056.2
 42
0.0
  0
VERTEX
  8
Default
 10
846.0
 20
1058.0
 42
0.0
  0
VERTEX
  8
Default
 10
836.0
 20
1058.0
 42
0.0
  0
VERTEX
  8
Default
 10
828.0
 20
1053.0
 42
0.0
  0
VERTEX
  8
Default
 10
824.24
 20
1047.82
 42
0.0
  0
VERTEX
  8
Default
 10
823.352941
 20
1045.911765
 42
0.0
  0
VERTEX
  8
Default
 10
822.647059
 20
1043.088235
 42
0.0
  0
VERTEX
  8
Default
 10
822.0
 20
1042.0
 42
0.0
  0
VERTEX
  8
Default
 10
822.0
 20
1037.0
 42
0.0
  0
VERTEX
  8
Default
 10
826.0
 20
1028.0
 42
0.0
  0
VERTEX
  8
Default
 10
828.0
 20
1026.0
 42
0.0
  0
VERTEX
  8
Default
 10
835.037931
 20
1023.455172
 42
0.0
  0
SEQEND
  0
POLYLINE
  8
Default
 66
     1
 10
0.0
 20
0.0
 30
0.0
 70
     1
  0
VERTEX
  8
Default
 10
1075.0
 20
1018.0
 42
0.0
  0
VERTEX
  8
Default
 10
1078.0
 20
1019.0
 42
0.0
  0
VERTEX
  8
Default
 10
1083.0
 20
1024.0
 42
0.0
  0
VERTEX
  8
Default
 10
1083.352941
 20
1026.911765
 42
0.0
  0
VERTEX
  8
Default
 10
1084.0
 20
1028.0
 42
0.0
  0
VERTEX
  8
Default
 10
1084.0
 20
1034.0
 42
0.0
  0
VERTEX
  8
Default
 10
1082.7
 20
1036.9
 42
0.0
  0
VERTEX
  8
Default
 10
1082.0
 20
1039.0
 42
0.0
  0
VERTEX
  8
Default
 10
1080.0
 20
1041.0
 42
0.0
  0
VERTEX
  8
Default
 10
1079.153846
 20
1041.230769
 42
0.0
  0
VERTEX
  8
Default
 10
1077.0
 20
1043.0
 42
0.0
  0
VERTEX
  8
Default
 10
1067.0
 20
1043.0
 42
0.0
  0
VERTEX
  8
Default
 10
1064.0
 20
1042.0
 42
0.0
  0
VERTEX
  8
Default
 10
1060.0
 20
1038.0
 42
0.0
  0
VERTEX
  8
Default
 10
1059.769231
 20
1037.153846
 42
0.0
  0
VERTEX
  8
Default
 10
1058.0
 20
1035.0
 42
0.0
  0
VERTEX
  8
Default
 10
1058.0
 20
1028.0
 42
0.0
  0
VERTEX
  8
Default
 10
1058.7
 20
1026.9
 42
0.0
  0
VERTEX
  8
Default
 10
1060.0
 20
1023.0
 42
0.0
  0
VERTEX
  8
Default
 10
1063.0
 20
1020.0
 42
0.0
  0
VERTEX
  8
Default
 10
1068.053846
 20
1018.430769
 42
0.0
  0
SEQEND
  0
POLYLINE
  8
Default
 66
     1
 10
0.0
 20
0.0
 30
0.0
 70
     1
  0
VERTEX
  8
Default
 10
882.0
 20
1012.0
 42
0.0
  0
VERTEX
  8
Default
 10
883.1
 20
1012.7
 42
0.0
  0
VERTEX
  8
Default
 10
887.0
 20
1014.0
 42
0.0
  0
VERTEX
  8
Default
 10
892.0
 20
1019.0
 42
0.0
  0
VERTEX
  8
Default
 10
892.3
 20
1020.9
 42
0.0
  0
VERTEX
  8
Default
 10
893.0
 20
1022.0
 42
0.0
  0
VERTEX
  8
Default
 10
893.0
 20
1030.0
 42
0.0
  0
VERTEX
  8
Default
 10
890.0
 20
1035.0
 42
0.0
  0
VERTEX
  8
Default
 10
889.153846
 20
1035.230769
 42
0.0
  0
VERTEX
  8
Default
 10
885.0
 20
1038.0
 42
0.0
  0
VERTEX
  8
Default
 10
876.0
 20
1038.0
 42
0.0
  0
VERTEX
  8
Default
 10
874.0
 20
1037.0
 42
0.0
  0
VERTEX
  8
Default
 10
870.0
 20
1033.0
 42
0.0
  0
VERTEX
  8
Default
 10
869.769231
 20
1032.153846
 42
0.0
  0
VERTEX
  8
Default
 10
868.0
 20
1030.0
 42
0.0
  0
VERTEX
  8
Default
 10
868.0
 20
1019.0
 42
0.0
  0
VERTEX
  8
Default
 10
870.0
 20
1016.0
 42
0.0
  0
VERTEX
  8
Default
 10
872.0
 20
1014.0
 42
0.0
  0
VERTEX
  8
Default
 10
878.076923
 20
1012.384615
 42
0.0
  0
SEQEND
  0
POLYLINE
  8
Default
 66
     1
 10
0.0
 20
0.0
 30
0.0
 70
     1
  0
VERTEX
  8
Default
 10
874.0
 20
976.0
 42
0.0
  0
VERTEX
  8
Default
 10
875.088235
 20
976.647059
 42
0.0
  0
VERTEX
  8
Default
 10
880.0
 20
978.0
 42
0.0
  0
VERTEX
  8
Default
 10
884.0
 20
982.0
 42
0.0
  0
VERTEX
  8
Default
 10
884.2
 20
982.9
 42
0.0
  0
VERTEX
  8
Default
 10
886.0
 20
988.0
 42
0.0
  0
VERTEX
  8
Default
 10
886.0
 20
992.0
 42
0.0
  0
VERTEX
  8
Default
 10
885.3
 20
993.1
 42
0.0
  0
VERTEX
  8
Default
 10
884.0
 20
997.0
 42
0.0
  0
VERTEX
  8
Default
 10
882.0
 20
999.0
 42
0.0
  0
VERTEX
  8
Default
 10
881.153846
 20
999.230769
 42
0.0
  0
VERTEX
  8
Default
 10
877.0
 20
1002.0
 42
0.0
  0
VERTEX
  8
Default
 10
869.0
 20
1002.0
 42
0.0
  0
VERTEX
  8
Default
 10
867.9
 20
1001.2
 42
0.0
  0
VERTEX
  8
Default
 10
865.0
 20
1000.0
 42
0.0
  0
VERTEX
  8
Default
 10
861.0
 20
996.0
 42
0.0
  0
VERTEX
  8
Default
 10
860.0
 20
994.0
 42
0.0
  0
VERTEX
  8
Default
 10
860.0
 20
984.0
 42
0.0
  0
VERTEX
  8
Default
 10
864.0
 20
979.0
 42
0.0
  0
VERTEX
  8
Default
 10
867.2
 20
977.6
 42
0.0
  0
SEQEND
  0
POLYLINE
  8
Default
 66
     1
 10
0.0
 20
0.0
 30
0.0
 70
     1
  0
VERTEX
  8
Default
 10
1081.0
 20
976.0
 42
0.0
  0
VERTEX
  8
Default
 10
1082.088235
 20
976.647059
 42
0.0
  0
VERTEX
  8
Default
 10
1087.0
 20
978.0
 42
0.0
  0
VERTEX
  8
Default
 10
1091.0
 20
982.0
 42
0.0
  0
VERTEX
  8
Default
 10
1091.2
 20
982.9
 42
0.0
  0
VERTEX
  8
Default
 10
1093.0
 20
988.0
 42
0.0
  0
VERTEX
  8
Default
 10
1093.0
 20
992.0
 42
0.0
  0
VERTEX
  8
Default
 10
1092.3
 20
993.1
 42
0.0
  0
VERTEX
  8
Default
 10
1091.0
 20
997.0
 42
0.0
  0
VERTEX
  8
Default
 10
1089.0
 20
999.0
 42
0.0
  0
VERTEX
  8
Default
 10
1088.153846
 20
999.230769
 42
0.0
  0
VERTEX
  8
Default
 10
1082.0
 20
1003.0
 42
0.0
  0
VERTEX
  8
Default
 10
1078.0
 20
1003.0
 42
0.0
  0
VERTEX
  8
Default
 10
1076.9
 20
1002.3
 42
0.0
  0
VERTEX
  8
Default
 10
1072.0
 20
1000.0
 42
0.0
  0
VERTEX
  8
Default
 10
1068.0
 20
996.0
 42
0.0
  0
VERTEX
  8
Default
 10
1067.0
 20
994.0
 42
0.0
  0
VERTEX
  8
Default
 10
1067.0
 20
984.0
 42
0.0
  0
VERTEX
  8
Default
 10
1072.0
 20
978.0
 42
0.0
  0
VERTEX
  8
Default
 10
1074.088235
 20
977.352941
 42
0.0
  0
SEQEND
  0
POLYLINE
  8
Default
 66
     1
 10
0.0
 20
0.0
 30
0.0
 70
     1
  0
VERTEX
  8
Default
 10
834.0
 20
972.0
 42
0.0
  0
VERTEX
  8
Default
 10
835.088235
 20
972.647059
 42
0.0
  0
VERTEX
  8
Default
 10
842.0
 20
975.0
 42
0.0
  0
VERTEX
  8
Default
 10
846.0
 20
979.0
 42
0.0
  0
VERTEX
  8
Default
 10
849.0
 20
989.0
 42
0.0
  0
VERTEX
  8
Default
 10
846.0
 20
999.0
 42
0.0
  0
VERTEX
  8
Default
 10
841.0
 20
1004.0
 42
0.0
  0
VERTEX
  8
Default
 10
838.1
 20
1005.2
 42
0.0
  0
VERTEX
  8
Default
 10
837.0
 20
1006.0
 42
0.0
  0
VERTEX
  8
Default
 10
825.0
 20
1006.0
 42
0.0
  0
VERTEX
  8
Default
 10
823.9
 20
1005.2
 42
0.0
  0
VERTEX
  8
Default
 10
820.0
 20
1003.0
 42
0.0
  0
VERTEX
  8
Default
 10
815.0
 20
998.0
 42
0.0
  0
VERTEX
  8
Default
 10
813.0
 20
995.0
 42
0.0
  0
VERTEX
  8
Default
 10
813.0
 20
984.0
 42
0.0
  0
VERTEX
  8
Default
 10
814.0
 20
981.0
 42
0.0
  0
VERTEX
  8
Default
 10
821.0
 20
974.0
 42
0.0
  0
VERTEX
  8
Default
 10
824.1
 20
973.3
 42
0.0
  0
VERTEX
  8
Default
 10
825.9
 20
972.7
 42
0.0
  0
SEQEND
  0
POLYLINE
  8
Default
 66
     1
 10
0.0
 20
0.0
 30
0.0
 70
     1
  0
VERTEX
  8
Default
 10
1123.0
 20
972.0
 42
0.0
  0
VERTEX
  8
Default
 10
1124.088235
 20
972.647059
 42
0.0
  0
VERTEX
  8
Default
 10
1134.0
 20
976.0
 42
0.0
  0
VERTEX
  8
Default
 10
1138.0
 20
980.0
 42
0.0
  0
VERTEX
  8
Default
 10
1140.0
 20
985.0
 42
0.0
  0
VERTEX
  8
Default
 10
1140.0
 20
994.0
 42
0.0
  0
VERTEX
  8
Default
 10
1138.8
 20
995.9
 42
0.0
  0
VERTEX
  8
Default
 10
1138.2
 20
997.1
 42
0.0
  0
VERTEX
  8
Default
 10
1138.0
 20
998.0
 42
0.0
  0
VERTEX
  8
Default
 10
1133.0
 20
1003.0
 42
0.0
  0
VERTEX
  8
Default
 10
1129.8
 20
1004.6
 42
0.0
  0
VERTEX
  8
Default
 10
1128.1
 20
1005.3
 42
0.0
  0
VERTEX
  8
Default
 10
1127.0
 20
1006.0
 42
0.0
  0
VERTEX
  8
Default
 10
1117.0
 20
1006.0
 42
0.0
  0
VERTEX
  8
Default
 10
1115.1
 20
1004.8
 42
0.0
  0
VERTEX
  8
Default
 10
1113.9
 20
1004.2
 42
0.0
  0
VERTEX
  8
Default
 10
1110.0
 20
1002.0
 42
0.0
  0
VERTEX
  8
Default
 10
1108.0
 20
1000.0
 42
0.0
  0
VERTEX
  8
Default
 10
1106.230769
 20
996.846154
 42
0.0
  0
VERTEX
  8
Default
 10
1105.8
 20
996.1
 42
0.0
  0
VERTEX
  8
Default
 10
1105.0
 20
995.0
 42
0.0
  0
VERTEX
  8
Default
 10
1105.0
 20
983.0
 42
0.0
  0
VERTEX
  8
Default
 10
1106.0
 20
981.0
 42
0.0
  0
VERTEX
  8
Default
 10
1112.0
 20
975.0
 42
0.0
  0
VERTEX
  8
Default
 10
1117.088235
 20
973.352941
 42
0.0
  0
SEQEND
  0
POLYLINE
  8
Default
 66
     1
 10
0.0
 20
0.0
 30
0.0
 70
     1
  0
VERTEX
  8
Default
 10
778.0
 20
966.0
 42
0.0
  0
VERTEX
  8
Default
 10
783.1
 20
967.7
 42
0.0
  0
VERTEX
  8
Default
 10
789.0
 20
970.0
 42
0.0
  0
VERTEX
  8
Default
 10
793.0
 20
974.0
 42
0.0
  0
VERTEX
  8
Default
 10
793.8
 20
976.1
 42
0.0
  0
VERTEX
  8
Default
 10
794.2
 20
976.9
 42
0.0
  0
VERTEX
  8
Default
 10
797.0
 20
986.0
 42
0.0
  0
VERTEX
  8
Default
 10
797.0
 20
993.0
 42
0.0
  0
VERTEX
  8
Default
 10
794.7
 20
1000.9
 42
0.0
  0
VERTEX
  8
Default
 10
794.2
 20
1002.1
 42
0.0
  0
VERTEX
  8
Default
 10
794.0
 20
1003.0
 42
0.0
  0
VERTEX
  8
Default
 10
788.0
 20
1009.0
 42
0.0
  0
VERTEX
  8
Default
 10
781.9
 20
1011.7
 42
0.0
  0
VERTEX
  8
Default
 10
780.1
 20
1012.3
 42
0.0
  0
VERTEX
  8
Default
 10
779.0
 20
1013.0
 42
0.0
  0
VERTEX
  8
Default
 10
768.0
 20
1013.0
 42
0.0
  0
VERTEX
  8
Default
 10
763.1
 20
1010.8
 42
0.0
  0
VERTEX
  8
Default
 10
761.9
 20
1010.2
 42
0.0
  0
VERTEX
  8
Default
 10
759.0
 20
1009.0
 42
0.0
  0
VERTEX
  8
Default
 10
752.0
 20
1002.0
 42
0.0
  0
VERTEX
  8
Default
 10
750.3
 20
997.9
 42
0.0
  0
VERTEX
  8
Default
 10
749.7
 20
996.1
 42
0.0
  0
VERTEX
  8
Default
 10
749.0
 20
995.0
 42
0.0
  0
VERTEX
  8
Default
 10
749.0
 20
985.0
 42
0.0
  0
VERTEX
  8
Default
 10
753.0
 20
975.0
 42
0.0
  0
VERTEX
  8
Default
 10
759.0
 20
969.0
 42
0.0
  0
VERTEX
  8
Default
 10
759.9
 20
968.8
 42
0.0
  0
VERTEX
  8
Default
 10
767.037931
 20
966.455172
 42
0.0
  0
SEQEND
  0
POLYLINE
  8
Default
 66
     1
 10
0.0
 20
0.0
 30
0.0
 70
     1
  0
VERTEX
  8
Default
 10
1184.0
 20
966.0
 42
0.0
  0
VERTEX
  8
Default
 10
1189.932432
 20
967.405405
 42
0.0
  0
VERTEX
  8
Default
 10
1193.9
 20
969.2
 42
0.0
  0
VERTEX
  8
Default
 10
1195.1
 20
969.8
 42
0.0
  0
VERTEX
  8
Default
 10
1196.0
 20
970.0
 42
0.0
  0
VERTEX
  8
Default
 10
1203.0
 20
977.0
 42
0.0
  0
VERTEX
  8
Default
 10
1205.3
 20
984.9
 42
0.0
  0
VERTEX
  8
Default
 10
1206.0
 20
986.0
 42
0.0
  0
VERTEX
  8
Default
 10
1206.0
 20
993.0
 42
0.0
  0
VERTEX
  8
Default
 10
1204.647059
 20
996.911765
 42
0.0
  0
VERTEX
  8
Default
 10
1204.2
 20
998.1
 42
0.0
  0
VERTEX
  8
Default
 10
1202.0
 20
1003.0
 42
0.0
  0
VERTEX
  8
Default
 10
1197.0
 20
1008.0
 42
0.0
  0
VERTEX
  8
Default
 10
1193.846154
 20
1009.769231
 42
0.0
  0
VERTEX
  8
Default
 10
1193.1
 20
1010.2
 42
0.0
  0
VERTEX
  8
Default
 10
1184.0
 20
1013.0
 42
0.0
  0
VERTEX
  8
Default
 10
1176.0
 20
1013.0
 42
0.0
  0
VERTEX
  8
Default
 10
1174.1
 20
1011.8
 42
0.0
  0
VERTEX
  8
Default
 10
1172.9
 20
1011.3
 42
0.0
  0
VERTEX
  8
Default
 10
1165.0
 20
1007.0
 42
0.0
  0
VERTEX
  8
Default
 10
1162.0
 20
1004.0
 42
0.0
  0
VERTEX
  8
Default
 10
1160.230769
 20
1000.846154
 42
0.0
  0
VERTEX
  8
Default
 10
1159.8
 20
1000.1
 42
0.0
  0
VERTEX
  8
Default
 10
1157.0
 20
993.0
 42
0.0
  0
VERTEX
  8
Default
 10
1157.0
 20
987.0
 42
0.0
  0
VERTEX
  8
Default
 10
1158.384615
 20
982.076923
 42
0.0
  0
VERTEX
  8
Default
 10
1158.7
 20
980.9
 42
0.0
  0
VERTEX
  8
Default
 10
1162.0
 20
974.0
 42
0.0
  0
VERTEX
  8
Default
 10
1165.0
 20
971.0
 42
0.0
  0
VERTEX
  8
Default
 10
1168.153846
 20
969.230769
 42
0.0
  0
VERTEX
  8
Default
 10
1168.9
 20
968.8
 42
0.0
  0
VERTEX
  8
Default
 10
1177.053846
 20
966.430769
 42
0.0
  0
SEQEND
  0
POLYLINE
  8
Default
 66
     1
 10
0.0
 20
0.0
 30
0.0
 70
     1
  0
VERTEX
  8
Default
 10
698.0
 20
956.0
 42
0.0
  0
VERTEX
  8
Default
 10
711.0
 20
961.0
 42
0.0
  0
VERTEX
  8
Default
 10
718.0
 20
968.0
 42
0.0
  0
VERTEX
  8
Default
 10
720.2
 20
971.9
 42
0.0
  0
VERTEX
  8
Default
 10
722.647059
 20
978.088235
 42
0.0
  0
VERTEX
  8
Default
 10
723.352941
 20
980.911765
 42
0.0
  0
VERTEX
  8
Default
 10
724.430769
 20
988.946154
 42
0.0
  0
VERTEX
  8
Default
 10
723.352941
 20
998.088235
 42
0.0
  0
VERTEX
  8
Default
 10
719.0
 20
1009.0
 42
0.0
  0
VERTEX
  8
Default
 10
712.0
 20
1016.0
 42
0.0
  0
VERTEX
  8
Default
 10
709.9
 20
1016.8
 42
0.0
  0
VERTEX
  8
Default
 10
709.153846
 20
1017.230769
 42
0.0
  0
VERTEX
  8
Default
 10
698.0
 20
1022.0
 42
0.0
  0
VERTEX
  8
Default
 10
682.0
 20
1022.0
 42
0.0
  0
VERTEX
  8
Default
 10
679.1
 20
1020.7
 42
0.0
  0
VERTEX
  8
Default
 10
669.9
 20
1016.2
 42
0.0
  0
VERTEX
  8
Default
 10
663.0
 20
1011.0
 42
0.0
  0
VERTEX
  8
Default
 10
660.24
 20
1006.82
 42
0.0
  0
VERTEX
  8
Default
 10
657.3
 20
1000.9
 42
0.0
  0
VERTEX
  8
Default
 10
656.7
 20
999.1
 42
0.0
  0
VERTEX
  8
Default
 10
656.0
 20
998.0
 42
0.0
  0
VERTEX
  8
Default
 10
656.0
 20
982.0
 42
0.0
  0
VERTEX
  8
Default
 10
657.352941
 20
978.088235
 42
0.0
  0
VERTEX
  8
Default
 10
657.7
 20
976.9
 42
0.0
  0
VERTEX
  8
Default
 10
659.230769
 20
973.153846
 42
0.0
  0
VERTEX
  8
Default
 10
665.0
 20
965.0
 42
0.0
  0
VERTEX
  8
Default
 10
668.0
 20
962.0
 42
0.0
  0
VERTEX
  8
Default
 10
671.9
 20
959.8
 42
0.0
  0
VERTEX
  8
Default
 10
678.076923
 20
957.384615
 42
0.0
  0
VERTEX
  8
Default
 10
681.923077
 20
956.615385
 42
0.0
  0
SEQEND
  0
POLYLINE
  8
Default
 66
     1
 10
0.0
 20
0.0
 30
0.0
 70
     1
  0
VERTEX
  8
Default
 10
1270.0
 20
956.0
 42
0.0
  0
VERTEX
  8
Default
 10
1273.911765
 20
957.352941
 42
0.0
  0
VERTEX
  8
Default
 10
1280.9
 20
960.2
 42
0.0
  0
VERTEX
  8
Default
 10
1282.1
 20
960.8
 42
0.0
  0
VERTEX
  8
Default
 10
1283.0
 20
961.0
 42
0.0
  0
VERTEX
  8
Default
 10
1290.0
 20
968.0
 42
0.0
  0
VERTEX
  8
Default
 10
1293.647059
 20
977.088235
 42
0.0
  0
VERTEX
  8
Default
 10
1294.352941
 20
979.911765
 42
0.0
  0
VERTEX
  8
Default
 10
1295.0
 20
981.0
 42
0.0
  0
VERTEX
  8
Default
 10
1295.0
 20
999.0
 42
0.0
  0
VERTEX
  8
Default
 10
1291.0
 20
1009.0
 42
0.0
  0
VERTEX
  8
Default
 10
1285.0
 20
1015.0
 42
0.0
  0
VERTEX
  8
Default
 10
1277.9
 20
1018.8
 42
0.0
  0
VERTEX
  8
Default
 10
1277.1
 20
1019.2
 42
0.0
  0
VERTEX
  8
Default
 10
1269.0
 20
1022.0
 42
0.0
  0
VERTEX
  8
Default
 10
1256.0
 20
1022.0
 42
0.0
  0
VERTEX
  8
Default
 10
1250.1
 20
1019.7
 42
0.0
  0
VERTEX
  8
Default
 10
1248.9
 20
1019.2
 42
0.0
  0
VERTEX
  8
Default
 10
1240.0
 20
1014.0
 42
0.0
  0
VERTEX
  8
Default
 10
1235.0
 20
1009.0
 42
0.0
  0
VERTEX
  8
Default
 10
1233.230769
 20
1005.846154
 42
0.0
  0
VERTEX
  8
Default
 10
1232.8
 20
1005.1
 42
0.0
  0
VERTEX
  8
Default
 10
1229.0
 20
996.0
 42
0.0
  0
VERTEX
  8
Default
 10
1229.0
 20
983.0
 42
0.0
  0
VERTEX
  8
Default
 10
1230.352941
 20
979.088235
 42
0.0
  0
VERTEX
  8
Default
 10
1231.3
 20
976.1
 42
0.0
  0
VERTEX
  8
Default
 10
1235.0
 20
969.0
 42
0.0
  0
VERTEX
  8
Default
 10
1243.0
 20
961.0
 42
0.0
  0
VERTEX
  8
Default
 10
1245.1
 20
960.2
 42
0.0
  0
VERTEX
  8
Default
 10
1247.1
 20
959.2
 42
0.0
  0
VERTEX
  8
Default
 10
1254.911765
 20
956.647059
 42
0.0
  0
SEQEND
  0
POLYLINE
  8
Default
 66
     1
 10
0.0
 20
0.0
 30
0.0
 70
     1
  0
VERTEX
  8
Default
 10
1075.0
 20
940.0
 42
0.0
  0
VERTEX
  8
Default
 10
1076.088235
 20
940.647059
 42
0.0
  0
VERTEX
  8
Default
 10
1081.0
 20
942.0
 42
0.0
  0
VERTEX
  8
Default
 10
1085.0
 20
946.0
 42
0.0
  0
VERTEX
  8
Default
 10
1085.2
 20
946.9
 42
0.0
  0
VERTEX
  8
Default
 10
1086.0
 20
948.0
 42
0.0
  0
VERTEX
  8
Default
 10
1086.0
 20
956.0
 42
0.0
  0
VERTEX
  8
Default
 10
1085.0
 20
958.0
 42
0.0
  0
VERTEX
  8
Default
 10
1082.0
 20
961.0
 42
0.0
  0
VERTEX
  8
Default
 10
1078.1
 20
963.2
 42
0.0
  0
VERTEX
  8
Default
 10
1074.0
 20
965.0
 42
0.0
  0
VERTEX
  8
Default
 10
1070.0
 20
965.0
 42
0.0
  0
VERTEX
  8
Default
 10
1068.9
 20
964.3
 42
0.0
  0
VERTEX
  8
Default
 10
1064.0
 20
962.0
 42
0.0
  0
VERTEX
  8
Default
 10
1061.0
 20
959.0
 42
0.0
  0
VERTEX
  8
Default
 10
1060.8
 20
958.1
 42
0.0
  0
VERTEX
  8
Default
 10
1060.0
 20
957.0
 42
0.0
  0
VERTEX
  8
Default
 10
1060.0
 20
947.0
 42
0.0
  0
VERTEX
  8
Default
 10
1065.0
 20
942.0
 42
0.0
  0
VERTEX
  8
Default
 10
1070.067568
 20
940.405405
 42
0.0
  0
SEQEND
  0
POLYLINE
  8
Default
 66
     1
 10
0.0
 20
0.0
 30
0.0
 70
     1
  0
VERTEX
  8
Default
 10
888.0
 20
935.0
 42
0.0
  0
VERTEX
  8
Default
 10
889.1
 20
935.8
 42
0.0
  0
VERTEX
  8
Default
 10
890.0
 20
936.0
 42
0.0
  0
VERTEX
  8
Default
 10
894.0
 20
940.0
 42
0.0
  0
VERTEX
  8
Default
 10
896.0
 20
948.0
 42
0.0
  0
VERTEX
  8
Default
 10
894.0
 20
954.0
 42
0.0
  0
VERTEX
  8
Default
 10
891.0
 20
957.0
 42
0.0
  0
VERTEX
  8
Default
 10
888.0
 20
959.0
 42
0.0
  0
VERTEX
  8
Default
 10
877.0
 20
959.0
 42
0.0
  0
VERTEX
  8
Default
 10
870.0
 20
952.0
 42
0.0
  0
VERTEX
  8
Default
 10
869.0
 20
950.0
 42
0.0
  0
VERTEX
  8
Default
 10
869.0
 20
943.0
 42
0.0
  0
VERTEX
  8
Default
 10
870.0
 20
941.0
 42
0.0
  0
VERTEX
  8
Default
 10
875.0
 20
936.0
 42
0.0
  0
SEQEND
  0
POLYLINE
  8
Default
 66
     1
 10
0.0
 20
0.0
 30
0.0
 70
     1
  0
VERTEX
  8
Default
 10
1117.0
 20
919.0
 42
0.0
  0
VERTEX
  8
Default
 10
1121.1
 20
920.7
 42
0.0
  0
VERTEX
  8
Default
 10
1123.0
 20
921.0
 42
0.0
  0
VERTEX
  8
Default
 10
1126.0
 20
924.0
 42
0.0
  0
VERTEX
  8
Default
 10
1128.558824
 20
928.264706
 42
0.0
  0
VERTEX
  8
Default
 10
1129.647059
 20
931.088235
 42
0.0
  0
VERTEX
  8
Default
 10
1130.352941
 20
933.911765
 42
0.0
  0
VERTEX
  8
Default
 10
1131.0
 20
935.0
 42
0.0
  0
VERTEX
  8
Default
 10
1131.0
 20
941.0
 42
0.0
  0
VERTEX
  8
Default
 10
1129.7
 20
943.9
 42
0.0
  0
VERTEX
  8
Default
 10
1129.2
 20
945.1
 42
0.0
  0
VERTEX
  8
Default
 10
1128.0
 20
948.0
 42
0.0
  0
VERTEX
  8
Default
 10
1126.0
 20
950.0
 42
0.0
  0
VERTEX
  8
Default
 10
1122.846154
 20
951.769231
 42
0.0
  0
VERTEX
  8
Default
 10
1122.1
 20
952.2
 42
0.0
  0
VERTEX
  8
Default
 10
1119.0
 20
954.0
 42
0.0
  0
VERTEX
  8
Default
 10
1106.0
 20
954.0
 42
0.0
  0
VERTEX
  8
Default
 10
1101.0
 20
951.0
 42
0.0
  0
VERTEX
  8
Default
 10
1098.76
 20
948.18
 42
0.0
  0
VERTEX
  8
Default
 10
1095.0
 20
943.0
 42
0.0
  0
VERTEX
  8
Default
 10
1095.0
 20
931.0
 42
0.0
  0
VERTEX
  8
Default
 10
1096.230769
 20
929.153846
 42
0.0
  0
VERTEX
  8
Default
 10
1097.769231
 20
926.846154
 42
0.0
  0
VERTEX
  8
Default
 10
1098.0
 20
926.0
 42
0.0
  0
VERTEX
  8
Default
 10
1102.0
 20
922.0
 42
0.0
  0
VERTEX
  8
Default
 10
1106.1
 20
920.3
 42
0.0
  0
VERTEX
  8
Default
 10
1107.9
 20
919.7
 42
0.0
  0
SEQEND
  0
POLYLINE
  8
Default
 66
     1
 10
0.0
 20
0.0
 30
0.0
 70
     1
  0
VERTEX
  8
Default
 10
847.0
 20
912.0
 42
0.0
  0
VERTEX
  8
Default
 10
848.088235
 20
912.647059
 42
0.0
  0
VERTEX
  8
Default
 10
855.0
 20
915.0
 42
0.0
  0
VERTEX
  8
Default
 10
859.0
 20
919.0
 42
0.0
  0
VERTEX
  8
Default
 10
859.2
 20
919.9
 42
0.0
  0
VERTEX
  8
Default
 10
862.0
 20
927.0
 42
0.0
  0
VERTEX
  8
Default
 10
862.0
 20
935.0
 42
0.0
  0
VERTEX
  8
Default
 10
860.7
 20
937.9
 42
0.0
  0
VERTEX
  8
Default
 10
860.2
 20
939.1
 42
0.0
  0
VERTEX
  8
Default
 10
860.0
 20
940.0
 42
0.0
  0
VERTEX
  8
Default
 10
855.0
 20
945.0
 42
0.0
  0
VERTEX
  8
Default
 10
852.9
 20
945.8
 42
0.0
  0
VERTEX
  8
Default
 10
852.1
 20
946.2
 42
0.0
  0
VERTEX
  8
Default
 10
851.0
 20
947.0
 42
0.0
  0
VERTEX
  8
Default
 10
838.0
 20
947.0
 42
0.0
  0
VERTEX
  8
Default
 10
833.0
 20
944.0
 42
0.0
  0
VERTEX
  8
Default
 10
828.0
 20
939.0
 42
0.0
  0
VERTEX
  8
Default
 10
827.8
 20
938.1
 42
0.0
  0
VERTEX
  8
Default
 10
826.0
 20
935.0
 42
0.0
  0
VERTEX
  8
Default
 10
826.0
 20
925.0
 42
0.0
  0
VERTEX
  8
Default
 10
827.3
 20
922.1
 42
0.0
  0
VERTEX
  8
Default
 10
827.8
 20
920.9
 42
0.0
  0
VERTEX
  8
Default
 10
828.0
 20
920.0
 42
0.0
  0
VERTEX
  8
Default
 10
833.0
 20
915.0
 42
0.0
  0
VERTEX
  8
Default
 10
837.088235
 20
913.352941
 42
0.0
  0
VERTEX
  8
Default
 10
839.911765
 20
912.647059
 42
0.0
  0
SEQEND
  0
POLYLINE
  8
Default
 66
     1
 10
0.0
 20
0.0
 30
0.0
 70
     1
  0
VERTEX
  8
Default
 10
318.0
 20
904.0
 42
0.0
  0
VERTEX
  8
Default
 10
329.012803
 20
905.513495
 42
0.0
  0
VERTEX
  8
Default
 10
365.987197
 20
906.486505
 42
0.0
  0
VERTEX
  8
Default
 10
395.067568
 20
909.594595
 42
0.0
  0
VERTEX
  8
Default
 10
411.932432
 20
912.405405
 42
0.0
  0
VERTEX
  8
Default
 10
441.911765
 20
918.352941
 42
0.0
  0
VERTEX
  8
Default
 10
473.088235
 20
925.647059
 42
0.0
  0
VERTEX
  8
Default
 10
515.1
 20
937.7
 42
0.0
  0
VERTEX
  8
Default
 10
531.1
 20
942.8
 42
0.0
  0
VERTEX
  8
Default
 10
558.9
 20
953.2
 42
0.0
  0
VERTEX
  8
Default
 10
571.1
 20
958.8
 42
0.0
  0
VERTEX
  8
Default
 10
588.846154
 20
969.230769
 42
0.0
  0
VERTEX
  8
Default
 10
594.153846
 20
972.769231
 42
0.0
  0
VERTEX
  8
Default
 10
595.0
 20
973.0
 42
0.0
  0
VERTEX
  8
Default
 10
607.0
 20
985.0
 42
0.0
  0
VERTEX
  8
Default
 10
607.647059
 20
988.088235
 42
0.0
  0
VERTEX
  8
Default
 10
608.352941
 20
990.911765
 42
0.0
  0
VERTEX
  8
Default
 10
609.0
 20
992.0
 42
0.0
  0
VERTEX
  8
Default
 10
609.0
 20
1002.0
 42
0.0
  0
VERTEX
  8
Default
 10
605.0
 20
1010.0
 42
0.0
  0
VERTEX
  8
Default
 10
598.0
 20
1017.0
 42
0.0
  0
VERTEX
  8
Default
 10
580.1
 20
1029.2
 42
0.0
  0
VERTEX
  8
Default
 10
561.1
 20
1039.2
 42
0.0
  0
VERTEX
  8
Default
 10
536.1
 20
1048.3
 42
0.0
  0
VERTEX
  8
Default
 10
518.9
 20
1053.7
 42
0.0
  0
VERTEX
  8
Default
 10
476.911765
 20
1065.647059
 42
0.0
  0
VERTEX
  8
Default
 10
454.088235
 20
1071.352941
 42
0.0
  0
VERTEX
  8
Default
 10
429.067568
 20
1076.405405
 42
0.0
  0
VERTEX
  8
Default
 10
411.06
 20
1079.42
 42
0.0
  0
VERTEX
  8
Default
 10
377.955446
 20
1083.554455
 42
0.0
  0
VERTEX
  8
Default
 10
339.0
 20
1087.0
 42
0.0
  0
VERTEX
  8
Default
 10
303.0
 20
1087.0
 42
0.0
  0
VERTEX
  8
Default
 10
277.932432
 20
1083.405405
 42
0.0
  0
VERTEX
  8
Default
 10
259.088235
 20
1079.647059
 42
0.0
  0
VERTEX
  8
Default
 10
246.1
 20
1075.7
 42
0.0
  0
VERTEX
  8
Default
 10
220.9
 20
1065.2
 42
0.0
  0
VERTEX
  8
Default
 10
216.9
 20
1063.2
 42
0.0
  0
VERTEX
  8
Default
 10
178.153846
 20
1041.769231
 42
0.0
  0
VERTEX
  8
Default
 10
168.82
 20
1035.24
 42
0.0
  0
VERTEX
  8
Default
 10
134.0
 20
1008.0
 42
0.0
  0
VERTEX
  8
Default
 10
127.0
 20
1000.0
 42
0.0
  0
VERTEX
  8
Default
 10
127.0
 20
993.0
 42
0.0
  0
VERTEX
  8
Default
 10
127.8
 20
991.9
 42
0.0
  0
VERTEX
  8
Default
 10
128.0
 20
991.0
 42
0.0
  0
VERTEX
  8
Default
 10
133.0
 20
986.0
 42
0.0
  0
VERTEX
  8
Default
 10
137.18
 20
983.24
 42
0.0
  0
VERTEX
  8
Default
 10
151.195122
 20
972.243902
 42
0.0
  0
VERTEX
  8
Default
 10
177.153846
 20
952.230769
 42
0.0
  0
VERTEX
  8
Default
 10
197.9
 20
938.8
 42
0.0
  0
VERTEX
  8
Default
 10
225.9
 20
924.8
 42
0.0
  0
VERTEX
  8
Default
 10
244.9
 20
917.7
 42
0.0
  0
VERTEX
  8
Default
 10
269.911765
 20
910.647059
 42
0.0
  0
VERTEX
  8
Default
 10
279.923077
 20
908.615385
 42
0.0
  0
VERTEX
  8
Default
 10
300.946154
 20
905.569231
 42
0.0
  0
SEQEND
  0
POLYLINE
  8
Default
 66
     1
 10
0.0
 20
0.0
 30
0.0
 70
     1
  0
VERTEX
  8
Default
 10
907.0
 20
903.0
 42
0.0
  0
VERTEX
  8
Default
 10
910.0
 20
904.0
 42
0.0
  0
VERTEX
  8
Default
 10
915.0
 20
909.0
 42
0.0
  0
VERTEX
  8
Default
 10
915.3
 20
910.9
 42
0.0
  0
VERTEX
  8
Default
 10
916.0
 20
912.0
 42
0.0
  0
VERTEX
  8
Default
 10
916.0
 20
920.0
 42
0.0
  0
VERTEX
  8
Default
 10
915.0
 20
922.0
 42
0.0
  0
VERTEX
  8
Default
 10
911.0
 20
926.0
 42
0.0
  0
VERTEX
  8
Default
 10
905.0
 20
929.0
 42
0.0
  0
VERTEX
  8
Default
 10
902.0
 20
929.0
 42
0.0
  0
VERTEX
  8
Default
 10
895.0
 20
926.0
 42
0.0
  0
VERTEX
  8
Default
 10
890.0
 20
919.0
 42
0.0
  0
VERTEX
  8
Default
 10
890.0
 20
913.0
 42
0.0
  0
VERTEX
  8
Default
 10
891.3
 20
910.1
 42
0.0
  0
VERTEX
  8
Default
 10
892.0
 20
908.0
 42
0.0
  0
VERTEX
  8
Default
 10
896.0
 20
904.0
 42
0.0
  0
SEQEND
  0
POLYLINE
  8
Default
 66
     1
 10
0.0
 20
0.0
 30
0.0
 70
     1
  0
VERTEX
  8
Default
 10
1051.0
 20
903.0
 42
0.0
  0
VERTEX
  8
Default
 10
1052.088235
 20
903.647059
 42
0.0
  0
VERTEX
  8
Default
 10
1055.0
 20
904.0
 42
0.0
  0
VERTEX
  8
Default
 10
1061.0
 20
910.0
 42
0.0
  0
VERTEX
  8
Default
 10
1062.0
 20
912.0
 42
0.0
  0
VERTEX
  8
Default
 10
1062.0
 20
920.0
 42
0.0
  0
VERTEX
  8
Default
 10
1061.0
 20
922.0
 42
0.0
  0
VERTEX
  8
Default
 10
1057.0
 20
926.0
 42
0.0
  0
VERTEX
  8
Default
 10
1054.0
 20
928.0
 42
0.0
  0
VERTEX
  8
Default
 10
1046.0
 20
928.0
 42
0.0
  0
VERTEX
  8
Default
 10
1044.0
 20
927.0
 42
0.0
  0
VERTEX
  8
Default
 10
1037.0
 20
920.0
 42
0.0
  0
VERTEX
  8
Default
 10
1037.0
 20
912.0
 42
0.0
  0
VERTEX
  8
Default
 10
1037.8
 20
910.9
 42
0.0
  0
VERTEX
  8
Default
 10
1038.0
 20
910.0
 42
0.0
  0
VERTEX
  8
Default
 10
1043.0
 20
905.0
 42
0.0
  0
VERTEX
  8
Default
 10
1048.088235
 20
903.352941
 42
0.0
  0
SEQEND
  0
POLYLINE
  8
Default
 66
     1
 10
0.0
 20
0.0
 30
0.0
 70
     1
  0
VERTEX
  8
Default
 10
1172.0
 20
892.0
 42
0.0
  0
VERTEX
  8
Default
 10
1173.088235
 20
892.647059
 42
0.0
  0
VERTEX
  8
Default
 10
1181.0
 20
895.0
 42
0.0
  0
VERTEX
  8
Default
 10
1188.0
 20
902.0
 42
0.0
  0
VERTEX
  8
Default
 10
1188.8
 20
904.1
 42
0.0
  0
VERTEX
  8
Default
 10
1192.0
 20
913.0
 42
0.0
  0
VERTEX
  8
Default
 10
1192.0
 20
920.0
 42
0.0
  0
VERTEX
  8
Default
 10
1191.3
 20
921.1
 42
0.0
  0
VERTEX
  8
Default
 10
1188.769231
 20
927.846154
 42
0.0
  0
VERTEX
  8
Default
 10
1187.230769
 20
930.153846
 42
0.0
  0
VERTEX
  8
Default
 10
1187.0
 20
931.0
 42
0.0
  0
VERTEX
  8
Default
 10
1183.0
 20
935.0
 42
0.0
  0
VERTEX
  8
Default
 10
1175.9
 20
938.8
 42
0.0
  0
VERTEX
  8
Default
 10
1175.1
 20
939.2
 42
0.0
  0
VERTEX
  8
Default
 10
1174.0
 20
940.0
 42
0.0
  0
VERTEX
  8
Default
 10
1159.0
 20
940.0
 42
0.0
  0
VERTEX
  8
Default
 10
1150.0
 20
934.0
 42
0.0
  0
VERTEX
  8
Default
 10
1148.76
 20
932.18
 42
0.0
  0
VERTEX
  8
Default
 10
1145.769231
 20
928.153846
 42
0.0
  0
VERTEX
  8
Default
 10
1143.352941
 20
923.911765
 42
0.0
  0
VERTEX
  8
Default
 10
1142.0
 20
920.0
 42
0.0
  0
VERTEX
  8
Default
 10
1142.0
 20
913.0
 42
0.0
  0
VERTEX
  8
Default
 10
1142.615385
 20
911.923077
 42
0.0
  0
VERTEX
  8
Default
 10
1145.0
 20
904.0
 42
0.0
  0
VERTEX
  8
Default
 10
1153.0
 20
896.0
 42
0.0
  0
VERTEX
  8
Default
 10
1155.1
 20
895.2
 42
0.0
  0
VERTEX
  8
Default
 10
1155.9
 20
894.8
 42
0.0
  0
VERTEX
  8
Default
 10
1164.04878
 20
892.439024
 42
0.0
  0
SEQEND
  0
POLYLINE
  8
Default
 66
     1
 10
0.0
 20
0.0
 30
0.0
 70
     1
  0
VERTEX
  8
Default
 10
1646.0
 20
890.0
 42
0.0
  0
VERTEX
  8
Default
 10
1664.946154
 20
892.430769
 42
0.0
  0
VERTEX
  8
Default
 10
1679.911765
 20
895.352941
 42
0.0
  0
VERTEX
  8
Default
 10
1688.911765
 20
897.352941
 42
0.0
  0
VERTEX
  8
Default
 10
1710.9
 20
904.3
 42
0.0
  0
VERTEX
  8
Default
 10
1727.1
 20
910.7
 42
0.0
  0
VERTEX
  8
Default
 10
1748.1
 20
920.8
 42
0.0
  0
VERTEX
  8
Default
 10
1764.1
 20
929.8
 42
0.0
  0
VERTEX
  8
Default
 10
1782.153846
 20
941.769231
 42
0.0
  0
VERTEX
  8
Default
 10
1786.18
 20
944.76
 42
0.0
  0
VERTEX
  8
Default
 10
1812.0
 20
966.0
 42
0.0
  0
VERTEX
  8
Default
 10
1829.0
 20
983.0
 42
0.0
  0
VERTEX
  8
Default
 10
1829.0
 20
985.0
 42
0.0
  0
VERTEX
  8
Default
 10
1826.0
 20
988.0
 42
0.0
  0
VERTEX
  8
Default
 10
1780.153846
 20
1022.230769
 42
0.0
  0
VERTEX
  8
Default
 10
1771.846154
 20
1027.769231
 42
0.0
  0
VERTEX
  8
Default
 10
1734.9
 20
1048.8
 42
0.0
  0
VERTEX
  8
Default
 10
1730.1
 20
1051.2
 42
0.0
  0
VERTEX
  8
Default
 10
1708.9
 20
1059.7
 42
0.0
  0
VERTEX
  8
Default
 10
1701.1
 20
1062.3
 42
0.0
  0
VERTEX
  8
Default
 10
1685.911765
 20
1066.647059
 42
0.0
  0
VERTEX
  8
Default
 10
1673.076923
 20
1069.384615
 42
0.0
  0
VERTEX
  8
Default
 10
1657.967005
 20
1071.538071
 42
0.0
  0
VERTEX
  8
Default
 10
1645.032995
 20
1072.461929
 42
0.0
  0
VERTEX
  8
Default
 10
1644.0
 20
1073.0
 42
0.0
  0
VERTEX
  8
Default
 10
1617.982192
 20
1071.480822
 42
0.0
  0
VERTEX
  8
Default
 10
1592.017808
 20
1070.519178
 42
0.0
  0
VERTEX
  8
Default
 10
1568.946154
 20
1068.430769
 42
0.0
  0
VERTEX
  8
Default
 10
1542.067568
 20
1064.594595
 42
0.0
  0
VERTEX
  8
Default
 10
1463.076923
 20
1048.615385
 42
0.0
  0
VERTEX
  8
Default
 10
1446.9
 20
1044.3
 42
0.0
  0
VERTEX
  8
Default
 10
1409.1
 20
1031.7
 42
0.0
  0
VERTEX
  8
Default
 10
1396.1
 20
1026.7
 42
0.0
  0
VERTEX
  8
Default
 10
1377.1
 20
1017.8
 42
0.0
  0
VERTEX
  8
Default
 10
1371.9
 20
1015.2
 42
0.0
  0
VERTEX
  8
Default
 10
1363.18
 20
1009.76
 42
0.0
  0
VERTEX
  8
Default
 10
1349.0
 20
999.0
 42
0.0
  0
VERTEX
  8
Default
 10
1342.0
 20
989.0
 42
0.0
  0
VERTEX
  8
Default
 10
1342.0
 20
977.0
 42
0.0
  0
VERTEX
  8
Default
 10
1346.0
 20
969.0
 42
0.0
  0
VERTEX
  8
Default
 10
1355.0
 20
960.0
 42
0.0
  0
VERTEX
  8
Default
 10
1358.153846
 20
958.230769
 42
0.0
  0
VERTEX
  8
Default
 10
1369.153846
 20
951.230769
 42
0.0
  0
VERTEX
  8
Default
 10
1386.1
 20
942.2
 42
0.0
  0
VERTEX
  8
Default
 10
1397.9
 20
936.8
 42
0.0
  0
VERTEX
  8
Default
 10
1423.1
 20
927.3
 42
0.0
  0
VERTEX
  8
Default
 10
1441.911765
 20
921.647059
 42
0.0
  0
VERTEX
  8
Default
 10
1482.076923
 20
910.384615
 42
0.0
  0
VERTEX
  8
Default
 10
1516.911765
 20
902.647059
 42
0.0
  0
VERTEX
  8
Default
 10
1552.932432
 20
896.594595
 42
0.0
  0
VERTEX
  8
Default
 10
1567.946154
 20
894.569231
 42
0.0
  0
VERTEX
  8
Default
 10
1600.964706
 20
891.541176
 42
0.0
  0
VERTEX
  8
Default
 10
1621.018464
 20
890.480059
 42
0.0
  0
SEQEND
  0
POLYLINE
  8
Default
 66
     1
 10
0.0
 20
0.0
 30
0.0
 70
     1
  0
VERTEX
  8
Default
 10
798.0
 20
883.0
 42
0.0
  0
VERTEX
  8
Default
 10
803.1
 20
884.8
 42
0.0
  0
VERTEX
  8
Default
 10
807.0
 20
887.0
 42
0.0
  0
VERTEX
  8
Default
 10
812.0
 20
892.0
 42
0.0
  0
VERTEX
  8
Default
 10
812.8
 20
894.1
 42
0.0
  0
VERTEX
  8
Default
 10
813.2
 20
894.9
 42
0.0
  0
VERTEX
  8
Default
 10
816.0
 20
904.0
 42
0.0
  0
VERTEX
  8
Default
 10
816.0
 20
908.0
 42
0.0
  0
VERTEX
  8
Default
 10
814.594595
 20
913.932432
 42
0.0
  0
VERTEX
  8
Default
 10
812.0
 20
920.0
 42
0.0
  0
VERTEX
  8
Default
 10
806.0
 20
926.0
 42
0.0
  0
VERTEX
  8
Default
 10
805.153846
 20
926.230769
 42
0.0
  0
VERTEX
  8
Default
 10
797.0
 20
930.0
 42
0.0
  0
VERTEX
  8
Default
 10
787.0
 20
930.0
 42
0.0
  0
VERTEX
  8
Default
 10
783.088235
 20
928.647059
 42
0.0
  0
VERTEX
  8
Default
 10
781.9
 20
928.3
 42
0.0
  0
VERTEX
  8
Default
 10
775.0
 20
925.0
 42
0.0
  0
VERTEX
  8
Default
 10
769.0
 20
919.0
 42
0.0
  0
VERTEX
  8
Default
 10
767.4
 20
915.8
 42
0.0
  0
VERTEX
  8
Default
 10
766.7
 20
914.1
 42
0.0
  0
VERTEX
  8
Default
 10
766.0
 20
913.0
 42
0.0
  0
VERTEX
  8
Default
 10
766.0
 20
899.0
 42
0.0
  0
VERTEX
  8
Default
 10
767.8
 20
895.9
 42
0.0
  0
VERTEX
  8
Default
 10
768.0
 20
895.0
 42
0.0
  0
VERTEX
  8
Default
 10
776.0
 20
887.0
 42
0.0
  0
VERTEX
  8
Default
 10
779.2
 20
885.4
 42
0.0
  0
VERTEX
  8
Default
 10
780.9
 20
884.7
 42
0.0
  0
VERTEX
  8
Default
 10
786.035294
 20
883.458824
 42
0.0
  0
SEQEND
  0
POLYLINE
  8
Default
 66
     1
 10
0.0
 20
0.0
 30
0.0
 70
     1
  0
VERTEX
  8
Default
 10
1019.0
 20
881.0
 42
0.0
  0
VERTEX
  8
Default
 10
1025.1
 20
882.8
 42
0.0
  0
VERTEX
  8
Default
 10
1026.0
 20
883.0
 42
0.0
  0
VERTEX
  8
Default
 10
1029.0
 20
886.0
 42
0.0
  0
VERTEX
  8
Default
 10
1029.8
 20
888.1
 42
0.0
  0
VERTEX
  8
Default
 10
1030.2
 20
888.9
 42
0.0
  0
VERTEX
  8
Default
 10
1031.0
 20
890.0
 42
0.0
  0
VERTEX
  8
Default
 10
1031.0
 20
899.0
 42
0.0
  0
VERTEX
  8
Default
 10
1030.0
 20
901.0
 42
0.0
  0
VERTEX
  8
Default
 10
1027.0
 20
904.0
 42
0.0
  0
VERTEX
  8
Default
 10
1023.846154
 20
905.769231
 42
0.0
  0
VERTEX
  8
Default
 10
1023.1
 20
906.2
 42
0.0
  0
VERTEX
  8
Default
 10
1022.0
 20
907.0
 42
0.0
  0
VERTEX
  8
Default
 10
1013.0
 20
907.0
 42
0.0
  0
VERTEX
  8
Default
 10
1009.0
 20
904.0
 42
0.0
  0
VERTEX
  8
Default
 10
1007.0
 20
902.0
 42
0.0
  0
VERTEX
  8
Default
 10
1005.8
 20
899.1
 42
0.0
  0
VERTEX
  8
Default
 10
1005.0
 20
898.0
 42
0.0
  0
VERTEX
  8
Default
 10
1005.0
 20
890.0
 42
0.0
  0
VERTEX
  8
Default
 10
1009.0
 20
884.0
 42
0.0
  0
VERTEX
  8
Default
 10
1011.1
 20
883.2
 42
0.0
  0
VERTEX
  8
Default
 10
1017.1
 20
881.3
 42
0.0
  0
SEQEND
  0
POLYLINE
  8
Default
 66
     1
 10
0.0
 20
0.0
 30
0.0
 70
     1
  0
VERTEX
  8
Default
 10
944.0
 20
880.0
 42
0.0
  0
VERTEX
  8
Default
 10
946.0
 20
881.0
 42
0.0
  0
VERTEX
  8
Default
 10
951.0
 20
886.0
 42
0.0
  0
VERTEX
  8
Default
 10
951.3
 20
887.9
 42
0.0
  0
VERTEX
  8
Default
 10
952.0
 20
889.0
 42
0.0
  0
VERTEX
  8
Default
 10
952.0
 20
897.0
 42
0.0
  0
VERTEX
  8
Default
 10
951.0
 20
899.0
 42
0.0
  0
VERTEX
  8
Default
 10
946.0
 20
904.0
 42
0.0
  0
VERTEX
  8
Default
 10
941.0
 20
906.0
 42
0.0
  0
VERTEX
  8
Default
 10
937.0
 20
906.0
 42
0.0
  0
VERTEX
  8
Default
 10
932.0
 20
903.0
 42
0.0
  0
VERTEX
  8
Default
 10
929.0
 20
900.0
 42
0.0
  0
VERTEX
  8
Default
 10
927.8
 20
897.1
 42
0.0
  0
VERTEX
  8
Default
 10
927.0
 20
896.0
 42
0.0
  0
VERTEX
  8
Default
 10
927.0
 20
891.0
 42
0.0
  0
VERTEX
  8
Default
 10
928.352941
 20
887.088235
 42
0.0
  0
VERTEX
  8
Default
 10
929.0
 20
885.0
 42
0.0
  0
VERTEX
  8
Default
 10
933.0
 20
881.0
 42
0.0
  0
SEQEND
  0
POLYLINE
  8
Default
 66
     1
 10
0.0
 20
0.0
 30
0.0
 70
     1
  0
VERTEX
  8
Default
 10
979.0
 20
873.0
 42
0.0
  0
VERTEX
  8
Default
 10
983.1
 20
874.8
 42
0.0
  0
VERTEX
  8
Default
 10
984.0
 20
875.0
 42
0.0
  0
VERTEX
  8
Default
 10
988.0
 20
879.0
 42
0.0
  0
VERTEX
  8
Default
 10
989.0
 20
882.0
 42
0.0
  0
VERTEX
  8
Default
 10
989.0
 20
888.0
 42
0.0
  0
VERTEX
  8
Default
 10
988.3
 20
889.1
 42
0.0
  0
VERTEX
  8
Default
 10
988.0
 20
891.0
 42
0.0
  0
VERTEX
  8
Default
 10
984.0
 20
895.0
 42
0.0
  0
VERTEX
  8
Default
 10
980.8
 20
896.6
 42
0.0
  0
VERTEX
  8
Default
 10
978.0
 20
898.0
 42
0.0
  0
VERTEX
  8
Default
 10
972.0
 20
898.0
 42
0.0
  0
VERTEX
  8
Default
 10
967.846154
 20
895.230769
 42
0.0
  0
VERTEX
  8
Default
 10
967.0
 20
895.0
 42
0.0
  0
VERTEX
  8
Default
 10
962.0
 20
889.0
 42
0.0
  0
VERTEX
  8
Default
 10
962.0
 20
880.0
 42
0.0
  0
VERTEX
  8
Default
 10
962.8
 20
878.9
 42
0.0
  0
VERTEX
  8
Default
 10
963.0
 20
878.0
 42
0.0
  0
VERTEX
  8
Default
 10
966.0
 20
875.0
 42
0.0
  0
VERTEX
  8
Default
 10
968.1
 20
874.3
 42
0.0
  0
VERTEX
  8
Default
 10
969.9
 20
873.7
 42
0.0
  0
SEQEND
  0
POLYLINE
  8
Default
 66
     1
 10
0.0
 20
0.0
 30
0.0
 70
     1
  0
VERTEX
  8
Default
 10
875.0
 20
869.0
 42
0.0
  0
VERTEX
  8
Default
 10
881.1
 20
870.7
 42
0.0
  0
VERTEX
  8
Default
 10
886.0
 20
873.0
 42
0.0
  0
VERTEX
  8
Default
 10
888.0
 20
875.0
 42
0.0
  0
VERTEX
  8
Default
 10
889.6
 20
878.2
 42
0.0
  0
VERTEX
  8
Default
 10
890.3
 20
879.9
 42
0.0
  0
VERTEX
  8
Default
 10
891.0
 20
881.0
 42
0.0
  0
VERTEX
  8
Default
 10
891.0
 20
891.0
 42
0.0
  0
VERTEX
  8
Default
 10
890.2
 20
892.1
 42
0.0
  0
VERTEX
  8
Default
 10
888.0
 20
897.0
 42
0.0
  0
VERTEX
  8
Default
 10
881.82
 20
901.76
 42
0.0
  0
VERTEX
  8
Default
 10
877.0
 20
904.0
 42
0.0
  0
VERTEX
  8
Default
 10
870.0
 20
904.0
 42
0.0
  0
VERTEX
  8
Default
 10
867.2
 20
902.6
 42
0.0
  0
VERTEX
  8
Default
 10
864.846154
 20
901.230769
 42
0.0
  0
VERTEX
  8
Default
 10
864.0
 20
901.0
 42
0.0
  0
VERTEX
  8
Default
 10
859.0
 20
896.0
 42
0.0
  0
VERTEX
  8
Default
 10
856.0
 20
889.0
 42
0.0
  0
VERTEX
  8
Default
 10
856.0
 20
884.0
 42
0.0
  0
VERTEX
  8
Default
 10
858.0
 20
877.0
 42
0.0
  0
VERTEX
  8
Default
 10
864.0
 20
871.0
 42
0.0
  0
SEQEND
  0
POLYLINE
  8
Default
 66
     1
 10
0.0
 20
0.0
 30
0.0
 70
     1
  0
VERTEX
  8
Default
 10
1081.0
 20
869.0
 42
0.0
  0
VERTEX
  8
Default
 10
1087.1
 20
870.7
 42
0.0
  0
VERTEX
  8
Default
 10
1091.0
 20
872.0
 42
0.0
  0
VERTEX
  8
Default
 10
1096.0
 20
877.0
 42
0.0
  0
VERTEX
  8
Default
 10
1096.647059
 20
879.088235
 42
0.0
  0
VERTEX
  8
Default
 10
1097.352941
 20
881.911765
 42
0.0
  0
VERTEX
  8
Default
 10
1098.0
 20
883.0
 42
0.0
  0
VERTEX
  8
Default
 10
1098.0
 20
889.0
 42
0.0
  0
VERTEX
  8
Default
 10
1097.3
 20
890.1
 42
0.0
  0
VERTEX
  8
Default
 10
1095.0
 20
896.0
 42
0.0
  0
VERTEX
  8
Default
 10
1092.0
 20
899.0
 42
0.0
  0
VERTEX
  8
Default
 10
1087.735294
 20
901.558824
 42
0.0
  0
VERTEX
  8
Default
 10
1082.0
 20
904.0
 42
0.0
  0
VERTEX
  8
Default
 10
1076.0
 20
904.0
 42
0.0
  0
VERTEX
  8
Default
 10
1067.0
 20
898.0
 42
0.0
  0
VERTEX
  8
Default
 10
1066.769231
 20
897.153846
 42
0.0
  0
VERTEX
  8
Default
 10
1063.0
 20
892.0
 42
0.0
  0
VERTEX
  8
Default
 10
1063.0
 20
879.0
 42
0.0
  0
VERTEX
  8
Default
 10
1065.0
 20
876.0
 42
0.0
  0
VERTEX
  8
Default
 10
1070.0
 20
871.0
 42
0.0
  0
VERTEX
  8
Default
 10
1073.088235
 20
870.352941
 42
0.0
  0
VERTEX
  8
Default
 10
1075.911765
 20
869.647059
 42
0.0
  0
SEQEND
  0
POLYLINE
  8
Default
 66
     1
 10
0.0
 20
0.0
 30
0.0
 70
     1
  0
VERTEX
  8
Default
 10
1245.0
 20
853.0
 42
0.0
  0
VERTEX
  8
Default
 10
1246.053846
 20
853.569231
 42
0.0
  0
VERTEX
  8
Default
 10
1252.946154
 20
854.430769
 42
0.0
  0
VERTEX
  8
Default
 10
1260.9
 20
857.2
 42
0.0
  0
VERTEX
  8
Default
 10
1262.1
 20
857.8
 42
0.0
  0
VERTEX
  8
Default
 10
1266.0
 20
860.0
 42
0.0
  0
VERTEX
  8
Default
 10
1270.0
 20
864.0
 42
0.0
  0
VERTEX
  8
Default
 10
1272.76
 20
868.18
 42
0.0
  0
VERTEX
  8
Default
 10
1274.7
 20
872.1
 42
0.0
  0
VERTEX
  8
Default
 10
1276.3
 20
876.9
 42
0.0
  0
VERTEX
  8
Default
 10
1278.0
 20
883.0
 42
0.0
  0
VERTEX
  8
Default
 10
1278.0
 20
893.0
 42
0.0
  0
VERTEX
  8
Default
 10
1273.8
 20
903.9
 42
0.0
  0
VERTEX
  8
Default
 10
1273.2
 20
905.1
 42
0.0
  0
VERTEX
  8
Default
 10
1268.0
 20
912.0
 42
0.0
  0
VERTEX
  8
Default
 10
1264.846154
 20
913.769231
 42
0.0
  0
VERTEX
  8
Default
 10
1257.9
 20
917.7
 42
0.0
  0
VERTEX
  8
Default
 10
1256.1
 20
918.3
 42
0.0
  0
VERTEX
  8
Default
 10
1249.0
 20
920.0
 42
0.0
  0
VERTEX
  8
Default
 10
1238.0
 20
920.0
 42
0.0
  0
VERTEX
  8
Default
 10
1228.1
 20
915.8
 42
0.0
  0
VERTEX
  8
Default
 10
1226.9
 20
915.2
 42
0.0
  0
VERTEX
  8
Default
 10
1223.0
 20
913.0
 42
0.0
  0
VERTEX
  8
Default
 10
1218.0
 20
908.0
 42
0.0
  0
VERTEX
  8
Default
 10
1212.8
 20
899.1
 42
0.0
  0
VERTEX
  8
Default
 10
1211.7
 20
896.1
 42
0.0
  0
VERTEX
  8
Default
 10
1210.0
 20
890.0
 42
0.0
  0
VERTEX
  8
Default
 10
1210.0
 20
885.0
 42
0.0
  0
VERTEX
  8
Default
 10
1210.560976
 20
883.95122
 42
0.0
  0
VERTEX
  8
Default
 10
1211.439024
 20
876.04878
 42
0.0
  0
VERTEX
  8
Default
 10
1213.8
 20
869.9
 42
0.0
  0
VERTEX
  8
Default
 10
1216.0
 20
866.0
 42
0.0
  0
VERTEX
  8
Default
 10
1223.0
 20
859.0
 42
0.0
  0
VERTEX
  8
Default
 10
1227.9
 20
856.7
 42
0.0
  0
VERTEX
  8
Default
 10
1235.06
 20
854.42
 42
0.0
  0
SEQEND
  0
POLYLINE
  8
Default
 66
     1
 10
0.0
 20
0.0
 30
0.0
 70
     1
  0
VERTEX
  8
Default
 10
719.0
 20
839.0
 42
0.0
  0
VERTEX
  8
Default
 10
723.923077
 20
840.384615
 42
0.0
  0
VERTEX
  8
Default
 10
732.1
 20
842.8
 42
0.0
  0
VERTEX
  8
Default
 10
734.1
 20
843.8
 42
0.0
  0
VERTEX
  8
Default
 10
737.0
 20
845.0
 42
0.0
  0
VERTEX
  8
Default
 10
745.0
 20
853.0
 42
0.0
  0
VERTEX
  8
Default
 10
746.769231
 20
856.153846
 42
0.0
  0
VERTEX
  8
Default
 10
748.7
 20
861.1
 42
0.0
  0
VERTEX
  8
Default
 10
750.384615
 20
867.923077
 42
0.0
  0
VERTEX
  8
Default
 10
751.0
 20
869.0
 42
0.0
  0
VERTEX
  8
Default
 10
751.0
 20
873.0
 42
0.0
  0
VERTEX
  8
Default
 10
748.7
 20
879.9
 42
0.0
  0
VERTEX
  8
Default
 10
742.769231
 20
891.846154
 42
0.0
  0
VERTEX
  8
Default
 10
741.0
 20
895.0
 42
0.0
  0
VERTEX
  8
Default
 10
737.0
 20
899.0
 42
0.0
  0
VERTEX
  8
Default
 10
732.82
 20
901.76
 42
0.0
  0
VERTEX
  8
Default
 10
724.0
 20
906.0
 42
0.0
  0
VERTEX
  8
Default
 10
705.0
 20
906.0
 42
0.0
  0
VERTEX
  8
Default
 10
703.9
 20
905.3
 42
0.0
  0
VERTEX
  8
Default
 10
698.153846
 20
902.769231
 42
0.0
  0
VERTEX
  8
Default
 10
691.82
 20
898.24
 42
0.0
  0
VERTEX
  8
Default
 10
691.0
 20
898.0
 42
0.0
  0
VERTEX
  8
Default
 10
688.0
 20
895.0
 42
0.0
  0
VERTEX
  8
Default
 10
686.230769
 20
891.846154
 42
0.0
  0
VERTEX
  8
Default
 10
685.769231
 20
891.153846
 42
0.0
  0
VERTEX
  8
Default
 10
683.3
 20
886.9
 42
0.0
  0
VERTEX
  8
Default
 10
681.0
 20
881.0
 42
0.0
  0
VERTEX
  8
Default
 10
681.0
 20
866.0
 42
0.0
  0
VERTEX
  8
Default
 10
682.352941
 20
862.088235
 42
0.0
  0
VERTEX
  8
Default
 10
685.230769
 20
855.153846
 42
0.0
  0
VERTEX
  8
Default
 10
687.0
 20
852.0
 42
0.0
  0
VERTEX
  8
Default
 10
695.0
 20
844.0
 42
0.0
  0
VERTEX
  8
Default
 10
697.9
 20
842.8
 42
0.0
  0
VERTEX
  8
Default
 10
705.076923
 20
840.384615
 42
0.0
  0
VERTEX
  8
Default
 10
708.923077
 20
839.615385
 42
0.0
  0
SEQEND
  0
POLYLINE
  8
Default
 66
     1
 10
0.0
 20
0.0
 30
0.0
 70
     1
  0
VERTEX
  8
Default
 10
1038.0
 20
839.0
 42
0.0
  0
VERTEX
  8
Default
 10
1039.1
 20
839.7
 42
0.0
  0
VERTEX
  8
Default
 10
1046.0
 20
842.0
 42
0.0
  0
VERTEX
  8
Default
 10
1051.0
 20
847.0
 42
0.0
  0
VERTEX
  8
Default
 10
1051.2
 20
847.9
 42
0.0
  0
VERTEX
  8
Default
 10
1054.0
 20
856.0
 42
0.0
  0
VERTEX
  8
Default
 10
1054.0
 20
860.0
 42
0.0
  0
VERTEX
  8
Default
 10
1052.7
 20
862.9
 42
0.0
  0
VERTEX
  8
Default
 10
1052.2
 20
864.1
 42
0.0
  0
VERTEX
  8
Default
 10
1052.0
 20
865.0
 42
0.0
  0
VERTEX
  8
Default
 10
1046.0
 20
871.0
 42
0.0
  0
VERTEX
  8
Default
 10
1043.9
 20
871.8
 42
0.0
  0
VERTEX
  8
Default
 10
1043.1
 20
872.2
 42
0.0
  0
VERTEX
  8
Default
 10
1038.0
 20
874.0
 42
0.0
  0
VERTEX
  8
Default
 10
1034.0
 20
874.0
 42
0.0
  0
VERTEX
  8
Default
 10
1028.067568
 20
872.594595
 42
0.0
  0
VERTEX
  8
Default
 10
1026.9
 20
872.2
 42
0.0
  0
VERTEX
  8
Default
 10
1024.0
 20
871.0
 42
0.0
  0
VERTEX
  8
Default
 10
1019.0
 20
866.0
 42
0.0
  0
VERTEX
  8
Default
 10
1018.2
 20
863.9
 42
0.0
  0
VERTEX
  8
Default
 10
1017.8
 20
863.1
 42
0.0
  0
VERTEX
  8
Default
 10
1017.0
 20
862.0
 42
0.0
  0
VERTEX
  8
Default
 10
1017.0
 20
851.0
 42
0.0
  0
VERTEX
  8
Default
 10
1018.8
 20
847.9
 42
0.0
  0
VERTEX
  8
Default
 10
1019.0
 20
847.0
 42
0.0
  0
VERTEX
  8
Default
 10
1025.0
 20
841.0
 42
0.0
  0
VERTEX
  8
Default
 10
1026.9
 20
840.7
 42
0.0
  0
VERTEX
  8
Default
 10
1032.06
 20
839.42
 42
0.0
  0
SEQEND
  0
POLYLINE
  8
Default
 66
     1
 10
0.0
 20
0.0
 30
0.0
 70
     1
  0
VERTEX
  8
Default
 10
929.0
 20
837.0
 42
0.0
  0
VERTEX
  8
Default
 10
936.1
 20
839.8
 42
0.0
  0
VERTEX
  8
Default
 10
937.0
 20
840.0
 42
0.0
  0
VERTEX
  8
Default
 10
941.0
 20
844.0
 42
0.0
  0
VERTEX
  8
Default
 10
942.3
 20
848.9
 42
0.0
  0
VERTEX
  8
Default
 10
943.0
 20
850.0
 42
0.0
  0
VERTEX
  8
Default
 10
943.0
 20
855.0
 42
0.0
  0
VERTEX
  8
Default
 10
941.2
 20
859.1
 42
0.0
  0
VERTEX
  8
Default
 10
938.0
 20
865.0
 42
0.0
  0
VERTEX
  8
Default
 10
932.153846
 20
869.230769
 42
0.0
  0
VERTEX
  8
Default
 10
927.0
 20
872.0
 42
0.0
  0
VERTEX
  8
Default
 10
922.0
 20
872.0
 42
0.0
  0
VERTEX
  8
Default
 10
919.1
 20
870.7
 42
0.0
  0
VERTEX
  8
Default
 10
917.9
 20
870.2
 42
0.0
  0
VERTEX
  8
Default
 10
914.0
 20
868.0
 42
0.0
  0
VERTEX
  8
Default
 10
911.0
 20
865.0
 42
0.0
  0
VERTEX
  8
Default
 10
909.230769
 20
861.846154
 42
0.0
  0
VERTEX
  8
Default
 10
908.8
 20
861.1
 42
0.0
  0
VERTEX
  8
Default
 10
907.0
 20
858.0
 42
0.0
  0
VERTEX
  8
Default
 10
907.0
 20
848.0
 42
0.0
  0
VERTEX
  8
Default
 10
908.8
 20
844.9
 42
0.0
  0
VERTEX
  8
Default
 10
909.0
 20
844.0
 42
0.0
  0
VERTEX
  8
Default
 10
914.0
 20
839.0
 42
0.0
  0
VERTEX
  8
Default
 10
915.9
 20
838.7
 42
0.0
  0
VERTEX
  8
Default
 10
921.04878
 20
837.439024
 42
0.0
  0
SEQEND
  0
POLYLINE
  8
Default
 66
     1
 10
0.0
 20
0.0
 30
0.0
 70
     1
  0
VERTEX
  8
Default
 10
979.0
 20
826.0
 42
0.0
  0
VERTEX
  8
Default
 10
985.0
 20
828.0
 42
0.0
  0
VERTEX
  8
Default
 10
991.0
 20
834.0
 42
0.0
  0
VERTEX
  8
Default
 10
993.0
 20
839.0
 42
0.0
  0
VERTEX
  8
Default
 10
993.0
 20
849.0
 42
0.0
  0
VERTEX
  8
Default
 10
991.8
 20
850.9
 42
0.0
  0
VERTEX
  8
Default
 10
989.0
 20
856.0
 42
0.0
  0
VERTEX
  8
Default
 10
984.1
 20
859.2
 42
0.0
  0
VERTEX
  8
Default
 10
979.0
 20
861.0
 42
0.0
  0
VERTEX
  8
Default
 10
970.0
 20
861.0
 42
0.0
  0
VERTEX
  8
Default
 10
968.1
 20
859.8
 42
0.0
  0
VERTEX
  8
Default
 10
966.9
 20
859.2
 42
0.0
  0
VERTEX
  8
Default
 10
966.0
 20
859.0
 42
0.0
  0
VERTEX
  8
Default
 10
960.0
 20
853.0
 42
0.0
  0
VERTEX
  8
Default
 10
958.8
 20
850.1
 42
0.0
  0
VERTEX
  8
Default
 10
958.0
 20
849.0
 42
0.0
  0
VERTEX
  8
Default
 10
958.0
 20
839.0
 42
0.0
  0
VERTEX
  8
Default
 10
959.8
 20
835.9
 42
0.0
  0
VERTEX
  8
Default
 10
960.0
 20
835.0
 42
0.0
  0
VERTEX
  8
Default
 10
967.0
 20
828.0
 42
0.0
  0
VERTEX
  8
Default
 10
967.9
 20
827.8
 42
0.0
  0
VERTEX
  8
Default
 10
973.06
 20
826.42
 42
0.0
  0
SEQEND
  0
POLYLINE
  8
Default
 66
     1
 10
0.0
 20
0.0
 30
0.0
 70
     1
  0
VERTEX
  8
Default
 10
838.0
 20
820.0
 42
0.0
  0
VERTEX
  8
Default
 10
843.1
 20
821.8
 42
0.0
  0
VERTEX
  8
Default
 10
848.0
 20
824.0
 42
0.0
  0
VERTEX
  8
Default
 10
854.0
 20
830.0
 42
0.0
  0
VERTEX
  8
Default
 10
854.8
 20
832.1
 42
0.0
  0
VERTEX
  8
Default
 10
855.2
 20
832.9
 42
0.0
  0
VERTEX
  8
Default
 10
858.0
 20
840.0
 42
0.0
  0
VERTEX
  8
Default
 10
858.0
 20
851.0
 42
0.0
  0
VERTEX
  8
Default
 10
856.7
 20
853.9
 42
0.0
  0
VERTEX
  8
Default
 10
856.2
 20
855.1
 42
0.0
  0
VERTEX
  8
Default
 10
853.0
 20
861.0
 42
0.0
  0
VERTEX
  8
Default
 10
850.0
 20
864.0
 42
0.0
  0
VERTEX
  8
Default
 10
846.846154
 20
865.769231
 42
0.0
  0
VERTEX
  8
Default
 10
846.1
 20
866.2
 42
0.0
  0
VERTEX
  8
Default
 10
838.0
 20
870.0
 42
0.0
  0
VERTEX
  8
Default
 10
828.0
 20
870.0
 42
0.0
  0
VERTEX
  8
Default
 10
822.1
 20
867.8
 42
0.0
  0
VERTEX
  8
Default
 10
820.9
 20
867.2
 42
0.0
  0
VERTEX
  8
Default
 10
817.0
 20
865.0
 42
0.0
  0
VERTEX
  8
Default
 10
812.0
 20
860.0
 42
0.0
  0
VERTEX
  8
Default
 10
809.352941
 20
854.911765
 42
0.0
  0
VERTEX
  8
Default
 10
808.647059
 20
852.088235
 42
0.0
  0
VERTEX
  8
Default
 10
808.0
 20
851.0
 42
0.0
  0
VERTEX
  8
Default
 10
808.0
 20
839.0
 42
0.0
  0
VERTEX
  8
Default
 10
811.0
 20
831.0
 42
0.0
  0
VERTEX
  8
Default
 10
819.0
 20
823.0
 42
0.0
  0
VERTEX
  8
Default
 10
819.9
 20
822.8
 42
0.0
  0
VERTEX
  8
Default
 10
826.035294
 20
820.458824
 42
0.0
  0
SEQEND
  0
POLYLINE
  8
Default
 66
     1
 10
0.0
 20
0.0
 30
0.0
 70
     1
  0
VERTEX
  8
Default
 10
1127.0
 20
820.0
 42
0.0
  0
VERTEX
  8
Default
 10
1134.0
 20
823.0
 42
0.0
  0
VERTEX
  8
Default
 10
1142.0
 20
831.0
 42
0.0
  0
VERTEX
  8
Default
 10
1142.3
 20
832.9
 42
0.0
  0
VERTEX
  8
Default
 10
1145.0
 20
841.0
 42
0.0
  0
VERTEX
  8
Default
 10
1145.0
 20
850.0
 42
0.0
  0
VERTEX
  8
Default
 10
1142.7
 20
855.9
 42
0.0
  0
VERTEX
  8
Default
 10
1142.2
 20
857.1
 42
0.0
  0
VERTEX
  8
Default
 10
1140.0
 20
861.0
 42
0.0
  0
VERTEX
  8
Default
 10
1136.0
 20
865.0
 42
0.0
  0
VERTEX
  8
Default
 10
1130.9
 20
867.8
 42
0.0
  0
VERTEX
  8
Default
 10
1126.0
 20
870.0
 42
0.0
  0
VERTEX
  8
Default
 10
1116.0
 20
870.0
 42
0.0
  0
VERTEX
  8
Default
 10
1114.9
 20
869.3
 42
0.0
  0
VERTEX
  8
Default
 10
1107.0
 20
866.0
 42
0.0
  0
VERTEX
  8
Default
 10
1100.0
 20
859.0
 42
0.0
  0
VERTEX
  8
Default
 10
1099.2
 20
856.9
 42
0.0
  0
VERTEX
  8
Default
 10
1098.8
 20
856.1
 42
0.0
  0
VERTEX
  8
Default
 10
1097.405405
 20
852.932432
 42
0.0
  0
VERTEX
  8
Default
 10
1096.0
 20
847.0
 42
0.0
  0
VERTEX
  8
Default
 10
1096.0
 20
843.0
 42
0.0
  0
VERTEX
  8
Default
 10
1097.405405
 20
837.067568
 42
0.0
  0
VERTEX
  8
Default
 10
1099.2
 20
833.1
 42
0.0
  0
VERTEX
  8
Default
 10
1099.8
 20
831.9
 42
0.0
  0
VERTEX
  8
Default
 10
1100.0
 20
831.0
 42
0.0
  0
VERTEX
  8
Default
 10
1108.0
 20
823.0
 42
0.0
  0
VERTEX
  8
Default
 10
1115.035294
 20
820.458824
 42
0.0
  0
SEQEND
  0
POLYLINE
  8
Default
 66
     1
 10
0.0
 20
0.0
 30
0.0
 70
     1
  0
VERTEX
  8
Default
 10
1065.0
 20
778.0
 42
0.0
  0
VERTEX
  8
Default
 10
1073.0
 20
781.0
 42
0.0
  0
VERTEX
  8
Default
 10
1079.0
 20
787.0
 42
0.0
  0
VERTEX
  8
Default
 10
1082.352941
 20
796.911765
 42
0.0
  0
VERTEX
  8
Default
 10
1083.0
 20
798.0
 42
0.0
  0
VERTEX
  8
Default
 10
1083.0
 20
810.0
 42
0.0
  0
VERTEX
  8
Default
 10
1079.0
 20
819.0
 42
0.0
  0
VERTEX
  8
Default
 10
1077.18
 20
820.24
 42
0.0
  0
VERTEX
  8
Default
 10
1073.82
 20
822.76
 42
0.0
  0
VERTEX
  8
Default
 10
1068.9
 20
824.7
 42
0.0
  0
VERTEX
  8
Default
 10
1067.1
 20
825.3
 42
0.0
  0
VERTEX
  8
Default
 10
1066.0
 20
826.0
 42
0.0
  0
VERTEX
  8
Default
 10
1052.0
 20
826.0
 42
0.0
  0
VERTEX
  8
Default
 10
1047.1
 20
823.8
 42
0.0
  0
VERTEX
  8
Default
 10
1045.9
 20
823.2
 42
0.0
  0
VERTEX
  8
Default
 10
1042.0
 20
821.0
 42
0.0
  0
VERTEX
  8
Default
 10
1038.0
 20
817.0
 42
0.0
  0
VERTEX
  8
Default
 10
1036.2
 20
812.9
 42
0.0
  0
VERTEX
  8
Default
 10
1035.8
 20
812.1
 42
0.0
  0
VERTEX
  8
Default
 10
1035.0
 20
811.0
 42
0.0
  0
VERTEX
  8
Default
 10
1035.0
 20
796.0
 42
0.0
  0
VERTEX
  8
Default
 10
1039.0
 20
788.0
 42
0.0
  0
VERTEX
  8
Default
 10
1045.0
 20
782.0
 42
0.0
  0
VERTEX
  8
Default
 10
1048.2
 20
780.4
 42
0.0
  0
VERTEX
  8
Default
 10
1055.040984
 20
778.45082
 42
0.0
  0
SEQEND
  0
POLYLINE
  8
Default
 66
     1
 10
0.0
 20
0.0
 30
0.0
 70
     1
  0
VERTEX
  8
Default
 10
909.0
 20
774.0
 42
0.0
  0
VERTEX
  8
Default
 10
918.0
 20
777.0
 42
0.0
  0
VERTEX
  8
Default
 10
924.0
 20
783.0
 42
0.0
  0
VERTEX
  8
Default
 10
926.352941
 20
791.911765
 42
0.0
  0
VERTEX
  8
Default
 10
927.0
 20
793.0
 42
0.0
  0
VERTEX
  8
Default
 10
927.0
 20
807.0
 42
0.0
  0
VERTEX
  8
Default
 10
926.352941
 20
808.088235
 42
0.0
  0
VERTEX
  8
Default
 10
924.0
 20
814.0
 42
0.0
  0
VERTEX
  8
Default
 10
920.0
 20
818.0
 42
0.0
  0
VERTEX
  8
Default
 10
913.9
 20
820.8
 42
0.0
  0
VERTEX
  8
Default
 10
913.1
 20
821.2
 42
0.0
  0
VERTEX
  8
Default
 10
906.0
 20
823.0
 42
0.0
  0
VERTEX
  8
Default
 10
901.0
 20
823.0
 42
0.0
  0
VERTEX
  8
Default
 10
894.1
 20
820.8
 42
0.0
  0
VERTEX
  8
Default
 10
892.9
 20
820.3
 42
0.0
  0
VERTEX
  8
Default
 10
888.0
 20
818.0
 42
0.0
  0
VERTEX
  8
Default
 10
883.0
 20
813.0
 42
0.0
  0
VERTEX
  8
Default
 10
881.230769
 20
809.846154
 42
0.0
  0
VERTEX
  8
Default
 10
880.8
 20
809.1
 42
0.0
  0
VERTEX
  8
Default
 10
879.0
 20
805.0
 42
0.0
  0
VERTEX
  8
Default
 10
879.0
 20
791.0
 42
0.0
  0
VERTEX
  8
Default
 10
881.461538
 20
786.307692
 42
0.0
  0
VERTEX
  8
Default
 10
884.756098
 20
781.804878
 42
0.0
  0
VERTEX
  8
Default
 10
885.0
 20
781.0
 42
0.0
  0
VERTEX
  8
Default
 10
888.0
 20
778.0
 42
0.0
  0
VERTEX
  8
Default
 10
896.088235
 20
775.352941
 42
0.0
  0
VERTEX
  8
Default
 10
898.911765
 20
774.647059
 42
0.0
  0
SEQEND
  0
POLYLINE
  8
Default
 66
     1
 10
0.0
 20
0.0
 30
0.0
 70
     1
  0
VERTEX
  8
Default
 10
976.0
 20
760.0
 42
0.0
  0
VERTEX
  8
Default
 10
983.1
 20
761.7
 42
0.0
  0
VERTEX
  8
Default
 10
989.0
 20
764.0
 42
0.0
  0
VERTEX
  8
Default
 10
996.0
 20
771.0
 42
0.0
  0
VERTEX
  8
Default
 10
996.8
 20
773.1
 42
0.0
  0
VERTEX
  8
Default
 10
997.2
 20
773.9
 42
0.0
  0
VERTEX
  8
Default
 10
1000.0
 20
783.0
 42
0.0
  0
VERTEX
  8
Default
 10
1000.0
 20
787.0
 42
0.0
  0
VERTEX
  8
Default
 10
998.594595
 20
792.932432
 42
0.0
  0
VERTEX
  8
Default
 10
998.2
 20
794.1
 42
0.0
  0
VERTEX
  8
Default
 10
996.0
 20
799.0
 42
0.0
  0
VERTEX
  8
Default
 10
989.0
 20
806.0
 42
0.0
  0
VERTEX
  8
Default
 10
986.9
 20
806.8
 42
0.0
  0
VERTEX
  8
Default
 10
986.1
 20
807.2
 42
0.0
  0
VERTEX
  8
Default
 10
982.0
 20
809.0
 42
0.0
  0
VERTEX
  8
Default
 10
968.0
 20
809.0
 42
0.0
  0
VERTEX
  8
Default
 10
960.0
 20
805.0
 42
0.0
  0
VERTEX
  8
Default
 10
955.0
 20
800.0
 42
0.0
  0
VERTEX
  8
Default
 10
954.8
 20
799.1
 42
0.0
  0
VERTEX
  8
Default
 10
952.0
 20
794.0
 42
0.0
  0
VERTEX
  8
Default
 10
952.0
 20
778.0
 42
0.0
  0
VERTEX
  8
Default
 10
953.3
 20
775.1
 42
0.0
  0
VERTEX
  8
Default
 10
953.8
 20
773.9
 42
0.0
  0
VERTEX
  8
Default
 10
955.0
 20
771.0
 42
0.0
  0
VERTEX
  8
Default
 10
962.0
 20
764.0
 42
0.0
  0
VERTEX
  8
Default
 10
966.1
 20
762.3
 42
0.0
  0
SEQEND
  0
POLYLINE
  8
Default
 66
     1
 10
0.0
 20
0.0
 30
0.0
 70
     1
  0
VERTEX
  8
Default
 10
781.0
 20
753.0
 42
0.0
  0
VERTEX
  8
Default
 10
784.911765
 20
754.352941
 42
0.0
  0
VERTEX
  8
Default
 10
791.846154
 20
757.230769
 42
0.0
  0
VERTEX
  8
Default
 10
795.0
 20
759.0
 42
0.0
  0
VERTEX
  8
Default
 10
802.0
 20
766.0
 42
0.0
  0
VERTEX
  8
Default
 10
804.2
 20
769.9
 42
0.0
  0
VERTEX
  8
Default
 10
806.647059
 20
776.088235
 42
0.0
  0
VERTEX
  8
Default
 10
808.352941
 20
782.911765
 42
0.0
  0
VERTEX
  8
Default
 10
809.0
 20
784.0
 42
0.0
  0
VERTEX
  8
Default
 10
809.0
 20
790.0
 42
0.0
  0
VERTEX
  8
Default
 10
807.615385
 20
794.923077
 42
0.0
  0
VERTEX
  8
Default
 10
807.3
 20
796.1
 42
0.0
  0
VERTEX
  8
Default
 10
805.6
 20
800.8
 42
0.0
  0
VERTEX
  8
Default
 10
803.0
 20
806.0
 42
0.0
  0
VERTEX
  8
Default
 10
796.0
 20
813.0
 42
0.0
  0
VERTEX
  8
Default
 10
792.846154
 20
814.769231
 42
0.0
  0
VERTEX
  8
Default
 10
784.911765
 20
818.647059
 42
0.0
  0
VERTEX
  8
Default
 10
782.088235
 20
819.352941
 42
0.0
  0
VERTEX
  8
Default
 10
781.0
 20
820.0
 42
0.0
  0
VERTEX
  8
Default
 10
768.0
 20
820.0
 42
0.0
  0
VERTEX
  8
Default
 10
758.1
 20
815.8
 42
0.0
  0
VERTEX
  8
Default
 10
756.9
 20
815.2
 42
0.0
  0
VERTEX
  8
Default
 10
753.0
 20
813.0
 42
0.0
  0
VERTEX
  8
Default
 10
747.0
 20
807.0
 42
0.0
  0
VERTEX
  8
Default
 10
742.352941
 20
797.911765
 42
0.0
  0
VERTEX
  8
Default
 10
741.647059
 20
795.088235
 42
0.0
  0
VERTEX
  8
Default
 10
741.0
 20
794.0
 42
0.0
  0
VERTEX
  8
Default
 10
741.0
 20
780.0
 42
0.0
  0
VERTEX
  8
Default
 10
742.352941
 20
776.088235
 42
0.0
  0
VERTEX
  8
Default
 10
742.7
 20
774.9
 42
0.0
  0
VERTEX
  8
Default
 10
744.230769
 20
771.153846
 42
0.0
  0
VERTEX
  8
Default
 10
746.8
 20
766.9
 42
0.0
  0
VERTEX
  8
Default
 10
747.0
 20
766.0
 42
0.0
  0
VERTEX
  8
Default
 10
755.0
 20
758.0
 42
0.0
  0
VERTEX
  8
Default
 10
757.9
 20
756.8
 42
0.0
  0
VERTEX
  8
Default
 10
763.088235
 20
754.352941
 42
0.0
  0
VERTEX
  8
Default
 10
765.911765
 20
753.647059
 42
0.0
  0
SEQEND
  0
POLYLINE
  8
Default
 66
     1
 10
0.0
 20
0.0
 30
0.0
 70
     1
  0
VERTEX
  8
Default
 10
1185.0
 20
753.0
 42
0.0
  0
VERTEX
  8
Default
 10
1188.911765
 20
754.352941
 42
0.0
  0
VERTEX
  8
Default
 10
1198.0
 20
758.0
 42
0.0
  0
VERTEX
  8
Default
 10
1208.0
 20
768.0
 42
0.0
  0
VERTEX
  8
Default
 10
1209.2
 20
771.9
 42
0.0
  0
VERTEX
  8
Default
 10
1210.2
 20
773.9
 42
0.0
  0
VERTEX
  8
Default
 10
1213.0
 20
785.0
 42
0.0
  0
VERTEX
  8
Default
 10
1211.58
 20
794.94
 42
0.0
  0
VERTEX
  8
Default
 10
1209.7
 20
800.9
 42
0.0
  0
VERTEX
  8
Default
 10
1209.2
 20
802.1
 42
0.0
  0
VERTEX
  8
Default
 10
1206.0
 20
808.0
 42
0.0
  0
VERTEX
  8
Default
 10
1201.0
 20
813.0
 42
0.0
  0
VERTEX
  8
Default
 10
1191.9
 20
817.7
 42
0.0
  0
VERTEX
  8
Default
 10
1190.1
 20
818.3
 42
0.0
  0
VERTEX
  8
Default
 10
1180.0
 20
821.0
 42
0.0
  0
VERTEX
  8
Default
 10
1176.0
 20
821.0
 42
0.0
  0
VERTEX
  8
Default
 10
1171.076923
 20
819.615385
 42
0.0
  0
VERTEX
  8
Default
 10
1168.1
 20
818.7
 42
0.0
  0
VERTEX
  8
Default
 10
1159.9
 20
815.2
 42
0.0
  0
VERTEX
  8
Default
 10
1155.82
 20
812.24
 42
0.0
  0
VERTEX
  8
Default
 10
1155.0
 20
812.0
 42
0.0
  0
VERTEX
  8
Default
 10
1151.0
 20
808.0
 42
0.0
  0
VERTEX
  8
Default
 10
1149.230769
 20
804.846154
 42
0.0
  0
VERTEX
  8
Default
 10
1148.769231
 20
804.153846
 42
0.0
  0
VERTEX
  8
Default
 10
1146.3
 20
799.9
 42
0.0
  0
VERTEX
  8
Default
 10
1144.0
 20
794.0
 42
0.0
  0
VERTEX
  8
Default
 10
1144.0
 20
780.0
 42
0.0
  0
VERTEX
  8
Default
 10
1145.3
 20
777.1
 42
0.0
  0
VERTEX
  8
Default
 10
1148.8
 20
768.9
 42
0.0
  0
VERTEX
  8
Default
 10
1151.76
 20
764.82
 42
0.0
  0
VERTEX
  8
Default
 10
1152.0
 20
764.0
 42
0.0
  0
VERTEX
  8
Default
 10
1157.0
 20
759.0
 42
0.0
  0
VERTEX
  8
Default
 10
1159.1
 20
758.2
 42
0.0
  0
VERTEX
  8
Default
 10
1159.846154
 20
757.769231
 42
0.0
  0
VERTEX
  8
Default
 10
1165.1
 20
755.3
 42
0.0
  0
VERTEX
  8
Default
 10
1166.9
 20
754.7
 42
0.0
  0
VERTEX
  8
Default
 10
1172.032995
 20
753.461929
 42
0.0
  0
SEQEND
  0
POLYLINE
  8
Default
 66
     1
 10
0.0
 20
0.0
 30
0.0
 70
     1
  0
VERTEX
  8
Default
 10
1100.0
 20
694.0
 42
0.0
  0
VERTEX
  8
Default
 10
1113.0
 20
699.0
 42
0.0
  0
VERTEX
  8
Default
 10
1122.0
 20
708.0
 42
0.0
  0
VERTEX
  8
Default
 10
1122.8
 20
710.1
 42
0.0
  0
VERTEX
  8
Default
 10
1127.0
 20
723.0
 42
0.0
  0
VERTEX
  8
Default
 10
1127.0
 20
733.0
 42
0.0
  0
VERTEX
  8
Default
 10
1125.615385
 20
737.923077
 42
0.0
  0
VERTEX
  8
Default
 10
1124.7
 20
740.9
 42
0.0
  0
VERTEX
  8
Default
 10
1121.0
 20
748.0
 42
0.0
  0
VERTEX
  8
Default
 10
1116.0
 20
753.0
 42
0.0
  0
VERTEX
  8
Default
 10
1109.9
 20
756.8
 42
0.0
  0
VERTEX
  8
Default
 10
1099.0
 20
761.0
 42
0.0
  0
VERTEX
  8
Default
 10
1084.0
 20
761.0
 42
0.0
  0
VERTEX
  8
Default
 10
1081.1
 20
759.7
 42
0.0
  0
VERTEX
  8
Default
 10
1074.18
 20
756.76
 42
0.0
  0
VERTEX
  8
Default
 10
1070.0
 20
754.0
 42
0.0
  0
VERTEX
  8
Default
 10
1066.0
 20
750.0
 42
0.0
  0
VERTEX
  8
Default
 10
1064.230769
 20
746.846154
 42
0.0
  0
VERTEX
  8
Default
 10
1060.352941
 20
738.911765
 42
0.0
  0
VERTEX
  8
Default
 10
1059.647059
 20
736.088235
 42
0.0
  0
VERTEX
  8
Default
 10
1059.0
 20
735.0
 42
0.0
  0
VERTEX
  8
Default
 10
1059.0
 20
722.0
 42
0.0
  0
VERTEX
  8
Default
 10
1060.384615
 20
717.076923
 42
0.0
  0
VERTEX
  8
Default
 10
1062.8
 20
710.9
 42
0.0
  0
VERTEX
  8
Default
 10
1066.0
 20
706.0
 42
0.0
  0
VERTEX
  8
Default
 10
1072.0
 20
700.0
 42
0.0
  0
VERTEX
  8
Default
 10
1075.9
 20
697.8
 42
0.0
  0
VERTEX
  8
Default
 10
1082.088235
 20
695.352941
 42
0.0
  0
VERTEX
  8
Default
 10
1084.911765
 20
694.647059
 42
0.0
  0
SEQEND
  0
POLYLINE
  8
Default
 66
     1
 10
0.0
 20
0.0
 30
0.0
 70
     1
  0
VERTEX
  8
Default
 10
879.0
 20
688.0
 42
0.0
  0
VERTEX
  8
Default
 10
891.1
 20
691.8
 42
0.0
  0
VERTEX
  8
Default
 10
896.0
 20
694.0
 42
0.0
  0
VERTEX
  8
Default
 10
903.0
 20
701.0
 42
0.0
  0
VERTEX
  8
Default
 10
906.7
 20
708.1
 42
0.0
  0
VERTEX
  8
Default
 10
907.3
 20
709.9
 42
0.0
  0
VERTEX
  8
Default
 10
909.0
 20
715.0
 42
0.0
  0
VERTEX
  8
Default
 10
909.0
 20
729.0
 42
0.0
  0
VERTEX
  8
Default
 10
908.3
 20
730.1
 42
0.0
  0
VERTEX
  8
Default
 10
905.769231
 20
736.846154
 42
0.0
  0
VERTEX
  8
Default
 10
903.2
 20
741.1
 42
0.0
  0
VERTEX
  8
Default
 10
903.0
 20
742.0
 42
0.0
  0
VERTEX
  8
Default
 10
897.0
 20
748.0
 42
0.0
  0
VERTEX
  8
Default
 10
887.911765
 20
752.647059
 42
0.0
  0
VERTEX
  8
Default
 10
885.088235
 20
753.352941
 42
0.0
  0
VERTEX
  8
Default
 10
884.0
 20
754.0
 42
0.0
  0
VERTEX
  8
Default
 10
866.0
 20
754.0
 42
0.0
  0
VERTEX
  8
Default
 10
856.153846
 20
748.769231
 42
0.0
  0
VERTEX
  8
Default
 10
853.846154
 20
747.230769
 42
0.0
  0
VERTEX
  8
Default
 10
853.0
 20
747.0
 42
0.0
  0
VERTEX
  8
Default
 10
848.0
 20
742.0
 42
0.0
  0
VERTEX
  8
Default
 10
846.230769
 20
738.846154
 42
0.0
  0
VERTEX
  8
Default
 10
845.769231
 20
738.153846
 42
0.0
  0
VERTEX
  8
Default
 10
843.3
 20
733.9
 42
0.0
  0
VERTEX
  8
Default
 10
841.0
 20
727.0
 42
0.0
  0
VERTEX
  8
Default
 10
841.0
 20
715.0
 42
0.0
  0
VERTEX
  8
Default
 10
842.405405
 20
709.067568
 42
0.0
  0
VERTEX
  8
Default
 10
845.230769
 20
703.153846
 42
0.0
  0
VERTEX
  8
Default
 10
847.0
 20
700.0
 42
0.0
  0
VERTEX
  8
Default
 10
854.0
 20
693.0
 42
0.0
  0
VERTEX
  8
Default
 10
858.1
 20
691.2
 42
0.0
  0
VERTEX
  8
Default
 10
864.088235
 20
689.352941
 42
0.0
  0
VERTEX
  8
Default
 10
866.911765
 20
688.647059
 42
0.0
  0
SEQEND
  0
POLYLINE
  8
Default
 66
     1
 10
0.0
 20
0.0
 30
0.0
 70
     1
  0
VERTEX
  8
Default
 10
1661.0
 20
679.0
 42
0.0
  0
VERTEX
  8
Default
 10
1685.95122
 20
681.439024
 42
0.0
  0
VERTEX
  8
Default
 10
1704.923077
 20
684.384615
 42
0.0
  0
VERTEX
  8
Default
 10
1712.911765
 20
686.352941
 42
0.0
  0
VERTEX
  8
Default
 10
1764.9
 20
706.3
 42
0.0
  0
VERTEX
  8
Default
 10
1766.1
 20
706.8
 42
0.0
  0
VERTEX
  8
Default
 10
1780.0
 20
712.0
 42
0.0
  0
VERTEX
  8
Default
 10
1782.0
 20
714.0
 42
0.0
  0
VERTEX
  8
Default
 10
1782.0
 20
716.0
 42
0.0
  0
VERTEX
  8
Default
 10
1779.8
 20
720.9
 42
0.0
  0
VERTEX
  8
Default
 10
1776.2
 20
728.1
 42
0.0
  0
VERTEX
  8
Default
 10
1762.230769
 20
749.153846
 42
0.0
  0
VERTEX
  8
Default
 10
1757.230769
 20
757.153846
 42
0.0
  0
VERTEX
  8
Default
 10
1743.76
 20
776.82
 42
0.0
  0
VERTEX
  8
Default
 10
1731.247059
 20
792.211765
 42
0.0
  0
VERTEX
  8
Default
 10
1731.0
 20
793.0
 42
0.0
  0
VERTEX
  8
Default
 10
1717.0
 20
807.0
 42
0.0
  0
VERTEX
  8
Default
 10
1701.795082
 20
819.754098
 42
0.0
  0
VERTEX
  8
Default
 10
1689.846154
 20
828.769231
 42
0.0
  0
VERTEX
  8
Default
 10
1671.82
 20
841.76
 42
0.0
  0
VERTEX
  8
Default
 10
1666.216814
 20
846.247788
 42
0.0
  0
VERTEX
  8
Default
 10
1659.0
 20
853.0
 42
0.0
  0
VERTEX
  8
Default
 10
1650.0
 20
853.0
 42
0.0
  0
VERTEX
  8
Default
 10
1649.0
 20
852.0
 42
0.0
  0
VERTEX
  8
Default
 10
1621.0
 20
852.0
 42
0.0
  0
VERTEX
  8
Default
 10
1552.053846
 20
859.430769
 42
0.0
  0
VERTEX
  8
Default
 10
1538.06
 20
861.42
 42
0.0
  0
VERTEX
  8
Default
 10
1506.923077
 20
866.615385
 42
0.0
  0
VERTEX
  8
Default
 10
1501.923077
 20
867.615385
 42
0.0
  0
VERTEX
  8
Default
 10
1459.911765
 20
877.647059
 42
0.0
  0
VERTEX
  8
Default
 10
1457.088235
 20
878.352941
 42
0.0
  0
VERTEX
  8
Default
 10
1411.9
 20
891.7
 42
0.0
  0
VERTEX
  8
Default
 10
1407.1
 20
893.3
 42
0.0
  0
VERTEX
  8
Default
 10
1389.9
 20
899.8
 42
0.0
  0
VERTEX
  8
Default
 10
1386.1
 20
901.3
 42
0.0
  0
VERTEX
  8
Default
 10
1367.1
 20
910.2
 42
0.0
  0
VERTEX
  8
Default
 10
1365.1
 20
911.2
 42
0.0
  0
VERTEX
  8
Default
 10
1345.846154
 20
922.769231
 42
0.0
  0
VERTEX
  8
Default
 10
1342.0
 20
926.0
 42
0.0
  0
VERTEX
  8
Default
 10
1339.0
 20
926.0
 42
0.0
  0
VERTEX
  8
Default
 10
1337.0
 20
924.0
 42
0.0
  0
VERTEX
  8
Default
 10
1334.2
 20
918.9
 42
0.0
  0
VERTEX
  8
Default
 10
1333.8
 20
918.1
 42
0.0
  0
VERTEX
  8
Default
 10
1331.352941
 20
911.911765
 42
0.0
  0
VERTEX
  8
Default
 10
1327.647059
 20
892.088235
 42
0.0
  0
VERTEX
  8
Default
 10
1320.7
 20
871.1
 42
0.0
  0
VERTEX
  8
Default
 10
1311.7
 20
846.1
 42
0.0
  0
VERTEX
  8
Default
 10
1302.0
 20
820.0
 42
0.0
  0
VERTEX
  8
Default
 10
1302.0
 20
817.0
 42
0.0
  0
VERTEX
  8
Default
 10
1304.0
 20
815.0
 42
0.0
  0
VERTEX
  8
Default
 10
1313.053846
 20
814.430769
 42
0.0
  0
VERTEX
  8
Default
 10
1319.946154
 20
813.569231
 42
0.0
  0
VERTEX
  8
Default
 10
1345.076923
 20
809.384615
 42
0.0
  0
VERTEX
  8
Default
 10
1357.923077
 20
806.615385
 42
0.0
  0
VERTEX
  8
Default
 10
1382.9
 20
799.7
 42
0.0
  0
VERTEX
  8
Default
 10
1409.9
 20
790.7
 42
0.0
  0
VERTEX
  8
Default
 10
1458.9
 20
769.7
 42
0.0
  0
VERTEX
  8
Default
 10
1512.1
 20
743.2
 42
0.0
  0
VERTEX
  8
Default
 10
1526.846154
 20
734.769231
 42
0.0
  0
VERTEX
  8
Default
 10
1542.153846
 20
725.230769
 42
0.0
  0
VERTEX
  8
Default
 10
1583.804878
 20
698.756098
 42
0.0
  0
VERTEX
  8
Default
 10
1601.9
 20
682.8
 42
0.0
  0
VERTEX
  8
Default
 10
1608.911765
 20
680.647059
 42
0.0
  0
VERTEX
  8
Default
 10
1615.010407
 20
679.48914
 42
0.0
  0
SEQEND
  0
POLYLINE
  8
Default
 66
     1
 10
0.0
 20
0.0
 30
0.0
 70
     1
  0
VERTEX
  8
Default
 10
978.0
 20
669.0
 42
0.0
  0
VERTEX
  8
Default
 10
983.932432
 20
670.405405
 42
0.0
  0
VERTEX
  8
Default
 10
992.1
 20
672.8
 42
0.0
  0
VERTEX
  8
Default
 10
994.1
 20
673.8
 42
0.0
  0
VERTEX
  8
Default
 10
997.0
 20
675.0
 42
0.0
  0
VERTEX
  8
Default
 10
1005.0
 20
683.0
 42
0.0
  0
VERTEX
  8
Default
 10
1010.0
 20
696.0
 42
0.0
  0
VERTEX
  8
Default
 10
1010.0
 20
708.0
 42
0.0
  0
VERTEX
  8
Default
 10
1008.647059
 20
711.911765
 42
0.0
  0
VERTEX
  8
Default
 10
1008.3
 20
713.1
 42
0.0
  0
VERTEX
  8
Default
 10
1004.769231
 20
720.846154
 42
0.0
  0
VERTEX
  8
Default
 10
1003.0
 20
724.0
 42
0.0
  0
VERTEX
  8
Default
 10
998.0
 20
729.0
 42
0.0
  0
VERTEX
  8
Default
 10
993.82
 20
731.76
 42
0.0
  0
VERTEX
  8
Default
 10
987.9
 20
734.7
 42
0.0
  0
VERTEX
  8
Default
 10
985.0
 20
736.0
 42
0.0
  0
VERTEX
  8
Default
 10
968.0
 20
736.0
 42
0.0
  0
VERTEX
  8
Default
 10
957.846154
 20
730.230769
 42
0.0
  0
VERTEX
  8
Default
 10
953.0
 20
727.0
 42
0.0
  0
VERTEX
  8
Default
 10
949.0
 20
723.0
 42
0.0
  0
VERTEX
  8
Default
 10
946.24
 20
718.82
 42
0.0
  0
VERTEX
  8
Default
 10
944.3
 20
714.9
 42
0.0
  0
VERTEX
  8
Default
 10
942.647059
 20
709.088235
 42
0.0
  0
VERTEX
  8
Default
 10
942.0
 20
708.0
 42
0.0
  0
VERTEX
  8
Default
 10
942.0
 20
697.0
 42
0.0
  0
VERTEX
  8
Default
 10
943.384615
 20
692.076923
 42
0.0
  0
VERTEX
  8
Default
 10
946.2
 20
686.1
 42
0.0
  0
VERTEX
  8
Default
 10
946.8
 20
684.9
 42
0.0
  0
VERTEX
  8
Default
 10
947.0
 20
684.0
 42
0.0
  0
VERTEX
  8
Default
 10
956.0
 20
675.0
 42
0.0
  0
VERTEX
  8
Default
 10
960.1
 20
673.2
 42
0.0
  0
VERTEX
  8
Default
 10
963.9
 20
671.7
 42
0.0
  0
VERTEX
  8
Default
 10
968.053846
 20
670.430769
 42
0.0
  0
SEQEND
  0
POLYLINE
  8
Default
 66
     1
 10
0.0
 20
0.0
 30
0.0
 70
     1
  0
VERTEX
  8
Default
 10
1736.0
 20
434.0
 42
0.0
  0
VERTEX
  8
Default
 10
1738.0
 20
436.0
 42
0.0
  0
VERTEX
  8
Default
 10
1738.0
 20
440.0
 42
0.0
  0
VERTEX
  8
Default
 10
1736.7
 20
442.9
 42
0.0
  0
VERTEX
  8
Default
 10
1733.769231
 20
449.846154
 42
0.0
  0
VERTEX
  8
Default
 10
1730.769231
 20
454.846154
 42
0.0
  0
VERTEX
  8
Default
 10
1702.230769
 20
501.153846
 42
0.0
  0
VERTEX
  8
Default
 10
1684.24
 20
526.18
 42
0.0
  0
VERTEX
  8
Default
 10
1674.2
 20
541.1
 42
0.0
  0
VERTEX
  8
Default
 10
1673.769231
 20
541.846154
 42
0.0
  0
VERTEX
  8
Default
 10
1651.24
 20
576.18
 42
0.0
  0
VERTEX
  8
Default
 10
1648.24
 20
580.18
 42
0.0
  0
VERTEX
  8
Default
 10
1630.752212
 20
601.783186
 42
0.0
  0
VERTEX
  8
Default
 10
1624.247788
 20
609.216814
 42
0.0
  0
VERTEX
  8
Default
 10
1607.0
 20
629.0
 42
0.0
  0
VERTEX
  8
Default
 10
1584.0
 20
652.0
 42
0.0
  0
VERTEX
  8
Default
 10
1554.846154
 20
673.769231
 42
0.0
  0
VERTEX
  8
Default
 10
1545.846154
 20
679.769231
 42
0.0
  0
VERTEX
  8
Default
 10
1518.1
 20
697.2
 42
0.0
  0
VERTEX
  8
Default
 10
1504.846154
 20
704.769231
 42
0.0
  0
VERTEX
  8
Default
 10
1468.9
 20
723.8
 42
0.0
  0
VERTEX
  8
Default
 10
1457.1
 20
729.2
 42
0.0
  0
VERTEX
  8
Default
 10
1431.9
 20
740.7
 42
0.0
  0
VERTEX
  8
Default
 10
1408.9
 20
749.7
 42
0.0
  0
VERTEX
  8
Default
 10
1378.088235
 20
760.352941
 42
0.0
  0
VERTEX
  8
Default
 10
1349.1
 20
769.3
 42
0.0
  0
VERTEX
  8
Default
 10
1326.923077
 20
774.615385
 42
0.0
  0
VERTEX
  8
Default
 10
1313.076923
 20
777.384615
 42
0.0
  0
VERTEX
  8
Default
 10
1304.0
 20
779.0
 42
0.0
  0
VERTEX
  8
Default
 10
1288.0
 20
779.0
 42
0.0
  0
VERTEX
  8
Default
 10
1281.1
 20
776.7
 42
0.0
  0
VERTEX
  8
Default
 10
1276.153846
 20
773.769231
 42
0.0
  0
VERTEX
  8
Default
 10
1273.846154
 20
772.230769
 42
0.0
  0
VERTEX
  8
Default
 10
1273.0
 20
772.0
 42
0.0
  0
VERTEX
  8
Default
 10
1271.0
 20
770.0
 42
0.0
  0
VERTEX
  8
Default
 10
1266.352941
 20
761.911765
 42
0.0
  0
VERTEX
  8
Default
 10
1265.647059
 20
759.088235
 42
0.0
  0
VERTEX
  8
Default
 10
1265.0
 20
758.0
 42
0.0
  0
VERTEX
  8
Default
 10
1265.0
 20
749.0
 42
0.0
  0
VERTEX
  8
Default
 10
1266.384615
 20
744.076923
 42
0.0
  0
VERTEX
  8
Default
 10
1269.3
 20
735.1
 42
0.0
  0
VERTEX
  8
Default
 10
1278.2
 20
712.1
 42
0.0
  0
VERTEX
  8
Default
 10
1280.8
 20
706.9
 42
0.0
  0
VERTEX
  8
Default
 10
1293.769231
 20
684.846154
 42
0.0
  0
VERTEX
  8
Default
 10
1301.769231
 20
672.846154
 42
0.0
  0
VERTEX
  8
Default
 10
1319.756098
 20
648.804878
 42
0.0
  0
VERTEX
  8
Default
 10
1337.752941
 20
626.788235
 42
0.0
  0
VERTEX
  8
Default
 10
1416.0
 20
547.0
 42
0.0
  0
VERTEX
  8
Default
 10
1426.82
 20
538.76
 42
0.0
  0
VERTEX
  8
Default
 10
1455.846154
 20
518.769231
 42
0.0
  0
VERTEX
  8
Default
 10
1463.153846
 20
514.230769
 42
0.0
  0
VERTEX
  8
Default
 10
1482.1
 20
503.2
 42
0.0
  0
VERTEX
  8
Default
 10
1501.1
 20
494.2
 42
0.0
  0
VERTEX
  8
Default
 10
1530.1
 20
482.3
 42
0.0
  0
VERTEX
  8
Default
 10
1555.9
 20
473.7
 42
0.0
  0
VERTEX
  8
Default
 10
1589.088235
 20
464.352941
 42
0.0
  0
VERTEX
  8
Default
 10
1624.911765
 20
455.647059
 42
0.0
  0
VERTEX
  8
Default
 10
1690.923077
 20
442.615385
 42
0.0
  0
VERTEX
  8
Default
 10
1692.067568
 20
442.405405
 42
0.0
  0
VERTEX
  8
Default
 10
1734.923077
 20
434.615385
 42
0.0
  0
SEQEND
  0
POLYLINE
  8
Default
 66
     1
 10
0.0
 20
0.0
 30
0.0
 70
     1
  0
VERTEX
  8
Default
 10
1482.0
 20
257.0
 42
0.0
  0
VERTEX
  8
Default
 10
1484.0
 20
259.0
 42
0.0
  0
VERTEX
  8
Default
 10
1481.458824
 20
322.035294
 42
0.0
  0
VERTEX
  8
Default
 10
1480.541176
 20
333.964706
 42
0.0
  0
VERTEX
  8
Default
 10
1477.42
 20
361.06
 42
0.0
  0
VERTEX
  8
Default
 10
1472.594595
 20
388.932432
 42
0.0
  0
VERTEX
  8
Default
 10
1466.647059
 20
414.911765
 42
0.0
  0
VERTEX
  8
Default
 10
1463.647059
 20
426.911765
 42
0.0
  0
VERTEX
  8
Default
 10
1457.7
 20
446.9
 42
0.0
  0
VERTEX
  8
Default
 10
1454.7
 20
455.9
 42
0.0
  0
VERTEX
  8
Default
 10
1446.769231
 20
473.846154
 42
0.0
  0
VERTEX
  8
Default
 10
1444.2
 20
478.1
 42
0.0
  0
VERTEX
  8
Default
 10
1444.0
 20
479.0
 42
0.0
  0
VERTEX
  8
Default
 10
1436.0
 20
487.0
 42
0.0
  0
VERTEX
  8
Default
 10
1431.82
 20
489.76
 42
0.0
  0
VERTEX
  8
Default
 10
1402.204918
 20
512.245902
 42
0.0
  0
VERTEX
  8
Default
 10
1396.795082
 20
516.754098
 42
0.0
  0
VERTEX
  8
Default
 10
1379.232779
 20
532.249406
 42
0.0
  0
VERTEX
  8
Default
 10
1364.767221
 20
545.750594
 42
0.0
  0
VERTEX
  8
Default
 10
1364.0
 20
546.0
 42
0.0
  0
VERTEX
  8
Default
 10
1340.0
 20
570.0
 42
0.0
  0
VERTEX
  8
Default
 10
1302.247059
 20
613.211765
 42
0.0
  0
VERTEX
  8
Default
 10
1286.24
 20
633.18
 42
0.0
  0
VERTEX
  8
Default
 10
1271.24
 20
653.18
 42
0.0
  0
VERTEX
  8
Default
 10
1263.8
 20
664.9
 42
0.0
  0
VERTEX
  8
Default
 10
1254.8
 20
681.9
 42
0.0
  0
VERTEX
  8
Default
 10
1236.2
 20
716.1
 42
0.0
  0
VERTEX
  8
Default
 10
1236.0
 20
717.0
 42
0.0
  0
VERTEX
  8
Default
 10
1234.0
 20
719.0
 42
0.0
  0
VERTEX
  8
Default
 10
1231.0
 20
719.0
 42
0.0
  0
VERTEX
  8
Default
 10
1215.18
 20
707.76
 42
0.0
  0
VERTEX
  8
Default
 10
1205.795082
 20
700.245902
 42
0.0
  0
VERTEX
  8
Default
 10
1188.153846
 20
686.769231
 42
0.0
  0
VERTEX
  8
Default
 10
1175.153846
 20
677.769231
 42
0.0
  0
VERTEX
  8
Default
 10
1153.846154
 20
664.230769
 42
0.0
  0
VERTEX
  8
Default
 10
1144.9
 20
659.2
 42
0.0
  0
VERTEX
  8
Default
 10
1144.0
 20
659.0
 42
0.0
  0
VERTEX
  8
Default
 10
1142.0
 20
657.0
 42
0.0
  0
VERTEX
  8
Default
 10
1142.0
 20
655.0
 42
0.0
  0
VERTEX
  8
Default
 10
1143.243902
 20
653.195122
 42
0.0
  0
VERTEX
  8
Default
 10
1147.0
 20
648.0
 42
0.0
  0
VERTEX
  8
Default
 10
1153.0
 20
642.0
 42
0.0
  0
VERTEX
  8
Default
 10
1154.0
 20
642.0
 42
0.0
  0
VERTEX
  8
Default
 10
1168.0
 20
628.0
 42
0.0
  0
VERTEX
  8
Default
 10
1174.752212
 20
619.783186
 42
0.0
  0
VERTEX
  8
Default
 10
1180.752941
 20
612.788235
 42
0.0
  0
VERTEX
  8
Default
 10
1189.230769
 20
602.153846
 42
0.0
  0
VERTEX
  8
Default
 10
1202.76
 20
581.82
 42
0.0
  0
VERTEX
  8
Default
 10
1220.769231
 20
555.846154
 42
0.0
  0
VERTEX
  8
Default
 10
1223.769231
 20
550.846154
 42
0.0
  0
VERTEX
  8
Default
 10
1252.2
 20
501.1
 42
0.0
  0
VERTEX
  8
Default
 10
1254.2
 20
497.1
 42
0.0
  0
VERTEX
  8
Default
 10
1265.7
 20
472.9
 42
0.0
  0
VERTEX
  8
Default
 10
1266.3
 20
471.1
 42
0.0
  0
VERTEX
  8
Default
 10
1290.8
 20
414.9
 42
0.0
  0
VERTEX
  8
Default
 10
1291.2
 20
414.1
 42
0.0
  0
VERTEX
  8
Default
 10
1305.8
 20
366.9
 42
0.0
  0
VERTEX
  8
Default
 10
1306.0
 20
366.0
 42
0.0
  0
VERTEX
  8
Default
 10
1320.0
 20
352.0
 42
0.0
  0
VERTEX
  8
Default
 10
1333.18
 20
342.24
 42
0.0
  0
VERTEX
  8
Default
 10
1333.82
 20
341.76
 42
0.0
  0
VERTEX
  8
Default
 10
1389.153846
 20
303.230769
 42
0.0
  0
VERTEX
  8
Default
 10
1402.153846
 20
295.230769
 42
0.0
  0
VERTEX
  8
Default
 10
1426.1
 20
282.2
 42
0.0
  0
VERTEX
  8
Default
 10
1426.9
 20
281.8
 42
0.0
  0
VERTEX
  8
Default
 10
1479.088235
 20
257.352941
 42
0.0
  0
SEQEND
  0
POLYLINE
  8
Default
 66
     1
 10
0.0
 20
0.0
 30
0.0
 70
     1
  0
VERTEX
  8
Default
 10
1233.0
 20
176.0
 42
0.0
  0
VERTEX
  8
Default
 10
1234.769231
 20
178.153846
 42
0.0
  0
VERTEX
  8
Default
 10
1239.8
 20
189.1
 42
0.0
  0
VERTEX
  8
Default
 10
1252.3
 20
219.9
 42
0.0
  0
VERTEX
  8
Default
 10
1252.7
 20
221.1
 42
0.0
  0
VERTEX
  8
Default
 10
1257.352941
 20
236.911765
 42
0.0
  0
VERTEX
  8
Default
 10
1258.352941
 20
240.911765
 42
0.0
  0
VERTEX
  8
Default
 10
1262.405405
 20
260.932432
 42
0.0
  0
VERTEX
  8
Default
 10
1263.405405
 20
266.932432
 42
0.0
  0
VERTEX
  8
Default
 10
1271.0
 20
312.0
 42
0.0
  0
VERTEX
  8
Default
 10
1271.0
 20
328.0
 42
0.0
  0
VERTEX
  8
Default
 10
1270.464602
 20
329.030973
 42
0.0
  0
VERTEX
  8
Default
 10
1269.535398
 20
342.969027
 42
0.0
  0
VERTEX
  8
Default
 10
1266.405405
 20
366.067568
 42
0.0
  0
VERTEX
  8
Default
 10
1263.615385
 20
379.923077
 42
0.0
  0
VERTEX
  8
Default
 10
1257.7
 20
399.9
 42
0.0
  0
VERTEX
  8
Default
 10
1255.7
 20
405.9
 42
0.0
  0
VERTEX
  8
Default
 10
1242.8
 20
432.9
 42
0.0
  0
VERTEX
  8
Default
 10
1236.8
 20
444.9
 42
0.0
  0
VERTEX
  8
Default
 10
1229.3
 20
461.1
 42
0.0
  0
VERTEX
  8
Default
 10
1222.7
 20
476.9
 42
0.0
  0
VERTEX
  8
Default
 10
1207.8
 20
503.9
 42
0.0
  0
VERTEX
  8
Default
 10
1205.2
 20
509.1
 42
0.0
  0
VERTEX
  8
Default
 10
1185.230769
 20
544.153846
 42
0.0
  0
VERTEX
  8
Default
 10
1181.230769
 20
550.153846
 42
0.0
  0
VERTEX
  8
Default
 10
1159.243902
 20
578.195122
 42
0.0
  0
VERTEX
  8
Default
 10
1147.24
 20
594.18
 42
0.0
  0
VERTEX
  8
Default
 10
1141.0
 20
603.0
 42
0.0
  0
VERTEX
  8
Default
 10
1134.0
 20
610.0
 42
0.0
  0
VERTEX
  8
Default
 10
1133.204918
 20
610.245902
 42
0.0
  0
VERTEX
  8
Default
 10
1113.195122
 20
627.243902
 42
0.0
  0
VERTEX
  8
Default
 10
1108.804878
 20
630.756098
 42
0.0
  0
VERTEX
  8
Default
 10
1099.0
 20
637.0
 42
0.0
  0
VERTEX
  8
Default
 10
1090.0
 20
637.0
 42
0.0
  0
VERTEX
  8
Default
 10
1088.1
 20
635.8
 42
0.0
  0
VERTEX
  8
Default
 10
1086.9
 20
635.3
 42
0.0
  0
VERTEX
  8
Default
 10
1072.0
 20
629.0
 42
0.0
  0
VERTEX
  8
Default
 10
1068.0
 20
625.0
 42
0.0
  0
VERTEX
  8
Default
 10
1066.4
 20
621.8
 42
0.0
  0
VERTEX
  8
Default
 10
1065.7
 20
620.1
 42
0.0
  0
VERTEX
  8
Default
 10
1063.384615
 20
613.923077
 42
0.0
  0
VERTEX
  8
Default
 10
1058.594595
 20
586.067568
 42
0.0
  0
VERTEX
  8
Default
 10
1055.0
 20
563.0
 42
0.0
  0
VERTEX
  8
Default
 10
1055.0
 20
508.0
 42
0.0
  0
VERTEX
  8
Default
 10
1055.560976
 20
506.95122
 42
0.0
  0
VERTEX
  8
Default
 10
1058.519941
 20
477.981536
 42
0.0
  0
VERTEX
  8
Default
 10
1059.480059
 20
453.018464
 42
0.0
  0
VERTEX
  8
Default
 10
1060.405405
 20
447.067568
 42
0.0
  0
VERTEX
  8
Default
 10
1061.405405
 20
441.067568
 42
0.0
  0
VERTEX
  8
Default
 10
1071.352941
 20
385.088235
 42
0.0
  0
VERTEX
  8
Default
 10
1072.384615
 20
380.076923
 42
0.0
  0
VERTEX
  8
Default
 10
1081.7
 20
342.9
 42
0.0
  0
VERTEX
  8
Default
 10
1083.352941
 20
337.088235
 42
0.0
  0
VERTEX
  8
Default
 10
1089.2
 20
320.1
 42
0.0
  0
VERTEX
  8
Default
 10
1090.7
 20
315.9
 42
0.0
  0
VERTEX
  8
Default
 10
1097.8
 20
299.9
 42
0.0
  0
VERTEX
  8
Default
 10
1101.2
 20
294.1
 42
0.0
  0
VERTEX
  8
Default
 10
1107.230769
 20
284.153846
 42
0.0
  0
VERTEX
  8
Default
 10
1112.769231
 20
275.846154
 42
0.0
  0
VERTEX
  8
Default
 10
1126.756098
 20
257.804878
 42
0.0
  0
VERTEX
  8
Default
 10
1145.0
 20
238.0
 42
0.0
  0
VERTEX
  8
Default
 10
1171.804878
 20
214.756098
 42
0.0
  0
VERTEX
  8
Default
 10
1184.18
 20
205.24
 42
0.0
  0
VERTEX
  8
Default
 10
1210.9
 20
186.8
 42
0.0
  0
VERTEX
  8
Default
 10
1229.076923
 20
176.384615
 42
0.0
  0
SEQEND
  0
POLYLINE
  8
Default
 66
     1
 10
0.0
 20
0.0
 30
0.0
 70
     1
  0
VERTEX
  8
Default
 10
675.0
 20
124.0
 42
0.0
  0
VERTEX
  8
Default
 10
680.846154
 20
127.230769
 42
0.0
  0
VERTEX
  8
Default
 10
696.804878
 20
139.243902
 42
0.0
  0
VERTEX
  8
Default
 10
723.0
 20
162.0
 42
0.0
  0
VERTEX
  8
Default
 10
780.248276
 20
220.77931
 42
0.0
  0
VERTEX
  8
Default
 10
797.754098
 20
241.204918
 42
0.0
  0
VERTEX
  8
Default
 10
815.76
 20
264.18
 42
0.0
  0
VERTEX
  8
Default
 10
820.76
 20
271.18
 42
0.0
  0
VERTEX
  8
Default
 10
833.769231
 20
291.153846
 42
0.0
  0
VERTEX
  8
Default
 10
840.769231
 20
304.153846
 42
0.0
  0
VERTEX
  8
Default
 10
849.7
 20
325.1
 42
0.0
  0
VERTEX
  8
Default
 10
855.7
 20
343.1
 42
0.0
  0
VERTEX
  8
Default
 10
861.647059
 20
365.088235
 42
0.0
  0
VERTEX
  8
Default
 10
869.352941
 20
398.911765
 42
0.0
  0
VERTEX
  8
Default
 10
877.58
 20
445.06
 42
0.0
  0
VERTEX
  8
Default
 10
880.445545
 20
469.955446
 42
0.0
  0
VERTEX
  8
Default
 10
882.519941
 20
516.018464
 42
0.0
  0
VERTEX
  8
Default
 10
883.480059
 20
540.981536
 42
0.0
  0
VERTEX
  8
Default
 10
882.45082
 20
555.040984
 42
0.0
  0
VERTEX
  8
Default
 10
879.58
 20
596.94
 42
0.0
  0
VERTEX
  8
Default
 10
875.615385
 20
616.923077
 42
0.0
  0
VERTEX
  8
Default
 10
872.7
 20
625.9
 42
0.0
  0
VERTEX
  8
Default
 10
871.8
 20
627.9
 42
0.0
  0
VERTEX
  8
Default
 10
870.0
 20
631.0
 42
0.0
  0
VERTEX
  8
Default
 10
866.846154
 20
632.769231
 42
0.0
  0
VERTEX
  8
Default
 10
860.9
 20
635.7
 42
0.0
  0
VERTEX
  8
Default
 10
845.088235
 20
640.352941
 42
0.0
  0
VERTEX
  8
Default
 10
844.0
 20
641.0
 42
0.0
  0
VERTEX
  8
Default
 10
838.0
 20
641.0
 42
0.0
  0
VERTEX
  8
Default
 10
836.9
 20
640.3
 42
0.0
  0
VERTEX
  8
Default
 10
831.195122
 20
637.756098
 42
0.0
  0
VERTEX
  8
Default
 10
819.788235
 20
628.247059
 42
0.0
  0
VERTEX
  8
Default
 10
819.0
 20
628.0
 42
0.0
  0
VERTEX
  8
Default
 10
808.0
 20
617.0
 42
0.0
  0
VERTEX
  8
Default
 10
771.245902
 20
573.795082
 42
0.0
  0
VERTEX
  8
Default
 10
721.230769
 20
491.846154
 42
0.0
  0
VERTEX
  8
Default
 10
720.8
 20
491.1
 42
0.0
  0
VERTEX
  8
Default
 10
714.7
 20
478.1
 42
0.0
  0
VERTEX
  8
Default
 10
698.8
 20
444.1
 42
0.0
  0
VERTEX
  8
Default
 10
691.8
 20
430.1
 42
0.0
  0
VERTEX
  8
Default
 10
686.3
 20
414.9
 42
0.0
  0
VERTEX
  8
Default
 10
679.8
 20
397.1
 42
0.0
  0
VERTEX
  8
Default
 10
679.3
 20
395.9
 42
0.0
  0
VERTEX
  8
Default
 10
673.647059
 20
379.088235
 42
0.0
  0
VERTEX
  8
Default
 10
664.0
 20
317.0
 42
0.0
  0
VERTEX
  8
Default
 10
664.0
 20
228.0
 42
0.0
  0
VERTEX
  8
Default
 10
664.544828
 20
226.962069
 42
0.0
  0
VERTEX
  8
Default
 10
665.455172
 20
216.037931
 42
0.0
  0
VERTEX
  8
Default
 10
666.487515
 20
175.011891
 42
0.0
  0
VERTEX
  8
Default
 10
667.445545
 20
165.044554
 42
0.0
  0
VERTEX
  8
Default
 10
671.42
 20
135.06
 42
0.0
  0
VERTEX
  8
Default
 10
672.405405
 20
129.067568
 42
0.0
  0
VERTEX
  8
Default
 10
673.4
 20
126.2
 42
0.0
  0
SEQEND
  0
POLYLINE
  8
Default
 66
     1
 10
0.0
 20
0.0
 30
0.0
 70
     0
  0
VERTEX
  8
Default
 10
163.0
 20
415.0
 42
0.0
  0
VERTEX
  8
Default
 10
164.0
 20
416.0
 42
0.0
  0
VERTEX
  8
Default
 10
165.0
 20
416.0
 42
0.0
  0
VERTEX
  8
Default
 10
166.0
 20
416.0
 42
0.0
  0
VERTEX
  8
Default
 10
167.0
 20
415.0
 42
0.0
  0
VERTEX
  8
Default
 10
190.0
 20
415.0
 42
0.0
  0
VERTEX
  8
Default
 10
252.95122
 20
420.439024
 42
0.0
  0
VERTEX
  8
Default
 10
261.95122
 20
421.439024
 42
0.0
  0
VERTEX
  8
Default
 10
296.932432
 20
426.405405
 42
0.0
  0
VERTEX
  8
Default
 10
334.923077
 20
433.384615
 42
0.0
  0
VERTEX
  8
Default
 10
358.911765
 20
439.352941
 42
0.0
  0
VERTEX
  8
Default
 10
427.067568
 20
457.594595
 42
0.0
  0
VERTEX
  8
Default
 10
432.0
 20
458.0
 42
0.0
  0
VERTEX
  8
Default
 10
433.0
 20
458.0
 42
0.0
  0
VERTEX
  8
Default
 10
433.0
 20
457.0
 42
0.0
  0
VERTEX
  8
Default
 10
429.384615
 20
438.923077
 42
0.0
  0
VERTEX
  8
Default
 10
426.42
 20
404.94
 42
0.0
  0
VERTEX
  8
Default
 10
422.0
 20
374.0
 42
0.0
  0
VERTEX
  8
Default
 10
422.0
 20
355.0
 42
0.0
  0
VERTEX
  8
Default
 10
422.544828
 20
353.962069
 42
0.0
  0
VERTEX
  8
Default
 10
426.455172
 20
308.037931
 42
0.0
  0
VERTEX
  8
Default
 10
426.54918
 20
306.959016
 42
0.0
  0
VERTEX
  8
Default
 10
428.615385
 20
285.923077
 42
0.0
  0
VERTEX
  8
Default
 10
433.0
 20
265.0
 42
0.0
  0
VERTEX
  8
Default
 10
433.0
 20
264.0
 42
0.0
  0
VERTEX
  8
Default
 10
434.0
 20
264.0
 42
0.0
  0
VERTEX
  8
Default
 10
440.946154
 20
264.430769
 42
0.0
  0
VERTEX
  8
Default
 10
471.06
 20
268.58
 42
0.0
  0
VERTEX
  8
Default
 10
488.088235
 20
271.647059
 42
0.0
  0
VERTEX
  8
Default
 10
511.911765
 20
277.352941
 42
0.0
  0
VERTEX
  8
Default
 10
540.1
 20
285.7
 42
0.0
  0
VERTEX
  8
Default
 10
549.1
 20
288.7
 42
0.0
  0
VERTEX
  8
Default
 10
567.9
 20
296.2
 42
0.0
  0
VERTEX
  8
Default
 10
574.1
 20
298.8
 42
0.0
  0
VERTEX
  8
Default
 10
599.9
 20
312.2
 42
0.0
  0
VERTEX
  8
Default
 10
617.9
 20
323.2
 42
0.0
  0
VERTEX
  8
Default
 10
623.0
 20
326.0
 42
0.0
  0
VERTEX
  8
Default
 10
625.0
 20
324.0
 42
0.0
  0
VERTEX
  8
Default
 10
625.0
 20
320.0
 42
0.0
  0
VERTEX
  8
Default
 10
623.0
 20
302.0
 42
0.0
  0
VERTEX
  8
Default
 10
623.0
 20
231.0
 42
0.0
  0
VERTEX
  8
Default
 10
624.554455
 20
219.955446
 42
0.0
  0
VERTEX
  8
Default
 10
627.445545
 20
191.044554
 42
0.0
  0
VERTEX
  8
Default
 10
630.405405
 20
151.067568
 42
0.0
  0
VERTEX
  8
Default
 10
632.615385
 20
137.923077
 42
0.0
  0
VERTEX
  8
Default
 10
643.615385
 20
67.923077
 42
0.0
  0
VERTEX
  8
Default
 10
646.0
 20
56.0
 42
0.0
  0
VERTEX
  8
Default
 10
646.0
 20
55.0
 42
0.0
  0
VERTEX
  8
Default
 10
647.0
 20
55.0
 42
0.0
  0
VERTEX
  8
Default
 10
649.1
 20
55.8
 42
0.0
  0
VERTEX
  8
Default
 10
662.846154
 20
64.230769
 42
0.0
  0
VERTEX
  8
Default
 10
668.153846
 20
67.769231
 42
0.0
  0
VERTEX
  8
Default
 10
695.195122
 20
88.756098
 42
0.0
  0
VERTEX
  8
Default
 10
705.195122
 20
96.756098
 42
0.0
  0
VERTEX
  8
Default
 10
729.216814
 20
116.752212
 42
0.0
  0
VERTEX
  8
Default
 10
747.223757
 20
132.751381
 42
0.0
  0
VERTEX
  8
Default
 10
748.0
 20
133.0
 42
0.0
  0
VERTEX
  8
Default
 10
776.0
 20
161.0
 42
0.0
  0
VERTEX
  8
Default
 10
776.0
 20
162.0
 42
0.0
  0
VERTEX
  8
Default
 10
798.0
 20
182.0
 42
0.0
  0
VERTEX
  8
Default
 10
806.0
 20
190.0
 42
0.0
  0
VERTEX
  8
Default
 10
823.756098
 20
212.195122
 42
0.0
  0
VERTEX
  8
Default
 10
837.756098
 20
229.195122
 42
0.0
  0
VERTEX
  8
Default
 10
843.0
 20
236.0
 42
0.0
  0
VERTEX
  8
Default
 10
848.0
 20
241.0
 42
0.0
  0
VERTEX
  8
Default
 10
851.0
 20
238.0
 42
0.0
  0
VERTEX
  8
Default
 10
859.7
 20
212.9
 42
0.0
  0
VERTEX
  8
Default
 10
860.3
 20
211.1
 42
0.0
  0
VERTEX
  8
Default
 10
868.8
 20
183.9
 42
0.0
  0
VERTEX
  8
Default
 10
913.7
 20
86.9
 42
0.0
  0
VERTEX
  8
Default
 10
918.769231
 20
77.846154
 42
0.0
  0
VERTEX
  8
Default
 10
924.230769
 20
69.153846
 42
0.0
  0
VERTEX
  8
Default
 10
940.2
 20
41.1
 42
0.0
  0
VERTEX
  8
Default
 10
940.8
 20
39.9
 42
0.0
  0
VERTEX
  8
Default
 10
943.0
 20
35.0
 42
0.0
  0
VERTEX
  8
Default
 10
947.0
 20
31.0
 42
0.0
  0
VERTEX
  8
Default
 10
948.804878
 20
32.243902
 42
0.0
  0
VERTEX
  8
Default
 10
953.195122
 20
35.756098
 42
0.0
  0
VERTEX
  8
Default
 10
954.0
 20
36.0
 42
0.0
  0
VERTEX
  8
Default
 10
962.0
 20
44.0
 42
0.0
  0
VERTEX
  8
Default
 10
1002.769231
 20
101.153846
 42
0.0
  0
VERTEX
  8
Default
 10
1006.230769
 20
105.846154
 42
0.0
  0
VERTEX
  8
Default
 10
1036.2
 20
155.9
 42
0.0
  0
VERTEX
  8
Default
 10
1054.769231
 20
188.153846
 42
0.0
  0
VERTEX
  8
Default
 10
1066.8
 20
212.1
 42
0.0
  0
VERTEX
  8
Default
 10
1069.8
 20
219.1
 42
0.0
  0
VERTEX
  8
Default
 10
1077.3
 20
238.9
 42
0.0
  0
VERTEX
  8
Default
 10
1080.0
 20
248.0
 42
0.0
  0
VERTEX
  8
Default
 10
1080.0
 20
249.0
 42
0.0
  0
VERTEX
  8
Default
 10
1081.0
 20
249.0
 42
0.0
  0
VERTEX
  8
Default
 10
1086.0
 20
249.0
 42
0.0
  0
VERTEX
  8
Default
 10
1088.0
 20
247.0
 42
0.0
  0
VERTEX
  8
Default
 10
1088.8
 20
244.9
 42
0.0
  0
VERTEX
  8
Default
 10
1090.769231
 20
241.846154
 42
0.0
  0
VERTEX
  8
Default
 10
1098.248619
 20
232.223757
 42
0.0
  0
VERTEX
  8
Default
 10
1106.751381
 20
222.776243
 42
0.0
  0
VERTEX
  8
Default
 10
1107.0
 20
222.0
 42
0.0
  0
VERTEX
  8
Default
 10
1119.0
 20
210.0
 42
0.0
  0
VERTEX
  8
Default
 10
1130.226244
 20
200.248869
 42
0.0
  0
VERTEX
  8
Default
 10
1137.211765
 20
194.247059
 42
0.0
  0
VERTEX
  8
Default
 10
1154.846154
 20
179.769231
 42
0.0
  0
VERTEX
  8
Default
 10
1186.18
 20
158.24
 42
0.0
  0
VERTEX
  8
Default
 10
1201.1
 20
148.2
 42
0.0
  0
VERTEX
  8
Default
 10
1203.1
 20
147.3
 42
0.0
  0
VERTEX
  8
Default
 10
1246.0
 20
126.0
 42
0.0
  0
VERTEX
  8
Default
 10
1249.0
 20
126.0
 42
0.0
  0
VERTEX
  8
Default
 10
1257.230769
 20
139.846154
 42
0.0
  0
VERTEX
  8
Default
 10
1265.769231
 20
154.153846
 42
0.0
  0
VERTEX
  8
Default
 10
1274.7
 20
173.1
 42
0.0
  0
VERTEX
  8
Default
 10
1280.2
 20
185.9
 42
0.0
  0
VERTEX
  8
Default
 10
1288.3
 20
210.9
 42
0.0
  0
VERTEX
  8
Default
 10
1294.3
 20
228.9
 42
0.0
  0
VERTEX
  8
Default
 10
1301.647059
 20
255.088235
 42
0.0
  0
VERTEX
  8
Default
 10
1304.384615
 20
267.923077
 42
0.0
  0
VERTEX
  8
Default
 10
1306.445545
 20
283.955446
 42
0.0
  0
VERTEX
  8
Default
 10
1308.0
 20
309.0
 42
0.0
  0
VERTEX
  8
Default
 10
1308.0
 20
310.0
 42
0.0
  0
VERTEX
  8
Default
 10
1309.0
 20
310.0
 42
0.0
  0
VERTEX
  8
Default
 10
1309.846154
 20
309.769231
 42
0.0
  0
VERTEX
  8
Default
 10
1341.153846
 20
288.230769
 42
0.0
  0
VERTEX
  8
Default
 10
1382.9
 20
262.8
 42
0.0
  0
VERTEX
  8
Default
 10
1405.153846
 20
250.230769
 42
0.0
  0
VERTEX
  8
Default
 10
1438.9
 20
232.8
 42
0.0
  0
VERTEX
  8
Default
 10
1444.9
 20
229.8
 42
0.0
  0
VERTEX
  8
Default
 10
1509.9
 20
199.7
 42
0.0
  0
VERTEX
  8
Default
 10
1511.1
 20
199.2
 42
0.0
  0
VERTEX
  8
Default
 10
1516.1
 20
197.3
 42
0.0
  0
VERTEX
  8
Default
 10
1518.0
 20
197.0
 42
0.0
  0
VERTEX
  8
Default
 10
1519.0
 20
197.0
 42
0.0
  0
VERTEX
  8
Default
 10
1519.0
 20
198.0
 42
0.0
  0
VERTEX
  8
Default
 10
1519.445545
 20
206.955446
 42
0.0
  0
VERTEX
  8
Default
 10
1521.615385
 20
240.076923
 42
0.0
  0
VERTEX
  8
Default
 10
1522.384615
 20
243.923077
 42
0.0
  0
VERTEX
  8
Default
 10
1525.0
 20
255.0
 42
0.0
  0
VERTEX
  8
Default
 10
1525.0
 20
266.0
 42
0.0
  0
VERTEX
  8
Default
 10
1522.42
 20
280.06
 42
0.0
  0
VERTEX
  8
Default
 10
1521.58
 20
285.94
 42
0.0
  0
VERTEX
  8
Default
 10
1520.533074
 20
301.970817
 42
0.0
  0
VERTEX
  8
Default
 10
1518.529231
 20
338.973846
 42
0.0
  0
VERTEX
  8
Default
 10
1514.42
 20
372.06
 42
0.0
  0
VERTEX
  8
Default
 10
1511.594595
 20
390.932432
 42
0.0
  0
VERTEX
  8
Default
 10
1505.384615
 20
425.076923
 42
0.0
  0
VERTEX
  8
Default
 10
1504.3
 20
430.1
 42
0.0
  0
VERTEX
  8
Default
 10
1497.7
 20
447.9
 42
0.0
  0
VERTEX
  8
Default
 10
1497.0
 20
449.0
 42
0.0
  0
VERTEX
  8
Default
 10
1497.0
 20
451.0
 42
0.0
  0
VERTEX
  8
Default
 10
1499.0
 20
453.0
 42
0.0
  0
VERTEX
  8
Default
 10
1502.9
 20
450.8
 42
0.0
  0
VERTEX
  8
Default
 10
1525.1
 20
442.3
 42
0.0
  0
VERTEX
  8
Default
 10
1526.9
 20
441.7
 42
0.0
  0
VERTEX
  8
Default
 10
1553.088235
 20
433.352941
 42
0.0
  0
VERTEX
  8
Default
 10
1570.911765
 20
428.647059
 42
0.0
  0
VERTEX
  8
Default
 10
1613.911765
 20
418.647059
 42
0.0
  0
VERTEX
  8
Default
 10
1633.923077
 20
414.615385
 42
0.0
  0
VERTEX
  8
Default
 10
1683.932432
 20
405.594595
 42
0.0
  0
VERTEX
  8
Default
 10
1706.932432
 20
401.594595
 42
0.0
  0
VERTEX
  8
Default
 10
1764.019931
 20
391.478336
 42
0.0
  0
VERTEX
  8
Default
 10
1786.980069
 20
390.521664
 42
0.0
  0
VERTEX
  8
Default
 10
1809.0
 20
388.0
 42
0.0
  0
VERTEX
  8
Default
 10
1810.0
 20
389.0
 42
0.0
  0
VERTEX
  8
Default
 10
1810.0
 20
390.0
 42
0.0
  0
VERTEX
  8
Default
 10
1798.8
 20
412.9
 42
0.0
  0
VERTEX
  8
Default
 10
1792.769231
 20
423.846154
 42
0.0
  0
VERTEX
  8
Default
 10
1787.769231
 20
431.846154
 42
0.0
  0
VERTEX
  8
Default
 10
1781.8
 20
442.9
 42
0.0
  0
VERTEX
  8
Default
 10
1778.7
 20
449.9
 42
0.0
  0
VERTEX
  8
Default
 10
1756.8
 20
485.9
 42
0.0
  0
VERTEX
  8
Default
 10
1744.2
 20
507.1
 42
0.0
  0
VERTEX
  8
Default
 10
1721.230769
 20
541.153846
 42
0.0
  0
VERTEX
  8
Default
 10
1718.24
 20
545.18
 42
0.0
  0
VERTEX
  8
Default
 10
1708.230769
 20
561.153846
 42
0.0
  0
VERTEX
  8
Default
 10
1707.2
 20
563.1
 42
0.0
  0
VERTEX
  8
Default
 10
1695.756098
 20
578.804878
 42
0.0
  0
VERTEX
  8
Default
 10
1691.76
 20
583.82
 42
0.0
  0
VERTEX
  8
Default
 10
1651.0
 20
636.0
 42
0.0
  0
VERTEX
  8
Default
 10
1651.0
 20
637.0
 42
0.0
  0
VERTEX
  8
Default
 10
1653.0
 20
639.0
 42
0.0
  0
VERTEX
  8
Default
 10
1659.946154
 20
639.430769
 42
0.0
  0
VERTEX
  8
Default
 10
1673.94
 20
641.42
 42
0.0
  0
VERTEX
  8
Default
 10
1695.076923
 20
644.615385
 42
0.0
  0
VERTEX
  8
Default
 10
1698.923077
 20
645.384615
 42
0.0
  0
VERTEX
  8
Default
 10
1724.911765
 20
651.352941
 42
0.0
  0
VERTEX
  8
Default
 10
1739.911765
 20
655.352941
 42
0.0
  0
VERTEX
  8
Default
 10
1766.9
 20
664.3
 42
0.0
  0
VERTEX
  8
Default
 10
1779.9
 20
669.3
 42
0.0
  0
VERTEX
  8
Default
 10
1821.9
 20
689.2
 42
0.0
  0
VERTEX
  8
Default
 10
1826.153846
 20
691.769231
 42
0.0
  0
VERTEX
  8
Default
 10
1829.0
 20
693.0
 42
0.0
  0
VERTEX
  8
Default
 10
1832.0
 20
697.0
 42
0.0
  0
VERTEX
  8
Default
 10
1832.0
 20
702.0
 42
0.0
  0
VERTEX
  8
Default
 10
1830.7
 20
704.9
 42
0.0
  0
VERTEX
  8
Default
 10
1820.2
 20
729.1
 42
0.0
  0
VERTEX
  8
Default
 10
1808.2
 20
750.1
 42
0.0
  0
VERTEX
  8
Default
 10
1788.230769
 20
780.153846
 42
0.0
  0
VERTEX
  8
Default
 10
1768.754098
 20
805.795082
 42
0.0
  0
VERTEX
  8
Default
 10
1759.245902
 20
817.204918
 42
0.0
  0
VERTEX
  8
Default
 10
1759.0
 20
818.0
 42
0.0
  0
VERTEX
  8
Default
 10
1734.0
 20
843.0
 42
0.0
  0
VERTEX
  8
Default
 10
1726.788235
 20
848.752941
 42
0.0
  0
VERTEX
  8
Default
 10
1715.846154
 20
856.769231
 42
0.0
  0
VERTEX
  8
Default
 10
1715.1
 20
857.2
 42
0.0
  0
VERTEX
  8
Default
 10
1712.0
 20
859.0
 42
0.0
  0
VERTEX
  8
Default
 10
1712.0
 20
864.0
 42
0.0
  0
VERTEX
  8
Default
 10
1714.0
 20
866.0
 42
0.0
  0
VERTEX
  8
Default
 10
1742.1
 20
876.8
 42
0.0
  0
VERTEX
  8
Default
 10
1761.1
 20
885.8
 42
0.0
  0
VERTEX
  8
Default
 10
1784.846154
 20
899.230769
 42
0.0
  0
VERTEX
  8
Default
 10
1792.153846
 20
903.769231
 42
0.0
  0
VERTEX
  8
Default
 10
1812.82
 20
918.24
 42
0.0
  0
VERTEX
  8
Default
 10
1824.18
 20
926.76
 42
0.0
  0
VERTEX
  8
Default
 10
1863.0
 20
960.0
 42
0.0
  0
VERTEX
  8
Default
 10
1873.0
 20
970.0
 42
0.0
  0
VERTEX
  8
Default
 10
1876.756098
 20
975.195122
 42
0.0
  0
VERTEX
  8
Default
 10
1880.0
 20
981.0
 42
0.0
  0
VERTEX
  8
Default
 10
1880.0
 20
984.0
 42
0.0
  0
VERTEX
  8
Default
 10
1879.2
 20
985.1
 42
0.0
  0
VERTEX
  8
Default
 10
1876.0
 20
991.0
 42
0.0
  0
VERTEX
  8
Default
 10
1854.0
 20
1013.0
 42
0.0
  0
VERTEX
  8
Default
 10
1830.795082
 20
1031.754098
 42
0.0
  0
VERTEX
  8
Default
 10
1798.153846
 20
1056.230769
 42
0.0
  0
VERTEX
  8
Default
 10
1792.846154
 20
1059.769231
 42
0.0
  0
VERTEX
  8
Default
 10
1773.1
 20
1072.2
 42
0.0
  0
VERTEX
  8
Default
 10
1768.846154
 20
1074.769231
 42
0.0
  0
VERTEX
  8
Default
 10
1751.9
 20
1083.8
 42
0.0
  0
VERTEX
  8
Default
 10
1749.1
 20
1085.2
 42
0.0
  0
VERTEX
  8
Default
 10
1729.911765
 20
1092.647059
 42
0.0
  0
VERTEX
  8
Default
 10
1725.0
 20
1094.0
 42
0.0
  0
VERTEX
  8
Default
 10
1724.0
 20
1094.0
 42
0.0
  0
VERTEX
  8
Default
 10
1724.0
 20
1095.0
 42
0.0
  0
VERTEX
  8
Default
 10
1727.0
 20
1100.0
 42
0.0
  0
VERTEX
  8
Default
 10
1742.82
 20
1113.24
 42
0.0
  0
VERTEX
  8
Default
 10
1751.195122
 20
1119.756098
 42
0.0
  0
VERTEX
  8
Default
 10
1755.767221
 20
1123.249406
 42
0.0
  0
VERTEX
  8
Default
 10
1770.232779
 20
1136.750594
 42
0.0
  0
VERTEX
  8
Default
 10
1787.795082
 20
1153.245902
 42
0.0
  0
VERTEX
  8
Default
 10
1793.204918
 20
1157.754098
 42
0.0
  0
VERTEX
  8
Default
 10
1800.0
 20
1163.0
 42
0.0
  0
VERTEX
  8
Default
 10
1822.0
 20
1185.0
 42
0.0
  0
VERTEX
  8
Default
 10
1854.750799
 20
1220.230032
 42
0.0
  0
VERTEX
  8
Default
 10
1881.752941
 20
1252.211765
 42
0.0
  0
VERTEX
  8
Default
 10
1912.752941
 20
1288.211765
 42
0.0
  0
VERTEX
  8
Default
 10
1922.230769
 20
1300.846154
 42
0.0
  0
VERTEX
  8
Default
 10
1927.8
 20
1311.1
 42
0.0
  0
VERTEX
  8
Default
 10
1928.0
 20
1312.0
 42
0.0
  0
VERTEX
  8
Default
 10
1928.0
 20
1313.0
 42
0.0
  0
VERTEX
  8
Default
 10
1927.0
 20
1313.0
 42
0.0
  0
VERTEX
  8
Default
 10
1895.014679
 20
1313.484404
 42
0.0
  0
VERTEX
  8
Default
 10
1873.040984
 20
1315.45082
 42
0.0
  0
VERTEX
  8
Default
 10
1871.955446
 20
1315.554455
 42
0.0
  0
VERTEX
  8
Default
 10
1787.030973
 20
1320.464602
 42
0.0
  0
VERTEX
  8
Default
 10
1786.0
 20
1321.0
 42
0.0
  0
VERTEX
  8
Default
 10
1674.0
 20
1321.0
 42
0.0
  0
VERTEX
  8
Default
 10
1672.972414
 20
1320.468966
 42
0.0
  0
VERTEX
  8
Default
 10
1646.0
 20
1319.0
 42
0.0
  0
VERTEX
  8
Default
 10
1645.0
 20
1319.0
 42
0.0
  0
VERTEX
  8
Default
 10
1645.0
 20
1320.0
 42
0.0
  0
VERTEX
  8
Default
 10
1661.230769
 20
1345.846154
 42
0.0
  0
VERTEX
  8
Default
 10
1676.7
 20
1374.1
 42
0.0
  0
VERTEX
  8
Default
 10
1686.2
 20
1395.9
 42
0.0
  0
VERTEX
  8
Default
 10
1696.3
 20
1422.9
 42
0.0
  0
VERTEX
  8
Default
 10
1700.352941
 20
1436.911765
 42
0.0
  0
VERTEX
  8
Default
 10
1706.594595
 20
1463.067568
 42
0.0
  0
VERTEX
  8
Default
 10
1707.405405
 20
1467.932432
 42
0.0
  0
VERTEX
  8
Default
 10
1710.54918
 20
1488.040984
 42
0.0
  0
VERTEX
  8
Default
 10
1711.45082
 20
1497.959016
 42
0.0
  0
VERTEX
  8
Default
 10
1712.0
 20
1499.0
 42
0.0
  0
VERTEX
  8
Default
 10
1712.0
 20
1515.0
 42
0.0
  0
VERTEX
  8
Default
 10
1710.0
 20
1517.0
 42
0.0
  0
VERTEX
  8
Default
 10
1660.967005
 20
1522.538071
 42
0.0
  0
VERTEX
  8
Default
 10
1648.032995
 20
1523.461929
 42
0.0
  0
VERTEX
  8
Default
 10
1647.0
 20
1524.0
 42
0.0
  0
VERTEX
  8
Default
 10
1579.0
 20
1524.0
 42
0.0
  0
VERTEX
  8
Default
 10
1577.95122
 20
1523.439024
 42
0.0
  0
VERTEX
  8
Default
 10
1526.955446
 20
1517.445545
 42
0.0
  0
VERTEX
  8
Default
 10
1518.0
 20
1517.0
 42
0.0
  0
VERTEX
  8
Default
 10
1517.0
 20
1517.0
 42
0.0
  0
VERTEX
  8
Default
 10
1517.0
 20
1518.0
 42
0.0
  0
VERTEX
  8
Default
 10
1518.3
 20
1523.9
 42
0.0
  0
VERTEX
  8
Default
 10
1523.384615
 20
1545.923077
 42
0.0
  0
VERTEX
  8
Default
 10
1524.405405
 20
1551.932432
 42
0.0
  0
VERTEX
  8
Default
 10
1527.445545
 20
1575.955446
 42
0.0
  0
VERTEX
  8
Default
 10
1527.538071
 20
1577.032995
 42
0.0
  0
VERTEX
  8
Default
 10
1530.45082
 20
1613.959016
 42
0.0
  0
VERTEX
  8
Default
 10
1531.0
 20
1615.0
 42
0.0
  0
VERTEX
  8
Default
 10
1530.464602
 20
1617.030973
 42
0.0
  0
VERTEX
  8
Default
 10
1527.430769
 20
1667.053846
 42
0.0
  0
VERTEX
  8
Default
 10
1522.615385
 20
1700.923077
 42
0.0
  0
VERTEX
  8
Default
 10
1520.0
 20
1709.0
 42
0.0
  0
VERTEX
  8
Default
 10
1516.0
 20
1713.0
 42
0.0
  0
VERTEX
  8
Default
 10
1514.1
 20
1713.3
 42
0.0
  0
VERTEX
  8
Default
 10
1513.0
 20
1714.0
 42
0.0
  0
VERTEX
  8
Default
 10
1508.0
 20
1714.0
 42
0.0
  0
VERTEX
  8
Default
 10
1506.95122
 20
1713.439024
 42
0.0
  0
VERTEX
  8
Default
 10
1493.067568
 20
1711.594595
 42
0.0
  0
VERTEX
  8
Default
 10
1468.076923
 20
1706.615385
 42
0.0
  0
VERTEX
  8
Default
 10
1463.076923
 20
1705.615385
 42
0.0
  0
VERTEX
  8
Default
 10
1442.088235
 20
1700.647059
 42
0.0
  0
VERTEX
  8
Default
 10
1440.911765
 20
1700.352941
 42
0.0
  0
VERTEX
  8
Default
 10
1419.9
 20
1694.3
 42
0.0
  0
VERTEX
  8
Default
 10
1412.1
 20
1691.7
 42
0.0
  0
VERTEX
  8
Default
 10
1386.1
 20
1681.8
 42
0.0
  0
VERTEX
  8
Default
 10
1379.9
 20
1679.2
 42
0.0
  0
VERTEX
  8
Default
 10
1358.153846
 20
1668.769231
 42
0.0
  0
VERTEX
  8
Default
 10
1355.846154
 20
1667.230769
 42
0.0
  0
VERTEX
  8
Default
 10
1323.9
 20
1649.3
 42
0.0
  0
VERTEX
  8
Default
 10
1322.0
 20
1649.0
 42
0.0
  0
VERTEX
  8
Default
 10
1321.0
 20
1649.0
 42
0.0
  0
VERTEX
  8
Default
 10
1321.0
 20
1650.0
 42
0.0
  0
VERTEX
  8
Default
 10
1320.516632
 20
1679.984407
 42
0.0
  0
VERTEX
  8
Default
 10
1312.58
 20
1732.94
 42
0.0
  0
VERTEX
  8
Default
 10
1288.7
 20
1796.9
 42
0.0
  0
VERTEX
  8
Default
 10
1286.3
 20
1803.1
 42
0.0
  0
VERTEX
  8
Default
 10
1282.769231
 20
1812.846154
 42
0.0
  0
VERTEX
  8
Default
 10
1279.2
 20
1819.1
 42
0.0
  0
VERTEX
  8
Default
 10
1264.0
 20
1845.0
 42
0.0
  0
VERTEX
  8
Default
 10
1262.0
 20
1847.0
 42
0.0
  0
VERTEX
  8
Default
 10
1259.0
 20
1847.0
 42
0.0
  0
VERTEX
  8
Default
 10
1256.1
 20
1845.7
 42
0.0
  0
VERTEX
  8
Default
 10
1254.9
 20
1845.2
 42
0.0
  0
VERTEX
  8
Default
 10
1236.9
 20
1836.2
 42
0.0
  0
VERTEX
  8
Default
 10
1232.1
 20
1833.8
 42
0.0
  0
VERTEX
  8
Default
 10
1195.153846
 20
1811.769231
 42
0.0
  0
VERTEX
  8
Default
 10
1183.846154
 20
1804.230769
 42
0.0
  0
VERTEX
  8
Default
 10
1166.195122
 20
1791.756098
 42
0.0
  0
VERTEX
  8
Default
 10
1161.804878
 20
1788.243902
 42
0.0
  0
VERTEX
  8
Default
 10
1151.244624
 20
1779.750058
 42
0.0
  0
VERTEX
  8
Default
 10
1104.521267
 20
1734.499548
 42
0.0
  0
VERTEX
  8
Default
 10
1103.0
 20
1734.0
 42
0.0
  0
VERTEX
  8
Default
 10
1102.0
 20
1734.0
 42
0.0
  0
VERTEX
  8
Default
 10
1102.0
 20
1735.0
 42
0.0
  0
VERTEX
  8
Default
 10
1101.647059
 20
1737.911765
 42
0.0
  0
VERTEX
  8
Default
 10
1098.352941
 20
1751.088235
 42
0.0
  0
VERTEX
  8
Default
 10
1097.647059
 20
1753.911765
 42
0.0
  0
VERTEX
  8
Default
 10
1091.3
 20
1772.1
 42
0.0
  0
VERTEX
  8
Default
 10
1086.7
 20
1784.9
 42
0.0
  0
VERTEX
  8
Default
 10
1071.8
 20
1827.9
 42
0.0
  0
VERTEX
  8
Default
 10
1068.2
 20
1836.1
 42
0.0
  0
VERTEX
  8
Default
 10
1058.7
 20
1858.9
 42
0.0
  0
VERTEX
  8
Default
 10
1055.7
 20
1867.9
 42
0.0
  0
VERTEX
  8
Default
 10
1045.8
 20
1894.9
 42
0.0
  0
VERTEX
  8
Default
 10
1044.2
 20
1898.1
 42
0.0
  0
VERTEX
  8
Default
 10
1034.3
 20
1920.1
 42
0.0
  0
VERTEX
  8
Default
 10
1032.8
 20
1923.9
 42
0.0
  0
VERTEX
  8
Default
 10
1011.0
 20
1967.0
 42
0.0
  0
VERTEX
  8
Default
 10
1010.0
 20
1968.0
 42
0.0
  0
VERTEX
  8
Default
 10
1008.0
 20
1968.0
 42
0.0
  0
VERTEX
  8
Default
 10
1007.0
 20
1967.0
 42
0.0
  0
VERTEX
  8
Default
 10
1006.769231
 20
1966.153846
 42
0.0
  0
VERTEX
  8
Default
 10
987.754098
 20
1938.204918
 42
0.0
  0
VERTEX
  8
Default
 10
975.243902
 20
1922.804878
 42
0.0
  0
VERTEX
  8
Default
 10
954.769231
 20
1892.153846
 42
0.0
  0
VERTEX
  8
Default
 10
932.230769
 20
1857.846154
 42
0.0
  0
VERTEX
  8
Default
 10
902.3
 20
1802.9
 42
0.0
  0
VERTEX
  8
Default
 10
901.7
 20
1801.1
 42
0.0
  0
VERTEX
  8
Default
 10
891.8
 20
1778.1
 42
0.0
  0
VERTEX
  8
Default
 10
890.8
 20
1776.1
 42
0.0
  0
VERTEX
  8
Default
 10
883.7
 20
1761.1
 42
0.0
  0
VERTEX
  8
Default
 10
874.8
 20
1737.1
 42
0.0
  0
VERTEX
  8
Default
 10
872.0
 20
1729.0
 42
0.0
  0
VERTEX
  8
Default
 10
871.0
 20
1728.0
 42
0.0
  0
VERTEX
  8
Default
 10
869.0
 20
1728.0
 42
0.0
  0
VERTEX
  8
Default
 10
866.0
 20
1731.0
 42
0.0
  0
VERTEX
  8
Default
 10
861.245902
 20
1737.204918
 42
0.0
  0
VERTEX
  8
Default
 10
842.243902
 20
1760.195122
 42
0.0
  0
VERTEX
  8
Default
 10
842.0
 20
1761.0
 42
0.0
  0
VERTEX
  8
Default
 10
821.788235
 20
1778.752941
 42
0.0
  0
VERTEX
  8
Default
 10
798.18
 20
1797.24
 42
0.0
  0
VERTEX
  8
Default
 10
776.82
 20
1812.76
 42
0.0
  0
VERTEX
  8
Default
 10
747.1
 20
1832.2
 42
0.0
  0
VERTEX
  8
Default
 10
736.1
 20
1838.2
 42
0.0
  0
VERTEX
  8
Default
 10
715.1
 20
1848.2
 42
0.0
  0
VERTEX
  8
Default
 10
711.0
 20
1850.0
 42
0.0
  0
VERTEX
  8
Default
 10
706.0
 20
1850.0
 42
0.0
  0
VERTEX
  8
Default
 10
704.0
 20
1849.0
 42
0.0
  0
VERTEX
  8
Default
 10
695.0
 20
1840.0
 42
0.0
  0
VERTEX
  8
Default
 10
685.8
 20
1823.1
 42
0.0
  0
VERTEX
  8
Default
 10
682.8
 20
1816.1
 42
0.0
  0
VERTEX
  8
Default
 10
660.352941
 20
1761.911765
 42
0.0
  0
VERTEX
  8
Default
 10
655.352941
 20
1742.911765
 42
0.0
  0
VERTEX
  8
Default
 10
651.405405
 20
1724.932432
 42
0.0
  0
VERTEX
  8
Default
 10
650.384615
 20
1718.923077
 42
0.0
  0
VERTEX
  8
Default
 10
647.439024
 20
1701.95122
 42
0.0
  0
VERTEX
  8
Default
 10
646.439024
 20
1692.95122
 42
0.0
  0
VERTEX
  8
Default
 10
645.466926
 20
1683.970817
 42
0.0
  0
VERTEX
  8
Default
 10
645.0
 20
1669.0
 42
0.0
  0
VERTEX
  8
Default
 10
643.0
 20
1667.0
 42
0.0
  0
VERTEX
  8
Default
 10
641.0
 20
1667.0
 42
0.0
  0
VERTEX
  8
Default
 10
580.846154
 20
1706.769231
 42
0.0
  0
VERTEX
  8
Default
 10
577.846154
 20
1708.769231
 42
0.0
  0
VERTEX
  8
Default
 10
565.1
 20
1716.2
 42
0.0
  0
VERTEX
  8
Default
 10
519.153846
 20
1740.230769
 42
0.0
  0
VERTEX
  8
Default
 10
516.846154
 20
1741.769231
 42
0.0
  0
VERTEX
  8
Default
 10
493.1
 20
1753.2
 42
0.0
  0
VERTEX
  8
Default
 10
464.9
 20
1765.8
 42
0.0
  0
VERTEX
  8
Default
 10
408.0
 20
1791.0
 42
0.0
  0
VERTEX
  8
Default
 10
406.0
 20
1789.0
 42
0.0
  0
VERTEX
  8
Default
 10
410.458824
 20
1734.035294
 42
0.0
  0
VERTEX
  8
Default
 10
410.541176
 20
1732.964706
 42
0.0
  0
VERTEX
  8
Default
 10
412.615385
 20
1709.923077
 42
0.0
  0
VERTEX
  8
Default
 10
413.647059
 20
1704.911765
 42
0.0
  0
VERTEX
  8
Default
 10
416.54918
 20
1692.959016
 42
0.0
  0
VERTEX
  8
Default
 10
418.45082
 20
1672.040984
 42
0.0
  0
VERTEX
  8
Default
 10
419.615385
 20
1666.923077
 42
0.0
  0
VERTEX
  8
Default
 10
420.615385
 20
1661.923077
 42
0.0
  0
VERTEX
  8
Default
 10
433.7
 20
1595.9
 42
0.0
  0
VERTEX
  8
Default
 10
434.7
 20
1592.9
 42
0.0
  0
VERTEX
  8
Default
 10
455.0
 20
1527.0
 42
0.0
  0
VERTEX
  8
Default
 10
455.0
 20
1526.0
 42
0.0
  0
VERTEX
  8
Default
 10
453.0
 20
1524.0
 42
0.0
  0
VERTEX
  8
Default
 10
445.923077
 20
1525.615385
 42
0.0
  0
VERTEX
  8
Default
 10
440.923077
 20
1526.615385
 42
0.0
  0
VERTEX
  8
Default
 10
397.94
 20
1534.58
 42
0.0
  0
VERTEX
  8
Default
 10
390.932432
 20
1535.594595
 42
0.0
  0
VERTEX
  8
Default
 10
376.0
 20
1538.0
 42
0.0
  0
VERTEX
  8
Default
 10
319.0
 20
1538.0
 42
0.0
  0
VERTEX
  8
Default
 10
317.946154
 20
1537.430769
 42
0.0
  0
VERTEX
  8
Default
 10
272.053846
 20
1531.569231
 42
0.0
  0
VERTEX
  8
Default
 10
250.0
 20
1529.0
 42
0.0
  0
VERTEX
  8
Default
 10
248.0
 20
1527.0
 42
0.0
  0
VERTEX
  8
Default
 10
255.42
 20
1481.06
 42
0.0
  0
VERTEX
  8
Default
 10
258.352941
 20
1467.088235
 42
0.0
  0
VERTEX
  8
Default
 10
273.2
 20
1409.1
 42
0.0
  0
VERTEX
  8
Default
 10
287.2
 20
1379.1
 42
0.0
  0
VERTEX
  8
Default
 10
305.2
 20
1345.1
 42
0.0
  0
VERTEX
  8
Default
 10
306.0
 20
1344.0
 42
0.0
  0
VERTEX
  8
Default
 10
306.0
 20
1342.0
 42
0.0
  0
VERTEX
  8
Default
 10
304.0
 20
1340.0
 42
0.0
  0
VERTEX
  8
Default
 10
297.053846
 20
1339.569231
 42
0.0
  0
VERTEX
  8
Default
 10
281.932432
 20
1337.405405
 42
0.0
  0
VERTEX
  8
Default
 10
268.932432
 20
1335.405405
 42
0.0
  0
VERTEX
  8
Default
 10
241.911765
 20
1330.352941
 42
0.0
  0
VERTEX
  8
Default
 10
214.088235
 20
1323.647059
 42
0.0
  0
VERTEX
  8
Default
 10
191.9
 20
1316.3
 42
0.0
  0
VERTEX
  8
Default
 10
174.9
 20
1310.2
 42
0.0
  0
VERTEX
  8
Default
 10
160.1
 20
1302.8
 42
0.0
  0
VERTEX
  8
Default
 10
148.9
 20
1297.2
 42
0.0
  0
VERTEX
  8
Default
 10
123.9
 20
1284.2
 42
0.0
  0
VERTEX
  8
Default
 10
123.0
 20
1284.0
 42
0.0
  0
VERTEX
  8
Default
 10
120.0
 20
1281.0
 42
0.0
  0
VERTEX
  8
Default
 10
120.0
 20
1278.0
 42
0.0
  0
VERTEX
  8
Default
 10
122.8
 20
1269.9
 42
0.0
  0
VERTEX
  8
Default
 10
124.3
 20
1266.1
 42
0.0
  0
VERTEX
  8
Default
 10
133.8
 20
1248.9
 42
0.0
  0
VERTEX
  8
Default
 10
139.4
 20
1237.2
 42
0.0
  0
VERTEX
  8
Default
 10
153.230769
 20
1212.153846
 42
0.0
  0
VERTEX
  8
Default
 10
167.24
 20
1191.18
 42
0.0
  0
VERTEX
  8
Default
 10
181.0
 20
1173.0
 42
0.0
  0
VERTEX
  8
Default
 10
204.0
 20
1150.0
 42
0.0
  0
VERTEX
  8
Default
 10
232.0
 20
1125.0
 42
0.0
  0
VERTEX
  8
Default
 10
241.0
 20
1116.0
 42
0.0
  0
VERTEX
  8
Default
 10
241.0
 20
1115.0
 42
0.0
  0
VERTEX
  8
Default
 10
239.0
 20
1113.0
 42
0.0
  0
VERTEX
  8
Default
 10
230.1
 20
1110.7
 42
0.0
  0
VERTEX
  8
Default
 10
228.9
 20
1110.2
 42
0.0
  0
VERTEX
  8
Default
 10
211.9
 20
1103.2
 42
0.0
  0
VERTEX
  8
Default
 10
202.1
 20
1098.8
 42
0.0
  0
VERTEX
  8
Default
 10
175.846154
 20
1084.230769
 42
0.0
  0
VERTEX
  8
Default
 10
165.9
 20
1078.2
 42
0.0
  0
VERTEX
  8
Default
 10
140.18
 20
1060.76
 42
0.0
  0
VERTEX
  8
Default
 10
128.18
 20
1051.76
 42
0.0
  0
VERTEX
  8
Default
 10
113.241805
 20
1039.750134
 42
0.0
  0
VERTEX
  8
Default
 10
82.758195
 20
1010.249866
 42
0.0
  0
VERTEX
  8
Default
 10
82.0
 20
1010.0
 42
0.0
  0
VERTEX
  8
Default
 10
75.245902
 20
1001.795082
 42
0.0
  0
VERTEX
  8
Default
 10
72.0
 20
998.0
 42
0.0
  0
VERTEX
  8
Default
 10
72.0
 20
995.0
 42
0.0
  0
VERTEX
  8
Default
 10
73.230769
 20
993.153846
 42
0.0
  0
VERTEX
  8
Default
 10
75.249315
 20
990.231507
 42
0.0
  0
VERTEX
  8
Default
 10
88.0
 20
976.0
 42
0.0
  0
VERTEX
  8
Default
 10
104.0
 20
960.0
 42
0.0
  0
VERTEX
  8
Default
 10
118.82
 20
947.76
 42
0.0
  0
VERTEX
  8
Default
 10
134.18
 20
936.24
 42
0.0
  0
VERTEX
  8
Default
 10
160.846154
 20
917.769231
 42
0.0
  0
VERTEX
  8
Default
 10
184.153846
 20
903.230769
 42
0.0
  0
VERTEX
  8
Default
 10
200.1
 20
894.3
 42
0.0
  0
VERTEX
  8
Default
 10
207.1
 20
891.2
 42
0.0
  0
VERTEX
  8
Default
 10
217.9
 20
887.7
 42
0.0
  0
VERTEX
  8
Default
 10
219.088235
 20
887.352941
 42
0.0
  0
VERTEX
  8
Default
 10
223.076923
 20
886.384615
 42
0.0
  0
VERTEX
  8
Default
 10
227.0
 20
886.0
 42
0.0
  0
VERTEX
  8
Default
 10
229.0
 20
884.0
 42
0.0
  0
VERTEX
  8
Default
 10
229.0
 20
882.0
 42
0.0
  0
VERTEX
  8
Default
 10
224.0
 20
877.0
 42
0.0
  0
VERTEX
  8
Default
 10
210.0
 20
865.0
 42
0.0
  0
VERTEX
  8
Default
 10
186.0
 20
841.0
 42
0.0
  0
VERTEX
  8
Default
 10
168.756098
 20
820.195122
 42
0.0
  0
VERTEX
  8
Default
 10
161.76
 20
811.18
 42
0.0
  0
VERTEX
  8
Default
 10
143.769231
 20
785.153846
 42
0.0
  0
VERTEX
  8
Default
 10
131.769231
 20
765.153846
 42
0.0
  0
VERTEX
  8
Default
 10
122.7
 20
748.1
 42
0.0
  0
VERTEX
  8
Default
 10
122.2
 20
746.9
 42
0.0
  0
VERTEX
  8
Default
 10
115.3
 20
731.9
 42
0.0
  0
VERTEX
  8
Default
 10
114.2
 20
728.9
 42
0.0
  0
VERTEX
  8
Default
 10
112.0
 20
724.0
 42
0.0
  0
VERTEX
  8
Default
 10
112.0
 20
721.0
 42
0.0
  0
VERTEX
  8
Default
 10
115.0
 20
718.0
 42
0.0
  0
VERTEX
  8
Default
 10
131.846154
 20
708.769231
 42
0.0
  0
VERTEX
  8
Default
 10
134.153846
 20
707.230769
 42
0.0
  0
VERTEX
  8
Default
 10
155.9
 20
696.8
 42
0.0
  0
VERTEX
  8
Default
 10
164.9
 20
692.8
 42
0.0
  0
VERTEX
  8
Default
 10
196.1
 20
681.3
 42
0.0
  0
VERTEX
  8
Default
 10
209.1
 20
677.3
 42
0.0
  0
VERTEX
  8
Default
 10
234.911765
 20
670.647059
 42
0.0
  0
VERTEX
  8
Default
 10
236.088235
 20
670.352941
 42
0.0
  0
VERTEX
  8
Default
 10
256.067568
 20
666.405405
 42
0.0
  0
VERTEX
  8
Default
 10
262.067568
 20
665.405405
 42
0.0
  0
VERTEX
  8
Default
 10
276.040984
 20
663.45082
 42
0.0
  0
VERTEX
  8
Default
 10
285.959016
 20
662.54918
 42
0.0
  0
VERTEX
  8
Default
 10
302.0
 20
662.0
 42
0.0
  0
VERTEX
  8
Default
 10
304.0
 20
660.0
 42
0.0
  0
VERTEX
  8
Default
 10
304.0
 20
658.0
 42
0.0
  0
VERTEX
  8
Default
 10
298.24
 20
650.82
 42
0.0
  0
VERTEX
  8
Default
 10
290.243902
 20
640.804878
 42
0.0
  0
VERTEX
  8
Default
 10
272.769231
 20
616.153846
 42
0.0
  0
VERTEX
  8
Default
 10
243.230769
 20
572.846154
 42
0.0
  0
VERTEX
  8
Default
 10
199.3
 20
492.9
 42
0.0
  0
VERTEX
  8
Default
 10
165.3
 20
418.9
 42
0.0
  0
VERTEX
  8
Default
 10
165.0
 20
417.0
 42
0.0
  0
VERTEX
  8
Default
 10
165.0
 20
416.0
 42
0.0
  0
SEQEND
  0
POLYLINE
  8
Default
 66
     1
 10
0.0
 20
0.0
 30
0.0
 70
     1
  0
VERTEX
  8
Default
 10
916.0
 20
620.0
 42
0.0
  0
VERTEX
  8
Default
 10
938.962069
 20
618.544828
 42
0.0
  0
VERTEX
  8
Default
 10
951.0
 20
617.0
 42
0.0
  0
VERTEX
  8
Default
 10
975.0
 20
617.0
 42
0.0
  0
VERTEX
  8
Default
 10
976.029183
 20
617.533074
 42
0.0
  0
VERTEX
  8
Default
 10
990.970817
 20
618.466926
 42
0.0
  0
VERTEX
  8
Default
 10
1007.0
 20
620.0
 42
0.0
  0
VERTEX
  8
Default
 10
1023.0
 20
620.0
 42
0.0
  0
VERTEX
  8
Default
 10
1026.0
 20
617.0
 42
0.0
  0
VERTEX
  8
Default
 10
1023.384615
 20
607.923077
 42
0.0
  0
VERTEX
  8
Default
 10
1022.42
 20
602.94
 42
0.0
  0
VERTEX
  8
Default
 10
1018.0
 20
567.0
 42
0.0
  0
VERTEX
  8
Default
 10
1018.0
 20
483.0
 42
0.0
  0
VERTEX
  8
Default
 10
1019.560976
 20
470.95122
 42
0.0
  0
VERTEX
  8
Default
 10
1025.594595
 20
422.932432
 42
0.0
  0
VERTEX
  8
Default
 10
1028.405405
 20
405.067568
 42
0.0
  0
VERTEX
  8
Default
 10
1032.647059
 20
385.911765
 42
0.0
  0
VERTEX
  8
Default
 10
1034.7
 20
377.9
 42
0.0
  0
VERTEX
  8
Default
 10
1041.615385
 20
350.923077
 42
0.0
  0
VERTEX
  8
Default
 10
1043.615385
 20
341.923077
 42
0.0
  0
VERTEX
  8
Default
 10
1046.569231
 20
326.946154
 42
0.0
  0
VERTEX
  8
Default
 10
1051.0
 20
294.0
 42
0.0
  0
VERTEX
  8
Default
 10
1051.0
 20
283.0
 42
0.0
  0
VERTEX
  8
Default
 10
1048.352941
 20
273.911765
 42
0.0
  0
VERTEX
  8
Default
 10
1044.3
 20
259.9
 42
0.0
  0
VERTEX
  8
Default
 10
1034.8
 20
236.1
 42
0.0
  0
VERTEX
  8
Default
 10
1033.2
 20
231.9
 42
0.0
  0
VERTEX
  8
Default
 10
1014.8
 20
194.1
 42
0.0
  0
VERTEX
  8
Default
 10
1013.8
 20
192.1
 42
0.0
  0
VERTEX
  8
Default
 10
995.769231
 20
162.153846
 42
0.0
  0
VERTEX
  8
Default
 10
988.2
 20
148.9
 42
0.0
  0
VERTEX
  8
Default
 10
973.230769
 20
123.846154
 42
0.0
  0
VERTEX
  8
Default
 10
966.754098
 20
115.204918
 42
0.0
  0
VERTEX
  8
Default
 10
962.0
 20
109.0
 42
0.0
  0
VERTEX
  8
Default
 10
955.0
 20
102.0
 42
0.0
  0
VERTEX
  8
Default
 10
953.0
 20
101.0
 42
0.0
  0
VERTEX
  8
Default
 10
950.0
 20
101.0
 42
0.0
  0
VERTEX
  8
Default
 10
949.0
 20
102.0
 42
0.0
  0
VERTEX
  8
Default
 10
945.8
 20
109.9
 42
0.0
  0
VERTEX
  8
Default
 10
941.7
 20
118.9
 42
0.0
  0
VERTEX
  8
Default
 10
927.2
 20
148.1
 42
0.0
  0
VERTEX
  8
Default
 10
922.2
 20
157.1
 42
0.0
  0
VERTEX
  8
Default
 10
909.7
 20
188.9
 42
0.0
  0
VERTEX
  8
Default
 10
888.3
 20
245.1
 42
0.0
  0
VERTEX
  8
Default
 10
881.384615
 20
266.076923
 42
0.0
  0
VERTEX
  8
Default
 10
878.0
 20
281.0
 42
0.0
  0
VERTEX
  8
Default
 10
878.0
 20
294.0
 42
0.0
  0
VERTEX
  8
Default
 10
882.7
 20
307.1
 42
0.0
  0
VERTEX
  8
Default
 10
885.7
 20
315.1
 42
0.0
  0
VERTEX
  8
Default
 10
891.352941
 20
331.911765
 42
0.0
  0
VERTEX
  8
Default
 10
893.647059
 20
342.088235
 42
0.0
  0
VERTEX
  8
Default
 10
899.3
 20
362.9
 42
0.0
  0
VERTEX
  8
Default
 10
901.8
 20
370.1
 42
0.0
  0
VERTEX
  8
Default
 10
904.352941
 20
379.911765
 42
0.0
  0
VERTEX
  8
Default
 10
906.615385
 20
391.076923
 42
0.0
  0
VERTEX
  8
Default
 10
912.58
 20
421.06
 42
0.0
  0
VERTEX
  8
Default
 10
915.430769
 20
442.946154
 42
0.0
  0
VERTEX
  8
Default
 10
919.541176
 20
486.035294
 42
0.0
  0
VERTEX
  8
Default
 10
920.458824
 20
497.964706
 42
0.0
  0
VERTEX
  8
Default
 10
922.464602
 20
543.030973
 42
0.0
  0
VERTEX
  8
Default
 10
921.470769
 20
558.026154
 42
0.0
  0
VERTEX
  8
Default
 10
919.405405
 20
592.067568
 42
0.0
  0
VERTEX
  8
Default
 10
915.430769
 20
612.053846
 42
0.0
  0
VERTEX
  8
Default
 10
915.0
 20
619.0
 42
0.0
  0
VERTEX
  8
Default
 10
915.0
 20
620.0
 42
0.0
  0
SEQEND
  0
POLYLINE
  8
Default
 66
     1
 10
0.0
 20
0.0
 30
0.0
 70
     1
  0
VERTEX
  8
Default
 10
464.0
 20
309.0
 42
0.0
  0
VERTEX
  8
Default
 10
462.524887
 20
345.977376
 42
0.0
  0
VERTEX
  8
Default
 10
462.0
 20
347.0
 42
0.0
  0
VERTEX
  8
Default
 10
462.0
 20
374.0
 42
0.0
  0
VERTEX
  8
Default
 10
462.521664
 20
375.019931
 42
0.0
  0
VERTEX
  8
Default
 10
463.478336
 20
397.980069
 42
0.0
  0
VERTEX
  8
Default
 10
465.594595
 20
418.067568
 42
0.0
  0
VERTEX
  8
Default
 10
469.384615
 20
436.923077
 42
0.0
  0
VERTEX
  8
Default
 10
473.7
 20
452.1
 42
0.0
  0
VERTEX
  8
Default
 10
476.647059
 20
463.088235
 42
0.0
  0
VERTEX
  8
Default
 10
479.8
 20
474.1
 42
0.0
  0
VERTEX
  8
Default
 10
480.230769
 20
474.846154
 42
0.0
  0
VERTEX
  8
Default
 10
484.0
 20
481.0
 42
0.0
  0
VERTEX
  8
Default
 10
488.0
 20
485.0
 42
0.0
  0
VERTEX
  8
Default
 10
488.82
 20
485.24
 42
0.0
  0
VERTEX
  8
Default
 10
515.804878
 20
504.243902
 42
0.0
  0
VERTEX
  8
Default
 10
529.804878
 20
515.243902
 42
0.0
  0
VERTEX
  8
Default
 10
549.762812
 20
531.249671
 42
0.0
  0
VERTEX
  8
Default
 10
569.237188
 20
549.750329
 42
0.0
  0
VERTEX
  8
Default
 10
582.0
 20
560.0
 42
0.0
  0
VERTEX
  8
Default
 10
601.0
 20
579.0
 42
0.0
  0
VERTEX
  8
Default
 10
622.248276
 20
602.77931
 42
0.0
  0
VERTEX
  8
Default
 10
636.247059
 20
618.788235
 42
0.0
  0
VERTEX
  8
Default
 10
665.24
 20
653.82
 42
0.0
  0
VERTEX
  8
Default
 10
673.76
 20
665.18
 42
0.0
  0
VERTEX
  8
Default
 10
682.2
 20
677.9
 42
0.0
  0
VERTEX
  8
Default
 10
691.769231
 20
693.153846
 42
0.0
  0
VERTEX
  8
Default
 10
707.8
 20
724.1
 42
0.0
  0
VERTEX
  8
Default
 10
708.0
 20
725.0
 42
0.0
  0
VERTEX
  8
Default
 10
710.0
 20
727.0
 42
0.0
  0
VERTEX
  8
Default
 10
712.0
 20
727.0
 42
0.0
  0
VERTEX
  8
Default
 10
719.153846
 20
722.230769
 42
0.0
  0
VERTEX
  8
Default
 10
723.804878
 20
718.756098
 42
0.0
  0
VERTEX
  8
Default
 10
753.846154
 20
691.769231
 42
0.0
  0
VERTEX
  8
Default
 10
795.0
 20
664.0
 42
0.0
  0
VERTEX
  8
Default
 10
798.0
 20
661.0
 42
0.0
  0
VERTEX
  8
Default
 10
798.0
 20
659.0
 42
0.0
  0
VERTEX
  8
Default
 10
774.249792
 20
634.7602
 42
0.0
  0
VERTEX
  8
Default
 10
761.752941
 20
620.211765
 42
0.0
  0
VERTEX
  8
Default
 10
755.752941
 20
613.211765
 42
0.0
  0
VERTEX
  8
Default
 10
742.76
 20
597.18
 42
0.0
  0
VERTEX
  8
Default
 10
731.769231
 20
581.153846
 42
0.0
  0
VERTEX
  8
Default
 10
706.230769
 20
538.846154
 42
0.0
  0
VERTEX
  8
Default
 10
693.230769
 20
517.846154
 42
0.0
  0
VERTEX
  8
Default
 10
684.8
 20
503.1
 42
0.0
  0
VERTEX
  8
Default
 10
677.2
 20
487.9
 42
0.0
  0
VERTEX
  8
Default
 10
669.3
 20
470.9
 42
0.0
  0
VERTEX
  8
Default
 10
646.7
 20
419.1
 42
0.0
  0
VERTEX
  8
Default
 10
638.0
 20
388.0
 42
0.0
  0
VERTEX
  8
Default
 10
628.0
 20
378.0
 42
0.0
  0
VERTEX
  8
Default
 10
604.153846
 20
360.769231
 42
0.0
  0
VERTEX
  8
Default
 10
587.1
 20
349.8
 42
0.0
  0
VERTEX
  8
Default
 10
571.1
 20
340.8
 42
0.0
  0
VERTEX
  8
Default
 10
543.1
 20
327.8
 42
0.0
  0
VERTEX
  8
Default
 10
530.9
 20
323.3
 42
0.0
  0
VERTEX
  8
Default
 10
495.911765
 20
312.352941
 42
0.0
  0
VERTEX
  8
Default
 10
491.911765
 20
311.352941
 42
0.0
  0
VERTEX
  8
Default
 10
483.94
 20
309.42
 42
0.0
  0
VERTEX
  8
Default
 10
476.964706
 20
308.458824
 42
0.0
  0
VERTEX
  8
Default
 10
465.0
 20
308.0
 42
0.0
  0
VERTEX
  8
Default
 10
464.0
 20
308.0
 42
0.0
  0
SEQEND
  0
POLYLINE
  8
Default
 66
     1
 10
0.0
 20
0.0
 30
0.0
 70
     0
  0
VERTEX
  8
Default
 10
1812.0
 20
388.0
 42
0.0
  0
VERTEX
  8
Default
 10
1811.0
 20
389.0
 42
0.0
  0
VERTEX
  8
Default
 10
1810.0
 20
389.0
 42
0.0
  0
SEQEND
  0
POLYLINE
  8
Default
 66
     1
 10
0.0
 20
0.0
 30
0.0
 70
     1
  0
VERTEX
  8
Default
 10
225.0
 20
457.0
 42
0.0
  0
VERTEX
  8
Default
 10
226.8
 20
463.1
 42
0.0
  0
VERTEX
  8
Default
 10
236.2
 20
482.9
 42
0.0
  0
VERTEX
  8
Default
 10
238.2
 20
486.9
 42
0.0
  0
VERTEX
  8
Default
 10
300.243902
 20
590.804878
 42
0.0
  0
VERTEX
  8
Default
 10
303.756098
 20
595.195122
 42
0.0
  0
VERTEX
  8
Default
 10
343.0
 20
647.0
 42
0.0
  0
VERTEX
  8
Default
 10
352.0
 20
656.0
 42
0.0
  0
VERTEX
  8
Default
 10
380.18
 20
678.76
 42
0.0
  0
VERTEX
  8
Default
 10
397.153846
 20
690.769231
 42
0.0
  0
VERTEX
  8
Default
 10
429.9
 20
711.2
 42
0.0
  0
VERTEX
  8
Default
 10
441.9
 20
718.2
 42
0.0
  0
VERTEX
  8
Default
 10
490.9
 20
742.2
 42
0.0
  0
VERTEX
  8
Default
 10
545.9
 20
765.2
 42
0.0
  0
VERTEX
  8
Default
 10
574.1
 20
775.7
 42
0.0
  0
VERTEX
  8
Default
 10
590.1
 20
780.7
 42
0.0
  0
VERTEX
  8
Default
 10
606.076923
 20
784.615385
 42
0.0
  0
VERTEX
  8
Default
 10
623.946154
 20
787.430769
 42
0.0
  0
VERTEX
  8
Default
 10
625.0
 20
788.0
 42
0.0
  0
VERTEX
  8
Default
 10
663.0
 20
788.0
 42
0.0
  0
VERTEX
  8
Default
 10
670.0
 20
782.0
 42
0.0
  0
VERTEX
  8
Default
 10
670.230769
 20
781.153846
 42
0.0
  0
VERTEX
  8
Default
 10
671.769231
 20
778.846154
 42
0.0
  0
VERTEX
  8
Default
 10
679.0
 20
766.0
 42
0.0
  0
VERTEX
  8
Default
 10
679.0
 20
756.0
 42
0.0
  0
VERTEX
  8
Default
 10
678.352941
 20
754.911765
 42
0.0
  0
VERTEX
  8
Default
 10
677.3
 20
750.9
 42
0.0
  0
VERTEX
  8
Default
 10
673.2
 20
739.9
 42
0.0
  0
VERTEX
  8
Default
 10
671.7
 20
736.1
 42
0.0
  0
VERTEX
  8
Default
 10
656.2
 20
706.9
 42
0.0
  0
VERTEX
  8
Default
 10
653.769231
 20
702.153846
 42
0.0
  0
VERTEX
  8
Default
 10
639.76
 20
682.18
 42
0.0
  0
VERTEX
  8
Default
 10
631.24
 20
670.82
 42
0.0
  0
VERTEX
  8
Default
 10
602.752212
 20
636.216814
 42
0.0
  0
VERTEX
  8
Default
 10
595.751724
 20
628.22069
 42
0.0
  0
VERTEX
  8
Default
 10
573.0
 20
603.0
 42
0.0
  0
VERTEX
  8
Default
 10
551.0
 20
581.0
 42
0.0
  0
VERTEX
  8
Default
 10
550.211765
 20
580.752941
 42
0.0
  0
VERTEX
  8
Default
 10
526.773756
 20
560.248869
 42
0.0
  0
VERTEX
  8
Default
 10
514.771698
 20
549.249057
 42
0.0
  0
VERTEX
  8
Default
 10
502.18
 20
538.76
 42
0.0
  0
VERTEX
  8
Default
 10
498.82
 20
536.24
 42
0.0
  0
VERTEX
  8
Default
 10
489.153846
 20
529.769231
 42
0.0
  0
VERTEX
  8
Default
 10
471.1
 20
518.8
 42
0.0
  0
VERTEX
  8
Default
 10
469.9
 20
518.2
 42
0.0
  0
VERTEX
  8
Default
 10
438.9
 20
503.3
 42
0.0
  0
VERTEX
  8
Default
 10
419.1
 20
495.8
 42
0.0
  0
VERTEX
  8
Default
 10
385.9
 20
485.3
 42
0.0
  0
VERTEX
  8
Default
 10
384.1
 20
484.7
 42
0.0
  0
VERTEX
  8
Default
 10
343.923077
 20
475.384615
 42
0.0
  0
VERTEX
  8
Default
 10
340.076923
 20
474.615385
 42
0.0
  0
VERTEX
  8
Default
 10
293.94
 20
466.42
 42
0.0
  0
VERTEX
  8
Default
 10
226.0
 20
456.0
 42
0.0
  0
VERTEX
  8
Default
 10
225.0
 20
456.0
 42
0.0
  0
SEQEND
  0
POLYLINE
  8
Default
 66
     1
 10
0.0
 20
0.0
 30
0.0
 70
     1
  0
VERTEX
  8
Default
 10
613.0
 20
935.0
 42
0.0
  0
VERTEX
  8
Default
 10
613.42
 20
929.06
 42
0.0
  0
VERTEX
  8
Default
 10
615.594595
 20
914.932432
 42
0.0
  0
VERTEX
  8
Default
 10
620.352941
 20
893.088235
 42
0.0
  0
VERTEX
  8
Default
 10
622.7
 20
883.9
 42
0.0
  0
VERTEX
  8
Default
 10
631.2
 20
857.1
 42
0.0
  0
VERTEX
  8
Default
 10
640.8
 20
832.9
 42
0.0
  0
VERTEX
  8
Default
 10
642.0
 20
831.0
 42
0.0
  0
VERTEX
  8
Default
 10
642.0
 20
828.0
 42
0.0
  0
VERTEX
  8
Default
 10
641.0
 20
827.0
 42
0.0
  0
VERTEX
  8
Default
 10
622.06
 20
824.58
 42
0.0
  0
VERTEX
  8
Default
 10
620.946154
 20
824.430769
 42
0.0
  0
VERTEX
  8
Default
 10
601.923077
 20
821.384615
 42
0.0
  0
VERTEX
  8
Default
 10
579.076923
 20
816.615385
 42
0.0
  0
VERTEX
  8
Default
 10
561.1
 20
811.7
 42
0.0
  0
VERTEX
  8
Default
 10
527.1
 20
799.7
 42
0.0
  0
VERTEX
  8
Default
 10
478.9
 20
779.2
 42
0.0
  0
VERTEX
  8
Default
 10
451.1
 20
765.8
 42
0.0
  0
VERTEX
  8
Default
 10
379.153846
 20
723.769231
 42
0.0
  0
VERTEX
  8
Default
 10
364.846154
 20
714.230769
 42
0.0
  0
VERTEX
  8
Default
 10
348.8
 20
703.4
 42
0.0
  0
VERTEX
  8
Default
 10
347.1
 20
702.7
 42
0.0
  0
VERTEX
  8
Default
 10
321.0
 20
699.0
 42
0.0
  0
VERTEX
  8
Default
 10
309.0
 20
699.0
 42
0.0
  0
VERTEX
  8
Default
 10
251.932432
 20
706.594595
 42
0.0
  0
VERTEX
  8
Default
 10
240.923077
 20
708.615385
 42
0.0
  0
VERTEX
  8
Default
 10
211.1
 20
717.3
 42
0.0
  0
VERTEX
  8
Default
 10
206.9
 20
718.7
 42
0.0
  0
VERTEX
  8
Default
 10
187.9
 20
724.8
 42
0.0
  0
VERTEX
  8
Default
 10
177.1
 20
729.2
 42
0.0
  0
VERTEX
  8
Default
 10
170.0
 20
733.0
 42
0.0
  0
VERTEX
  8
Default
 10
166.0
 20
737.0
 42
0.0
  0
VERTEX
  8
Default
 10
166.0
 20
745.0
 42
0.0
  0
VERTEX
  8
Default
 10
169.8
 20
753.1
 42
0.0
  0
VERTEX
  8
Default
 10
170.2
 20
753.9
 42
0.0
  0
VERTEX
  8
Default
 10
179.769231
 20
769.153846
 42
0.0
  0
VERTEX
  8
Default
 10
187.24
 20
779.82
 42
0.0
  0
VERTEX
  8
Default
 10
205.248869
 20
804.773756
 42
0.0
  0
VERTEX
  8
Default
 10
215.0
 20
816.0
 42
0.0
  0
VERTEX
  8
Default
 10
230.0
 20
831.0
 42
0.0
  0
VERTEX
  8
Default
 10
230.766112
 20
831.24948
 42
0.0
  0
VERTEX
  8
Default
 10
246.788235
 20
846.247059
 42
0.0
  0
VERTEX
  8
Default
 10
253.211765
 20
851.752941
 42
0.0
  0
VERTEX
  8
Default
 10
260.846154
 20
857.230769
 42
0.0
  0
VERTEX
  8
Default
 10
270.1
 20
862.8
 42
0.0
  0
VERTEX
  8
Default
 10
283.0
 20
869.0
 42
0.0
  0
VERTEX
  8
Default
 10
289.0
 20
869.0
 42
0.0
  0
VERTEX
  8
Default
 10
317.0
 20
865.0
 42
0.0
  0
VERTEX
  8
Default
 10
352.962069
 20
868.455172
 42
0.0
  0
VERTEX
  8
Default
 10
387.962069
 20
871.455172
 42
0.0
  0
VERTEX
  8
Default
 10
404.06
 20
873.58
 42
0.0
  0
VERTEX
  8
Default
 10
422.94
 20
876.42
 42
0.0
  0
VERTEX
  8
Default
 10
472.088235
 20
885.647059
 42
0.0
  0
VERTEX
  8
Default
 10
505.1
 20
893.7
 42
0.0
  0
VERTEX
  8
Default
 10
548.1
 20
908.8
 42
0.0
  0
VERTEX
  8
Default
 10
571.9
 20
918.3
 42
0.0
  0
VERTEX
  8
Default
 10
586.1
 20
924.8
 42
0.0
  0
VERTEX
  8
Default
 10
589.846154
 20
927.230769
 42
0.0
  0
VERTEX
  8
Default
 10
602.9
 20
934.2
 42
0.0
  0
VERTEX
  8
Default
 10
604.1
 20
934.7
 42
0.0
  0
VERTEX
  8
Default
 10
607.067568
 20
935.594595
 42
0.0
  0
VERTEX
  8
Default
 10
612.0
 20
936.0
 42
0.0
  0
VERTEX
  8
Default
 10
613.0
 20
936.0
 42
0.0
  0
SEQEND
  0
POLYLINE
  8
Default
 66
     1
 10
0.0
 20
0.0
 30
0.0
 70
     1
  0
VERTEX
  8
Default
 10
1335.0
 20
1040.0
 42
0.0
  0
VERTEX
  8
Default
 10
1332.647059
 20
1049.911765
 42
0.0
  0
VERTEX
  8
Default
 10
1325.3
 20
1083.1
 42
0.0
  0
VERTEX
  8
Default
 10
1322.7
 20
1090.9
 42
0.0
  0
VERTEX
  8
Default
 10
1312.2
 20
1119.1
 42
0.0
  0
VERTEX
  8
Default
 10
1311.8
 20
1119.9
 42
0.0
  0
VERTEX
  8
Default
 10
1300.384615
 20
1145.076923
 42
0.0
  0
VERTEX
  8
Default
 10
1300.0
 20
1149.0
 42
0.0
  0
VERTEX
  8
Default
 10
1300.0
 20
1150.0
 42
0.0
  0
VERTEX
  8
Default
 10
1301.0
 20
1150.0
 42
0.0
  0
VERTEX
  8
Default
 10
1330.946154
 20
1152.430769
 42
0.0
  0
VERTEX
  8
Default
 10
1362.076923
 20
1158.615385
 42
0.0
  0
VERTEX
  8
Default
 10
1371.1
 20
1160.7
 42
0.0
  0
VERTEX
  8
Default
 10
1440.1
 20
1184.8
 42
0.0
  0
VERTEX
  8
Default
 10
1467.9
 20
1196.3
 42
0.0
  0
VERTEX
  8
Default
 10
1504.1
 20
1213.8
 42
0.0
  0
VERTEX
  8
Default
 10
1526.9
 20
1225.2
 42
0.0
  0
VERTEX
  8
Default
 10
1578.846154
 20
1254.230769
 42
0.0
  0
VERTEX
  8
Default
 10
1581.153846
 20
1255.769231
 42
0.0
  0
VERTEX
  8
Default
 10
1607.9
 20
1272.2
 42
0.0
  0
VERTEX
  8
Default
 10
1609.1
 20
1272.8
 42
0.0
  0
VERTEX
  8
Default
 10
1618.911765
 20
1276.352941
 42
0.0
  0
VERTEX
  8
Default
 10
1621.9
 20
1277.3
 42
0.0
  0
VERTEX
  8
Default
 10
1661.037931
 20
1280.544828
 42
0.0
  0
VERTEX
  8
Default
 10
1671.962069
 20
1281.455172
 42
0.0
  0
VERTEX
  8
Default
 10
1673.0
 20
1282.0
 42
0.0
  0
VERTEX
  8
Default
 10
1800.0
 20
1282.0
 42
0.0
  0
VERTEX
  8
Default
 10
1849.0
 20
1278.0
 42
0.0
  0
VERTEX
  8
Default
 10
1851.0
 20
1276.0
 42
0.0
  0
VERTEX
  8
Default
 10
1851.0
 20
1275.0
 42
0.0
  0
VERTEX
  8
Default
 10
1849.769231
 20
1273.153846
 42
0.0
  0
VERTEX
  8
Default
 10
1843.75027
 20
1265.238378
 42
0.0
  0
VERTEX
  8
Default
 10
1822.751724
 20
1243.22069
 42
0.0
  0
VERTEX
  8
Default
 10
1802.0
 20
1220.0
 42
0.0
  0
VERTEX
  8
Default
 10
1744.0
 20
1162.0
 42
0.0
  0
VERTEX
  8
Default
 10
1724.18
 20
1145.76
 42
0.0
  0
VERTEX
  8
Default
 10
1695.153846
 20
1123.769231
 42
0.0
  0
VERTEX
  8
Default
 10
1683.22069
 20
1115.751724
 42
0.0
  0
VERTEX
  8
Default
 10
1675.0
 20
1108.0
 42
0.0
  0
VERTEX
  8
Default
 10
1671.0
 20
1108.0
 42
0.0
  0
VERTEX
  8
Default
 10
1667.088235
 20
1109.352941
 42
0.0
  0
VERTEX
  8
Default
 10
1646.0
 20
1112.0
 42
0.0
  0
VERTEX
  8
Default
 10
1628.0
 20
1112.0
 42
0.0
  0
VERTEX
  8
Default
 10
1588.95122
 20
1108.439024
 42
0.0
  0
VERTEX
  8
Default
 10
1571.044554
 20
1106.554455
 42
0.0
  0
VERTEX
  8
Default
 10
1527.932432
 20
1100.405405
 42
0.0
  0
VERTEX
  8
Default
 10
1521.932432
 20
1099.405405
 42
0.0
  0
VERTEX
  8
Default
 10
1466.911765
 20
1088.352941
 42
0.0
  0
VERTEX
  8
Default
 10
1456.088235
 20
1085.647059
 42
0.0
  0
VERTEX
  8
Default
 10
1417.1
 20
1074.7
 42
0.0
  0
VERTEX
  8
Default
 10
1409.1
 20
1071.7
 42
0.0
  0
VERTEX
  8
Default
 10
1372.9
 20
1055.2
 42
0.0
  0
VERTEX
  8
Default
 10
1338.911765
 20
1039.352941
 42
0.0
  0
VERTEX
  8
Default
 10
1336.0
 20
1039.0
 42
0.0
  0
VERTEX
  8
Default
 10
1335.0
 20
1039.0
 42
0.0
  0
SEQEND
  0
POLYLINE
  8
Default
 66
     1
 10
0.0
 20
0.0
 30
0.0
 70
     1
  0
VERTEX
  8
Default
 10
1669.0
 20
1484.0
 42
0.0
  0
VERTEX
  8
Default
 10
1668.405405
 20
1472.932432
 42
0.0
  0
VERTEX
  8
Default
 10
1667.594595
 20
1468.067568
 42
0.0
  0
VERTEX
  8
Default
 10
1664.352941
 20
1454.911765
 42
0.0
  0
VERTEX
  8
Default
 10
1663.352941
 20
1450.911765
 42
0.0
  0
VERTEX
  8
Default
 10
1651.3
 20
1412.9
 42
0.0
  0
VERTEX
  8
Default
 10
1645.3
 20
1395.9
 42
0.0
  0
VERTEX
  8
Default
 10
1639.8
 20
1383.1
 42
0.0
  0
VERTEX
  8
Default
 10
1629.769231
 20
1364.153846
 42
0.0
  0
VERTEX
  8
Default
 10
1615.76
 20
1344.18
 42
0.0
  0
VERTEX
  8
Default
 10
1598.245902
 20
1322.795082
 42
0.0
  0
VERTEX
  8
Default
 10
1583.0
 20
1306.0
 42
0.0
  0
VERTEX
  8
Default
 10
1568.153846
 20
1294.769231
 42
0.0
  0
VERTEX
  8
Default
 10
1543.1
 20
1278.8
 42
0.0
  0
VERTEX
  8
Default
 10
1499.846154
 20
1254.230769
 42
0.0
  0
VERTEX
  8
Default
 10
1465.1
 20
1236.7
 42
0.0
  0
VERTEX
  8
Default
 10
1459.9
 20
1234.2
 42
0.0
  0
VERTEX
  8
Default
 10
1431.9
 20
1221.3
 42
0.0
  0
VERTEX
  8
Default
 10
1423.9
 20
1218.3
 42
0.0
  0
VERTEX
  8
Default
 10
1387.1
 20
1205.7
 42
0.0
  0
VERTEX
  8
Default
 10
1355.1
 20
1195.7
 42
0.0
  0
VERTEX
  8
Default
 10
1326.0
 20
1189.0
 42
0.0
  0
VERTEX
  8
Default
 10
1298.0
 20
1189.0
 42
0.0
  0
VERTEX
  8
Default
 10
1284.911765
 20
1191.647059
 42
0.0
  0
VERTEX
  8
Default
 10
1282.088235
 20
1192.352941
 42
0.0
  0
VERTEX
  8
Default
 10
1278.0
 20
1194.0
 42
0.0
  0
VERTEX
  8
Default
 10
1276.0
 20
1196.0
 42
0.0
  0
VERTEX
  8
Default
 10
1275.8
 20
1196.9
 42
0.0
  0
VERTEX
  8
Default
 10
1275.2
 20
1198.1
 42
0.0
  0
VERTEX
  8
Default
 10
1274.0
 20
1200.0
 42
0.0
  0
VERTEX
  8
Default
 10
1274.0
 20
1221.0
 42
0.0
  0
VERTEX
  8
Default
 10
1274.615385
 20
1222.076923
 42
0.0
  0
VERTEX
  8
Default
 10
1275.384615
 20
1225.923077
 42
0.0
  0
VERTEX
  8
Default
 10
1278.8
 20
1237.1
 42
0.0
  0
VERTEX
  8
Default
 10
1286.230769
 20
1252.846154
 42
0.0
  0
VERTEX
  8
Default
 10
1304.230769
 20
1281.846154
 42
0.0
  0
VERTEX
  8
Default
 10
1305.769231
 20
1284.153846
 42
0.0
  0
VERTEX
  8
Default
 10
1321.24
 20
1305.82
 42
0.0
  0
VERTEX
  8
Default
 10
1323.76
 20
1309.18
 42
0.0
  0
VERTEX
  8
Default
 10
1343.243902
 20
1333.804878
 42
0.0
  0
VERTEX
  8
Default
 10
1383.0
 20
1379.0
 42
0.0
  0
VERTEX
  8
Default
 10
1388.0
 20
1384.0
 42
0.0
  0
VERTEX
  8
Default
 10
1463.9
 20
1449.2
 42
0.0
  0
VERTEX
  8
Default
 10
1476.1
 20
1455.8
 42
0.0
  0
VERTEX
  8
Default
 10
1504.9
 20
1468.2
 42
0.0
  0
VERTEX
  8
Default
 10
1528.1
 20
1476.7
 42
0.0
  0
VERTEX
  8
Default
 10
1543.911765
 20
1481.352941
 42
0.0
  0
VERTEX
  8
Default
 10
1556.06
 20
1483.58
 42
0.0
  0
VERTEX
  8
Default
 10
1586.0
 20
1487.0
 42
0.0
  0
VERTEX
  8
Default
 10
1648.0
 20
1487.0
 42
0.0
  0
VERTEX
  8
Default
 10
1667.1
 20
1485.2
 42
0.0
  0
VERTEX
  8
Default
 10
1668.0
 20
1485.0
 42
0.0
  0
VERTEX
  8
Default
 10
1669.0
 20
1485.0
 42
0.0
  0
SEQEND
  0
POLYLINE
  8
Default
 66
     1
 10
0.0
 20
0.0
 30
0.0
 70
     1
  0
VERTEX
  8
Default
 10
452.0
 20
1728.0
 42
0.0
  0
VERTEX
  8
Default
 10
457.9
 20
1726.7
 42
0.0
  0
VERTEX
  8
Default
 10
469.9
 20
1721.8
 42
0.0
  0
VERTEX
  8
Default
 10
474.9
 20
1719.7
 42
0.0
  0
VERTEX
  8
Default
 10
503.1
 20
1705.2
 42
0.0
  0
VERTEX
  8
Default
 10
519.1
 20
1697.2
 42
0.0
  0
VERTEX
  8
Default
 10
555.846154
 20
1676.769231
 42
0.0
  0
VERTEX
  8
Default
 10
581.846154
 20
1660.769231
 42
0.0
  0
VERTEX
  8
Default
 10
614.82
 20
1637.76
 42
0.0
  0
VERTEX
  8
Default
 10
631.82
 20
1624.76
 42
0.0
  0
VERTEX
  8
Default
 10
643.0
 20
1616.0
 42
0.0
  0
VERTEX
  8
Default
 10
647.0
 20
1612.0
 42
0.0
  0
VERTEX
  8
Default
 10
650.352941
 20
1600.088235
 42
0.0
  0
VERTEX
  8
Default
 10
657.7
 20
1573.9
 42
0.0
  0
VERTEX
  8
Default
 10
660.3
 20
1566.1
 42
0.0
  0
VERTEX
  8
Default
 10
676.8
 20
1524.9
 42
0.0
  0
VERTEX
  8
Default
 10
679.2
 20
1520.1
 42
0.0
  0
VERTEX
  8
Default
 10
713.230769
 20
1452.153846
 42
0.0
  0
VERTEX
  8
Default
 10
724.230769
 20
1435.153846
 42
0.0
  0
VERTEX
  8
Default
 10
741.2
 20
1408.1
 42
0.0
  0
VERTEX
  8
Default
 10
749.230769
 20
1394.153846
 42
0.0
  0
VERTEX
  8
Default
 10
758.248276
 20
1382.22069
 42
0.0
  0
VERTEX
  8
Default
 10
765.751724
 20
1373.77931
 42
0.0
  0
VERTEX
  8
Default
 10
782.756098
 20
1351.804878
 42
0.0
  0
VERTEX
  8
Default
 10
783.0
 20
1351.0
 42
0.0
  0
VERTEX
  8
Default
 10
792.0
 20
1342.0
 42
0.0
  0
VERTEX
  8
Default
 10
803.226244
 20
1332.248869
 42
0.0
  0
VERTEX
  8
Default
 10
818.18
 20
1320.24
 42
0.0
  0
VERTEX
  8
Default
 10
820.0
 20
1319.0
 42
0.0
  0
VERTEX
  8
Default
 10
820.0
 20
1313.0
 42
0.0
  0
VERTEX
  8
Default
 10
790.846154
 20
1296.230769
 42
0.0
  0
VERTEX
  8
Default
 10
786.153846
 20
1293.769231
 42
0.0
  0
VERTEX
  8
Default
 10
761.846154
 20
1277.230769
 42
0.0
  0
VERTEX
  8
Default
 10
755.846154
 20
1273.230769
 42
0.0
  0
VERTEX
  8
Default
 10
737.195122
 20
1258.756098
 42
0.0
  0
VERTEX
  8
Default
 10
732.804878
 20
1255.243902
 42
0.0
  0
VERTEX
  8
Default
 10
724.0
 20
1248.0
 42
0.0
  0
VERTEX
  8
Default
 10
722.0
 20
1248.0
 42
0.0
  0
VERTEX
  8
Default
 10
720.0
 20
1250.0
 42
0.0
  0
VERTEX
  8
Default
 10
715.8
 20
1261.9
 42
0.0
  0
VERTEX
  8
Default
 10
712.2
 20
1271.1
 42
0.0
  0
VERTEX
  8
Default
 10
697.769231
 20
1298.846154
 42
0.0
  0
VERTEX
  8
Default
 10
696.230769
 20
1301.153846
 42
0.0
  0
VERTEX
  8
Default
 10
671.769231
 20
1335.846154
 42
0.0
  0
VERTEX
  8
Default
 10
651.754098
 20
1362.795082
 42
0.0
  0
VERTEX
  8
Default
 10
642.245902
 20
1374.204918
 42
0.0
  0
VERTEX
  8
Default
 10
615.750208
 20
1403.7602
 42
0.0
  0
VERTEX
  8
Default
 10
579.0
 20
1442.0
 42
0.0
  0
VERTEX
  8
Default
 10
573.195122
 20
1446.243902
 42
0.0
  0
VERTEX
  8
Default
 10
568.195122
 20
1450.243902
 42
0.0
  0
VERTEX
  8
Default
 10
546.216814
 20
1468.247788
 42
0.0
  0
VERTEX
  8
Default
 10
531.788235
 20
1480.752941
 42
0.0
  0
VERTEX
  8
Default
 10
518.195122
 20
1490.243902
 42
0.0
  0
VERTEX
  8
Default
 10
513.0
 20
1494.0
 42
0.0
  0
VERTEX
  8
Default
 10
509.0
 20
1498.0
 42
0.0
  0
VERTEX
  8
Default
 10
508.76
 20
1498.82
 42
0.0
  0
VERTEX
  8
Default
 10
505.8
 20
1502.9
 42
0.0
  0
VERTEX
  8
Default
 10
497.8
 20
1519.9
 42
0.0
  0
VERTEX
  8
Default
 10
494.2
 20
1529.1
 42
0.0
  0
VERTEX
  8
Default
 10
484.352941
 20
1557.088235
 42
0.0
  0
VERTEX
  8
Default
 10
482.7
 20
1562.9
 42
0.0
  0
VERTEX
  8
Default
 10
470.352941
 20
1611.088235
 42
0.0
  0
VERTEX
  8
Default
 10
469.352941
 20
1615.088235
 42
0.0
  0
VERTEX
  8
Default
 10
465.594595
 20
1634.932432
 42
0.0
  0
VERTEX
  8
Default
 10
461.384615
 20
1655.076923
 42
0.0
  0
VERTEX
  8
Default
 10
455.455172
 20
1682.037931
 42
0.0
  0
VERTEX
  8
Default
 10
451.0
 20
1727.0
 42
0.0
  0
VERTEX
  8
Default
 10
451.0
 20
1728.0
 42
0.0
  0
SEQEND
  0
POLYLINE
  8
Default
 66
     1
 10
0.0
 20
0.0
 30
0.0
 70
     1
  0
VERTEX
  8
Default
 10
1249.0
 20
1796.0
 42
0.0
  0
VERTEX
  8
Default
 10
1249.8
 20
1793.9
 42
0.0
  0
VERTEX
  8
Default
 10
1267.7
 20
1747.9
 42
0.0
  0
VERTEX
  8
Default
 10
1269.3
 20
1743.1
 42
0.0
  0
VERTEX
  8
Default
 10
1277.615385
 20
1709.923077
 42
0.0
  0
VERTEX
  8
Default
 10
1279.615385
 20
1698.923077
 42
0.0
  0
VERTEX
  8
Default
 10
1281.521664
 20
1687.980069
 42
0.0
  0
VERTEX
  8
Default
 10
1282.478336
 20
1665.019931
 42
0.0
  0
VERTEX
  8
Default
 10
1284.0
 20
1655.0
 42
0.0
  0
VERTEX
  8
Default
 10
1284.0
 20
1638.0
 42
0.0
  0
VERTEX
  8
Default
 10
1276.405405
 20
1595.932432
 42
0.0
  0
VERTEX
  8
Default
 10
1274.615385
 20
1586.076923
 42
0.0
  0
VERTEX
  8
Default
 10
1271.3
 20
1574.9
 42
0.0
  0
VERTEX
  8
Default
 10
1269.7
 20
1570.1
 42
0.0
  0
VERTEX
  8
Default
 10
1255.2
 20
1535.9
 42
0.0
  0
VERTEX
  8
Default
 10
1242.8
 20
1510.1
 42
0.0
  0
VERTEX
  8
Default
 10
1217.769231
 20
1461.153846
 42
0.0
  0
VERTEX
  8
Default
 10
1214.8
 20
1456.1
 42
0.0
  0
VERTEX
  8
Default
 10
1202.769231
 20
1436.153846
 42
0.0
  0
VERTEX
  8
Default
 10
1197.230769
 20
1427.846154
 42
0.0
  0
VERTEX
  8
Default
 10
1173.76
 20
1395.18
 42
0.0
  0
VERTEX
  8
Default
 10
1157.752941
 20
1375.211765
 42
0.0
  0
VERTEX
  8
Default
 10
1152.0
 20
1368.0
 42
0.0
  0
VERTEX
  8
Default
 10
1136.0
 20
1352.0
 42
0.0
  0
VERTEX
  8
Default
 10
1121.153846
 20
1340.769231
 42
0.0
  0
VERTEX
  8
Default
 10
1118.846154
 20
1339.230769
 42
0.0
  0
VERTEX
  8
Default
 10
1110.9
 20
1335.3
 42
0.0
  0
VERTEX
  8
Default
 10
1104.0
 20
1333.0
 42
0.0
  0
VERTEX
  8
Default
 10
1097.0
 20
1333.0
 42
0.0
  0
VERTEX
  8
Default
 10
1090.0
 20
1336.0
 42
0.0
  0
VERTEX
  8
Default
 10
1086.0
 20
1340.0
 42
0.0
  0
VERTEX
  8
Default
 10
1079.8
 20
1350.9
 42
0.0
  0
VERTEX
  8
Default
 10
1075.352941
 20
1364.088235
 42
0.0
  0
VERTEX
  8
Default
 10
1073.384615
 20
1373.076923
 42
0.0
  0
VERTEX
  8
Default
 10
1069.0
 20
1398.0
 42
0.0
  0
VERTEX
  8
Default
 10
1069.0
 20
1470.0
 42
0.0
  0
VERTEX
  8
Default
 10
1070.544828
 20
1482.037931
 42
0.0
  0
VERTEX
  8
Default
 10
1071.455172
 20
1492.962069
 42
0.0
  0
VERTEX
  8
Default
 10
1076.569231
 20
1542.053846
 42
0.0
  0
VERTEX
  8
Default
 10
1078.42
 20
1555.94
 42
0.0
  0
VERTEX
  8
Default
 10
1083.647059
 20
1585.088235
 42
0.0
  0
VERTEX
  8
Default
 10
1084.647059
 20
1589.088235
 42
0.0
  0
VERTEX
  8
Default
 10
1100.7
 20
1647.1
 42
0.0
  0
VERTEX
  8
Default
 10
1102.3
 20
1651.9
 42
0.0
  0
VERTEX
  8
Default
 10
1107.2
 20
1664.9
 42
0.0
  0
VERTEX
  8
Default
 10
1109.3
 20
1669.9
 42
0.0
  0
VERTEX
  8
Default
 10
1116.8
 20
1684.1
 42
0.0
  0
VERTEX
  8
Default
 10
1119.230769
 20
1687.846154
 42
0.0
  0
VERTEX
  8
Default
 10
1132.245902
 20
1705.795082
 42
0.0
  0
VERTEX
  8
Default
 10
1143.752212
 20
1719.216814
 42
0.0
  0
VERTEX
  8
Default
 10
1157.0
 20
1734.0
 42
0.0
  0
VERTEX
  8
Default
 10
1180.211765
 20
1754.752941
 42
0.0
  0
VERTEX
  8
Default
 10
1202.846154
 20
1772.230769
 42
0.0
  0
VERTEX
  8
Default
 10
1209.18
 20
1776.76
 42
0.0
  0
VERTEX
  8
Default
 10
1223.846154
 20
1786.230769
 42
0.0
  0
VERTEX
  8
Default
 10
1230.846154
 20
1790.230769
 42
0.0
  0
VERTEX
  8
Default
 10
1237.9
 20
1794.2
 42
0.0
  0
VERTEX
  8
Default
 10
1239.1
 20
1794.7
 42
0.0
  0
VERTEX
  8
Default
 10
1244.076923
 20
1796.615385
 42
0.0
  0
VERTEX
  8
Default
 10
1248.0
 20
1797.0
 42
0.0
  0
VERTEX
  8
Default
 10
1249.0
 20
1797.0
 42
0.0
  0
SEQEND
  0
POLYLINE
  8
Default
 66
     1
 10
0.0
 20
0.0
 30
0.0
 70
     1
  0
VERTEX
  8
Default
 10
924.0
 20
1346.0
 42
0.0
  0
VERTEX
  8
Default
 10
927.405405
 20
1363.932432
 42
0.0
  0
VERTEX
  8
Default
 10
932.58
 20
1396.06
 42
0.0
  0
VERTEX
  8
Default
 10
933.42
 20
1401.94
 42
0.0
  0
VERTEX
  8
Default
 10
936.0
 20
1422.0
 42
0.0
  0
VERTEX
  8
Default
 10
936.0
 20
1468.0
 42
0.0
  0
VERTEX
  8
Default
 10
935.445545
 20
1469.044554
 42
0.0
  0
VERTEX
  8
Default
 10
931.439024
 20
1508.04878
 42
0.0
  0
VERTEX
  8
Default
 10
925.569231
 20
1562.946154
 42
0.0
  0
VERTEX
  8
Default
 10
923.647059
 20
1571.911765
 42
0.0
  0
VERTEX
  8
Default
 10
919.42
 20
1596.06
 42
0.0
  0
VERTEX
  8
Default
 10
918.58
 20
1601.94
 42
0.0
  0
VERTEX
  8
Default
 10
916.647059
 20
1611.911765
 42
0.0
  0
VERTEX
  8
Default
 10
916.352941
 20
1613.088235
 42
0.0
  0
VERTEX
  8
Default
 10
906.7
 20
1646.9
 42
0.0
  0
VERTEX
  8
Default
 10
905.7
 20
1649.9
 42
0.0
  0
VERTEX
  8
Default
 10
898.0
 20
1672.0
 42
0.0
  0
VERTEX
  8
Default
 10
898.0
 20
1682.0
 42
0.0
  0
VERTEX
  8
Default
 10
898.647059
 20
1683.088235
 42
0.0
  0
VERTEX
  8
Default
 10
907.647059
 20
1717.088235
 42
0.0
  0
VERTEX
  8
Default
 10
908.7
 20
1721.1
 42
0.0
  0
VERTEX
  8
Default
 10
920.8
 20
1750.1
 42
0.0
  0
VERTEX
  8
Default
 10
922.8
 20
1755.1
 42
0.0
  0
VERTEX
  8
Default
 10
940.8
 20
1793.1
 42
0.0
  0
VERTEX
  8
Default
 10
942.2
 20
1795.9
 42
0.0
  0
VERTEX
  8
Default
 10
966.230769
 20
1837.846154
 42
0.0
  0
VERTEX
  8
Default
 10
968.230769
 20
1840.846154
 42
0.0
  0
VERTEX
  8
Default
 10
997.8
 20
1889.1
 42
0.0
  0
VERTEX
  8
Default
 10
998.0
 20
1890.0
 42
0.0
  0
VERTEX
  8
Default
 10
1000.0
 20
1892.0
 42
0.0
  0
VERTEX
  8
Default
 10
1005.0
 20
1892.0
 42
0.0
  0
VERTEX
  8
Default
 10
1006.0
 20
1892.0
 42
0.0
  0
VERTEX
  8
Default
 10
1006.0
 20
1891.0
 42
0.0
  0
VERTEX
  8
Default
 10
1009.2
 20
1883.1
 42
0.0
  0
VERTEX
  8
Default
 10
1023.3
 20
1847.1
 42
0.0
  0
VERTEX
  8
Default
 10
1026.647059
 20
1835.911765
 42
0.0
  0
VERTEX
  8
Default
 10
1041.8
 20
1794.9
 42
0.0
  0
VERTEX
  8
Default
 10
1048.7
 20
1776.9
 42
0.0
  0
VERTEX
  8
Default
 10
1055.647059
 20
1757.911765
 42
0.0
  0
VERTEX
  8
Default
 10
1062.7
 20
1733.9
 42
0.0
  0
VERTEX
  8
Default
 10
1074.0
 20
1696.0
 42
0.0
  0
VERTEX
  8
Default
 10
1074.0
 20
1688.0
 42
0.0
  0
VERTEX
  8
Default
 10
1073.42
 20
1686.94
 42
0.0
  0
VERTEX
  8
Default
 10
1072.58
 20
1681.06
 42
0.0
  0
VERTEX
  8
Default
 10
1048.3
 20
1596.9
 42
0.0
  0
VERTEX
  8
Default
 10
1047.352941
 20
1593.911765
 42
0.0
  0
VERTEX
  8
Default
 10
1044.430769
 20
1581.946154
 42
0.0
  0
VERTEX
  8
Default
 10
1043.430769
 20
1573.946154
 42
0.0
  0
VERTEX
  8
Default
 10
1032.479233
 20
1497.980831
 42
0.0
  0
VERTEX
  8
Default
 10
1030.529231
 20
1456.026154
 42
0.0
  0
VERTEX
  8
Default
 10
1030.0
 20
1455.0
 42
0.0
  0
VERTEX
  8
Default
 10
1030.0
 20
1431.0
 42
0.0
  0
VERTEX
  8
Default
 10
1030.538071
 20
1429.967005
 42
0.0
  0
VERTEX
  8
Default
 10
1033.615385
 20
1384.923077
 42
0.0
  0
VERTEX
  8
Default
 10
1035.384615
 20
1376.076923
 42
0.0
  0
VERTEX
  8
Default
 10
1037.7
 20
1368.9
 42
0.0
  0
VERTEX
  8
Default
 10
1038.3
 20
1367.1
 42
0.0
  0
VERTEX
  8
Default
 10
1042.58
 20
1349.94
 42
0.0
  0
VERTEX
  8
Default
 10
1043.0
 20
1344.0
 42
0.0
  0
VERTEX
  8
Default
 10
1043.0
 20
1343.0
 42
0.0
  0
VERTEX
  8
Default
 10
1042.0
 20
1343.0
 42
0.0
  0
VERTEX
  8
Default
 10
1032.040984
 20
1343.45082
 42
0.0
  0
VERTEX
  8
Default
 10
997.037931
 20
1346.455172
 42
0.0
  0
VERTEX
  8
Default
 10
984.0
 20
1348.0
 42
0.0
  0
VERTEX
  8
Default
 10
961.0
 20
1348.0
 42
0.0
  0
VERTEX
  8
Default
 10
959.962069
 20
1347.455172
 42
0.0
  0
VERTEX
  8
Default
 10
935.962069
 20
1345.455172
 42
0.0
  0
VERTEX
  8
Default
 10
925.0
 20
1345.0
 42
0.0
  0
VERTEX
  8
Default
 10
924.0
 20
1345.0
 42
0.0
  0
SEQEND
  0
ENDSEC
  0
EOF
