  0
SECTION
  2
HEADER
  9
$ACADVER
  1
AC1009
  9
$EXTMAX
 10
1475.0
 20
1129.0
 30
0.0
  9
$EXTMIN
 10
81.0
 20
61.0
 30
0.0
  9
$INSUNITS
 70
     4
  9
$LUNITS
 70
     2
  9
$LUPREC
 70
     4
  9
$MEASUREMENT
 70
     1
  0
ENDSEC
  0
SECTION
  2
TABLES
  0
TABLE
  2
LAYER
 70
     1
  0
LAYER
  2
0
 70
     0
 62
     3
  6
Continuous
  0
LAYER
  2
Default
 70
     0
 62
     3
  6
Continuous
  0
ENDTAB
  0
TABLE
  2
APPID
 70
     1
  0
APPID
  2
ACAD
 70
     0
  0
ENDTAB
  0
ENDSEC
  0
SECTION
  2
ENTITIES
  0
POLYLINE
  8
Default
 66
     1
 10
0.0
 20
0.0
 30
0.0
 70
     1
  0
VERTEX
  8
Default
 10
1224.0
 20
1002.0
 42
0.0
  0
VERTEX
  8
Default
 10
1228.0
 20
1005.0
 42
0.0
  0
VERTEX
  8
Default
 10
1228.0
 20
1007.0
 42
0.0
  0
VERTEX
  8
Default
 10
1226.2
 20
1010.1
 42
0.0
  0
VERTEX
  8
Default
 10
1226.0
 20
1011.0
 42
0.0
  0
VERTEX
  8
Default
 10
1223.0
 20
1014.0
 42
0.0
  0
VERTEX
  8
Default
 10
1219.0
 20
1015.0
 42
0.0
  0
VERTEX
  8
Default
 10
1217.0
 20
1013.0
 42
0.0
  0
VERTEX
  8
Default
 10
1216.0
 20
1010.0
 42
0.0
  0
VERTEX
  8
Default
 10
1216.0
 20
1007.0
 42
0.0
  0
VERTEX
  8
Default
 10
1221.0
 20
1002.0
 42
0.0
  0
SEQEND
  0
POLYLINE
  8
Default
 66
     1
 10
0.0
 20
0.0
 30
0.0
 70
     1
  0
VERTEX
  8
Default
 10
1330.0
 20
932.0
 42
0.0
  0
VERTEX
  8
Default
 10
1333.0
 20
934.0
 42
0.0
  0
VERTEX
  8
Default
 10
1338.0
 20
939.0
 42
0.0
  0
VERTEX
  8
Default
 10
1340.0
 20
942.0
 42
0.0
  0
VERTEX
  8
Default
 10
1340.0
 20
944.0
 42
0.0
  0
VERTEX
  8
Default
 10
1338.0
 20
947.0
 42
0.0
  0
VERTEX
  8
Default
 10
1335.0
 20
950.0
 42
0.0
  0
VERTEX
  8
Default
 10
1333.0
 20
951.0
 42
0.0
  0
VERTEX
  8
Default
 10
1331.0
 20
951.0
 42
0.0
  0
VERTEX
  8
Default
 10
1324.8
 20
943.1
 42
0.0
  0
VERTEX
  8
Default
 10
1323.0
 20
939.0
 42
0.0
  0
VERTEX
  8
Default
 10
1323.0
 20
937.0
 42
0.0
  0
VERTEX
  8
Default
 10
1323.8
 20
935.9
 42
0.0
  0
VERTEX
  8
Default
 10
1324.0
 20
935.0
 42
0.0
  0
VERTEX
  8
Default
 10
1327.0
 20
932.0
 42
0.0
  0
SEQEND
  0
POLYLINE
  8
Default
 66
     1
 10
0.0
 20
0.0
 30
0.0
 70
     0
  0
VERTEX
  8
Default
 10
314.0
 20
928.0
 42
0.0
  0
VERTEX
  8
Default
 10
302.582759
 20
938.506897
 42
0.0
  0
VERTEX
  8
Default
 10
298.8
 20
940.6
 42
0.0
  0
VERTEX
  8
Default
 10
297.1
 20
941.3
 42
0.0
  0
VERTEX
  8
Default
 10
287.94
 20
943.58
 42
0.0
  0
VERTEX
  8
Default
 10
282.06
 20
944.42
 42
0.0
  0
VERTEX
  8
Default
 10
281.0
 20
945.0
 42
0.0
  0
VERTEX
  8
Default
 10
247.0
 20
945.0
 42
0.0
  0
VERTEX
  8
Default
 10
246.0
 20
944.0
 42
0.0
  0
SEQEND
  0
POLYLINE
  8
Default
 66
     1
 10
0.0
 20
0.0
 30
0.0
 70
     0
  0
VERTEX
  8
Default
 10
457.0
 20
879.0
 42
0.0
  0
VERTEX
  8
Default
 10
453.0
 20
885.0
 42
0.0
  0
SEQEND
  0
POLYLINE
  8
Default
 66
     1
 10
0.0
 20
0.0
 30
0.0
 70
     0
  0
VERTEX
  8
Default
 10
509.0
 20
807.0
 42
0.0
  0
VERTEX
  8
Default
 10
511.769231
 20
811.153846
 42
0.0
  0
VERTEX
  8
Default
 10
518.248276
 20
821.77931
 42
0.0
  0
VERTEX
  8
Default
 10
525.751724
 20
830.22069
 42
0.0
  0
VERTEX
  8
Default
 10
526.0
 20
831.0
 42
0.0
  0
VERTEX
  8
Default
 10
532.0
 20
837.0
 42
0.0
  0
VERTEX
  8
Default
 10
534.1
 20
837.8
 42
0.0
  0
VERTEX
  8
Default
 10
539.153846
 20
840.769231
 42
0.0
  0
VERTEX
  8
Default
 10
549.9
 20
845.3
 42
0.0
  0
VERTEX
  8
Default
 10
558.911765
 20
848.352941
 42
0.0
  0
VERTEX
  8
Default
 10
572.0
 20
853.0
 42
0.0
  0
VERTEX
  8
Default
 10
589.0
 20
853.0
 42
0.0
  0
VERTEX
  8
Default
 10
608.911765
 20
846.647059
 42
0.0
  0
VERTEX
  8
Default
 10
614.9
 20
843.8
 42
0.0
  0
VERTEX
  8
Default
 10
618.1
 20
842.2
 42
0.0
  0
VERTEX
  8
Default
 10
627.0
 20
837.0
 42
0.0
  0
VERTEX
  8
Default
 10
642.0
 20
821.0
 42
0.0
  0
SEQEND
  0
POLYLINE
  8
Default
 66
     1
 10
0.0
 20
0.0
 30
0.0
 70
     0
  0
VERTEX
  8
Default
 10
706.0
 20
676.0
 42
0.0
  0
VERTEX
  8
Default
 10
707.0
 20
677.0
 42
0.0
  0
SEQEND
  0
POLYLINE
  8
Default
 66
     1
 10
0.0
 20
0.0
 30
0.0
 70
     1
  0
VERTEX
  8
Default
 10
601.0
 20
662.0
 42
0.0
  0
VERTEX
  8
Default
 10
602.1
 20
662.7
 42
0.0
  0
VERTEX
  8
Default
 10
606.0
 20
664.0
 42
0.0
  0
VERTEX
  8
Default
 10
610.0
 20
668.0
 42
0.0
  0
VERTEX
  8
Default
 10
610.0
 20
672.0
 42
0.0
  0
VERTEX
  8
Default
 10
609.0
 20
674.0
 42
0.0
  0
VERTEX
  8
Default
 10
604.0
 20
679.0
 42
0.0
  0
VERTEX
  8
Default
 10
601.1
 20
680.2
 42
0.0
  0
VERTEX
  8
Default
 10
600.0
 20
681.0
 42
0.0
  0
VERTEX
  8
Default
 10
597.0
 20
681.0
 42
0.0
  0
VERTEX
  8
Default
 10
595.0
 20
680.0
 42
0.0
  0
VERTEX
  8
Default
 10
591.0
 20
676.0
 42
0.0
  0
VERTEX
  8
Default
 10
590.0
 20
669.0
 42
0.0
  0
VERTEX
  8
Default
 10
591.0
 20
667.0
 42
0.0
  0
VERTEX
  8
Default
 10
594.0
 20
664.0
 42
0.0
  0
VERTEX
  8
Default
 10
598.088235
 20
662.352941
 42
0.0
  0
SEQEND
  0
POLYLINE
  8
Default
 66
     1
 10
0.0
 20
0.0
 30
0.0
 70
     0
  0
VERTEX
  8
Default
 10
695.0
 20
629.0
 42
0.0
  0
VERTEX
  8
Default
 10
711.441379
 20
613.496552
 42
0.0
  0
VERTEX
  8
Default
 10
715.2
 20
611.4
 42
0.0
  0
VERTEX
  8
Default
 10
722.911765
 20
608.647059
 42
0.0
  0
VERTEX
  8
Default
 10
728.0
 20
607.0
 42
0.0
  0
VERTEX
  8
Default
 10
735.0
 20
607.0
 42
0.0
  0
VERTEX
  8
Default
 10
739.923077
 20
608.384615
 42
0.0
  0
VERTEX
  8
Default
 10
745.1
 20
610.8
 42
0.0
  0
VERTEX
  8
Default
 10
746.0
 20
611.0
 42
0.0
  0
VERTEX
  8
Default
 10
755.0
 20
620.0
 42
0.0
  0
VERTEX
  8
Default
 10
758.647059
 20
627.088235
 42
0.0
  0
VERTEX
  8
Default
 10
759.352941
 20
629.911765
 42
0.0
  0
VERTEX
  8
Default
 10
761.0
 20
636.0
 42
0.0
  0
VERTEX
  8
Default
 10
761.0
 20
647.0
 42
0.0
  0
VERTEX
  8
Default
 10
757.7
 20
660.9
 42
0.0
  0
VERTEX
  8
Default
 10
746.756098
 20
681.804878
 42
0.0
  0
VERTEX
  8
Default
 10
743.243902
 20
686.195122
 42
0.0
  0
VERTEX
  8
Default
 10
743.0
 20
687.0
 42
0.0
  0
VERTEX
  8
Default
 10
733.0
 20
697.0
 42
0.0
  0
VERTEX
  8
Default
 10
731.0
 20
697.0
 42
0.0
  0
VERTEX
  8
Default
 10
725.0
 20
703.0
 42
0.0
  0
VERTEX
  8
Default
 10
723.0
 20
706.0
 42
0.0
  0
SEQEND
  0
POLYLINE
  8
Default
 66
     1
 10
0.0
 20
0.0
 30
0.0
 70
     1
  0
VERTEX
  8
Default
 10
598.0
 20
587.0
 42
0.0
  0
VERTEX
  8
Default
 10
621.1
 20
591.7
 42
0.0
  0
VERTEX
  8
Default
 10
636.1
 20
596.7
 42
0.0
  0
VERTEX
  8
Default
 10
650.1
 20
603.8
 42
0.0
  0
VERTEX
  8
Default
 10
655.804878
 20
607.243902
 42
0.0
  0
VERTEX
  8
Default
 10
669.0
 20
618.0
 42
0.0
  0
VERTEX
  8
Default
 10
677.243902
 20
627.804878
 42
0.0
  0
VERTEX
  8
Default
 10
682.769231
 20
635.153846
 42
0.0
  0
VERTEX
  8
Default
 10
686.482759
 20
642.206897
 42
0.0
  0
VERTEX
  8
Default
 10
688.482759
 20
647.206897
 42
0.0
  0
VERTEX
  8
Default
 10
691.569231
 20
657.053846
 42
0.0
  0
VERTEX
  8
Default
 10
692.430769
 20
663.946154
 42
0.0
  0
VERTEX
  8
Default
 10
693.0
 20
665.0
 42
0.0
  0
VERTEX
  8
Default
 10
693.0
 20
677.0
 42
0.0
  0
VERTEX
  8
Default
 10
691.42
 20
683.06
 42
0.0
  0
VERTEX
  8
Default
 10
690.294118
 20
688.823529
 42
0.0
  0
VERTEX
  8
Default
 10
688.482759
 20
693.793103
 42
0.0
  0
VERTEX
  8
Default
 10
684.482759
 20
704.793103
 42
0.0
  0
VERTEX
  8
Default
 10
678.769231
 20
714.846154
 42
0.0
  0
VERTEX
  8
Default
 10
676.756098
 20
717.804878
 42
0.0
  0
VERTEX
  8
Default
 10
665.0
 20
732.0
 42
0.0
  0
VERTEX
  8
Default
 10
654.776243
 20
740.751381
 42
0.0
  0
VERTEX
  8
Default
 10
646.9
 20
745.8
 42
0.0
  0
VERTEX
  8
Default
 10
640.1
 20
750.2
 42
0.0
  0
VERTEX
  8
Default
 10
638.9
 20
750.8
 42
0.0
  0
VERTEX
  8
Default
 10
621.9
 20
757.7
 42
0.0
  0
VERTEX
  8
Default
 10
618.923077
 20
758.615385
 42
0.0
  0
VERTEX
  8
Default
 10
615.2
 20
759.6
 42
0.0
  0
VERTEX
  8
Default
 10
613.0
 20
761.0
 42
0.0
  0
VERTEX
  8
Default
 10
588.0
 20
761.0
 42
0.0
  0
VERTEX
  8
Default
 10
586.94
 20
760.42
 42
0.0
  0
VERTEX
  8
Default
 10
561.9
 20
755.3
 42
0.0
  0
VERTEX
  8
Default
 10
550.9
 20
751.2
 42
0.0
  0
VERTEX
  8
Default
 10
548.9
 20
750.2
 42
0.0
  0
VERTEX
  8
Default
 10
542.204918
 20
746.754098
 42
0.0
  0
VERTEX
  8
Default
 10
536.0
 20
742.0
 42
0.0
  0
VERTEX
  8
Default
 10
530.0
 20
736.0
 42
0.0
  0
VERTEX
  8
Default
 10
521.8
 20
723.1
 42
0.0
  0
VERTEX
  8
Default
 10
517.384615
 20
711.923077
 42
0.0
  0
VERTEX
  8
Default
 10
516.2
 20
706.9
 42
0.0
  0
VERTEX
  8
Default
 10
513.0
 20
689.0
 42
0.0
  0
VERTEX
  8
Default
 10
513.0
 20
681.0
 42
0.0
  0
VERTEX
  8
Default
 10
515.384615
 20
667.076923
 42
0.0
  0
VERTEX
  8
Default
 10
516.439024
 20
658.04878
 42
0.0
  0
VERTEX
  8
Default
 10
518.352941
 20
650.088235
 42
0.0
  0
VERTEX
  8
Default
 10
518.7
 20
648.9
 42
0.0
  0
VERTEX
  8
Default
 10
524.8
 20
632.9
 42
0.0
  0
VERTEX
  8
Default
 10
528.8
 20
625.9
 42
0.0
  0
VERTEX
  8
Default
 10
533.0
 20
620.0
 42
0.0
  0
VERTEX
  8
Default
 10
548.0
 20
605.0
 42
0.0
  0
VERTEX
  8
Default
 10
560.2
 20
597.4
 42
0.0
  0
VERTEX
  8
Default
 10
561.8
 20
596.6
 42
0.0
  0
VERTEX
  8
Default
 10
570.088235
 20
592.352941
 42
0.0
  0
VERTEX
  8
Default
 10
578.1
 20
590.2
 42
0.0
  0
VERTEX
  8
Default
 10
587.067568
 20
588.405405
 42
0.0
  0
SEQEND
  0
POLYLINE
  8
Default
 66
     1
 10
0.0
 20
0.0
 30
0.0
 70
     0
  0
VERTEX
  8
Default
 10
978.0
 20
521.0
 42
0.0
  0
VERTEX
  8
Default
 10
981.4
 20
526.3
 42
0.0
  0
VERTEX
  8
Default
 10
982.352941
 20
528.911765
 42
0.0
  0
VERTEX
  8
Default
 10
984.0
 20
532.0
 42
0.0
  0
VERTEX
  8
Default
 10
984.0
 20
542.0
 42
0.0
  0
VERTEX
  8
Default
 10
982.615385
 20
546.923077
 42
0.0
  0
VERTEX
  8
Default
 10
982.352941
 20
548.088235
 42
0.0
  0
VERTEX
  8
Default
 10
980.0
 20
555.0
 42
0.0
  0
VERTEX
  8
Default
 10
973.0
 20
562.0
 42
0.0
  0
VERTEX
  8
Default
 10
970.9
 20
562.8
 42
0.0
  0
VERTEX
  8
Default
 10
970.1
 20
563.2
 42
0.0
  0
VERTEX
  8
Default
 10
967.0
 20
565.0
 42
0.0
  0
VERTEX
  8
Default
 10
962.0
 20
565.0
 42
0.0
  0
VERTEX
  8
Default
 10
960.9
 20
564.3
 42
0.0
  0
VERTEX
  8
Default
 10
959.0
 20
564.0
 42
0.0
  0
VERTEX
  8
Default
 10
953.0
 20
558.0
 42
0.0
  0
VERTEX
  8
Default
 10
953.0
 20
557.0
 42
0.0
  0
SEQEND
  0
POLYLINE
  8
Default
 66
     1
 10
0.0
 20
0.0
 30
0.0
 70
     1
  0
VERTEX
  8
Default
 10
178.0
 20
505.0
 42
0.0
  0
VERTEX
  8
Default
 10
179.067568
 20
505.594595
 42
0.0
  0
VERTEX
  8
Default
 10
184.0
 20
506.0
 42
0.0
  0
VERTEX
  8
Default
 10
190.0
 20
512.0
 42
0.0
  0
VERTEX
  8
Default
 10
190.0
 20
514.0
 42
0.0
  0
VERTEX
  8
Default
 10
189.0
 20
515.0
 42
0.0
  0
VERTEX
  8
Default
 10
187.2
 20
515.4
 42
0.0
  0
VERTEX
  8
Default
 10
185.0
 20
517.0
 42
0.0
  0
VERTEX
  8
Default
 10
179.0
 20
517.0
 42
0.0
  0
VERTEX
  8
Default
 10
176.0
 20
514.0
 42
0.0
  0
VERTEX
  8
Default
 10
175.8
 20
513.1
 42
0.0
  0
VERTEX
  8
Default
 10
175.0
 20
512.0
 42
0.0
  0
VERTEX
  8
Default
 10
175.0
 20
506.0
 42
0.0
  0
VERTEX
  8
Default
 10
176.0
 20
505.0
 42
0.0
  0
SEQEND
  0
POLYLINE
  8
Default
 66
     1
 10
0.0
 20
0.0
 30
0.0
 70
     1
  0
VERTEX
  8
Default
 10
975.0
 20
488.0
 42
0.0
  0
VERTEX
  8
Default
 10
980.0
 20
492.0
 42
0.0
  0
VERTEX
  8
Default
 10
980.230769
 20
492.846154
 42
0.0
  0
VERTEX
  8
Default
 10
982.0
 20
495.0
 42
0.0
  0
VERTEX
  8
Default
 10
982.0
 20
499.0
 42
0.0
  0
VERTEX
  8
Default
 10
981.2
 20
500.1
 42
0.0
  0
VERTEX
  8
Default
 10
981.0
 20
501.0
 42
0.0
  0
VERTEX
  8
Default
 10
977.0
 20
505.0
 42
0.0
  0
VERTEX
  8
Default
 10
976.195122
 20
505.243902
 42
0.0
  0
VERTEX
  8
Default
 10
972.0
 20
509.0
 42
0.0
  0
VERTEX
  8
Default
 10
969.0
 20
509.0
 42
0.0
  0
VERTEX
  8
Default
 10
964.769231
 20
503.153846
 42
0.0
  0
VERTEX
  8
Default
 10
963.0
 20
501.0
 42
0.0
  0
VERTEX
  8
Default
 10
963.0
 20
495.0
 42
0.0
  0
VERTEX
  8
Default
 10
969.0
 20
488.0
 42
0.0
  0
SEQEND
  0
POLYLINE
  8
Default
 66
     1
 10
0.0
 20
0.0
 30
0.0
 70
     1
  0
VERTEX
  8
Default
 10
302.0
 20
472.0
 42
0.0
  0
VERTEX
  8
Default
 10
308.0
 20
478.0
 42
0.0
  0
VERTEX
  8
Default
 10
308.0
 20
480.0
 42
0.0
  0
VERTEX
  8
Default
 10
306.0
 20
483.0
 42
0.0
  0
VERTEX
  8
Default
 10
302.0
 20
487.0
 42
0.0
  0
VERTEX
  8
Default
 10
297.0
 20
478.0
 42
0.0
  0
VERTEX
  8
Default
 10
297.0
 20
476.0
 42
0.0
  0
VERTEX
  8
Default
 10
300.0
 20
472.0
 42
0.0
  0
SEQEND
  0
POLYLINE
  8
Default
 66
     1
 10
0.0
 20
0.0
 30
0.0
 70
     0
  0
VERTEX
  8
Default
 10
664.0
 20
416.0
 42
0.0
  0
VERTEX
  8
Default
 10
662.0
 20
418.0
 42
0.0
  0
SEQEND
  0
POLYLINE
  8
Default
 66
     1
 10
0.0
 20
0.0
 30
0.0
 70
     1
  0
VERTEX
  8
Default
 10
994.0
 20
415.0
 42
0.0
  0
VERTEX
  8
Default
 10
998.923077
 20
416.384615
 42
0.0
  0
VERTEX
  8
Default
 10
1006.1
 20
418.7
 42
0.0
  0
VERTEX
  8
Default
 10
1011.8
 20
421.4
 42
0.0
  0
VERTEX
  8
Default
 10
1021.846154
 20
427.230769
 42
0.0
  0
VERTEX
  8
Default
 10
1024.153846
 20
428.769231
 42
0.0
  0
VERTEX
  8
Default
 10
1039.0
 20
440.0
 42
0.0
  0
VERTEX
  8
Default
 10
1049.0
 20
450.0
 42
0.0
  0
VERTEX
  8
Default
 10
1051.76
 20
454.18
 42
0.0
  0
VERTEX
  8
Default
 10
1053.769231
 20
457.153846
 42
0.0
  0
VERTEX
  8
Default
 10
1060.482759
 20
471.206897
 42
0.0
  0
VERTEX
  8
Default
 10
1061.352941
 20
473.911765
 42
0.0
  0
VERTEX
  8
Default
 10
1062.594595
 20
477.067568
 42
0.0
  0
VERTEX
  8
Default
 10
1063.405405
 20
481.932432
 42
0.0
  0
VERTEX
  8
Default
 10
1064.2
 20
483.9
 42
0.0
  0
VERTEX
  8
Default
 10
1067.0
 20
496.0
 42
0.0
  0
VERTEX
  8
Default
 10
1067.0
 20
510.0
 42
0.0
  0
VERTEX
  8
Default
 10
1065.594595
 20
515.932432
 42
0.0
  0
VERTEX
  8
Default
 10
1062.4
 20
526.8
 42
0.0
  0
VERTEX
  8
Default
 10
1061.4
 20
529.2
 42
0.0
  0
VERTEX
  8
Default
 10
1054.756098
 20
541.804878
 42
0.0
  0
VERTEX
  8
Default
 10
1051.461538
 20
546.307692
 42
0.0
  0
VERTEX
  8
Default
 10
1051.0
 20
548.0
 42
0.0
  0
VERTEX
  8
Default
 10
1037.0
 20
562.0
 42
0.0
  0
VERTEX
  8
Default
 10
1030.795082
 20
566.754098
 42
0.0
  0
VERTEX
  8
Default
 10
1024.735294
 20
570.558824
 42
0.0
  0
VERTEX
  8
Default
 10
1020.153846
 20
573.230769
 42
0.0
  0
VERTEX
  8
Default
 10
1004.793103
 20
580.482759
 42
0.0
  0
VERTEX
  8
Default
 10
996.088235
 20
583.352941
 42
0.0
  0
VERTEX
  8
Default
 10
975.0
 20
589.0
 42
0.0
  0
VERTEX
  8
Default
 10
960.0
 20
589.0
 42
0.0
  0
VERTEX
  8
Default
 10
952.088235
 20
586.647059
 42
0.0
  0
VERTEX
  8
Default
 10
932.2
 20
578.6
 42
0.0
  0
VERTEX
  8
Default
 10
918.846154
 20
570.230769
 42
0.0
  0
VERTEX
  8
Default
 10
915.0
 20
568.0
 42
0.0
  0
VERTEX
  8
Default
 10
907.0
 20
560.0
 42
0.0
  0
VERTEX
  8
Default
 10
901.2
 20
549.9
 42
0.0
  0
VERTEX
  8
Default
 10
897.7
 20
541.1
 42
0.0
  0
VERTEX
  8
Default
 10
894.2
 20
529.9
 42
0.0
  0
VERTEX
  8
Default
 10
893.8
 20
529.1
 42
0.0
  0
VERTEX
  8
Default
 10
891.42
 20
519.94
 42
0.0
  0
VERTEX
  8
Default
 10
889.0
 20
504.0
 42
0.0
  0
VERTEX
  8
Default
 10
889.0
 20
491.0
 42
0.0
  0
VERTEX
  8
Default
 10
891.405405
 20
477.067568
 42
0.0
  0
VERTEX
  8
Default
 10
895.2
 20
467.1
 42
0.0
  0
VERTEX
  8
Default
 10
898.8
 20
459.9
 42
0.0
  0
VERTEX
  8
Default
 10
906.0
 20
448.0
 42
0.0
  0
VERTEX
  8
Default
 10
917.0
 20
437.0
 42
0.0
  0
VERTEX
  8
Default
 10
928.153846
 20
429.230769
 42
0.0
  0
VERTEX
  8
Default
 10
934.1
 20
426.2
 42
0.0
  0
VERTEX
  8
Default
 10
934.9
 20
425.8
 42
0.0
  0
VERTEX
  8
Default
 10
944.9
 20
421.8
 42
0.0
  0
VERTEX
  8
Default
 10
956.923077
 20
418.615385
 42
0.0
  0
VERTEX
  8
Default
 10
978.027586
 20
415.468966
 42
0.0
  0
SEQEND
  0
POLYLINE
  8
Default
 66
     1
 10
0.0
 20
0.0
 30
0.0
 70
     0
  0
VERTEX
  8
Default
 10
1328.0
 20
346.0
 42
0.0
  0
VERTEX
  8
Default
 10
1329.0
 20
347.0
 42
0.0
  0
SEQEND
  0
POLYLINE
  8
Default
 66
     1
 10
0.0
 20
0.0
 30
0.0
 70
     0
  0
VERTEX
  8
Default
 10
1113.0
 20
345.0
 42
0.0
  0
VERTEX
  8
Default
 10
1112.0
 20
346.0
 42
0.0
  0
SEQEND
  0
POLYLINE
  8
Default
 66
     1
 10
0.0
 20
0.0
 30
0.0
 70
     0
  0
VERTEX
  8
Default
 10
689.0
 20
252.0
 42
0.0
  0
VERTEX
  8
Default
 10
675.495575
 20
266.433628
 42
0.0
  0
VERTEX
  8
Default
 10
671.0
 20
272.0
 42
0.0
  0
SEQEND
  0
POLYLINE
  8
Default
 66
     1
 10
0.0
 20
0.0
 30
0.0
 70
     1
  0
VERTEX
  8
Default
 10
616.0
 20
216.0
 42
0.0
  0
VERTEX
  8
Default
 10
615.6
 20
217.8
 42
0.0
  0
VERTEX
  8
Default
 10
614.230769
 20
220.153846
 42
0.0
  0
VERTEX
  8
Default
 10
614.0
 20
221.0
 42
0.0
  0
VERTEX
  8
Default
 10
611.0
 20
224.0
 42
0.0
  0
VERTEX
  8
Default
 10
606.82
 20
226.76
 42
0.0
  0
VERTEX
  8
Default
 10
600.911765
 20
229.647059
 42
0.0
  0
VERTEX
  8
Default
 10
597.0
 20
231.0
 42
0.0
  0
VERTEX
  8
Default
 10
590.0
 20
231.0
 42
0.0
  0
VERTEX
  8
Default
 10
583.0
 20
224.0
 42
0.0
  0
VERTEX
  8
Default
 10
582.8
 20
223.1
 42
0.0
  0
VERTEX
  8
Default
 10
581.0
 20
220.0
 42
0.0
  0
VERTEX
  8
Default
 10
581.0
 20
207.0
 42
0.0
  0
VERTEX
  8
Default
 10
583.0
 20
204.0
 42
0.0
  0
VERTEX
  8
Default
 10
587.0
 20
200.0
 42
0.0
  0
VERTEX
  8
Default
 10
587.846154
 20
199.769231
 42
0.0
  0
VERTEX
  8
Default
 10
590.0
 20
198.0
 42
0.0
  0
VERTEX
  8
Default
 10
599.0
 20
198.0
 42
0.0
  0
VERTEX
  8
Default
 10
604.846154
 20
201.230769
 42
0.0
  0
VERTEX
  8
Default
 10
607.153846
 20
202.769231
 42
0.0
  0
VERTEX
  8
Default
 10
608.0
 20
203.0
 42
0.0
  0
VERTEX
  8
Default
 10
613.0
 20
208.0
 42
0.0
  0
VERTEX
  8
Default
 10
614.482759
 20
212.206897
 42
0.0
  0
SEQEND
  0
POLYLINE
  8
Default
 66
     1
 10
0.0
 20
0.0
 30
0.0
 70
     1
  0
VERTEX
  8
Default
 10
317.0
 20
184.0
 42
0.0
  0
VERTEX
  8
Default
 10
320.1
 20
185.8
 42
0.0
  0
VERTEX
  8
Default
 10
321.0
 20
186.0
 42
0.0
  0
VERTEX
  8
Default
 10
326.0
 20
192.0
 42
0.0
  0
VERTEX
  8
Default
 10
326.0
 20
196.0
 42
0.0
  0
VERTEX
  8
Default
 10
325.0
 20
199.0
 42
0.0
  0
VERTEX
  8
Default
 10
319.0
 20
205.0
 42
0.0
  0
VERTEX
  8
Default
 10
317.0
 20
206.0
 42
0.0
  0
VERTEX
  8
Default
 10
313.0
 20
206.0
 42
0.0
  0
VERTEX
  8
Default
 10
311.9
 20
205.3
 42
0.0
  0
VERTEX
  8
Default
 10
310.0
 20
205.0
 42
0.0
  0
VERTEX
  8
Default
 10
307.0
 20
202.0
 42
0.0
  0
VERTEX
  8
Default
 10
306.769231
 20
201.153846
 42
0.0
  0
VERTEX
  8
Default
 10
305.0
 20
199.0
 42
0.0
  0
VERTEX
  8
Default
 10
305.0
 20
191.0
 42
0.0
  0
VERTEX
  8
Default
 10
311.0
 20
184.0
 42
0.0
  0
SEQEND
  0
POLYLINE
  8
Default
 66
     1
 10
0.0
 20
0.0
 30
0.0
 70
     1
  0
VERTEX
  8
Default
 10
503.0
 20
1106.0
 42
0.0
  0
VERTEX
  8
Default
 10
503.0
 20
1107.0
 42
0.0
  0
VERTEX
  8
Default
 10
502.0
 20
1108.0
 42
0.0
  0
VERTEX
  8
Default
 10
501.0
 20
1108.0
 42
0.0
  0
VERTEX
  8
Default
 10
496.804878
 20
1111.756098
 42
0.0
  0
VERTEX
  8
Default
 10
491.9
 20
1114.8
 42
0.0
  0
VERTEX
  8
Default
 10
491.153846
 20
1115.230769
 42
0.0
  0
VERTEX
  8
Default
 10
484.9
 20
1118.7
 42
0.0
  0
VERTEX
  8
Default
 10
474.1
 20
1122.3
 42
0.0
  0
VERTEX
  8
Default
 10
458.94
 20
1126.58
 42
0.0
  0
VERTEX
  8
Default
 10
453.06
 20
1127.42
 42
0.0
  0
VERTEX
  8
Default
 10
445.0
 20
1129.0
 42
0.0
  0
VERTEX
  8
Default
 10
434.0
 20
1129.0
 42
0.0
  0
VERTEX
  8
Default
 10
412.088235
 20
1123.647059
 42
0.0
  0
VERTEX
  8
Default
 10
406.088235
 20
1121.647059
 42
0.0
  0
VERTEX
  8
Default
 10
390.2
 20
1113.6
 42
0.0
  0
VERTEX
  8
Default
 10
384.8
 20
1110.4
 42
0.0
  0
VERTEX
  8
Default
 10
364.1
 20
1099.7
 42
0.0
  0
VERTEX
  8
Default
 10
357.8
 20
1097.4
 42
0.0
  0
VERTEX
  8
Default
 10
347.1
 20
1093.7
 42
0.0
  0
VERTEX
  8
Default
 10
334.0
 20
1091.0
 42
0.0
  0
VERTEX
  8
Default
 10
324.0
 20
1091.0
 42
0.0
  0
VERTEX
  8
Default
 10
308.9
 20
1094.7
 42
0.0
  0
VERTEX
  8
Default
 10
298.9
 20
1097.8
 42
0.0
  0
VERTEX
  8
Default
 10
235.911765
 20
1119.647059
 42
0.0
  0
VERTEX
  8
Default
 10
223.1
 20
1123.3
 42
0.0
  0
VERTEX
  8
Default
 10
213.955446
 20
1125.554455
 42
0.0
  0
VERTEX
  8
Default
 10
205.044554
 20
1126.445545
 42
0.0
  0
VERTEX
  8
Default
 10
197.0
 20
1129.0
 42
0.0
  0
VERTEX
  8
Default
 10
172.0
 20
1129.0
 42
0.0
  0
VERTEX
  8
Default
 10
147.8
 20
1123.4
 42
0.0
  0
VERTEX
  8
Default
 10
140.9
 20
1120.2
 42
0.0
  0
VERTEX
  8
Default
 10
130.0
 20
1113.0
 42
0.0
  0
VERTEX
  8
Default
 10
127.0
 20
1110.0
 42
0.0
  0
VERTEX
  8
Default
 10
121.230769
 20
1101.846154
 42
0.0
  0
VERTEX
  8
Default
 10
120.8
 20
1101.1
 42
0.0
  0
VERTEX
  8
Default
 10
114.3
 20
1088.9
 42
0.0
  0
VERTEX
  8
Default
 10
111.7
 20
1081.1
 42
0.0
  0
VERTEX
  8
Default
 10
107.0
 20
1060.0
 42
0.0
  0
VERTEX
  8
Default
 10
107.0
 20
1023.0
 42
0.0
  0
VERTEX
  8
Default
 10
108.594595
 20
1019.932432
 42
0.0
  0
VERTEX
  8
Default
 10
109.405405
 20
1015.067568
 42
0.0
  0
VERTEX
  8
Default
 10
114.2
 20
1004.1
 42
0.0
  0
VERTEX
  8
Default
 10
116.8
 20
997.9
 42
0.0
  0
VERTEX
  8
Default
 10
120.3
 20
989.1
 42
0.0
  0
VERTEX
  8
Default
 10
123.0
 20
977.0
 42
0.0
  0
VERTEX
  8
Default
 10
123.0
 20
962.0
 42
0.0
  0
VERTEX
  8
Default
 10
120.647059
 20
950.088235
 42
0.0
  0
VERTEX
  8
Default
 10
109.3
 20
907.9
 42
0.0
  0
VERTEX
  8
Default
 10
108.7
 20
906.1
 42
0.0
  0
VERTEX
  8
Default
 10
107.405405
 20
901.932432
 42
0.0
  0
VERTEX
  8
Default
 10
106.594595
 20
897.067568
 42
0.0
  0
VERTEX
  8
Default
 10
102.3
 20
872.9
 42
0.0
  0
VERTEX
  8
Default
 10
101.7
 20
871.1
 42
0.0
  0
VERTEX
  8
Default
 10
101.0
 20
870.0
 42
0.0
  0
VERTEX
  8
Default
 10
101.0
 20
854.0
 42
0.0
  0
VERTEX
  8
Default
 10
101.58
 20
852.94
 42
0.0
  0
VERTEX
  8
Default
 10
102.42
 20
847.06
 42
0.0
  0
VERTEX
  8
Default
 10
105.3
 20
837.1
 42
0.0
  0
VERTEX
  8
Default
 10
106.7
 20
832.9
 42
0.0
  0
VERTEX
  8
Default
 10
114.8
 20
817.9
 42
0.0
  0
VERTEX
  8
Default
 10
116.769231
 20
814.846154
 42
0.0
  0
VERTEX
  8
Default
 10
129.7
 20
791.9
 42
0.0
  0
VERTEX
  8
Default
 10
130.3
 20
790.1
 42
0.0
  0
VERTEX
  8
Default
 10
134.0
 20
780.0
 42
0.0
  0
VERTEX
  8
Default
 10
134.0
 20
769.0
 42
0.0
  0
VERTEX
  8
Default
 10
131.615385
 20
757.076923
 42
0.0
  0
VERTEX
  8
Default
 10
125.7
 20
740.1
 42
0.0
  0
VERTEX
  8
Default
 10
123.2
 20
734.9
 42
0.0
  0
VERTEX
  8
Default
 10
107.7
 20
703.1
 42
0.0
  0
VERTEX
  8
Default
 10
105.8
 20
699.1
 42
0.0
  0
VERTEX
  8
Default
 10
97.430769
 20
671.946154
 42
0.0
  0
VERTEX
  8
Default
 10
95.569231
 20
657.053846
 42
0.0
  0
VERTEX
  8
Default
 10
95.0
 20
656.0
 42
0.0
  0
VERTEX
  8
Default
 10
95.0
 20
627.0
 42
0.0
  0
VERTEX
  8
Default
 10
96.482759
 20
624.793103
 42
0.0
  0
VERTEX
  8
Default
 10
99.7
 20
614.9
 42
0.0
  0
VERTEX
  8
Default
 10
106.6
 20
598.8
 42
0.0
  0
VERTEX
  8
Default
 10
111.2
 20
588.1
 42
0.0
  0
VERTEX
  8
Default
 10
115.615385
 20
573.923077
 42
0.0
  0
VERTEX
  8
Default
 10
116.58
 20
568.94
 42
0.0
  0
VERTEX
  8
Default
 10
118.405405
 20
557.067568
 42
0.0
  0
VERTEX
  8
Default
 10
119.0
 20
556.0
 42
0.0
  0
VERTEX
  8
Default
 10
119.0
 20
531.0
 42
0.0
  0
VERTEX
  8
Default
 10
118.42
 20
529.94
 42
0.0
  0
VERTEX
  8
Default
 10
117.58
 20
524.06
 42
0.0
  0
VERTEX
  8
Default
 10
114.647059
 20
516.088235
 42
0.0
  0
VERTEX
  8
Default
 10
102.7
 20
488.1
 42
0.0
  0
VERTEX
  8
Default
 10
95.8
 20
471.1
 42
0.0
  0
VERTEX
  8
Default
 10
87.7
 20
447.1
 42
0.0
  0
VERTEX
  8
Default
 10
86.7
 20
444.1
 42
0.0
  0
VERTEX
  8
Default
 10
83.405405
 20
431.932432
 42
0.0
  0
VERTEX
  8
Default
 10
81.594595
 20
421.067568
 42
0.0
  0
VERTEX
  8
Default
 10
81.0
 20
420.0
 42
0.0
  0
VERTEX
  8
Default
 10
81.0
 20
402.0
 42
0.0
  0
VERTEX
  8
Default
 10
87.405405
 20
367.067568
 42
0.0
  0
VERTEX
  8
Default
 10
91.3
 20
355.1
 42
0.0
  0
VERTEX
  8
Default
 10
103.647059
 20
315.911765
 42
0.0
  0
VERTEX
  8
Default
 10
107.405405
 20
299.067568
 42
0.0
  0
VERTEX
  8
Default
 10
109.0
 20
291.0
 42
0.0
  0
VERTEX
  8
Default
 10
109.0
 20
274.0
 42
0.0
  0
VERTEX
  8
Default
 10
107.458824
 20
268.964706
 42
0.0
  0
VERTEX
  8
Default
 10
106.541176
 20
257.035294
 42
0.0
  0
VERTEX
  8
Default
 10
100.615385
 20
226.076923
 42
0.0
  0
VERTEX
  8
Default
 10
97.0
 20
205.0
 42
0.0
  0
VERTEX
  8
Default
 10
97.0
 20
162.0
 42
0.0
  0
VERTEX
  8
Default
 10
99.352941
 20
154.088235
 42
0.0
  0
VERTEX
  8
Default
 10
103.7
 20
140.9
 42
0.0
  0
VERTEX
  8
Default
 10
108.230769
 20
131.153846
 42
0.0
  0
VERTEX
  8
Default
 10
109.769231
 20
128.846154
 42
0.0
  0
VERTEX
  8
Default
 10
117.0
 20
118.0
 42
0.0
  0
VERTEX
  8
Default
 10
126.0
 20
109.0
 42
0.0
  0
VERTEX
  8
Default
 10
131.195122
 20
105.243902
 42
0.0
  0
VERTEX
  8
Default
 10
140.846154
 20
98.769231
 42
0.0
  0
VERTEX
  8
Default
 10
151.9
 20
92.8
 42
0.0
  0
VERTEX
  8
Default
 10
160.9
 20
88.7
 42
0.0
  0
VERTEX
  8
Default
 10
169.2
 20
85.6
 42
0.0
  0
VERTEX
  8
Default
 10
175.9
 20
83.7
 42
0.0
  0
VERTEX
  8
Default
 10
188.040984
 20
81.45082
 42
0.0
  0
VERTEX
  8
Default
 10
207.955446
 20
79.554455
 42
0.0
  0
VERTEX
  8
Default
 10
209.0
 20
79.0
 42
0.0
  0
VERTEX
  8
Default
 10
222.0
 20
79.0
 42
0.0
  0
VERTEX
  8
Default
 10
254.923077
 20
84.384615
 42
0.0
  0
VERTEX
  8
Default
 10
308.9
 20
96.2
 42
0.0
  0
VERTEX
  8
Default
 10
350.811321
 20
107.660377
 42
0.0
  0
VERTEX
  8
Default
 10
398.04878
 20
116.560976
 42
0.0
  0
VERTEX
  8
Default
 10
405.95122
 20
117.439024
 42
0.0
  0
VERTEX
  8
Default
 10
414.0
 20
119.0
 42
0.0
  0
VERTEX
  8
Default
 10
451.0
 20
119.0
 42
0.0
  0
VERTEX
  8
Default
 10
468.911765
 20
114.647059
 42
0.0
  0
VERTEX
  8
Default
 10
475.8
 20
112.4
 42
0.0
  0
VERTEX
  8
Default
 10
485.793103
 20
108.482759
 42
0.0
  0
VERTEX
  8
Default
 10
489.8
 20
106.6
 42
0.0
  0
VERTEX
  8
Default
 10
522.8
 20
88.6
 42
0.0
  0
VERTEX
  8
Default
 10
525.153846
 20
87.230769
 42
0.0
  0
VERTEX
  8
Default
 10
550.1
 20
74.2
 42
0.0
  0
VERTEX
  8
Default
 10
554.9
 20
71.8
 42
0.0
  0
VERTEX
  8
Default
 10
567.076923
 20
67.384615
 42
0.0
  0
VERTEX
  8
Default
 10
580.088235
 20
64.352941
 42
0.0
  0
VERTEX
  8
Default
 10
599.0
 20
61.0
 42
0.0
  0
VERTEX
  8
Default
 10
625.94
 20
65.42
 42
0.0
  0
VERTEX
  8
Default
 10
639.911765
 20
69.352941
 42
0.0
  0
VERTEX
  8
Default
 10
648.1
 20
72.7
 42
0.0
  0
VERTEX
  8
Default
 10
668.153846
 20
82.769231
 42
0.0
  0
VERTEX
  8
Default
 10
676.1
 20
87.8
 42
0.0
  0
VERTEX
  8
Default
 10
697.8
 20
101.4
 42
0.0
  0
VERTEX
  8
Default
 10
708.9
 20
106.2
 42
0.0
  0
VERTEX
  8
Default
 10
733.8
 20
115.6
 42
0.0
  0
VERTEX
  8
Default
 10
740.811321
 20
117.660377
 42
0.0
  0
VERTEX
  8
Default
 10
743.0
 20
119.0
 42
0.0
  0
VERTEX
  8
Default
 10
768.0
 20
120.0
 42
0.0
  0
VERTEX
  8
Default
 10
786.1
 20
118.2
 42
0.0
  0
VERTEX
  8
Default
 10
801.923077
 20
114.615385
 42
0.0
  0
VERTEX
  8
Default
 10
835.911765
 20
102.647059
 42
0.0
  0
VERTEX
  8
Default
 10
837.9
 20
101.8
 42
0.0
  0
VERTEX
  8
Default
 10
857.911765
 20
94.647059
 42
0.0
  0
VERTEX
  8
Default
 10
860.9
 20
93.7
 42
0.0
  0
VERTEX
  8
Default
 10
874.067568
 20
89.405405
 42
0.0
  0
VERTEX
  8
Default
 10
878.932432
 20
88.594595
 42
0.0
  0
VERTEX
  8
Default
 10
880.9
 20
87.8
 42
0.0
  0
VERTEX
  8
Default
 10
890.955446
 20
86.554455
 42
0.0
  0
VERTEX
  8
Default
 10
899.0
 20
85.0
 42
0.0
  0
VERTEX
  8
Default
 10
938.0
 20
85.0
 42
0.0
  0
VERTEX
  8
Default
 10
961.94
 20
89.42
 42
0.0
  0
VERTEX
  8
Default
 10
1006.9
 20
100.2
 42
0.0
  0
VERTEX
  8
Default
 10
1012.932432
 20
101.405405
 42
0.0
  0
VERTEX
  8
Default
 10
1034.06
 20
106.58
 42
0.0
  0
VERTEX
  8
Default
 10
1039.94
 20
107.42
 42
0.0
  0
VERTEX
  8
Default
 10
1042.9
 20
108.3
 42
0.0
  0
VERTEX
  8
Default
 10
1044.0
 20
109.0
 42
0.0
  0
VERTEX
  8
Default
 10
1057.0
 20
109.0
 42
0.0
  0
VERTEX
  8
Default
 10
1065.053846
 20
107.430769
 42
0.0
  0
VERTEX
  8
Default
 10
1071.946154
 20
106.569231
 42
0.0
  0
VERTEX
  8
Default
 10
1087.923077
 20
102.615385
 42
0.0
  0
VERTEX
  8
Default
 10
1092.9
 20
100.7
 42
0.0
  0
VERTEX
  8
Default
 10
1133.176471
 20
87.705882
 42
0.0
  0
VERTEX
  8
Default
 10
1148.1
 20
84.3
 42
0.0
  0
VERTEX
  8
Default
 10
1167.0
 20
81.0
 42
0.0
  0
VERTEX
  8
Default
 10
1183.0
 20
81.0
 42
0.0
  0
VERTEX
  8
Default
 10
1190.04878
 20
82.560976
 42
0.0
  0
VERTEX
  8
Default
 10
1197.95122
 20
83.439024
 42
0.0
  0
VERTEX
  8
Default
 10
1199.9
 20
84.2
 42
0.0
  0
VERTEX
  8
Default
 10
1216.2
 20
88.4
 42
0.0
  0
VERTEX
  8
Default
 10
1225.8
 20
91.4
 42
0.0
  0
VERTEX
  8
Default
 10
1241.911765
 20
97.352941
 42
0.0
  0
VERTEX
  8
Default
 10
1268.067568
 20
106.594595
 42
0.0
  0
VERTEX
  8
Default
 10
1272.932432
 20
107.405405
 42
0.0
  0
VERTEX
  8
Default
 10
1278.0
 20
109.0
 42
0.0
  0
VERTEX
  8
Default
 10
1288.0
 20
109.0
 42
0.0
  0
VERTEX
  8
Default
 10
1289.1
 20
108.2
 42
0.0
  0
VERTEX
  8
Default
 10
1311.2
 20
101.6
 42
0.0
  0
VERTEX
  8
Default
 10
1322.9
 20
97.8
 42
0.0
  0
VERTEX
  8
Default
 10
1343.04878
 20
93.439024
 42
0.0
  0
VERTEX
  8
Default
 10
1350.95122
 20
92.560976
 42
0.0
  0
VERTEX
  8
Default
 10
1353.9
 20
91.7
 42
0.0
  0
VERTEX
  8
Default
 10
1355.040984
 20
91.45082
 42
0.0
  0
VERTEX
  8
Default
 10
1370.932432
 20
89.594595
 42
0.0
  0
VERTEX
  8
Default
 10
1372.0
 20
89.0
 42
0.0
  0
VERTEX
  8
Default
 10
1384.0
 20
89.0
 42
0.0
  0
VERTEX
  8
Default
 10
1385.06
 20
89.58
 42
0.0
  0
VERTEX
  8
Default
 10
1390.94
 20
90.42
 42
0.0
  0
VERTEX
  8
Default
 10
1408.2
 20
94.4
 42
0.0
  0
VERTEX
  8
Default
 10
1417.923077
 20
97.384615
 42
0.0
  0
VERTEX
  8
Default
 10
1427.8
 20
101.4
 42
0.0
  0
VERTEX
  8
Default
 10
1431.9
 20
103.3
 42
0.0
  0
VERTEX
  8
Default
 10
1438.846154
 20
107.230769
 42
0.0
  0
VERTEX
  8
Default
 10
1441.153846
 20
108.769231
 42
0.0
  0
VERTEX
  8
Default
 10
1442.0
 20
109.0
 42
0.0
  0
VERTEX
  8
Default
 10
1450.0
 20
117.0
 42
0.0
  0
VERTEX
  8
Default
 10
1454.754098
 20
123.204918
 42
0.0
  0
VERTEX
  8
Default
 10
1457.2
 20
126.9
 42
0.0
  0
VERTEX
  8
Default
 10
1462.7
 20
137.1
 42
0.0
  0
VERTEX
  8
Default
 10
1469.2
 20
152.9
 42
0.0
  0
VERTEX
  8
Default
 10
1470.405405
 20
158.932432
 42
0.0
  0
VERTEX
  8
Default
 10
1471.0
 20
169.0
 42
0.0
  0
VERTEX
  8
Default
 10
1472.258824
 20
171.164706
 42
0.0
  0
VERTEX
  8
Default
 10
1473.430769
 20
177.946154
 42
0.0
  0
VERTEX
  8
Default
 10
1474.0
 20
179.0
 42
0.0
  0
VERTEX
  8
Default
 10
1474.0
 20
182.0
 42
0.0
  0
VERTEX
  8
Default
 10
1466.647059
 20
211.911765
 42
0.0
  0
VERTEX
  8
Default
 10
1464.3
 20
220.1
 42
0.0
  0
VERTEX
  8
Default
 10
1460.6
 20
232.8
 42
0.0
  0
VERTEX
  8
Default
 10
1452.482759
 20
252.793103
 42
0.0
  0
VERTEX
  8
Default
 10
1443.660377
 20
272.188679
 42
0.0
  0
VERTEX
  8
Default
 10
1437.7
 20
289.9
 42
0.0
  0
VERTEX
  8
Default
 10
1433.468966
 20
305.027586
 42
0.0
  0
VERTEX
  8
Default
 10
1432.531034
 20
320.972414
 42
0.0
  0
VERTEX
  8
Default
 10
1432.0
 20
322.0
 42
0.0
  0
VERTEX
  8
Default
 10
1432.0
 20
339.0
 42
0.0
  0
VERTEX
  8
Default
 10
1435.594595
 20
367.067568
 42
0.0
  0
VERTEX
  8
Default
 10
1437.405405
 20
377.932432
 42
0.0
  0
VERTEX
  8
Default
 10
1452.2
 20
430.9
 42
0.0
  0
VERTEX
  8
Default
 10
1454.3
 20
441.9
 42
0.0
  0
VERTEX
  8
Default
 10
1457.0
 20
458.0
 42
0.0
  0
VERTEX
  8
Default
 10
1457.0
 20
475.0
 42
0.0
  0
VERTEX
  8
Default
 10
1455.615385
 20
479.923077
 42
0.0
  0
VERTEX
  8
Default
 10
1455.384615
 20
481.076923
 42
0.0
  0
VERTEX
  8
Default
 10
1452.482759
 20
492.793103
 42
0.0
  0
VERTEX
  8
Default
 10
1441.8
 20
519.9
 42
0.0
  0
VERTEX
  8
Default
 10
1423.384615
 20
561.076923
 42
0.0
  0
VERTEX
  8
Default
 10
1418.594595
 20
577.932432
 42
0.0
  0
VERTEX
  8
Default
 10
1415.0
 20
596.0
 42
0.0
  0
VERTEX
  8
Default
 10
1415.0
 20
622.0
 42
0.0
  0
VERTEX
  8
Default
 10
1416.569231
 20
628.053846
 42
0.0
  0
VERTEX
  8
Default
 10
1417.430769
 20
634.946154
 42
0.0
  0
VERTEX
  8
Default
 10
1424.3
 20
655.9
 42
0.0
  0
VERTEX
  8
Default
 10
1424.7
 20
657.1
 42
0.0
  0
VERTEX
  8
Default
 10
1433.230769
 20
677.846154
 42
0.0
  0
VERTEX
  8
Default
 10
1435.4
 20
681.8
 42
0.0
  0
VERTEX
  8
Default
 10
1452.647059
 20
721.088235
 42
0.0
  0
VERTEX
  8
Default
 10
1454.4
 20
726.2
 42
0.0
  0
VERTEX
  8
Default
 10
1463.0
 20
760.0
 42
0.0
  0
VERTEX
  8
Default
 10
1463.0
 20
778.0
 42
0.0
  0
VERTEX
  8
Default
 10
1461.430769
 20
784.053846
 42
0.0
  0
VERTEX
  8
Default
 10
1460.258824
 20
790.835294
 42
0.0
  0
VERTEX
  8
Default
 10
1457.7
 20
799.9
 42
0.0
  0
VERTEX
  8
Default
 10
1457.3
 20
801.1
 42
0.0
  0
VERTEX
  8
Default
 10
1441.230769
 20
833.153846
 42
0.0
  0
VERTEX
  8
Default
 10
1440.769231
 20
833.846154
 42
0.0
  0
VERTEX
  8
Default
 10
1436.482759
 20
842.793103
 42
0.0
  0
VERTEX
  8
Default
 10
1432.339623
 20
854.811321
 42
0.0
  0
VERTEX
  8
Default
 10
1430.594595
 20
861.932432
 42
0.0
  0
VERTEX
  8
Default
 10
1428.0
 20
882.0
 42
0.0
  0
VERTEX
  8
Default
 10
1429.468966
 20
903.972414
 42
0.0
  0
VERTEX
  8
Default
 10
1432.2
 20
914.9
 42
0.0
  0
VERTEX
  8
Default
 10
1437.352941
 20
931.911765
 42
0.0
  0
VERTEX
  8
Default
 10
1457.2
 20
975.9
 42
0.0
  0
VERTEX
  8
Default
 10
1458.2
 20
977.9
 42
0.0
  0
VERTEX
  8
Default
 10
1468.2
 20
1003.9
 42
0.0
  0
VERTEX
  8
Default
 10
1469.352941
 20
1007.911765
 42
0.0
  0
VERTEX
  8
Default
 10
1475.0
 20
1030.0
 42
0.0
  0
VERTEX
  8
Default
 10
1475.0
 20
1043.0
 42
0.0
  0
VERTEX
  8
Default
 10
1471.7
 20
1055.9
 42
0.0
  0
VERTEX
  8
Default
 10
1471.3
 20
1057.1
 42
0.0
  0
VERTEX
  8
Default
 10
1467.769231
 20
1065.846154
 42
0.0
  0
VERTEX
  8
Default
 10
1465.2
 20
1070.1
 42
0.0
  0
VERTEX
  8
Default
 10
1462.752941
 20
1073.788235
 42
0.0
  0
VERTEX
  8
Default
 10
1457.247059
 20
1080.211765
 42
0.0
  0
VERTEX
  8
Default
 10
1457.0
 20
1081.0
 42
0.0
  0
VERTEX
  8
Default
 10
1452.0
 20
1086.0
 42
0.0
  0
VERTEX
  8
Default
 10
1439.846154
 20
1094.769231
 42
0.0
  0
VERTEX
  8
Default
 10
1430.9
 20
1099.8
 42
0.0
  0
VERTEX
  8
Default
 10
1418.9
 20
1104.7
 42
0.0
  0
VERTEX
  8
Default
 10
1407.1
 20
1108.2
 42
0.0
  0
VERTEX
  8
Default
 10
1393.0
 20
1110.0
 42
0.0
  0
VERTEX
  8
Default
 10
1374.0
 20
1110.0
 42
0.0
  0
VERTEX
  8
Default
 10
1335.923077
 20
1105.384615
 42
0.0
  0
VERTEX
  8
Default
 10
1330.955446
 20
1104.445545
 42
0.0
  0
VERTEX
  8
Default
 10
1322.0
 20
1104.0
 42
0.0
  0
VERTEX
  8
Default
 10
1320.0
 20
1102.0
 42
0.0
  0
VERTEX
  8
Default
 10
1284.0
 20
1102.0
 42
0.0
  0
VERTEX
  8
Default
 10
1272.153846
 20
1107.230769
 42
0.0
  0
VERTEX
  8
Default
 10
1269.846154
 20
1108.769231
 42
0.0
  0
VERTEX
  8
Default
 10
1250.9
 20
1118.7
 42
0.0
  0
VERTEX
  8
Default
 10
1249.1
 20
1119.3
 42
0.0
  0
VERTEX
  8
Default
 10
1236.923077
 20
1122.615385
 42
0.0
  0
VERTEX
  8
Default
 10
1233.076923
 20
1123.384615
 42
0.0
  0
VERTEX
  8
Default
 10
1227.0
 20
1125.0
 42
0.0
  0
VERTEX
  8
Default
 10
1198.0
 20
1125.0
 42
0.0
  0
VERTEX
  8
Default
 10
1196.9
 20
1124.3
 42
0.0
  0
VERTEX
  8
Default
 10
1183.923077
 20
1121.384615
 42
0.0
  0
VERTEX
  8
Default
 10
1180.076923
 20
1120.615385
 42
0.0
  0
VERTEX
  8
Default
 10
1157.1
 20
1112.8
 42
0.0
  0
VERTEX
  8
Default
 10
1153.088235
 20
1111.647059
 42
0.0
  0
VERTEX
  8
Default
 10
1131.1
 20
1102.8
 42
0.0
  0
VERTEX
  8
Default
 10
1129.9
 20
1102.3
 42
0.0
  0
VERTEX
  8
Default
 10
1116.088235
 20
1097.647059
 42
0.0
  0
VERTEX
  8
Default
 10
1114.932432
 20
1097.405405
 42
0.0
  0
VERTEX
  8
Default
 10
1105.076923
 20
1095.615385
 42
0.0
  0
VERTEX
  8
Default
 10
1104.0
 20
1095.0
 42
0.0
  0
VERTEX
  8
Default
 10
1097.0
 20
1095.0
 42
0.0
  0
VERTEX
  8
Default
 10
1088.94
 20
1096.58
 42
0.0
  0
VERTEX
  8
Default
 10
1081.923077
 20
1097.615385
 42
0.0
  0
VERTEX
  8
Default
 10
1076.1
 20
1099.2
 42
0.0
  0
VERTEX
  8
Default
 10
1073.1
 20
1100.3
 42
0.0
  0
VERTEX
  8
Default
 10
1044.1
 20
1114.3
 42
0.0
  0
VERTEX
  8
Default
 10
1040.9
 20
1115.8
 42
0.0
  0
VERTEX
  8
Default
 10
1026.9
 20
1120.7
 42
0.0
  0
VERTEX
  8
Default
 10
1025.2
 20
1121.4
 42
0.0
  0
VERTEX
  8
Default
 10
1018.067568
 20
1123.405405
 42
0.0
  0
VERTEX
  8
Default
 10
1006.955446
 20
1125.554455
 42
0.0
  0
VERTEX
  8
Default
 10
998.044554
 20
1126.445545
 42
0.0
  0
VERTEX
  8
Default
 10
997.0
 20
1127.0
 42
0.0
  0
VERTEX
  8
Default
 10
962.0
 20
1127.0
 42
0.0
  0
VERTEX
  8
Default
 10
931.1
 20
1119.7
 42
0.0
  0
VERTEX
  8
Default
 10
926.9
 20
1118.3
 42
0.0
  0
VERTEX
  8
Default
 10
906.9
 20
1110.2
 42
0.0
  0
VERTEX
  8
Default
 10
883.9
 20
1098.2
 42
0.0
  0
VERTEX
  8
Default
 10
872.2
 20
1091.6
 42
0.0
  0
VERTEX
  8
Default
 10
861.1
 20
1087.7
 42
0.0
  0
VERTEX
  8
Default
 10
840.0
 20
1083.0
 42
0.0
  0
VERTEX
  8
Default
 10
812.0
 20
1083.0
 42
0.0
  0
VERTEX
  8
Default
 10
796.088235
 20
1086.352941
 42
0.0
  0
VERTEX
  8
Default
 10
783.1
 20
1092.2
 42
0.0
  0
VERTEX
  8
Default
 10
761.1
 20
1103.2
 42
0.0
  0
VERTEX
  8
Default
 10
748.846154
 20
1109.769231
 42
0.0
  0
VERTEX
  8
Default
 10
738.846154
 20
1116.769231
 42
0.0
  0
VERTEX
  8
Default
 10
731.1
 20
1120.3
 42
0.0
  0
VERTEX
  8
Default
 10
717.0
 20
1123.0
 42
0.0
  0
VERTEX
  8
Default
 10
696.0
 20
1123.0
 42
0.0
  0
VERTEX
  8
Default
 10
662.088235
 20
1115.647059
 42
0.0
  0
VERTEX
  8
Default
 10
630.1
 20
1106.7
 42
0.0
  0
VERTEX
  8
Default
 10
604.9
 20
1097.2
 42
0.0
  0
VERTEX
  8
Default
 10
593.1
 20
1092.8
 42
0.0
  0
VERTEX
  8
Default
 10
581.923077
 20
1089.384615
 42
0.0
  0
VERTEX
  8
Default
 10
578.076923
 20
1088.615385
 42
0.0
  0
VERTEX
  8
Default
 10
555.0
 20
1085.0
 42
0.0
  0
VERTEX
  8
Default
 10
551.0
 20
1085.0
 42
0.0
  0
VERTEX
  8
Default
 10
546.076923
 20
1086.384615
 42
0.0
  0
VERTEX
  8
Default
 10
532.911765
 20
1089.647059
 42
0.0
  0
VERTEX
  8
Default
 10
530.206897
 20
1090.517241
 42
0.0
  0
VERTEX
  8
Default
 10
516.153846
 20
1098.230769
 42
0.0
  0
VERTEX
  8
Default
 10
504.846154
 20
1105.769231
 42
0.0
  0
VERTEX
  8
Default
 10
504.0
 20
1106.0
 42
0.0
  0
SEQEND
  0
POLYLINE
  8
Default
 66
     1
 10
0.0
 20
0.0
 30
0.0
 70
     0
  0
VERTEX
  8
Default
 10
594.0
 20
171.0
 42
0.0
  0
VERTEX
  8
Default
 10
594.0
 20
170.0
 42
0.0
  0
VERTEX
  8
Default
 10
600.0
 20
158.0
 42
0.0
  0
VERTEX
  8
Default
 10
600.0
 20
153.0
 42
0.0
  0
VERTEX
  8
Default
 10
599.2
 20
151.9
 42
0.0
  0
VERTEX
  8
Default
 10
598.0
 20
149.0
 42
0.0
  0
VERTEX
  8
Default
 10
593.0
 20
144.0
 42
0.0
  0
VERTEX
  8
Default
 10
592.1
 20
143.8
 42
0.0
  0
VERTEX
  8
Default
 10
590.9
 20
143.2
 42
0.0
  0
VERTEX
  8
Default
 10
589.0
 20
142.0
 42
0.0
  0
VERTEX
  8
Default
 10
578.0
 20
142.0
 42
0.0
  0
VERTEX
  8
Default
 10
575.846154
 20
143.769231
 42
0.0
  0
VERTEX
  8
Default
 10
572.0
 20
146.0
 42
0.0
  0
VERTEX
  8
Default
 10
567.517241
 20
153.206897
 42
0.0
  0
VERTEX
  8
Default
 10
566.0
 20
157.0
 42
0.0
  0
VERTEX
  8
Default
 10
566.0
 20
161.0
 42
0.0
  0
VERTEX
  8
Default
 10
568.0
 20
167.0
 42
0.0
  0
VERTEX
  8
Default
 10
574.0
 20
173.0
 42
0.0
  0
VERTEX
  8
Default
 10
585.0
 20
173.0
 42
0.0
  0
VERTEX
  8
Default
 10
586.1
 20
172.2
 42
0.0
  0
VERTEX
  8
Default
 10
588.067568
 20
171.405405
 42
0.0
  0
VERTEX
  8
Default
 10
593.0
 20
171.0
 42
0.0
  0
VERTEX
  8
Default
 10
594.0
 20
171.0
 42
0.0
  0
VERTEX
  8
Default
 10
594.0
 20
172.0
 42
0.0
  0
VERTEX
  8
Default
 10
597.0
 20
176.0
 42
0.0
  0
VERTEX
  8
Default
 10
606.0
 20
185.0
 42
0.0
  0
VERTEX
  8
Default
 10
615.22069
 20
192.751724
 42
0.0
  0
VERTEX
  8
Default
 10
616.0
 20
193.0
 42
0.0
  0
VERTEX
  8
Default
 10
624.0
 20
201.0
 42
0.0
  0
VERTEX
  8
Default
 10
632.5
 20
212.0
 42
0.0
  0
VERTEX
  8
Default
 10
632.0
 20
213.0
 42
0.0
  0
VERTEX
  8
Default
 10
631.0
 20
214.0
 42
0.0
  0
VERTEX
  8
Default
 10
624.0
 20
214.0
 42
0.0
  0
VERTEX
  8
Default
 10
623.0
 20
213.0
 42
0.0
  0
VERTEX
  8
Default
 10
619.0
 20
213.0
 42
0.0
  0
VERTEX
  8
Default
 10
616.0
 20
216.0
 42
0.0
  0
SEQEND
  0
POLYLINE
  8
Default
 66
     1
 10
0.0
 20
0.0
 30
0.0
 70
     0
  0
VERTEX
  8
Default
 10
1300.0
 20
176.0
 42
0.0
  0
VERTEX
  8
Default
 10
1301.0
 20
176.0
 42
0.0
  0
VERTEX
  8
Default
 10
1304.793103
 20
177.517241
 42
0.0
  0
VERTEX
  8
Default
 10
1320.0
 20
185.0
 42
0.0
  0
VERTEX
  8
Default
 10
1330.0
 20
195.0
 42
0.0
  0
VERTEX
  8
Default
 10
1336.769231
 20
207.153846
 42
0.0
  0
VERTEX
  8
Default
 10
1339.8
 20
213.1
 42
0.0
  0
VERTEX
  8
Default
 10
1341.560976
 20
219.04878
 42
0.0
  0
VERTEX
  8
Default
 10
1343.0
 20
230.0
 42
0.0
  0
VERTEX
  8
Default
 10
1343.0
 20
231.0
 42
0.0
  0
VERTEX
  8
Default
 10
1344.0
 20
231.0
 42
0.0
  0
VERTEX
  8
Default
 10
1349.823529
 20
230.294118
 42
0.0
  0
VERTEX
  8
Default
 10
1352.2
 20
229.4
 42
0.0
  0
VERTEX
  8
Default
 10
1362.846154
 20
222.769231
 42
0.0
  0
VERTEX
  8
Default
 10
1365.804878
 20
220.756098
 42
0.0
  0
VERTEX
  8
Default
 10
1371.0
 20
217.0
 42
0.0
  0
VERTEX
  8
Default
 10
1375.0
 20
213.0
 42
0.0
  0
VERTEX
  8
Default
 10
1375.0
 20
212.0
 42
0.0
  0
VERTEX
  8
Default
 10
1376.0
 20
211.0
 42
0.0
  0
VERTEX
  8
Default
 10
1377.0
 20
211.0
 42
0.0
  0
VERTEX
  8
Default
 10
1382.756098
 20
202.804878
 42
0.0
  0
VERTEX
  8
Default
 10
1387.0
 20
197.0
 42
0.0
  0
VERTEX
  8
Default
 10
1386.554455
 20
188.044554
 42
0.0
  0
VERTEX
  8
Default
 10
1384.3
 20
176.9
 42
0.0
  0
VERTEX
  8
Default
 10
1383.6
 20
175.2
 42
0.0
  0
VERTEX
  8
Default
 10
1382.0
 20
171.0
 42
0.0
  0
VERTEX
  8
Default
 10
1372.0
 20
161.0
 42
0.0
  0
VERTEX
  8
Default
 10
1361.1
 20
155.7
 42
0.0
  0
VERTEX
  8
Default
 10
1353.1
 20
153.8
 42
0.0
  0
VERTEX
  8
Default
 10
1352.0
 20
153.0
 42
0.0
  0
VERTEX
  8
Default
 10
1336.0
 20
153.0
 42
0.0
  0
VERTEX
  8
Default
 10
1334.932432
 20
153.594595
 42
0.0
  0
VERTEX
  8
Default
 10
1328.9
 20
154.7
 42
0.0
  0
VERTEX
  8
Default
 10
1316.153846
 20
161.230769
 42
0.0
  0
VERTEX
  8
Default
 10
1306.211765
 20
169.247059
 42
0.0
  0
VERTEX
  8
Default
 10
1300.0
 20
175.0
 42
0.0
  0
VERTEX
  8
Default
 10
1300.0
 20
176.0
 42
0.0
  0
VERTEX
  8
Default
 10
1299.0
 20
176.0
 42
0.0
  0
VERTEX
  8
Default
 10
1290.0
 20
181.0
 42
0.0
  0
VERTEX
  8
Default
 10
1280.0
 20
191.0
 42
0.0
  0
VERTEX
  8
Default
 10
1277.24
 20
195.18
 42
0.0
  0
VERTEX
  8
Default
 10
1271.8
 20
203.9
 42
0.0
  0
VERTEX
  8
Default
 10
1265.517241
 20
217.206897
 42
0.0
  0
VERTEX
  8
Default
 10
1256.0
 20
245.0
 42
0.0
  0
VERTEX
  8
Default
 10
1256.0
 20
246.0
 42
0.0
  0
VERTEX
  8
Default
 10
1255.0
 20
246.0
 42
0.0
  0
VERTEX
  8
Default
 10
1236.164706
 20
248.741176
 42
0.0
  0
VERTEX
  8
Default
 10
1227.1
 20
252.3
 42
0.0
  0
VERTEX
  8
Default
 10
1221.9
 20
254.8
 42
0.0
  0
VERTEX
  8
Default
 10
1205.846154
 20
263.769231
 42
0.0
  0
VERTEX
  8
Default
 10
1181.0
 20
281.0
 42
0.0
  0
VERTEX
  8
Default
 10
1180.0
 20
281.0
 42
0.0
  0
VERTEX
  8
Default
 10
1180.0
 20
280.0
 42
0.0
  0
VERTEX
  8
Default
 10
1181.3
 20
275.1
 42
0.0
  0
VERTEX
  8
Default
 10
1183.769231
 20
270.846154
 42
0.0
  0
VERTEX
  8
Default
 10
1186.558824
 20
266.735294
 42
0.0
  0
VERTEX
  8
Default
 10
1191.7
 20
255.9
 42
0.0
  0
VERTEX
  8
Default
 10
1192.615385
 20
252.923077
 42
0.0
  0
VERTEX
  8
Default
 10
1194.554455
 20
245.955446
 42
0.0
  0
VERTEX
  8
Default
 10
1195.445545
 20
237.044554
 42
0.0
  0
VERTEX
  8
Default
 10
1196.0
 20
236.0
 42
0.0
  0
VERTEX
  8
Default
 10
1194.384615
 20
222.923077
 42
0.0
  0
VERTEX
  8
Default
 10
1191.647059
 20
211.088235
 42
0.0
  0
VERTEX
  8
Default
 10
1183.2
 20
172.9
 42
0.0
  0
VERTEX
  8
Default
 10
1183.0
 20
172.0
 42
0.0
  0
VERTEX
  8
Default
 10
1181.0
 20
170.0
 42
0.0
  0
VERTEX
  8
Default
 10
1179.0
 20
170.0
 42
0.0
  0
VERTEX
  8
Default
 10
1175.153846
 20
173.230769
 42
0.0
  0
VERTEX
  8
Default
 10
1154.0
 20
186.0
 42
0.0
  0
VERTEX
  8
Default
 10
1143.0
 20
197.0
 42
0.0
  0
VERTEX
  8
Default
 10
1140.8
 20
201.9
 42
0.0
  0
VERTEX
  8
Default
 10
1140.3
 20
203.1
 42
0.0
  0
VERTEX
  8
Default
 10
1136.647059
 20
213.911765
 42
0.0
  0
VERTEX
  8
Default
 10
1135.0
 20
223.0
 42
0.0
  0
VERTEX
  8
Default
 10
1135.0
 20
234.0
 42
0.0
  0
VERTEX
  8
Default
 10
1136.352941
 20
237.911765
 42
0.0
  0
VERTEX
  8
Default
 10
1140.2
 20
251.9
 42
0.0
  0
VERTEX
  8
Default
 10
1144.4
 20
260.8
 42
0.0
  0
VERTEX
  8
Default
 10
1153.0
 20
276.0
 42
0.0
  0
VERTEX
  8
Default
 10
1159.0
 20
282.0
 42
0.0
  0
VERTEX
  8
Default
 10
1166.9
 20
287.2
 42
0.0
  0
VERTEX
  8
Default
 10
1168.0
 20
288.0
 42
0.0
  0
VERTEX
  8
Default
 10
1169.0
 20
288.0
 42
0.0
  0
VERTEX
  8
Default
 10
1169.0
 20
289.0
 42
0.0
  0
VERTEX
  8
Default
 10
1169.0
 20
290.0
 42
0.0
  0
VERTEX
  8
Default
 10
1153.0
 20
306.0
 42
0.0
  0
VERTEX
  8
Default
 10
1153.0
 20
307.0
 42
0.0
  0
VERTEX
  8
Default
 10
1143.776243
 20
315.751381
 42
0.0
  0
VERTEX
  8
Default
 10
1116.153846
 20
341.230769
 42
0.0
  0
VERTEX
  8
Default
 10
1114.0
 20
343.0
 42
0.0
  0
VERTEX
  8
Default
 10
1112.517241
 20
340.793103
 42
0.0
  0
VERTEX
  8
Default
 10
1111.0
 20
337.0
 42
0.0
  0
VERTEX
  8
Default
 10
1111.0
 20
326.0
 42
0.0
  0
VERTEX
  8
Default
 10
1112.594595
 20
321.932432
 42
0.0
  0
VERTEX
  8
Default
 10
1113.405405
 20
317.067568
 42
0.0
  0
VERTEX
  8
Default
 10
1114.647059
 20
313.911765
 42
0.0
  0
VERTEX
  8
Default
 10
1116.560976
 20
306.95122
 42
0.0
  0
VERTEX
  8
Default
 10
1117.439024
 20
299.04878
 42
0.0
  0
VERTEX
  8
Default
 10
1119.0
 20
292.0
 42
0.0
  0
VERTEX
  8
Default
 10
1117.615385
 20
285.076923
 42
0.0
  0
VERTEX
  8
Default
 10
1115.7
 20
275.1
 42
0.0
  0
VERTEX
  8
Default
 10
1110.6
 20
262.2
 42
0.0
  0
VERTEX
  8
Default
 10
1102.76
 20
249.18
 42
0.0
  0
VERTEX
  8
Default
 10
1100.24
 20
245.82
 42
0.0
  0
VERTEX
  8
Default
 10
1087.0
 20
233.0
 42
0.0
  0
VERTEX
  8
Default
 10
1087.0
 20
232.0
 42
0.0
  0
VERTEX
  8
Default
 10
1080.0
 20
226.0
 42
0.0
  0
VERTEX
  8
Default
 10
1078.0
 20
226.0
 42
0.0
  0
VERTEX
  8
Default
 10
1077.0
 20
227.0
 42
0.0
  0
VERTEX
  8
Default
 10
1074.7
 20
233.9
 42
0.0
  0
VERTEX
  8
Default
 10
1071.230769
 20
240.153846
 42
0.0
  0
VERTEX
  8
Default
 10
1057.230769
 20
259.153846
 42
0.0
  0
VERTEX
  8
Default
 10
1054.3
 20
266.1
 42
0.0
  0
VERTEX
  8
Default
 10
1053.0
 20
269.0
 42
0.0
  0
VERTEX
  8
Default
 10
1053.0
 20
288.0
 42
0.0
  0
VERTEX
  8
Default
 10
1053.8
 20
289.1
 42
0.0
  0
VERTEX
  8
Default
 10
1055.352941
 20
293.911765
 42
0.0
  0
VERTEX
  8
Default
 10
1056.8
 20
297.1
 42
0.0
  0
VERTEX
  8
Default
 10
1065.243902
 20
311.804878
 42
0.0
  0
VERTEX
  8
Default
 10
1069.0
 20
317.0
 42
0.0
  0
VERTEX
  8
Default
 10
1080.0
 20
328.0
 42
0.0
  0
VERTEX
  8
Default
 10
1083.804878
 20
330.243902
 42
0.0
  0
VERTEX
  8
Default
 10
1091.153846
 20
335.769231
 42
0.0
  0
VERTEX
  8
Default
 10
1098.9
 20
340.2
 42
0.0
  0
VERTEX
  8
Default
 10
1112.0
 20
346.0
 42
0.0
  0
VERTEX
  8
Default
 10
1112.0
 20
348.0
 42
0.0
  0
VERTEX
  8
Default
 10
1111.0
 20
349.0
 42
0.0
  0
VERTEX
  8
Default
 10
1111.0
 20
350.0
 42
0.0
  0
VERTEX
  8
Default
 10
1110.0
 20
350.0
 42
0.0
  0
VERTEX
  8
Default
 10
1096.769231
 20
368.846154
 42
0.0
  0
VERTEX
  8
Default
 10
1091.2
 20
378.1
 42
0.0
  0
VERTEX
  8
Default
 10
1083.769231
 20
390.846154
 42
0.0
  0
VERTEX
  8
Default
 10
1082.0
 20
393.0
 42
0.0
  0
VERTEX
  8
Default
 10
1080.294118
 20
386.176471
 42
0.0
  0
VERTEX
  8
Default
 10
1076.2
 20
371.9
 42
0.0
  0
VERTEX
  8
Default
 10
1075.769231
 20
371.153846
 42
0.0
  0
VERTEX
  8
Default
 10
1065.0
 20
355.0
 42
0.0
  0
VERTEX
  8
Default
 10
1055.0
 20
345.0
 42
0.0
  0
VERTEX
  8
Default
 10
1040.153846
 20
334.769231
 42
0.0
  0
VERTEX
  8
Default
 10
1037.8
 20
333.4
 42
0.0
  0
VERTEX
  8
Default
 10
1028.1
 20
328.8
 42
0.0
  0
VERTEX
  8
Default
 10
1022.911765
 20
327.352941
 42
0.0
  0
VERTEX
  8
Default
 10
1009.0
 20
325.0
 42
0.0
  0
VERTEX
  8
Default
 10
996.04878
 20
326.439024
 42
0.0
  0
VERTEX
  8
Default
 10
981.9
 20
329.7
 42
0.0
  0
VERTEX
  8
Default
 10
980.1
 20
330.3
 42
0.0
  0
VERTEX
  8
Default
 10
968.1
 20
335.2
 42
0.0
  0
VERTEX
  8
Default
 10
967.0
 20
336.0
 42
0.0
  0
VERTEX
  8
Default
 10
966.0
 20
336.0
 42
0.0
  0
VERTEX
  8
Default
 10
965.0
 20
336.0
 42
0.0
  0
VERTEX
  8
Default
 10
963.932432
 20
335.405405
 42
0.0
  0
VERTEX
  8
Default
 10
940.0
 20
331.0
 42
0.0
  0
VERTEX
  8
Default
 10
930.0
 20
331.0
 42
0.0
  0
VERTEX
  8
Default
 10
906.206897
 20
337.517241
 42
0.0
  0
VERTEX
  8
Default
 10
902.2
 20
339.4
 42
0.0
  0
VERTEX
  8
Default
 10
891.153846
 20
345.230769
 42
0.0
  0
VERTEX
  8
Default
 10
886.9
 20
347.8
 42
0.0
  0
VERTEX
  8
Default
 10
874.0
 20
357.0
 42
0.0
  0
VERTEX
  8
Default
 10
869.0
 20
362.0
 42
0.0
  0
VERTEX
  8
Default
 10
859.769231
 20
374.846154
 42
0.0
  0
VERTEX
  8
Default
 10
851.8
 20
389.9
 42
0.0
  0
VERTEX
  8
Default
 10
848.0
 20
401.0
 42
0.0
  0
VERTEX
  8
Default
 10
848.0
 20
402.0
 42
0.0
  0
VERTEX
  8
Default
 10
847.0
 20
402.0
 42
0.0
  0
VERTEX
  8
Default
 10
842.211765
 20
406.247059
 42
0.0
  0
VERTEX
  8
Default
 10
827.0
 20
419.0
 42
0.0
  0
VERTEX
  8
Default
 10
822.245902
 20
425.204918
 42
0.0
  0
VERTEX
  8
Default
 10
816.2
 20
434.1
 42
0.0
  0
VERTEX
  8
Default
 10
810.8
 20
443.9
 42
0.0
  0
VERTEX
  8
Default
 10
807.6
 20
451.2
 42
0.0
  0
VERTEX
  8
Default
 10
805.7
 20
457.9
 42
0.0
  0
VERTEX
  8
Default
 10
803.0
 20
471.0
 42
0.0
  0
VERTEX
  8
Default
 10
803.0
 20
494.0
 42
0.0
  0
VERTEX
  8
Default
 10
804.405405
 20
499.932432
 42
0.0
  0
VERTEX
  8
Default
 10
806.6
 20
508.2
 42
0.0
  0
VERTEX
  8
Default
 10
814.0
 20
525.0
 42
0.0
  0
VERTEX
  8
Default
 10
814.0
 20
526.0
 42
0.0
  0
VERTEX
  8
Default
 10
812.8
 20
527.9
 42
0.0
  0
VERTEX
  8
Default
 10
806.7
 20
557.9
 42
0.0
  0
VERTEX
  8
Default
 10
806.0
 20
559.0
 42
0.0
  0
VERTEX
  8
Default
 10
806.0
 20
560.0
 42
0.0
  0
VERTEX
  8
Default
 10
805.0
 20
560.0
 42
0.0
  0
VERTEX
  8
Default
 10
802.18
 20
558.76
 42
0.0
  0
VERTEX
  8
Default
 10
786.195122
 20
548.756098
 42
0.0
  0
VERTEX
  8
Default
 10
775.0
 20
539.0
 42
0.0
  0
VERTEX
  8
Default
 10
775.0
 20
538.0
 42
0.0
  0
VERTEX
  8
Default
 10
775.535398
 20
536.969027
 42
0.0
  0
VERTEX
  8
Default
 10
776.517203
 20
521.983907
 42
0.0
  0
VERTEX
  8
Default
 10
777.8
 20
491.9
 42
0.0
  0
VERTEX
  8
Default
 10
781.384615
 20
469.076923
 42
0.0
  0
VERTEX
  8
Default
 10
783.7
 20
459.9
 42
0.0
  0
VERTEX
  8
Default
 10
790.8
 20
436.9
 42
0.0
  0
VERTEX
  8
Default
 10
799.3
 20
415.1
 42
0.0
  0
VERTEX
  8
Default
 10
810.8
 20
389.9
 42
0.0
  0
VERTEX
  8
Default
 10
815.8
 20
379.9
 42
0.0
  0
VERTEX
  8
Default
 10
832.769231
 20
349.846154
 42
0.0
  0
VERTEX
  8
Default
 10
847.7
 20
329.9
 42
0.0
  0
VERTEX
  8
Default
 10
848.0
 20
328.0
 42
0.0
  0
VERTEX
  8
Default
 10
860.0
 20
311.0
 42
0.0
  0
VERTEX
  8
Default
 10
861.0
 20
311.0
 42
0.0
  0
VERTEX
  8
Default
 10
861.0
 20
312.0
 42
0.0
  0
VERTEX
  8
Default
 10
862.076923
 20
312.615385
 42
0.0
  0
VERTEX
  8
Default
 10
874.076923
 20
314.615385
 42
0.0
  0
VERTEX
  8
Default
 10
878.0
 20
315.0
 42
0.0
  0
VERTEX
  8
Default
 10
879.0
 20
315.0
 42
0.0
  0
VERTEX
  8
Default
 10
879.0
 20
314.0
 42
0.0
  0
VERTEX
  8
Default
 10
879.445545
 20
305.044554
 42
0.0
  0
VERTEX
  8
Default
 10
883.0
 20
297.0
 42
0.0
  0
VERTEX
  8
Default
 10
888.0
 20
292.0
 42
0.0
  0
VERTEX
  8
Default
 10
890.9
 20
290.8
 42
0.0
  0
VERTEX
  8
Default
 10
892.0
 20
290.0
 42
0.0
  0
VERTEX
  8
Default
 10
901.0
 20
290.0
 42
0.0
  0
VERTEX
  8
Default
 10
902.82
 20
291.24
 42
0.0
  0
VERTEX
  8
Default
 10
908.0
 20
295.0
 42
0.0
  0
VERTEX
  8
Default
 10
908.230769
 20
295.846154
 42
0.0
  0
VERTEX
  8
Default
 10
910.0
 20
298.0
 42
0.0
  0
VERTEX
  8
Default
 10
910.0
 20
305.0
 42
0.0
  0
VERTEX
  8
Default
 10
908.769231
 20
306.846154
 42
0.0
  0
VERTEX
  8
Default
 10
907.0
 20
310.0
 42
0.0
  0
VERTEX
  8
Default
 10
902.0
 20
315.0
 42
0.0
  0
VERTEX
  8
Default
 10
897.2
 20
317.4
 42
0.0
  0
VERTEX
  8
Default
 10
895.0
 20
319.0
 42
0.0
  0
VERTEX
  8
Default
 10
885.0
 20
319.0
 42
0.0
  0
VERTEX
  8
Default
 10
882.264706
 20
317.558824
 42
0.0
  0
VERTEX
  8
Default
 10
879.0
 20
315.0
 42
0.0
  0
SEQEND
  0
POLYLINE
  8
Default
 66
     1
 10
0.0
 20
0.0
 30
0.0
 70
     1
  0
VERTEX
  8
Default
 10
286.0
 20
228.0
 42
0.0
  0
VERTEX
  8
Default
 10
287.0
 20
228.0
 42
0.0
  0
VERTEX
  8
Default
 10
289.911765
 20
228.352941
 42
0.0
  0
VERTEX
  8
Default
 10
304.932432
 20
230.405405
 42
0.0
  0
VERTEX
  8
Default
 10
306.0
 20
231.0
 42
0.0
  0
VERTEX
  8
Default
 10
319.0
 20
231.0
 42
0.0
  0
VERTEX
  8
Default
 10
330.1
 20
228.3
 42
0.0
  0
VERTEX
  8
Default
 10
331.9
 20
227.7
 42
0.0
  0
VERTEX
  8
Default
 10
340.1
 20
224.2
 42
0.0
  0
VERTEX
  8
Default
 10
340.9
 20
223.8
 42
0.0
  0
VERTEX
  8
Default
 10
347.0
 20
221.0
 42
0.0
  0
VERTEX
  8
Default
 10
354.0
 20
214.0
 42
0.0
  0
VERTEX
  8
Default
 10
354.230769
 20
213.153846
 42
0.0
  0
VERTEX
  8
Default
 10
355.4
 20
210.8
 42
0.0
  0
VERTEX
  8
Default
 10
357.0
 20
206.0
 42
0.0
  0
VERTEX
  8
Default
 10
357.0
 20
188.0
 42
0.0
  0
VERTEX
  8
Default
 10
356.384615
 20
186.923077
 42
0.0
  0
VERTEX
  8
Default
 10
355.615385
 20
183.076923
 42
0.0
  0
VERTEX
  8
Default
 10
351.0
 20
173.0
 42
0.0
  0
VERTEX
  8
Default
 10
343.0
 20
165.0
 42
0.0
  0
VERTEX
  8
Default
 10
334.1
 20
159.8
 42
0.0
  0
VERTEX
  8
Default
 10
332.9
 20
159.2
 42
0.0
  0
VERTEX
  8
Default
 10
327.923077
 20
157.384615
 42
0.0
  0
VERTEX
  8
Default
 10
324.076923
 20
156.615385
 42
0.0
  0
VERTEX
  8
Default
 10
318.0
 20
155.0
 42
0.0
  0
VERTEX
  8
Default
 10
307.0
 20
155.0
 42
0.0
  0
VERTEX
  8
Default
 10
298.088235
 20
157.352941
 42
0.0
  0
VERTEX
  8
Default
 10
292.18
 20
160.24
 42
0.0
  0
VERTEX
  8
Default
 10
288.0
 20
163.0
 42
0.0
  0
VERTEX
  8
Default
 10
283.0
 20
168.0
 42
0.0
  0
VERTEX
  8
Default
 10
280.8
 20
171.9
 42
0.0
  0
VERTEX
  8
Default
 10
279.2
 20
175.1
 42
0.0
  0
VERTEX
  8
Default
 10
277.384615
 20
179.076923
 42
0.0
  0
VERTEX
  8
Default
 10
276.615385
 20
182.923077
 42
0.0
  0
VERTEX
  8
Default
 10
275.0
 20
189.0
 42
0.0
  0
VERTEX
  8
Default
 10
275.0
 20
196.0
 42
0.0
  0
VERTEX
  8
Default
 10
277.384615
 20
207.923077
 42
0.0
  0
VERTEX
  8
Default
 10
280.2
 20
215.9
 42
0.0
  0
VERTEX
  8
Default
 10
286.0
 20
227.0
 42
0.0
  0
SEQEND
  0
POLYLINE
  8
Default
 66
     1
 10
0.0
 20
0.0
 30
0.0
 70
     0
  0
VERTEX
  8
Default
 10
653.0
 20
187.0
 42
0.0
  0
VERTEX
  8
Default
 10
654.0
 20
187.0
 42
0.0
  0
VERTEX
  8
Default
 10
655.0
 20
188.0
 42
0.0
  0
VERTEX
  8
Default
 10
656.0
 20
188.0
 42
0.0
  0
VERTEX
  8
Default
 10
657.0
 20
187.0
 42
0.0
  0
VERTEX
  8
Default
 10
660.0
 20
188.0
 42
0.0
  0
VERTEX
  8
Default
 10
661.053846
 20
187.430769
 42
0.0
  0
VERTEX
  8
Default
 10
668.0
 20
187.0
 42
0.0
  0
VERTEX
  8
Default
 10
672.195122
 20
183.243902
 42
0.0
  0
VERTEX
  8
Default
 10
674.0
 20
182.0
 42
0.0
  0
VERTEX
  8
Default
 10
676.0
 20
176.0
 42
0.0
  0
VERTEX
  8
Default
 10
676.0
 20
170.0
 42
0.0
  0
VERTEX
  8
Default
 10
674.0
 20
167.0
 42
0.0
  0
VERTEX
  8
Default
 10
670.0
 20
163.0
 42
0.0
  0
VERTEX
  8
Default
 10
669.1
 20
162.8
 42
0.0
  0
VERTEX
  8
Default
 10
664.846154
 20
160.230769
 42
0.0
  0
VERTEX
  8
Default
 10
662.9
 20
159.2
 42
0.0
  0
VERTEX
  8
Default
 10
656.0
 20
157.0
 42
0.0
  0
VERTEX
  8
Default
 10
653.0
 20
157.0
 42
0.0
  0
VERTEX
  8
Default
 10
651.911765
 20
157.647059
 42
0.0
  0
VERTEX
  8
Default
 10
649.206897
 20
158.517241
 42
0.0
  0
VERTEX
  8
Default
 10
646.0
 20
160.0
 42
0.0
  0
VERTEX
  8
Default
 10
643.0
 20
163.0
 42
0.0
  0
VERTEX
  8
Default
 10
642.0
 20
165.0
 42
0.0
  0
VERTEX
  8
Default
 10
642.0
 20
172.0
 42
0.0
  0
VERTEX
  8
Default
 10
642.647059
 20
173.088235
 42
0.0
  0
VERTEX
  8
Default
 10
643.517241
 20
175.793103
 42
0.0
  0
VERTEX
  8
Default
 10
645.248276
 20
178.77931
 42
0.0
  0
VERTEX
  8
Default
 10
653.0
 20
187.0
 42
0.0
  0
VERTEX
  8
Default
 10
653.0
 20
188.0
 42
0.0
  0
VERTEX
  8
Default
 10
646.6
 20
197.8
 42
0.0
  0
VERTEX
  8
Default
 10
642.3
 20
206.1
 42
0.0
  0
VERTEX
  8
Default
 10
639.0
 20
214.0
 42
0.0
  0
VERTEX
  8
Default
 10
639.0
 20
215.0
 42
0.0
  0
VERTEX
  8
Default
 10
638.0
 20
215.0
 42
0.0
  0
VERTEX
  8
Default
 10
637.0
 20
216.0
 42
0.0
  0
VERTEX
  8
Default
 10
633.1
 20
213.8
 42
0.0
  0
VERTEX
  8
Default
 10
632.0
 20
213.0
 42
0.0
  0
SEQEND
  0
POLYLINE
  8
Default
 66
     1
 10
0.0
 20
0.0
 30
0.0
 70
     0
  0
VERTEX
  8
Default
 10
932.0
 20
215.0
 42
0.0
  0
VERTEX
  8
Default
 10
933.0
 20
215.0
 42
0.0
  0
VERTEX
  8
Default
 10
934.1
 20
214.2
 42
0.0
  0
VERTEX
  8
Default
 10
939.8
 20
211.6
 42
0.0
  0
VERTEX
  8
Default
 10
955.0
 20
204.0
 42
0.0
  0
VERTEX
  8
Default
 10
961.0
 20
198.0
 42
0.0
  0
VERTEX
  8
Default
 10
963.0
 20
193.0
 42
0.0
  0
VERTEX
  8
Default
 10
963.0
 20
188.0
 42
0.0
  0
VERTEX
  8
Default
 10
960.0
 20
181.0
 42
0.0
  0
VERTEX
  8
Default
 10
957.0
 20
178.0
 42
0.0
  0
VERTEX
  8
Default
 10
956.153846
 20
177.769231
 42
0.0
  0
VERTEX
  8
Default
 10
953.846154
 20
176.230769
 42
0.0
  0
VERTEX
  8
Default
 10
949.0
 20
174.0
 42
0.0
  0
VERTEX
  8
Default
 10
942.0
 20
174.0
 42
0.0
  0
VERTEX
  8
Default
 10
940.9
 20
174.7
 42
0.0
  0
VERTEX
  8
Default
 10
939.2
 20
175.4
 42
0.0
  0
VERTEX
  8
Default
 10
936.0
 20
177.0
 42
0.0
  0
VERTEX
  8
Default
 10
931.0
 20
182.0
 42
0.0
  0
VERTEX
  8
Default
 10
929.8
 20
185.9
 42
0.0
  0
VERTEX
  8
Default
 10
929.0
 20
187.0
 42
0.0
  0
VERTEX
  8
Default
 10
929.0
 20
208.0
 42
0.0
  0
VERTEX
  8
Default
 10
932.0
 20
215.0
 42
0.0
  0
VERTEX
  8
Default
 10
932.0
 20
216.0
 42
0.0
  0
VERTEX
  8
Default
 10
909.247059
 20
241.211765
 42
0.0
  0
VERTEX
  8
Default
 10
895.76
 20
257.82
 42
0.0
  0
VERTEX
  8
Default
 10
889.4
 20
267.2
 42
0.0
  0
VERTEX
  8
Default
 10
889.0
 20
269.0
 42
0.0
  0
VERTEX
  8
Default
 10
889.0
 20
270.0
 42
0.0
  0
VERTEX
  8
Default
 10
880.0
 20
280.0
 42
0.0
  0
VERTEX
  8
Default
 10
879.0
 20
280.0
 42
0.0
  0
VERTEX
  8
Default
 10
879.0
 20
279.0
 42
0.0
  0
VERTEX
  8
Default
 10
877.615385
 20
273.076923
 42
0.0
  0
VERTEX
  8
Default
 10
871.2
 20
249.9
 42
0.0
  0
VERTEX
  8
Default
 10
870.0
 20
247.0
 42
0.0
  0
VERTEX
  8
Default
 10
870.0
 20
246.0
 42
0.0
  0
VERTEX
  8
Default
 10
870.0
 20
245.0
 42
0.0
  0
VERTEX
  8
Default
 10
875.9
 20
240.8
 42
0.0
  0
VERTEX
  8
Default
 10
878.0
 20
240.0
 42
0.0
  0
VERTEX
  8
Default
 10
881.0
 20
237.0
 42
0.0
  0
VERTEX
  8
Default
 10
883.2
 20
233.1
 42
0.0
  0
VERTEX
  8
Default
 10
884.0
 20
232.0
 42
0.0
  0
VERTEX
  8
Default
 10
884.0
 20
224.0
 42
0.0
  0
VERTEX
  8
Default
 10
882.0
 20
219.0
 42
0.0
  0
VERTEX
  8
Default
 10
875.0
 20
212.0
 42
0.0
  0
VERTEX
  8
Default
 10
874.1
 20
211.8
 42
0.0
  0
VERTEX
  8
Default
 10
872.9
 20
211.2
 42
0.0
  0
VERTEX
  8
Default
 10
871.0
 20
210.0
 42
0.0
  0
VERTEX
  8
Default
 10
861.0
 20
210.0
 42
0.0
  0
VERTEX
  8
Default
 10
858.846154
 20
211.769231
 42
0.0
  0
VERTEX
  8
Default
 10
858.0
 20
212.0
 42
0.0
  0
VERTEX
  8
Default
 10
853.0
 20
217.0
 42
0.0
  0
VERTEX
  8
Default
 10
852.6
 20
218.8
 42
0.0
  0
VERTEX
  8
Default
 10
851.0
 20
221.0
 42
0.0
  0
VERTEX
  8
Default
 10
851.0
 20
230.0
 42
0.0
  0
VERTEX
  8
Default
 10
853.2
 20
233.9
 42
0.0
  0
VERTEX
  8
Default
 10
855.0
 20
238.0
 42
0.0
  0
VERTEX
  8
Default
 10
859.0
 20
242.0
 42
0.0
  0
VERTEX
  8
Default
 10
867.9
 20
245.3
 42
0.0
  0
VERTEX
  8
Default
 10
869.0
 20
246.0
 42
0.0
  0
VERTEX
  8
Default
 10
870.0
 20
246.0
 42
0.0
  0
SEQEND
  0
POLYLINE
  8
Default
 66
     1
 10
0.0
 20
0.0
 30
0.0
 70
     0
  0
VERTEX
  8
Default
 10
1387.0
 20
197.0
 42
0.0
  0
VERTEX
  8
Default
 10
1392.752941
 20
203.211765
 42
0.0
  0
VERTEX
  8
Default
 10
1398.769231
 20
212.153846
 42
0.0
  0
VERTEX
  8
Default
 10
1399.2
 20
212.9
 42
0.0
  0
VERTEX
  8
Default
 10
1402.0
 20
221.0
 42
0.0
  0
VERTEX
  8
Default
 10
1402.0
 20
232.0
 42
0.0
  0
VERTEX
  8
Default
 10
1400.294118
 20
238.823529
 42
0.0
  0
VERTEX
  8
Default
 10
1396.527027
 20
246.662162
 42
0.0
  0
VERTEX
  8
Default
 10
1392.0
 20
253.0
 42
0.0
  0
VERTEX
  8
Default
 10
1390.204918
 20
254.245902
 42
0.0
  0
VERTEX
  8
Default
 10
1384.795082
 20
258.754098
 42
0.0
  0
VERTEX
  8
Default
 10
1377.9
 20
261.7
 42
0.0
  0
VERTEX
  8
Default
 10
1376.1
 20
262.3
 42
0.0
  0
VERTEX
  8
Default
 10
1368.946154
 20
264.569231
 42
0.0
  0
VERTEX
  8
Default
 10
1354.053846
 20
266.430769
 42
0.0
  0
VERTEX
  8
Default
 10
1353.0
 20
267.0
 42
0.0
  0
VERTEX
  8
Default
 10
1348.0
 20
267.0
 42
0.0
  0
VERTEX
  8
Default
 10
1340.0
 20
265.0
 42
0.0
  0
VERTEX
  8
Default
 10
1339.0
 20
265.0
 42
0.0
  0
VERTEX
  8
Default
 10
1339.0
 20
264.0
 42
0.0
  0
VERTEX
  8
Default
 10
1339.647059
 20
262.911765
 42
0.0
  0
VERTEX
  8
Default
 10
1342.554455
 20
240.955446
 42
0.0
  0
VERTEX
  8
Default
 10
1343.0
 20
232.0
 42
0.0
  0
VERTEX
  8
Default
 10
1343.0
 20
231.0
 42
0.0
  0
SEQEND
  0
POLYLINE
  8
Default
 66
     1
 10
0.0
 20
0.0
 30
0.0
 70
     1
  0
VERTEX
  8
Default
 10
563.0
 20
353.0
 42
0.0
  0
VERTEX
  8
Default
 10
564.0
 20
353.0
 42
0.0
  0
VERTEX
  8
Default
 10
570.076923
 20
355.615385
 42
0.0
  0
VERTEX
  8
Default
 10
574.0
 20
356.0
 42
0.0
  0
VERTEX
  8
Default
 10
575.0
 20
356.0
 42
0.0
  0
VERTEX
  8
Default
 10
575.0
 20
355.0
 42
0.0
  0
VERTEX
  8
Default
 10
578.756098
 20
349.804878
 42
0.0
  0
VERTEX
  8
Default
 10
581.4
 20
345.2
 42
0.0
  0
VERTEX
  8
Default
 10
582.6
 20
342.8
 42
0.0
  0
VERTEX
  8
Default
 10
592.647059
 20
321.911765
 42
0.0
  0
VERTEX
  8
Default
 10
596.0
 20
308.0
 42
0.0
  0
VERTEX
  8
Default
 10
596.0
 20
299.0
 42
0.0
  0
VERTEX
  8
Default
 10
592.2
 20
282.9
 42
0.0
  0
VERTEX
  8
Default
 10
586.2
 20
269.9
 42
0.0
  0
VERTEX
  8
Default
 10
575.0
 20
255.0
 42
0.0
  0
VERTEX
  8
Default
 10
565.795082
 20
247.245902
 42
0.0
  0
VERTEX
  8
Default
 10
557.846154
 20
241.230769
 42
0.0
  0
VERTEX
  8
Default
 10
540.1
 20
231.8
 42
0.0
  0
VERTEX
  8
Default
 10
535.8
 20
229.4
 42
0.0
  0
VERTEX
  8
Default
 10
521.923077
 20
225.384615
 42
0.0
  0
VERTEX
  8
Default
 10
511.076923
 20
222.615385
 42
0.0
  0
VERTEX
  8
Default
 10
490.9
 20
214.2
 42
0.0
  0
VERTEX
  8
Default
 10
486.911765
 20
212.352941
 42
0.0
  0
VERTEX
  8
Default
 10
484.0
 20
212.0
 42
0.0
  0
VERTEX
  8
Default
 10
483.0
 20
212.0
 42
0.0
  0
VERTEX
  8
Default
 10
483.0
 20
213.0
 42
0.0
  0
VERTEX
  8
Default
 10
486.430769
 20
233.946154
 42
0.0
  0
VERTEX
  8
Default
 10
491.7
 20
262.1
 42
0.0
  0
VERTEX
  8
Default
 10
496.352941
 20
277.911765
 42
0.0
  0
VERTEX
  8
Default
 10
507.8
 20
300.1
 42
0.0
  0
VERTEX
  8
Default
 10
511.756098
 20
305.195122
 42
0.0
  0
VERTEX
  8
Default
 10
517.249315
 20
312.768493
 42
0.0
  0
VERTEX
  8
Default
 10
534.0
 20
331.0
 42
0.0
  0
VERTEX
  8
Default
 10
545.153846
 20
338.769231
 42
0.0
  0
VERTEX
  8
Default
 10
560.846154
 20
350.230769
 42
0.0
  0
VERTEX
  8
Default
 10
563.0
 20
352.0
 42
0.0
  0
SEQEND
  0
POLYLINE
  8
Default
 66
     1
 10
0.0
 20
0.0
 30
0.0
 70
     1
  0
VERTEX
  8
Default
 10
689.0
 20
252.0
 42
0.0
  0
VERTEX
  8
Default
 10
690.0
 20
252.0
 42
0.0
  0
VERTEX
  8
Default
 10
691.088235
 20
252.647059
 42
0.0
  0
VERTEX
  8
Default
 10
695.0
 20
254.0
 42
0.0
  0
VERTEX
  8
Default
 10
700.0
 20
254.0
 42
0.0
  0
VERTEX
  8
Default
 10
706.1
 20
252.2
 42
0.0
  0
VERTEX
  8
Default
 10
709.0
 20
251.0
 42
0.0
  0
VERTEX
  8
Default
 10
716.0
 20
244.0
 42
0.0
  0
VERTEX
  8
Default
 10
716.2
 20
243.1
 42
0.0
  0
VERTEX
  8
Default
 10
718.0
 20
240.0
 42
0.0
  0
VERTEX
  8
Default
 10
718.0
 20
228.0
 42
0.0
  0
VERTEX
  8
Default
 10
716.230769
 20
225.846154
 42
0.0
  0
VERTEX
  8
Default
 10
714.0
 20
222.0
 42
0.0
  0
VERTEX
  8
Default
 10
706.1
 20
216.8
 42
0.0
  0
VERTEX
  8
Default
 10
704.932432
 20
216.405405
 42
0.0
  0
VERTEX
  8
Default
 10
699.0
 20
215.0
 42
0.0
  0
VERTEX
  8
Default
 10
696.0
 20
215.0
 42
0.0
  0
VERTEX
  8
Default
 10
694.923077
 20
215.615385
 42
0.0
  0
VERTEX
  8
Default
 10
691.2
 20
216.6
 42
0.0
  0
VERTEX
  8
Default
 10
688.0
 20
218.0
 42
0.0
  0
VERTEX
  8
Default
 10
683.0
 20
223.0
 42
0.0
  0
VERTEX
  8
Default
 10
681.8
 20
225.9
 42
0.0
  0
VERTEX
  8
Default
 10
681.0
 20
227.0
 42
0.0
  0
VERTEX
  8
Default
 10
681.0
 20
240.0
 42
0.0
  0
VERTEX
  8
Default
 10
683.8
 20
245.1
 42
0.0
  0
VERTEX
  8
Default
 10
689.0
 20
251.0
 42
0.0
  0
SEQEND
  0
POLYLINE
  8
Default
 66
     1
 10
0.0
 20
0.0
 30
0.0
 70
     0
  0
VERTEX
  8
Default
 10
639.0
 20
215.0
 42
0.0
  0
VERTEX
  8
Default
 10
639.0
 20
216.0
 42
0.0
  0
VERTEX
  8
Default
 10
655.8
 20
240.1
 42
0.0
  0
VERTEX
  8
Default
 10
663.2
 20
253.9
 42
0.0
  0
VERTEX
  8
Default
 10
663.7
 20
255.1
 42
0.0
  0
VERTEX
  8
Default
 10
670.2
 20
270.9
 42
0.0
  0
VERTEX
  8
Default
 10
671.0
 20
272.0
 42
0.0
  0
VERTEX
  8
Default
 10
671.45082
 20
281.959016
 42
0.0
  0
VERTEX
  8
Default
 10
672.352941
 20
285.911765
 42
0.0
  0
VERTEX
  8
Default
 10
675.0
 20
304.0
 42
0.0
  0
VERTEX
  8
Default
 10
675.0
 20
313.0
 42
0.0
  0
VERTEX
  8
Default
 10
673.8
 20
314.9
 42
0.0
  0
VERTEX
  8
Default
 10
673.0
 20
316.0
 42
0.0
  0
VERTEX
  8
Default
 10
672.0
 20
316.0
 42
0.0
  0
VERTEX
  8
Default
 10
661.0
 20
308.0
 42
0.0
  0
VERTEX
  8
Default
 10
661.0
 20
307.0
 42
0.0
  0
VERTEX
  8
Default
 10
661.2
 20
306.1
 42
0.0
  0
VERTEX
  8
Default
 10
661.0
 20
301.0
 42
0.0
  0
VERTEX
  8
Default
 10
663.0
 20
299.0
 42
0.0
  0
VERTEX
  8
Default
 10
663.0
 20
295.0
 42
0.0
  0
VERTEX
  8
Default
 10
662.405405
 20
293.932432
 42
0.0
  0
VERTEX
  8
Default
 10
661.339623
 20
289.188679
 42
0.0
  0
VERTEX
  8
Default
 10
660.0
 20
285.0
 42
0.0
  0
VERTEX
  8
Default
 10
653.0
 20
278.0
 42
0.0
  0
VERTEX
  8
Default
 10
652.1
 20
277.8
 42
0.0
  0
VERTEX
  8
Default
 10
650.9
 20
277.2
 42
0.0
  0
VERTEX
  8
Default
 10
649.0
 20
276.0
 42
0.0
  0
VERTEX
  8
Default
 10
640.0
 20
276.0
 42
0.0
  0
VERTEX
  8
Default
 10
633.0
 20
282.0
 42
0.0
  0
VERTEX
  8
Default
 10
630.569231
 20
291.946154
 42
0.0
  0
VERTEX
  8
Default
 10
630.0
 20
293.0
 42
0.0
  0
VERTEX
  8
Default
 10
630.0
 20
295.0
 42
0.0
  0
VERTEX
  8
Default
 10
632.2
 20
303.9
 42
0.0
  0
VERTEX
  8
Default
 10
633.0
 20
306.0
 42
0.0
  0
VERTEX
  8
Default
 10
638.0
 20
311.0
 42
0.0
  0
VERTEX
  8
Default
 10
638.846154
 20
311.230769
 42
0.0
  0
VERTEX
  8
Default
 10
641.0
 20
313.0
 42
0.0
  0
VERTEX
  8
Default
 10
651.0
 20
313.0
 42
0.0
  0
VERTEX
  8
Default
 10
658.153846
 20
309.230769
 42
0.0
  0
VERTEX
  8
Default
 10
660.0
 20
308.0
 42
0.0
  0
VERTEX
  8
Default
 10
661.0
 20
308.0
 42
0.0
  0
SEQEND
  0
POLYLINE
  8
Default
 66
     1
 10
0.0
 20
0.0
 30
0.0
 70
     0
  0
VERTEX
  8
Default
 10
286.0
 20
228.0
 42
0.0
  0
VERTEX
  8
Default
 10
286.0
 20
229.0
 42
0.0
  0
VERTEX
  8
Default
 10
282.243902
 20
233.195122
 42
0.0
  0
VERTEX
  8
Default
 10
267.24
 20
253.18
 42
0.0
  0
VERTEX
  8
Default
 10
252.2
 20
276.1
 42
0.0
  0
VERTEX
  8
Default
 10
245.8
 20
287.9
 42
0.0
  0
VERTEX
  8
Default
 10
239.3
 20
302.1
 42
0.0
  0
VERTEX
  8
Default
 10
231.8
 20
320.9
 42
0.0
  0
VERTEX
  8
Default
 10
227.7
 20
332.9
 42
0.0
  0
VERTEX
  8
Default
 10
227.384615
 20
334.076923
 42
0.0
  0
VERTEX
  8
Default
 10
220.8
 20
367.9
 42
0.0
  0
VERTEX
  8
Default
 10
220.0
 20
369.0
 42
0.0
  0
VERTEX
  8
Default
 10
220.0
 20
370.0
 42
0.0
  0
VERTEX
  8
Default
 10
219.0
 20
370.0
 42
0.0
  0
VERTEX
  8
Default
 10
204.0
 20
360.0
 42
0.0
  0
VERTEX
  8
Default
 10
204.0
 20
359.0
 42
0.0
  0
VERTEX
  8
Default
 10
203.0
 20
358.0
 42
0.0
  0
VERTEX
  8
Default
 10
205.2
 20
354.1
 42
0.0
  0
VERTEX
  8
Default
 10
207.615385
 20
347.923077
 42
0.0
  0
VERTEX
  8
Default
 10
209.0
 20
343.0
 42
0.0
  0
VERTEX
  8
Default
 10
209.0
 20
333.0
 42
0.0
  0
VERTEX
  8
Default
 10
206.3
 20
321.9
 42
0.0
  0
VERTEX
  8
Default
 10
205.3
 20
318.9
 42
0.0
  0
VERTEX
  8
Default
 10
201.76
 20
311.18
 42
0.0
  0
VERTEX
  8
Default
 10
199.0
 20
307.0
 42
0.0
  0
VERTEX
  8
Default
 10
190.0
 20
298.0
 42
0.0
  0
VERTEX
  8
Default
 10
189.1
 20
297.8
 42
0.0
  0
VERTEX
  8
Default
 10
184.846154
 20
295.230769
 42
0.0
  0
VERTEX
  8
Default
 10
180.911765
 20
293.352941
 42
0.0
  0
VERTEX
  8
Default
 10
172.0
 20
291.0
 42
0.0
  0
VERTEX
  8
Default
 10
166.0
 20
291.0
 42
0.0
  0
VERTEX
  8
Default
 10
158.911765
 20
292.647059
 42
0.0
  0
VERTEX
  8
Default
 10
154.9
 20
293.8
 42
0.0
  0
VERTEX
  8
Default
 10
144.0
 20
300.0
 42
0.0
  0
VERTEX
  8
Default
 10
141.0
 20
303.0
 42
0.0
  0
VERTEX
  8
Default
 10
135.8
 20
311.9
 42
0.0
  0
VERTEX
  8
Default
 10
135.3
 20
313.1
 42
0.0
  0
VERTEX
  8
Default
 10
131.0
 20
327.0
 42
0.0
  0
VERTEX
  8
Default
 10
131.0
 20
338.0
 42
0.0
  0
VERTEX
  8
Default
 10
134.8
 20
351.1
 42
0.0
  0
VERTEX
  8
Default
 10
136.3
 20
354.9
 42
0.0
  0
VERTEX
  8
Default
 10
139.230769
 20
360.846154
 42
0.0
  0
VERTEX
  8
Default
 10
143.76
 20
367.18
 42
0.0
  0
VERTEX
  8
Default
 10
146.0
 20
370.0
 42
0.0
  0
VERTEX
  8
Default
 10
150.18
 20
372.76
 42
0.0
  0
VERTEX
  8
Default
 10
158.0
 20
377.0
 42
0.0
  0
VERTEX
  8
Default
 10
173.0
 20
377.0
 42
0.0
  0
VERTEX
  8
Default
 10
174.076923
 20
376.384615
 42
0.0
  0
VERTEX
  8
Default
 10
177.923077
 20
375.615385
 42
0.0
  0
VERTEX
  8
Default
 10
184.9
 20
372.8
 42
0.0
  0
VERTEX
  8
Default
 10
186.9
 20
371.8
 42
0.0
  0
VERTEX
  8
Default
 10
194.804878
 20
366.756098
 42
0.0
  0
VERTEX
  8
Default
 10
203.0
 20
360.0
 42
0.0
  0
VERTEX
  8
Default
 10
204.0
 20
360.0
 42
0.0
  0
SEQEND
  0
POLYLINE
  8
Default
 66
     1
 10
0.0
 20
0.0
 30
0.0
 70
     0
  0
VERTEX
  8
Default
 10
1339.0
 20
265.0
 42
0.0
  0
VERTEX
  8
Default
 10
1338.0
 20
265.0
 42
0.0
  0
VERTEX
  8
Default
 10
1334.9
 20
266.7
 42
0.0
  0
VERTEX
  8
Default
 10
1327.0
 20
269.0
 42
0.0
  0
VERTEX
  8
Default
 10
1308.0
 20
269.0
 42
0.0
  0
VERTEX
  8
Default
 10
1301.911765
 20
267.352941
 42
0.0
  0
VERTEX
  8
Default
 10
1274.1
 20
257.8
 42
0.0
  0
VERTEX
  8
Default
 10
1272.1
 20
256.8
 42
0.0
  0
VERTEX
  8
Default
 10
1265.18
 20
252.76
 42
0.0
  0
VERTEX
  8
Default
 10
1257.0
 20
246.0
 42
0.0
  0
VERTEX
  8
Default
 10
1256.0
 20
246.0
 42
0.0
  0
SEQEND
  0
POLYLINE
  8
Default
 66
     1
 10
0.0
 20
0.0
 30
0.0
 70
     0
  0
VERTEX
  8
Default
 10
912.0
 20
271.0
 42
0.0
  0
VERTEX
  8
Default
 10
912.0
 20
270.0
 42
0.0
  0
VERTEX
  8
Default
 10
912.560976
 20
268.95122
 42
0.0
  0
VERTEX
  8
Default
 10
913.769231
 20
261.153846
 42
0.0
  0
VERTEX
  8
Default
 10
917.0
 20
253.0
 42
0.0
  0
VERTEX
  8
Default
 10
922.0
 20
248.0
 42
0.0
  0
VERTEX
  8
Default
 10
925.0
 20
246.0
 42
0.0
  0
VERTEX
  8
Default
 10
933.0
 20
246.0
 42
0.0
  0
VERTEX
  8
Default
 10
934.846154
 20
247.230769
 42
0.0
  0
VERTEX
  8
Default
 10
937.153846
 20
248.769231
 42
0.0
  0
VERTEX
  8
Default
 10
938.0
 20
249.0
 42
0.0
  0
VERTEX
  8
Default
 10
941.0
 20
252.0
 42
0.0
  0
VERTEX
  8
Default
 10
941.8
 20
254.1
 42
0.0
  0
VERTEX
  8
Default
 10
942.2
 20
254.9
 42
0.0
  0
VERTEX
  8
Default
 10
944.0
 20
258.0
 42
0.0
  0
VERTEX
  8
Default
 10
944.0
 20
268.0
 42
0.0
  0
VERTEX
  8
Default
 10
943.3
 20
269.1
 42
0.0
  0
VERTEX
  8
Default
 10
941.0
 20
274.0
 42
0.0
  0
VERTEX
  8
Default
 10
937.0
 20
278.0
 42
0.0
  0
VERTEX
  8
Default
 10
936.1
 20
278.2
 42
0.0
  0
VERTEX
  8
Default
 10
930.0
 20
281.0
 42
0.0
  0
VERTEX
  8
Default
 10
923.0
 20
281.0
 42
0.0
  0
VERTEX
  8
Default
 10
921.9
 20
280.2
 42
0.0
  0
VERTEX
  8
Default
 10
918.0
 20
278.0
 42
0.0
  0
VERTEX
  8
Default
 10
913.0
 20
273.0
 42
0.0
  0
VERTEX
  8
Default
 10
912.0
 20
271.0
 42
0.0
  0
VERTEX
  8
Default
 10
911.0
 20
271.0
 42
0.0
  0
VERTEX
  8
Default
 10
907.911765
 20
270.352941
 42
0.0
  0
VERTEX
  8
Default
 10
904.0
 20
269.0
 42
0.0
  0
VERTEX
  8
Default
 10
895.0
 20
269.0
 42
0.0
  0
VERTEX
  8
Default
 10
893.923077
 20
269.615385
 42
0.0
  0
VERTEX
  8
Default
 10
890.0
 20
270.0
 42
0.0
  0
VERTEX
  8
Default
 10
889.0
 20
270.0
 42
0.0
  0
SEQEND
  0
POLYLINE
  8
Default
 66
     1
 10
0.0
 20
0.0
 30
0.0
 70
     0
  0
VERTEX
  8
Default
 10
848.0
 20
328.0
 42
0.0
  0
VERTEX
  8
Default
 10
845.6
 20
324.7
 42
0.0
  0
VERTEX
  8
Default
 10
843.7
 20
319.1
 42
0.0
  0
VERTEX
  8
Default
 10
840.482759
 20
308.206897
 42
0.0
  0
VERTEX
  8
Default
 10
837.0
 20
302.0
 42
0.0
  0
VERTEX
  8
Default
 10
836.0
 20
302.0
 42
0.0
  0
VERTEX
  8
Default
 10
835.1
 20
301.8
 42
0.0
  0
VERTEX
  8
Default
 10
822.0
 20
297.0
 42
0.0
  0
VERTEX
  8
Default
 10
817.0
 20
292.0
 42
0.0
  0
VERTEX
  8
Default
 10
814.0
 20
283.0
 42
0.0
  0
VERTEX
  8
Default
 10
814.0
 20
276.0
 42
0.0
  0
VERTEX
  8
Default
 10
815.4
 20
273.2
 42
0.0
  0
VERTEX
  8
Default
 10
816.769231
 20
270.846154
 42
0.0
  0
VERTEX
  8
Default
 10
817.0
 20
270.0
 42
0.0
  0
VERTEX
  8
Default
 10
819.0
 20
268.0
 42
0.0
  0
VERTEX
  8
Default
 10
821.1
 20
267.3
 42
0.0
  0
VERTEX
  8
Default
 10
822.9
 20
266.7
 42
0.0
  0
VERTEX
  8
Default
 10
824.0
 20
266.0
 42
0.0
  0
VERTEX
  8
Default
 10
831.0
 20
266.0
 42
0.0
  0
VERTEX
  8
Default
 10
834.1
 20
267.8
 42
0.0
  0
VERTEX
  8
Default
 10
835.0
 20
268.0
 42
0.0
  0
VERTEX
  8
Default
 10
844.0
 20
277.0
 42
0.0
  0
VERTEX
  8
Default
 10
844.2
 20
277.9
 42
0.0
  0
VERTEX
  8
Default
 10
846.0
 20
282.0
 42
0.0
  0
VERTEX
  8
Default
 10
846.0
 20
285.0
 42
0.0
  0
VERTEX
  8
Default
 10
844.7
 20
287.9
 42
0.0
  0
VERTEX
  8
Default
 10
837.0
 20
301.0
 42
0.0
  0
VERTEX
  8
Default
 10
837.0
 20
302.0
 42
0.0
  0
SEQEND
  0
POLYLINE
  8
Default
 66
     1
 10
0.0
 20
0.0
 30
0.0
 70
     0
  0
VERTEX
  8
Default
 10
879.0
 20
280.0
 42
0.0
  0
VERTEX
  8
Default
 10
879.0
 20
281.0
 42
0.0
  0
VERTEX
  8
Default
 10
877.2
 20
284.1
 42
0.0
  0
VERTEX
  8
Default
 10
864.769231
 20
304.846154
 42
0.0
  0
VERTEX
  8
Default
 10
861.0
 20
310.0
 42
0.0
  0
VERTEX
  8
Default
 10
861.0
 20
311.0
 42
0.0
  0
SEQEND
  0
POLYLINE
  8
Default
 66
     1
 10
0.0
 20
0.0
 30
0.0
 70
     0
  0
VERTEX
  8
Default
 10
1180.0
 20
281.0
 42
0.0
  0
VERTEX
  8
Default
 10
1179.0
 20
281.0
 42
0.0
  0
VERTEX
  8
Default
 10
1170.0
 20
288.0
 42
0.0
  0
VERTEX
  8
Default
 10
1169.0
 20
288.0
 42
0.0
  0
SEQEND
  0
POLYLINE
  8
Default
 66
     1
 10
0.0
 20
0.0
 30
0.0
 70
     0
  0
VERTEX
  8
Default
 10
1153.0
 20
307.0
 42
0.0
  0
VERTEX
  8
Default
 10
1154.0
 20
307.0
 42
0.0
  0
VERTEX
  8
Default
 10
1173.969027
 20
305.535398
 42
0.0
  0
VERTEX
  8
Default
 10
1175.0
 20
305.0
 42
0.0
  0
VERTEX
  8
Default
 10
1204.0
 20
305.0
 42
0.0
  0
VERTEX
  8
Default
 10
1205.053846
 20
305.569231
 42
0.0
  0
VERTEX
  8
Default
 10
1211.946154
 20
306.430769
 42
0.0
  0
VERTEX
  8
Default
 10
1240.9
 20
316.3
 42
0.0
  0
VERTEX
  8
Default
 10
1242.1
 20
316.8
 42
0.0
  0
VERTEX
  8
Default
 10
1249.846154
 20
321.230769
 42
0.0
  0
VERTEX
  8
Default
 10
1252.0
 20
323.0
 42
0.0
  0
VERTEX
  8
Default
 10
1253.0
 20
323.0
 42
0.0
  0
VERTEX
  8
Default
 10
1253.0
 20
324.0
 42
0.0
  0
VERTEX
  8
Default
 10
1252.8
 20
324.9
 42
0.0
  0
VERTEX
  8
Default
 10
1252.0
 20
326.0
 42
0.0
  0
VERTEX
  8
Default
 10
1252.0
 20
341.0
 42
0.0
  0
VERTEX
  8
Default
 10
1254.352941
 20
357.911765
 42
0.0
  0
VERTEX
  8
Default
 10
1255.647059
 20
367.088235
 42
0.0
  0
VERTEX
  8
Default
 10
1259.3
 20
379.9
 42
0.0
  0
VERTEX
  8
Default
 10
1260.8
 20
383.1
 42
0.0
  0
VERTEX
  8
Default
 10
1265.245902
 20
389.795082
 42
0.0
  0
VERTEX
  8
Default
 10
1276.0
 20
402.0
 42
0.0
  0
VERTEX
  8
Default
 10
1276.0
 20
403.0
 42
0.0
  0
VERTEX
  8
Default
 10
1276.405405
 20
407.932432
 42
0.0
  0
VERTEX
  8
Default
 10
1277.8
 20
423.1
 42
0.0
  0
VERTEX
  8
Default
 10
1278.647059
 20
425.088235
 42
0.0
  0
VERTEX
  8
Default
 10
1283.0
 20
434.0
 42
0.0
  0
VERTEX
  8
Default
 10
1290.0
 20
441.0
 42
0.0
  0
VERTEX
  8
Default
 10
1292.82
 20
442.24
 42
0.0
  0
VERTEX
  8
Default
 10
1297.9
 20
445.3
 42
0.0
  0
VERTEX
  8
Default
 10
1304.911765
 20
447.352941
 42
0.0
  0
VERTEX
  8
Default
 10
1308.911765
 20
448.352941
 42
0.0
  0
VERTEX
  8
Default
 10
1310.0
 20
449.0
 42
0.0
  0
VERTEX
  8
Default
 10
1329.0
 20
449.0
 42
0.0
  0
VERTEX
  8
Default
 10
1330.088235
 20
448.352941
 42
0.0
  0
VERTEX
  8
Default
 10
1341.0
 20
445.0
 42
0.0
  0
VERTEX
  8
Default
 10
1350.0
 20
436.0
 42
0.0
  0
VERTEX
  8
Default
 10
1351.54918
 20
430.959016
 42
0.0
  0
VERTEX
  8
Default
 10
1352.0
 20
421.0
 42
0.0
  0
VERTEX
  8
Default
 10
1352.0
 20
420.0
 42
0.0
  0
VERTEX
  8
Default
 10
1353.0
 20
420.0
 42
0.0
  0
VERTEX
  8
Default
 10
1357.307692
 20
416.461538
 42
0.0
  0
VERTEX
  8
Default
 10
1367.0
 20
411.0
 42
0.0
  0
VERTEX
  8
Default
 10
1375.0
 20
403.0
 42
0.0
  0
VERTEX
  8
Default
 10
1379.615385
 20
391.923077
 42
0.0
  0
VERTEX
  8
Default
 10
1381.0
 20
387.0
 42
0.0
  0
VERTEX
  8
Default
 10
1381.0
 20
375.0
 42
0.0
  0
VERTEX
  8
Default
 10
1379.3
 20
367.9
 42
0.0
  0
VERTEX
  8
Default
 10
1377.7
 20
363.1
 42
0.0
  0
VERTEX
  8
Default
 10
1372.2
 20
351.9
 42
0.0
  0
VERTEX
  8
Default
 10
1371.754098
 20
351.204918
 42
0.0
  0
VERTEX
  8
Default
 10
1367.0
 20
345.0
 42
0.0
  0
VERTEX
  8
Default
 10
1361.0
 20
339.0
 42
0.0
  0
VERTEX
  8
Default
 10
1360.153846
 20
338.769231
 42
0.0
  0
VERTEX
  8
Default
 10
1352.692308
 20
333.461538
 42
0.0
  0
VERTEX
  8
Default
 10
1344.1
 20
328.8
 42
0.0
  0
VERTEX
  8
Default
 10
1342.9
 20
328.2
 42
0.0
  0
VERTEX
  8
Default
 10
1336.9
 20
325.3
 42
0.0
  0
VERTEX
  8
Default
 10
1335.0
 20
325.0
 42
0.0
  0
VERTEX
  8
Default
 10
1334.0
 20
325.0
 42
0.0
  0
VERTEX
  8
Default
 10
1334.0
 20
324.0
 42
0.0
  0
VERTEX
  8
Default
 10
1327.8
 20
321.4
 42
0.0
  0
VERTEX
  8
Default
 10
1319.95122
 20
319.439024
 42
0.0
  0
VERTEX
  8
Default
 10
1312.04878
 20
318.560976
 42
0.0
  0
VERTEX
  8
Default
 10
1307.0
 20
317.0
 42
0.0
  0
VERTEX
  8
Default
 10
1290.0
 20
317.0
 42
0.0
  0
VERTEX
  8
Default
 10
1288.955446
 20
317.554455
 42
0.0
  0
VERTEX
  8
Default
 10
1278.959016
 20
318.54918
 42
0.0
  0
VERTEX
  8
Default
 10
1269.0
 20
319.0
 42
0.0
  0
VERTEX
  8
Default
 10
1266.811321
 20
320.339623
 42
0.0
  0
VERTEX
  8
Default
 10
1262.067568
 20
321.405405
 42
0.0
  0
VERTEX
  8
Default
 10
1254.0
 20
323.0
 42
0.0
  0
VERTEX
  8
Default
 10
1253.0
 20
323.0
 42
0.0
  0
SEQEND
  0
POLYLINE
  8
Default
 66
     1
 10
0.0
 20
0.0
 30
0.0
 70
     0
  0
VERTEX
  8
Default
 10
673.0
 20
316.0
 42
0.0
  0
VERTEX
  8
Default
 10
673.0
 20
317.0
 42
0.0
  0
VERTEX
  8
Default
 10
673.2
 20
317.9
 42
0.0
  0
VERTEX
  8
Default
 10
674.0
 20
319.0
 42
0.0
  0
VERTEX
  8
Default
 10
674.0
 20
332.0
 42
0.0
  0
VERTEX
  8
Default
 10
673.439024
 20
333.04878
 42
0.0
  0
VERTEX
  8
Default
 10
669.0
 20
380.0
 42
0.0
  0
VERTEX
  8
Default
 10
669.0
 20
408.0
 42
0.0
  0
VERTEX
  8
Default
 10
670.0
 20
409.0
 42
0.0
  0
VERTEX
  8
Default
 10
670.0
 20
415.0
 42
0.0
  0
VERTEX
  8
Default
 10
669.0
 20
416.0
 42
0.0
  0
VERTEX
  8
Default
 10
669.0
 20
417.0
 42
0.0
  0
VERTEX
  8
Default
 10
668.0
 20
417.0
 42
0.0
  0
VERTEX
  8
Default
 10
665.0
 20
416.0
 42
0.0
  0
VERTEX
  8
Default
 10
664.0
 20
416.0
 42
0.0
  0
VERTEX
  8
Default
 10
664.0
 20
415.0
 42
0.0
  0
VERTEX
  8
Default
 10
641.769968
 20
394.249201
 42
0.0
  0
VERTEX
  8
Default
 10
631.195122
 20
385.756098
 42
0.0
  0
VERTEX
  8
Default
 10
626.1
 20
381.8
 42
0.0
  0
VERTEX
  8
Default
 10
586.9
 20
362.2
 42
0.0
  0
VERTEX
  8
Default
 10
586.1
 20
361.8
 42
0.0
  0
VERTEX
  8
Default
 10
577.153846
 20
357.769231
 42
0.0
  0
VERTEX
  8
Default
 10
575.0
 20
356.0
 42
0.0
  0
SEQEND
  0
POLYLINE
  8
Default
 66
     1
 10
0.0
 20
0.0
 30
0.0
 70
     0
  0
VERTEX
  8
Default
 10
669.0
 20
417.0
 42
0.0
  0
VERTEX
  8
Default
 10
669.0
 20
418.0
 42
0.0
  0
VERTEX
  8
Default
 10
672.769231
 20
423.153846
 42
0.0
  0
VERTEX
  8
Default
 10
708.752941
 20
466.211765
 42
0.0
  0
VERTEX
  8
Default
 10
716.0
 20
474.0
 42
0.0
  0
VERTEX
  8
Default
 10
717.0
 20
474.0
 42
0.0
  0
VERTEX
  8
Default
 10
718.0
 20
473.0
 42
0.0
  0
VERTEX
  8
Default
 10
718.0
 20
471.0
 42
0.0
  0
VERTEX
  8
Default
 10
713.7
 20
459.1
 42
0.0
  0
VERTEX
  8
Default
 10
712.7
 20
456.1
 42
0.0
  0
VERTEX
  8
Default
 10
709.42
 20
445.94
 42
0.0
  0
VERTEX
  8
Default
 10
706.58
 20
428.06
 42
0.0
  0
VERTEX
  8
Default
 10
705.0
 20
419.0
 42
0.0
  0
VERTEX
  8
Default
 10
705.0
 20
398.0
 42
0.0
  0
VERTEX
  8
Default
 10
706.615385
 20
391.923077
 42
0.0
  0
VERTEX
  8
Default
 10
707.384615
 20
388.076923
 42
0.0
  0
VERTEX
  8
Default
 10
711.352941
 20
375.088235
 42
0.0
  0
VERTEX
  8
Default
 10
713.2
 20
371.1
 42
0.0
  0
VERTEX
  8
Default
 10
725.647059
 20
341.911765
 42
0.0
  0
VERTEX
  8
Default
 10
727.647059
 20
335.911765
 42
0.0
  0
VERTEX
  8
Default
 10
733.0
 20
321.0
 42
0.0
  0
VERTEX
  8
Default
 10
734.0
 20
320.0
 42
0.0
  0
VERTEX
  8
Default
 10
735.0
 20
320.0
 42
0.0
  0
VERTEX
  8
Default
 10
739.0
 20
324.0
 42
0.0
  0
VERTEX
  8
Default
 10
744.249057
 20
331.771698
 42
0.0
  0
VERTEX
  8
Default
 10
760.752941
 20
350.211765
 42
0.0
  0
VERTEX
  8
Default
 10
770.2
 20
364.9
 42
0.0
  0
VERTEX
  8
Default
 10
772.6
 20
370.2
 42
0.0
  0
VERTEX
  8
Default
 10
775.352941
 20
378.911765
 42
0.0
  0
VERTEX
  8
Default
 10
777.0
 20
386.0
 42
0.0
  0
VERTEX
  8
Default
 10
777.0
 20
411.0
 42
0.0
  0
VERTEX
  8
Default
 10
774.647059
 20
421.911765
 42
0.0
  0
VERTEX
  8
Default
 10
772.647059
 20
429.911765
 42
0.0
  0
VERTEX
  8
Default
 10
768.6
 20
440.8
 42
0.0
  0
VERTEX
  8
Default
 10
765.4
 20
447.2
 42
0.0
  0
VERTEX
  8
Default
 10
762.538462
 20
452.692308
 42
0.0
  0
VERTEX
  8
Default
 10
756.756098
 20
460.804878
 42
0.0
  0
VERTEX
  8
Default
 10
739.0
 20
482.0
 42
0.0
  0
VERTEX
  8
Default
 10
732.795082
 20
486.754098
 42
0.0
  0
VERTEX
  8
Default
 10
730.9
 20
487.8
 42
0.0
  0
VERTEX
  8
Default
 10
730.0
 20
488.0
 42
0.0
  0
VERTEX
  8
Default
 10
729.0
 20
488.0
 42
0.0
  0
VERTEX
  8
Default
 10
728.0
 20
488.0
 42
0.0
  0
VERTEX
  8
Default
 10
722.247059
 20
481.788235
 42
0.0
  0
VERTEX
  8
Default
 10
717.0
 20
475.0
 42
0.0
  0
VERTEX
  8
Default
 10
717.0
 20
474.0
 42
0.0
  0
SEQEND
  0
POLYLINE
  8
Default
 66
     1
 10
0.0
 20
0.0
 30
0.0
 70
     1
  0
VERTEX
  8
Default
 10
244.0
 20
388.0
 42
0.0
  0
VERTEX
  8
Default
 10
244.0
 20
389.0
 42
0.0
  0
VERTEX
  8
Default
 10
250.211765
 20
394.752941
 42
0.0
  0
VERTEX
  8
Default
 10
256.9
 20
399.2
 42
0.0
  0
VERTEX
  8
Default
 10
258.1
 20
399.8
 42
0.0
  0
VERTEX
  8
Default
 10
269.076923
 20
403.615385
 42
0.0
  0
VERTEX
  8
Default
 10
274.0
 20
405.0
 42
0.0
  0
VERTEX
  8
Default
 10
287.0
 20
405.0
 42
0.0
  0
VERTEX
  8
Default
 10
288.088235
 20
404.352941
 42
0.0
  0
VERTEX
  8
Default
 10
294.911765
 20
402.647059
 42
0.0
  0
VERTEX
  8
Default
 10
298.846154
 20
400.769231
 42
0.0
  0
VERTEX
  8
Default
 10
301.153846
 20
399.230769
 42
0.0
  0
VERTEX
  8
Default
 10
304.0
 20
398.0
 42
0.0
  0
VERTEX
  8
Default
 10
312.0
 20
390.0
 42
0.0
  0
VERTEX
  8
Default
 10
314.8
 20
384.9
 42
0.0
  0
VERTEX
  8
Default
 10
317.0
 20
378.0
 42
0.0
  0
VERTEX
  8
Default
 10
317.0
 20
358.0
 42
0.0
  0
VERTEX
  8
Default
 10
316.384615
 20
356.923077
 42
0.0
  0
VERTEX
  8
Default
 10
315.615385
 20
353.076923
 42
0.0
  0
VERTEX
  8
Default
 10
312.538462
 20
346.307692
 42
0.0
  0
VERTEX
  8
Default
 10
309.0
 20
341.0
 42
0.0
  0
VERTEX
  8
Default
 10
301.0
 20
333.0
 42
0.0
  0
VERTEX
  8
Default
 10
300.153846
 20
332.769231
 42
0.0
  0
VERTEX
  8
Default
 10
290.9
 20
327.2
 42
0.0
  0
VERTEX
  8
Default
 10
278.0
 20
323.0
 42
0.0
  0
VERTEX
  8
Default
 10
266.0
 20
323.0
 42
0.0
  0
VERTEX
  8
Default
 10
256.9
 20
325.8
 42
0.0
  0
VERTEX
  8
Default
 10
256.1
 20
326.2
 42
0.0
  0
VERTEX
  8
Default
 10
252.0
 20
328.0
 42
0.0
  0
VERTEX
  8
Default
 10
244.0
 20
336.0
 42
0.0
  0
VERTEX
  8
Default
 10
239.7
 20
347.9
 42
0.0
  0
VERTEX
  8
Default
 10
239.0
 20
349.0
 42
0.0
  0
VERTEX
  8
Default
 10
239.0
 20
366.0
 42
0.0
  0
VERTEX
  8
Default
 10
244.0
 20
387.0
 42
0.0
  0
SEQEND
  0
POLYLINE
  8
Default
 66
     1
 10
0.0
 20
0.0
 30
0.0
 70
     0
  0
VERTEX
  8
Default
 10
1334.0
 20
325.0
 42
0.0
  0
VERTEX
  8
Default
 10
1333.42
 20
326.06
 42
0.0
  0
VERTEX
  8
Default
 10
1330.0
 20
344.0
 42
0.0
  0
VERTEX
  8
Default
 10
1330.4
 20
344.8
 42
0.0
  0
VERTEX
  8
Default
 10
1329.0
 20
347.0
 42
0.0
  0
VERTEX
  8
Default
 10
1326.339623
 20
356.811321
 42
0.0
  0
VERTEX
  8
Default
 10
1320.482759
 20
369.793103
 42
0.0
  0
VERTEX
  8
Default
 10
1318.0
 20
376.0
 42
0.0
  0
VERTEX
  8
Default
 10
1318.0
 20
377.0
 42
0.0
  0
VERTEX
  8
Default
 10
1317.0
 20
377.0
 42
0.0
  0
VERTEX
  8
Default
 10
1304.0
 20
391.0
 42
0.0
  0
VERTEX
  8
Default
 10
1285.8
 20
400.6
 42
0.0
  0
VERTEX
  8
Default
 10
1284.1
 20
401.3
 42
0.0
  0
VERTEX
  8
Default
 10
1277.0
 20
402.0
 42
0.0
  0
VERTEX
  8
Default
 10
1276.0
 20
402.0
 42
0.0
  0
SEQEND
  0
POLYLINE
  8
Default
 66
     1
 10
0.0
 20
0.0
 30
0.0
 70
     0
  0
VERTEX
  8
Default
 10
170.0
 20
343.0
 42
0.0
  0
VERTEX
  8
Default
 10
171.0
 20
343.0
 42
0.0
  0
VERTEX
  8
Default
 10
172.0
 20
342.0
 42
0.0
  0
VERTEX
  8
Default
 10
173.0
 20
342.0
 42
0.0
  0
VERTEX
  8
Default
 10
174.0
 20
343.0
 42
0.0
  0
VERTEX
  8
Default
 10
174.0
 20
344.0
 42
0.0
  0
VERTEX
  8
Default
 10
173.0
 20
345.0
 42
0.0
  0
VERTEX
  8
Default
 10
171.0
 20
345.0
 42
0.0
  0
VERTEX
  8
Default
 10
170.0
 20
344.0
 42
0.0
  0
VERTEX
  8
Default
 10
170.0
 20
343.0
 42
0.0
  0
VERTEX
  8
Default
 10
165.0
 20
338.0
 42
0.0
  0
VERTEX
  8
Default
 10
165.0
 20
335.0
 42
0.0
  0
VERTEX
  8
Default
 10
166.0
 20
333.0
 42
0.0
  0
VERTEX
  8
Default
 10
169.0
 20
330.0
 42
0.0
  0
VERTEX
  8
Default
 10
174.0
 20
330.0
 42
0.0
  0
VERTEX
  8
Default
 10
178.0
 20
334.0
 42
0.0
  0
VERTEX
  8
Default
 10
179.0
 20
336.0
 42
0.0
  0
VERTEX
  8
Default
 10
179.0
 20
337.0
 42
0.0
  0
VERTEX
  8
Default
 10
174.0
 20
343.0
 42
0.0
  0
SEQEND
  0
POLYLINE
  8
Default
 66
     1
 10
0.0
 20
0.0
 30
0.0
 70
     0
  0
VERTEX
  8
Default
 10
1111.0
 20
350.0
 42
0.0
  0
VERTEX
  8
Default
 10
1111.0
 20
351.0
 42
0.0
  0
VERTEX
  8
Default
 10
1112.769231
 20
353.153846
 42
0.0
  0
VERTEX
  8
Default
 10
1117.0
 20
360.0
 42
0.0
  0
VERTEX
  8
Default
 10
1124.0
 20
367.0
 42
0.0
  0
VERTEX
  8
Default
 10
1132.9
 20
373.2
 42
0.0
  0
VERTEX
  8
Default
 10
1143.8
 20
378.4
 42
0.0
  0
VERTEX
  8
Default
 10
1155.1
 20
382.7
 42
0.0
  0
VERTEX
  8
Default
 10
1172.0
 20
387.0
 42
0.0
  0
VERTEX
  8
Default
 10
1215.0
 20
387.0
 42
0.0
  0
VERTEX
  8
Default
 10
1216.0
 20
386.0
 42
0.0
  0
VERTEX
  8
Default
 10
1216.0
 20
384.0
 42
0.0
  0
VERTEX
  8
Default
 10
1210.769231
 20
377.153846
 42
0.0
  0
VERTEX
  8
Default
 10
1208.6
 20
373.2
 42
0.0
  0
VERTEX
  8
Default
 10
1196.769231
 20
352.153846
 42
0.0
  0
VERTEX
  8
Default
 10
1193.0
 20
346.0
 42
0.0
  0
VERTEX
  8
Default
 10
1187.0
 20
340.0
 42
0.0
  0
VERTEX
  8
Default
 10
1176.1
 20
334.7
 42
0.0
  0
VERTEX
  8
Default
 10
1174.923077
 20
334.384615
 42
0.0
  0
VERTEX
  8
Default
 10
1170.0
 20
333.0
 42
0.0
  0
VERTEX
  8
Default
 10
1164.0
 20
333.0
 42
0.0
  0
VERTEX
  8
Default
 10
1148.811321
 20
336.339623
 42
0.0
  0
VERTEX
  8
Default
 10
1142.9
 20
337.8
 42
0.0
  0
VERTEX
  8
Default
 10
1117.0
 20
346.0
 42
0.0
  0
VERTEX
  8
Default
 10
1115.0
 20
346.0
 42
0.0
  0
VERTEX
  8
Default
 10
1114.0
 20
345.0
 42
0.0
  0
VERTEX
  8
Default
 10
1113.0
 20
345.0
 42
0.0
  0
VERTEX
  8
Default
 10
1113.0
 20
344.0
 42
0.0
  0
VERTEX
  8
Default
 10
1114.0
 20
343.0
 42
0.0
  0
SEQEND
  0
POLYLINE
  8
Default
 66
     1
 10
0.0
 20
0.0
 30
0.0
 70
     0
  0
VERTEX
  8
Default
 10
966.0
 20
336.0
 42
0.0
  0
VERTEX
  8
Default
 10
966.0
 20
337.0
 42
0.0
  0
VERTEX
  8
Default
 10
965.76
 20
337.82
 42
0.0
  0
VERTEX
  8
Default
 10
963.0
 20
341.0
 42
0.0
  0
VERTEX
  8
Default
 10
962.294118
 20
346.823529
 42
0.0
  0
VERTEX
  8
Default
 10
961.0
 20
349.0
 42
0.0
  0
VERTEX
  8
Default
 10
960.0
 20
349.0
 42
0.0
  0
VERTEX
  8
Default
 10
959.0
 20
348.0
 42
0.0
  0
VERTEX
  8
Default
 10
938.053846
 20
351.430769
 42
0.0
  0
VERTEX
  8
Default
 10
912.9
 20
356.7
 42
0.0
  0
VERTEX
  8
Default
 10
899.2
 20
363.4
 42
0.0
  0
VERTEX
  8
Default
 10
894.0
 20
366.0
 42
0.0
  0
VERTEX
  8
Default
 10
885.0
 20
375.0
 42
0.0
  0
VERTEX
  8
Default
 10
884.769231
 20
375.846154
 42
0.0
  0
VERTEX
  8
Default
 10
883.230769
 20
378.153846
 42
0.0
  0
VERTEX
  8
Default
 10
876.7
 20
390.9
 42
0.0
  0
VERTEX
  8
Default
 10
875.0
 20
394.0
 42
0.0
  0
VERTEX
  8
Default
 10
875.0
 20
406.0
 42
0.0
  0
VERTEX
  8
Default
 10
879.0
 20
417.0
 42
0.0
  0
VERTEX
  8
Default
 10
885.0
 20
423.0
 42
0.0
  0
VERTEX
  8
Default
 10
903.0
 20
427.0
 42
0.0
  0
VERTEX
  8
Default
 10
904.0
 20
427.0
 42
0.0
  0
VERTEX
  8
Default
 10
904.0
 20
428.0
 42
0.0
  0
VERTEX
  8
Default
 10
904.0
 20
429.0
 42
0.0
  0
VERTEX
  8
Default
 10
896.0
 20
437.0
 42
0.0
  0
VERTEX
  8
Default
 10
889.0
 20
443.0
 42
0.0
  0
VERTEX
  8
Default
 10
888.0
 20
443.0
 42
0.0
  0
VERTEX
  8
Default
 10
876.206897
 20
438.482759
 42
0.0
  0
VERTEX
  8
Default
 10
870.211765
 20
434.752941
 42
0.0
  0
VERTEX
  8
Default
 10
859.0
 20
425.0
 42
0.0
  0
VERTEX
  8
Default
 10
858.6
 20
423.2
 42
0.0
  0
VERTEX
  8
Default
 10
855.0
 20
418.0
 42
0.0
  0
VERTEX
  8
Default
 10
854.0
 20
418.0
 42
0.0
  0
VERTEX
  8
Default
 10
854.0
 20
417.0
 42
0.0
  0
VERTEX
  8
Default
 10
848.0
 20
403.0
 42
0.0
  0
VERTEX
  8
Default
 10
848.0
 20
402.0
 42
0.0
  0
SEQEND
  0
POLYLINE
  8
Default
 66
     1
 10
0.0
 20
0.0
 30
0.0
 70
     0
  0
VERTEX
  8
Default
 10
181.0
 20
337.0
 42
0.0
  0
VERTEX
  8
Default
 10
180.0
 20
337.0
 42
0.0
  0
VERTEX
  8
Default
 10
179.0
 20
337.0
 42
0.0
  0
SEQEND
  0
POLYLINE
  8
Default
 66
     1
 10
0.0
 20
0.0
 30
0.0
 70
     0
  0
VERTEX
  8
Default
 10
976.0
 20
401.0
 42
0.0
  0
VERTEX
  8
Default
 10
978.153846
 20
402.230769
 42
0.0
  0
VERTEX
  8
Default
 10
985.846154
 20
403.769231
 42
0.0
  0
VERTEX
  8
Default
 10
988.0
 20
405.0
 42
0.0
  0
VERTEX
  8
Default
 10
997.0
 20
405.0
 42
0.0
  0
VERTEX
  8
Default
 10
999.188679
 20
406.339623
 42
0.0
  0
VERTEX
  8
Default
 10
1006.2
 20
408.4
 42
0.0
  0
VERTEX
  8
Default
 10
1016.1
 20
411.8
 42
0.0
  0
VERTEX
  8
Default
 10
1024.82
 20
416.24
 42
0.0
  0
VERTEX
  8
Default
 10
1047.153846
 20
432.769231
 42
0.0
  0
VERTEX
  8
Default
 10
1048.0
 20
433.0
 42
0.0
  0
VERTEX
  8
Default
 10
1049.0
 20
433.0
 42
0.0
  0
VERTEX
  8
Default
 10
1049.0
 20
432.0
 42
0.0
  0
VERTEX
  8
Default
 10
1049.0
 20
429.0
 42
0.0
  0
VERTEX
  8
Default
 10
1058.751131
 20
418.773756
 42
0.0
  0
VERTEX
  8
Default
 10
1059.0
 20
418.0
 42
0.0
  0
VERTEX
  8
Default
 10
1066.0
 20
411.0
 42
0.0
  0
VERTEX
  8
Default
 10
1070.0
 20
408.0
 42
0.0
  0
VERTEX
  8
Default
 10
1070.0
 20
407.0
 42
0.0
  0
VERTEX
  8
Default
 10
1068.58
 20
398.06
 42
0.0
  0
VERTEX
  8
Default
 10
1067.352941
 20
393.911765
 42
0.0
  0
VERTEX
  8
Default
 10
1064.6
 20
387.2
 42
0.0
  0
VERTEX
  8
Default
 10
1055.0
 20
372.0
 42
0.0
  0
VERTEX
  8
Default
 10
1034.0
 20
351.0
 42
0.0
  0
VERTEX
  8
Default
 10
1020.1
 20
343.8
 42
0.0
  0
VERTEX
  8
Default
 10
1018.911765
 20
343.352941
 42
0.0
  0
VERTEX
  8
Default
 10
1009.0
 20
341.0
 42
0.0
  0
VERTEX
  8
Default
 10
1003.0
 20
341.0
 42
0.0
  0
VERTEX
  8
Default
 10
1001.932432
 20
341.594595
 42
0.0
  0
VERTEX
  8
Default
 10
997.067568
 20
342.405405
 42
0.0
  0
VERTEX
  8
Default
 10
989.18
 20
346.24
 42
0.0
  0
VERTEX
  8
Default
 10
983.0
 20
351.0
 42
0.0
  0
VERTEX
  8
Default
 10
978.6
 20
358.8
 42
0.0
  0
VERTEX
  8
Default
 10
977.517241
 20
361.206897
 42
0.0
  0
VERTEX
  8
Default
 10
975.660377
 20
366.188679
 42
0.0
  0
VERTEX
  8
Default
 10
974.3
 20
372.1
 42
0.0
  0
VERTEX
  8
Default
 10
973.0
 20
375.0
 42
0.0
  0
VERTEX
  8
Default
 10
973.0
 20
390.0
 42
0.0
  0
VERTEX
  8
Default
 10
974.4
 20
392.2
 42
0.0
  0
VERTEX
  8
Default
 10
975.384615
 20
395.923077
 42
0.0
  0
VERTEX
  8
Default
 10
976.0
 20
400.0
 42
0.0
  0
VERTEX
  8
Default
 10
976.0
 20
401.0
 42
0.0
  0
VERTEX
  8
Default
 10
975.0
 20
401.0
 42
0.0
  0
VERTEX
  8
Default
 10
971.088235
 20
402.352941
 42
0.0
  0
VERTEX
  8
Default
 10
970.0
 20
403.0
 42
0.0
  0
VERTEX
  8
Default
 10
962.0
 20
403.0
 42
0.0
  0
VERTEX
  8
Default
 10
960.0
 20
401.0
 42
0.0
  0
VERTEX
  8
Default
 10
959.0
 20
401.0
 42
0.0
  0
VERTEX
  8
Default
 10
959.0
 20
400.0
 42
0.0
  0
VERTEX
  8
Default
 10
960.0
 20
399.0
 42
0.0
  0
VERTEX
  8
Default
 10
960.0
 20
395.0
 42
0.0
  0
VERTEX
  8
Default
 10
957.0
 20
388.0
 42
0.0
  0
VERTEX
  8
Default
 10
957.0
 20
363.0
 42
0.0
  0
VERTEX
  8
Default
 10
957.8
 20
361.9
 42
0.0
  0
VERTEX
  8
Default
 10
961.0
 20
350.0
 42
0.0
  0
VERTEX
  8
Default
 10
961.0
 20
349.0
 42
0.0
  0
SEQEND
  0
POLYLINE
  8
Default
 66
     1
 10
0.0
 20
0.0
 30
0.0
 70
     0
  0
VERTEX
  8
Default
 10
439.0
 20
493.0
 42
0.0
  0
VERTEX
  8
Default
 10
428.18
 20
487.76
 42
0.0
  0
VERTEX
  8
Default
 10
424.82
 20
485.24
 42
0.0
  0
VERTEX
  8
Default
 10
424.0
 20
485.0
 42
0.0
  0
VERTEX
  8
Default
 10
414.0
 20
475.0
 42
0.0
  0
VERTEX
  8
Default
 10
407.2
 20
463.9
 42
0.0
  0
VERTEX
  8
Default
 10
406.8
 20
463.1
 42
0.0
  0
VERTEX
  8
Default
 10
403.384615
 20
453.923077
 42
0.0
  0
VERTEX
  8
Default
 10
402.615385
 20
450.076923
 42
0.0
  0
VERTEX
  8
Default
 10
400.0
 20
433.0
 42
0.0
  0
VERTEX
  8
Default
 10
400.0
 20
411.0
 42
0.0
  0
VERTEX
  8
Default
 10
403.8
 20
393.9
 42
0.0
  0
VERTEX
  8
Default
 10
407.8
 20
385.9
 42
0.0
  0
VERTEX
  8
Default
 10
415.0
 20
375.0
 42
0.0
  0
VERTEX
  8
Default
 10
422.0
 20
368.0
 42
0.0
  0
VERTEX
  8
Default
 10
431.153846
 20
361.230769
 42
0.0
  0
VERTEX
  8
Default
 10
431.846154
 20
360.769231
 42
0.0
  0
VERTEX
  8
Default
 10
442.9
 20
354.8
 42
0.0
  0
VERTEX
  8
Default
 10
452.088235
 20
351.352941
 42
0.0
  0
VERTEX
  8
Default
 10
472.032995
 20
347.461929
 42
0.0
  0
VERTEX
  8
Default
 10
489.0
 20
346.0
 42
0.0
  0
VERTEX
  8
Default
 10
490.0
 20
347.0
 42
0.0
  0
VERTEX
  8
Default
 10
509.0
 20
346.0
 42
0.0
  0
VERTEX
  8
Default
 10
542.94
 20
350.42
 42
0.0
  0
VERTEX
  8
Default
 10
554.04878
 20
352.560976
 42
0.0
  0
VERTEX
  8
Default
 10
562.0
 20
353.0
 42
0.0
  0
VERTEX
  8
Default
 10
563.0
 20
353.0
 42
0.0
  0
SEQEND
  0
POLYLINE
  8
Default
 66
     1
 10
0.0
 20
0.0
 30
0.0
 70
     1
  0
VERTEX
  8
Default
 10
271.0
 20
361.0
 42
0.0
  0
VERTEX
  8
Default
 10
271.430769
 20
367.946154
 42
0.0
  0
VERTEX
  8
Default
 10
272.0
 20
371.0
 42
0.0
  0
VERTEX
  8
Default
 10
274.0
 20
373.0
 42
0.0
  0
VERTEX
  8
Default
 10
276.0
 20
373.0
 42
0.0
  0
VERTEX
  8
Default
 10
278.2
 20
371.4
 42
0.0
  0
VERTEX
  8
Default
 10
280.0
 20
371.0
 42
0.0
  0
VERTEX
  8
Default
 10
284.0
 20
367.0
 42
0.0
  0
VERTEX
  8
Default
 10
284.0
 20
366.0
 42
0.0
  0
VERTEX
  8
Default
 10
281.0
 20
362.0
 42
0.0
  0
VERTEX
  8
Default
 10
277.1
 20
360.8
 42
0.0
  0
VERTEX
  8
Default
 10
272.0
 20
360.0
 42
0.0
  0
VERTEX
  8
Default
 10
271.0
 20
360.0
 42
0.0
  0
SEQEND
  0
POLYLINE
  8
Default
 66
     1
 10
0.0
 20
0.0
 30
0.0
 70
     0
  0
VERTEX
  8
Default
 10
220.0
 20
370.0
 42
0.0
  0
VERTEX
  8
Default
 10
220.0
 20
371.0
 42
0.0
  0
VERTEX
  8
Default
 10
222.0
 20
395.0
 42
0.0
  0
VERTEX
  8
Default
 10
222.0
 20
396.0
 42
0.0
  0
VERTEX
  8
Default
 10
222.0
 20
397.0
 42
0.0
  0
VERTEX
  8
Default
 10
221.7
 20
398.9
 42
0.0
  0
VERTEX
  8
Default
 10
221.0
 20
400.0
 42
0.0
  0
VERTEX
  8
Default
 10
221.0
 20
424.0
 42
0.0
  0
VERTEX
  8
Default
 10
222.594595
 20
431.067568
 42
0.0
  0
VERTEX
  8
Default
 10
224.352941
 20
439.911765
 42
0.0
  0
VERTEX
  8
Default
 10
237.8
 20
497.1
 42
0.0
  0
VERTEX
  8
Default
 10
238.2
 20
497.9
 42
0.0
  0
VERTEX
  8
Default
 10
241.7
 20
508.1
 42
0.0
  0
VERTEX
  8
Default
 10
242.0
 20
510.0
 42
0.0
  0
VERTEX
  8
Default
 10
242.0
 20
511.0
 42
0.0
  0
VERTEX
  8
Default
 10
241.0
 20
511.0
 42
0.0
  0
VERTEX
  8
Default
 10
239.0
 20
512.0
 42
0.0
  0
VERTEX
  8
Default
 10
232.0
 20
512.0
 42
0.0
  0
VERTEX
  8
Default
 10
230.955446
 20
511.445545
 42
0.0
  0
VERTEX
  8
Default
 10
222.0
 20
511.0
 42
0.0
  0
VERTEX
  8
Default
 10
221.0
 20
511.0
 42
0.0
  0
VERTEX
  8
Default
 10
221.0
 20
510.0
 42
0.0
  0
VERTEX
  8
Default
 10
220.3
 20
500.9
 42
0.0
  0
VERTEX
  8
Default
 10
216.769231
 20
493.153846
 42
0.0
  0
VERTEX
  8
Default
 10
215.230769
 20
490.846154
 42
0.0
  0
VERTEX
  8
Default
 10
207.0
 20
481.0
 42
0.0
  0
VERTEX
  8
Default
 10
202.18
 20
477.76
 42
0.0
  0
VERTEX
  8
Default
 10
196.1
 20
473.8
 42
0.0
  0
VERTEX
  8
Default
 10
192.9
 20
472.2
 42
0.0
  0
VERTEX
  8
Default
 10
182.923077
 20
468.384615
 42
0.0
  0
VERTEX
  8
Default
 10
178.0
 20
467.0
 42
0.0
  0
VERTEX
  8
Default
 10
167.0
 20
467.0
 42
0.0
  0
VERTEX
  8
Default
 10
162.076923
 20
468.384615
 42
0.0
  0
VERTEX
  8
Default
 10
156.8
 20
470.6
 42
0.0
  0
VERTEX
  8
Default
 10
155.2
 20
471.4
 42
0.0
  0
VERTEX
  8
Default
 10
151.0
 20
473.0
 42
0.0
  0
VERTEX
  8
Default
 10
145.0
 20
479.0
 42
0.0
  0
VERTEX
  8
Default
 10
144.756098
 20
479.804878
 42
0.0
  0
VERTEX
  8
Default
 10
139.230769
 20
487.153846
 42
0.0
  0
VERTEX
  8
Default
 10
136.3
 20
494.1
 42
0.0
  0
VERTEX
  8
Default
 10
135.0
 20
497.0
 42
0.0
  0
VERTEX
  8
Default
 10
135.0
 20
516.0
 42
0.0
  0
VERTEX
  8
Default
 10
135.7
 20
517.1
 42
0.0
  0
VERTEX
  8
Default
 10
137.6
 20
523.8
 42
0.0
  0
VERTEX
  8
Default
 10
141.230769
 20
531.846154
 42
0.0
  0
VERTEX
  8
Default
 10
145.0
 20
538.0
 42
0.0
  0
VERTEX
  8
Default
 10
152.0
 20
545.0
 42
0.0
  0
VERTEX
  8
Default
 10
166.0
 20
553.0
 42
0.0
  0
VERTEX
  8
Default
 10
183.0
 20
553.0
 42
0.0
  0
VERTEX
  8
Default
 10
187.1
 20
551.3
 42
0.0
  0
VERTEX
  8
Default
 10
191.9
 20
549.7
 42
0.0
  0
VERTEX
  8
Default
 10
197.846154
 20
546.769231
 42
0.0
  0
VERTEX
  8
Default
 10
206.0
 20
541.0
 42
0.0
  0
VERTEX
  8
Default
 10
209.0
 20
538.0
 42
0.0
  0
VERTEX
  8
Default
 10
209.230769
 20
537.153846
 42
0.0
  0
VERTEX
  8
Default
 10
215.754098
 20
528.795082
 42
0.0
  0
VERTEX
  8
Default
 10
219.3
 20
522.1
 42
0.0
  0
VERTEX
  8
Default
 10
219.7
 20
520.9
 42
0.0
  0
VERTEX
  8
Default
 10
220.58
 20
517.94
 42
0.0
  0
VERTEX
  8
Default
 10
221.0
 20
512.0
 42
0.0
  0
VERTEX
  8
Default
 10
221.0
 20
511.0
 42
0.0
  0
SEQEND
  0
POLYLINE
  8
Default
 66
     1
 10
0.0
 20
0.0
 30
0.0
 70
     0
  0
VERTEX
  8
Default
 10
1352.0
 20
420.0
 42
0.0
  0
VERTEX
  8
Default
 10
1352.0
 20
419.0
 42
0.0
  0
VERTEX
  8
Default
 10
1347.3
 20
409.9
 42
0.0
  0
VERTEX
  8
Default
 10
1339.0
 20
394.0
 42
0.0
  0
VERTEX
  8
Default
 10
1324.0
 20
379.0
 42
0.0
  0
VERTEX
  8
Default
 10
1320.1
 20
377.7
 42
0.0
  0
VERTEX
  8
Default
 10
1319.0
 20
377.0
 42
0.0
  0
VERTEX
  8
Default
 10
1318.0
 20
377.0
 42
0.0
  0
SEQEND
  0
POLYLINE
  8
Default
 66
     1
 10
0.0
 20
0.0
 30
0.0
 70
     0
  0
VERTEX
  8
Default
 10
244.0
 20
388.0
 42
0.0
  0
VERTEX
  8
Default
 10
243.0
 20
388.0
 42
0.0
  0
VERTEX
  8
Default
 10
239.088235
 20
389.352941
 42
0.0
  0
VERTEX
  8
Default
 10
226.153846
 20
394.230769
 42
0.0
  0
VERTEX
  8
Default
 10
223.0
 20
396.0
 42
0.0
  0
VERTEX
  8
Default
 10
222.0
 20
396.0
 42
0.0
  0
SEQEND
  0
POLYLINE
  8
Default
 66
     1
 10
0.0
 20
0.0
 30
0.0
 70
     0
  0
VERTEX
  8
Default
 10
1082.0
 20
393.0
 42
0.0
  0
VERTEX
  8
Default
 10
1081.0
 20
398.0
 42
0.0
  0
VERTEX
  8
Default
 10
1081.0
 20
399.0
 42
0.0
  0
VERTEX
  8
Default
 10
1071.0
 20
408.0
 42
0.0
  0
VERTEX
  8
Default
 10
1070.0
 20
408.0
 42
0.0
  0
SEQEND
  0
POLYLINE
  8
Default
 66
     1
 10
0.0
 20
0.0
 30
0.0
 70
     0
  0
VERTEX
  8
Default
 10
1081.0
 20
399.0
 42
0.0
  0
VERTEX
  8
Default
 10
1082.0
 20
399.0
 42
0.0
  0
VERTEX
  8
Default
 10
1090.955446
 20
398.554455
 42
0.0
  0
VERTEX
  8
Default
 10
1092.0
 20
398.0
 42
0.0
  0
VERTEX
  8
Default
 10
1103.0
 20
398.0
 42
0.0
  0
VERTEX
  8
Default
 10
1112.9
 20
402.2
 42
0.0
  0
VERTEX
  8
Default
 10
1117.153846
 20
404.769231
 42
0.0
  0
VERTEX
  8
Default
 10
1123.0
 20
409.0
 42
0.0
  0
VERTEX
  8
Default
 10
1127.0
 20
413.0
 42
0.0
  0
VERTEX
  8
Default
 10
1130.756098
 20
418.195122
 42
0.0
  0
VERTEX
  8
Default
 10
1136.2
 20
426.9
 42
0.0
  0
VERTEX
  8
Default
 10
1138.3
 20
431.9
 42
0.0
  0
VERTEX
  8
Default
 10
1142.615385
 20
444.076923
 42
0.0
  0
VERTEX
  8
Default
 10
1145.0
 20
455.0
 42
0.0
  0
VERTEX
  8
Default
 10
1145.0
 20
461.0
 42
0.0
  0
VERTEX
  8
Default
 10
1143.0
 20
463.0
 42
0.0
  0
VERTEX
  8
Default
 10
1143.0
 20
475.0
 42
0.0
  0
VERTEX
  8
Default
 10
1141.705882
 20
477.176471
 42
0.0
  0
VERTEX
  8
Default
 10
1140.3
 20
484.1
 42
0.0
  0
VERTEX
  8
Default
 10
1134.6
 20
500.8
 42
0.0
  0
VERTEX
  8
Default
 10
1124.0
 20
522.0
 42
0.0
  0
VERTEX
  8
Default
 10
1124.0
 20
523.0
 42
0.0
  0
VERTEX
  8
Default
 10
1123.0
 20
523.0
 42
0.0
  0
VERTEX
  8
Default
 10
1121.0
 20
524.0
 42
0.0
  0
VERTEX
  8
Default
 10
1110.0
 20
519.0
 42
0.0
  0
VERTEX
  8
Default
 10
1109.0
 20
518.0
 42
0.0
  0
VERTEX
  8
Default
 10
1109.0
 20
517.0
 42
0.0
  0
VERTEX
  8
Default
 10
1109.0
 20
516.0
 42
0.0
  0
VERTEX
  8
Default
 10
1109.0
 20
515.0
 42
0.0
  0
VERTEX
  8
Default
 10
1112.76
 20
509.82
 42
0.0
  0
VERTEX
  8
Default
 10
1117.230769
 20
502.153846
 42
0.0
  0
VERTEX
  8
Default
 10
1120.769231
 20
494.846154
 42
0.0
  0
VERTEX
  8
Default
 10
1124.2
 20
483.1
 42
0.0
  0
VERTEX
  8
Default
 10
1127.0
 20
473.0
 42
0.0
  0
VERTEX
  8
Default
 10
1127.0
 20
464.0
 42
0.0
  0
VERTEX
  8
Default
 10
1126.3
 20
462.9
 42
0.0
  0
VERTEX
  8
Default
 10
1125.45082
 20
459.959016
 42
0.0
  0
VERTEX
  8
Default
 10
1124.54918
 20
450.040984
 42
0.0
  0
VERTEX
  8
Default
 10
1122.482759
 20
442.206897
 42
0.0
  0
VERTEX
  8
Default
 10
1119.8
 20
435.1
 42
0.0
  0
VERTEX
  8
Default
 10
1117.76
 20
431.18
 42
0.0
  0
VERTEX
  8
Default
 10
1115.24
 20
427.82
 42
0.0
  0
VERTEX
  8
Default
 10
1114.0
 20
425.0
 42
0.0
  0
VERTEX
  8
Default
 10
1111.0
 20
422.0
 42
0.0
  0
VERTEX
  8
Default
 10
1108.153846
 20
420.769231
 42
0.0
  0
VERTEX
  8
Default
 10
1105.846154
 20
419.230769
 42
0.0
  0
VERTEX
  8
Default
 10
1104.0
 20
418.0
 42
0.0
  0
VERTEX
  8
Default
 10
1098.0
 20
418.0
 42
0.0
  0
VERTEX
  8
Default
 10
1086.8
 20
422.6
 42
0.0
  0
VERTEX
  8
Default
 10
1085.307692
 20
423.461538
 42
0.0
  0
VERTEX
  8
Default
 10
1079.444615
 20
427.496923
 42
0.0
  0
VERTEX
  8
Default
 10
1062.0
 20
444.0
 42
0.0
  0
VERTEX
  8
Default
 10
1062.0
 20
445.0
 42
0.0
  0
VERTEX
  8
Default
 10
1061.0
 20
445.0
 42
0.0
  0
VERTEX
  8
Default
 10
1059.1
 20
443.8
 42
0.0
  0
VERTEX
  8
Default
 10
1057.0
 20
443.0
 42
0.0
  0
VERTEX
  8
Default
 10
1050.0
 20
436.0
 42
0.0
  0
VERTEX
  8
Default
 10
1049.8
 20
435.1
 42
0.0
  0
VERTEX
  8
Default
 10
1049.0
 20
434.0
 42
0.0
  0
VERTEX
  8
Default
 10
1049.0
 20
433.0
 42
0.0
  0
SEQEND
  0
POLYLINE
  8
Default
 66
     1
 10
0.0
 20
0.0
 30
0.0
 70
     0
  0
VERTEX
  8
Default
 10
959.0
 20
401.0
 42
0.0
  0
VERTEX
  8
Default
 10
958.0
 20
401.0
 42
0.0
  0
VERTEX
  8
Default
 10
956.9
 20
401.8
 42
0.0
  0
VERTEX
  8
Default
 10
941.9
 20
405.7
 42
0.0
  0
VERTEX
  8
Default
 10
927.369231
 20
411.646154
 42
0.0
  0
VERTEX
  8
Default
 10
922.692308
 20
414.538462
 42
0.0
  0
VERTEX
  8
Default
 10
905.0
 20
427.0
 42
0.0
  0
VERTEX
  8
Default
 10
904.0
 20
427.0
 42
0.0
  0
SEQEND
  0
POLYLINE
  8
Default
 66
     1
 10
0.0
 20
0.0
 30
0.0
 70
     1
  0
VERTEX
  8
Default
 10
662.0
 20
418.0
 42
0.0
  0
VERTEX
  8
Default
 10
661.0
 20
418.0
 42
0.0
  0
VERTEX
  8
Default
 10
660.0
 20
417.5
 42
0.0
  0
VERTEX
  8
Default
 10
657.0
 20
419.0
 42
0.0
  0
VERTEX
  8
Default
 10
644.0
 20
419.0
 42
0.0
  0
VERTEX
  8
Default
 10
612.793103
 20
407.517241
 42
0.0
  0
VERTEX
  8
Default
 10
605.9
 20
405.3
 42
0.0
  0
VERTEX
  8
Default
 10
588.0
 20
401.0
 42
0.0
  0
VERTEX
  8
Default
 10
573.0
 20
401.0
 42
0.0
  0
VERTEX
  8
Default
 10
560.2
 20
405.4
 42
0.0
  0
VERTEX
  8
Default
 10
556.1
 20
407.3
 42
0.0
  0
VERTEX
  8
Default
 10
548.0
 20
413.0
 42
0.0
  0
VERTEX
  8
Default
 10
542.0
 20
419.0
 42
0.0
  0
VERTEX
  8
Default
 10
539.76
 20
422.82
 42
0.0
  0
VERTEX
  8
Default
 10
535.8
 20
428.9
 42
0.0
  0
VERTEX
  8
Default
 10
533.7
 20
433.9
 42
0.0
  0
VERTEX
  8
Default
 10
521.8
 20
466.9
 42
0.0
  0
VERTEX
  8
Default
 10
518.76
 20
471.82
 42
0.0
  0
VERTEX
  8
Default
 10
516.24
 20
475.18
 42
0.0
  0
VERTEX
  8
Default
 10
511.0
 20
481.0
 42
0.0
  0
VERTEX
  8
Default
 10
511.0
 20
482.0
 42
0.0
  0
VERTEX
  8
Default
 10
512.0
 20
483.0
 42
0.0
  0
VERTEX
  8
Default
 10
519.0
 20
483.0
 42
0.0
  0
VERTEX
  8
Default
 10
523.923077
 20
481.615385
 42
0.0
  0
VERTEX
  8
Default
 10
542.06
 20
478.42
 42
0.0
  0
VERTEX
  8
Default
 10
547.94
 20
477.58
 42
0.0
  0
VERTEX
  8
Default
 10
549.0
 20
477.0
 42
0.0
  0
VERTEX
  8
Default
 10
554.0
 20
477.0
 42
0.0
  0
VERTEX
  8
Default
 10
555.024862
 20
477.527624
 42
0.0
  0
VERTEX
  8
Default
 10
572.975138
 20
478.472376
 42
0.0
  0
VERTEX
  8
Default
 10
574.0
 20
479.0
 42
0.0
  0
VERTEX
  8
Default
 10
587.0
 20
479.0
 42
0.0
  0
VERTEX
  8
Default
 10
601.04878
 20
477.439024
 42
0.0
  0
VERTEX
  8
Default
 10
608.95122
 20
476.560976
 42
0.0
  0
VERTEX
  8
Default
 10
614.088235
 20
475.352941
 42
0.0
  0
VERTEX
  8
Default
 10
619.9
 20
473.7
 42
0.0
  0
VERTEX
  8
Default
 10
627.0
 20
471.0
 42
0.0
  0
VERTEX
  8
Default
 10
641.0
 20
457.0
 42
0.0
  0
VERTEX
  8
Default
 10
641.247059
 20
456.211765
 42
0.0
  0
VERTEX
  8
Default
 10
646.752941
 20
449.788235
 42
0.0
  0
VERTEX
  8
Default
 10
655.2
 20
437.1
 42
0.0
  0
VERTEX
  8
Default
 10
655.8
 20
435.9
 42
0.0
  0
VERTEX
  8
Default
 10
661.647059
 20
421.911765
 42
0.0
  0
VERTEX
  8
Default
 10
662.0
 20
419.0
 42
0.0
  0
SEQEND
  0
POLYLINE
  8
Default
 66
     1
 10
0.0
 20
0.0
 30
0.0
 70
     0
  0
VERTEX
  8
Default
 10
854.0
 20
418.0
 42
0.0
  0
VERTEX
  8
Default
 10
850.82
 20
420.76
 42
0.0
  0
VERTEX
  8
Default
 10
846.0
 20
424.0
 42
0.0
  0
VERTEX
  8
Default
 10
842.0
 20
428.0
 42
0.0
  0
VERTEX
  8
Default
 10
832.24
 20
442.18
 42
0.0
  0
VERTEX
  8
Default
 10
829.8
 20
446.9
 42
0.0
  0
VERTEX
  8
Default
 10
825.352941
 20
456.088235
 42
0.0
  0
VERTEX
  8
Default
 10
821.7
 20
469.9
 42
0.0
  0
VERTEX
  8
Default
 10
821.0
 20
471.0
 42
0.0
  0
VERTEX
  8
Default
 10
821.0
 20
494.0
 42
0.0
  0
VERTEX
  8
Default
 10
827.0
 20
508.0
 42
0.0
  0
VERTEX
  8
Default
 10
827.0
 20
509.0
 42
0.0
  0
VERTEX
  8
Default
 10
827.0
 20
510.0
 42
0.0
  0
VERTEX
  8
Default
 10
828.0
 20
511.0
 42
0.0
  0
VERTEX
  8
Default
 10
829.0
 20
511.0
 42
0.0
  0
VERTEX
  8
Default
 10
829.0
 20
512.0
 42
0.0
  0
VERTEX
  8
Default
 10
830.0
 20
513.0
 42
0.0
  0
VERTEX
  8
Default
 10
831.0
 20
513.0
 42
0.0
  0
VERTEX
  8
Default
 10
832.0
 20
513.0
 42
0.0
  0
VERTEX
  8
Default
 10
832.846154
 20
513.230769
 42
0.0
  0
VERTEX
  8
Default
 10
840.9
 20
516.2
 42
0.0
  0
VERTEX
  8
Default
 10
842.0
 20
517.0
 42
0.0
  0
VERTEX
  8
Default
 10
857.0
 20
517.0
 42
0.0
  0
VERTEX
  8
Default
 10
858.088235
 20
516.352941
 42
0.0
  0
VERTEX
  8
Default
 10
871.0
 20
513.0
 42
0.0
  0
VERTEX
  8
Default
 10
872.0
 20
513.0
 42
0.0
  0
VERTEX
  8
Default
 10
872.0
 20
514.0
 42
0.0
  0
VERTEX
  8
Default
 10
873.2
 20
515.9
 42
0.0
  0
VERTEX
  8
Default
 10
876.0
 20
525.0
 42
0.0
  0
VERTEX
  8
Default
 10
876.0
 20
529.0
 42
0.0
  0
VERTEX
  8
Default
 10
875.0
 20
530.0
 42
0.0
  0
VERTEX
  8
Default
 10
875.0
 20
531.0
 42
0.0
  0
VERTEX
  8
Default
 10
874.0
 20
531.0
 42
0.0
  0
VERTEX
  8
Default
 10
864.206897
 20
533.517241
 42
0.0
  0
VERTEX
  8
Default
 10
861.811321
 20
534.339623
 42
0.0
  0
VERTEX
  8
Default
 10
845.0
 20
539.0
 42
0.0
  0
VERTEX
  8
Default
 10
843.9
 20
538.2
 42
0.0
  0
VERTEX
  8
Default
 10
832.9
 20
536.2
 42
0.0
  0
VERTEX
  8
Default
 10
832.0
 20
536.0
 42
0.0
  0
VERTEX
  8
Default
 10
831.0
 20
536.0
 42
0.0
  0
VERTEX
  8
Default
 10
830.0
 20
536.0
 42
0.0
  0
VERTEX
  8
Default
 10
817.153846
 20
527.769231
 42
0.0
  0
VERTEX
  8
Default
 10
815.0
 20
526.0
 42
0.0
  0
VERTEX
  8
Default
 10
814.0
 20
526.0
 42
0.0
  0
SEQEND
  0
POLYLINE
  8
Default
 66
     1
 10
0.0
 20
0.0
 30
0.0
 70
     1
  0
VERTEX
  8
Default
 10
275.0
 20
513.0
 42
0.0
  0
VERTEX
  8
Default
 10
276.0
 20
513.0
 42
0.0
  0
VERTEX
  8
Default
 10
277.1
 20
513.7
 42
0.0
  0
VERTEX
  8
Default
 10
284.932432
 20
515.405405
 42
0.0
  0
VERTEX
  8
Default
 10
286.0
 20
516.0
 42
0.0
  0
VERTEX
  8
Default
 10
295.0
 20
516.0
 42
0.0
  0
VERTEX
  8
Default
 10
296.067568
 20
515.405405
 42
0.0
  0
VERTEX
  8
Default
 10
308.946154
 20
513.569231
 42
0.0
  0
VERTEX
  8
Default
 10
314.1
 20
512.3
 42
0.0
  0
VERTEX
  8
Default
 10
315.9
 20
511.7
 42
0.0
  0
VERTEX
  8
Default
 10
327.0
 20
507.0
 42
0.0
  0
VERTEX
  8
Default
 10
337.0
 20
497.0
 42
0.0
  0
VERTEX
  8
Default
 10
342.2
 20
487.1
 42
0.0
  0
VERTEX
  8
Default
 10
344.6
 20
480.8
 42
0.0
  0
VERTEX
  8
Default
 10
346.0
 20
478.0
 42
0.0
  0
VERTEX
  8
Default
 10
346.0
 20
467.0
 42
0.0
  0
VERTEX
  8
Default
 10
343.4
 20
460.8
 42
0.0
  0
VERTEX
  8
Default
 10
339.0
 20
453.0
 42
0.0
  0
VERTEX
  8
Default
 10
335.0
 20
449.0
 42
0.0
  0
VERTEX
  8
Default
 10
322.1
 20
440.8
 42
0.0
  0
VERTEX
  8
Default
 10
320.9
 20
440.2
 42
0.0
  0
VERTEX
  8
Default
 10
316.911765
 20
438.352941
 42
0.0
  0
VERTEX
  8
Default
 10
312.911765
 20
437.352941
 42
0.0
  0
VERTEX
  8
Default
 10
302.0
 20
435.0
 42
0.0
  0
VERTEX
  8
Default
 10
294.0
 20
435.0
 42
0.0
  0
VERTEX
  8
Default
 10
292.932432
 20
435.594595
 42
0.0
  0
VERTEX
  8
Default
 10
288.188679
 20
436.660377
 42
0.0
  0
VERTEX
  8
Default
 10
278.0
 20
442.0
 42
0.0
  0
VERTEX
  8
Default
 10
273.0
 20
447.0
 42
0.0
  0
VERTEX
  8
Default
 10
269.8
 20
453.9
 42
0.0
  0
VERTEX
  8
Default
 10
269.2
 20
455.1
 42
0.0
  0
VERTEX
  8
Default
 10
265.7
 20
463.9
 42
0.0
  0
VERTEX
  8
Default
 10
265.352941
 20
465.088235
 42
0.0
  0
VERTEX
  8
Default
 10
263.0
 20
473.0
 42
0.0
  0
VERTEX
  8
Default
 10
263.0
 20
486.0
 42
0.0
  0
VERTEX
  8
Default
 10
268.2
 20
501.9
 42
0.0
  0
VERTEX
  8
Default
 10
268.8
 20
503.1
 42
0.0
  0
VERTEX
  8
Default
 10
273.230769
 20
509.846154
 42
0.0
  0
VERTEX
  8
Default
 10
275.0
 20
512.0
 42
0.0
  0
SEQEND
  0
POLYLINE
  8
Default
 66
     1
 10
0.0
 20
0.0
 30
0.0
 70
     0
  0
VERTEX
  8
Default
 10
961.0
 20
439.0
 42
0.0
  0
VERTEX
  8
Default
 10
960.1
 20
438.8
 42
0.0
  0
VERTEX
  8
Default
 10
955.0
 20
436.0
 42
0.0
  0
VERTEX
  8
Default
 10
950.0
 20
436.0
 42
0.0
  0
VERTEX
  8
Default
 10
948.9
 20
436.8
 42
0.0
  0
VERTEX
  8
Default
 10
948.1
 20
437.2
 42
0.0
  0
VERTEX
  8
Default
 10
944.0
 20
439.0
 42
0.0
  0
VERTEX
  8
Default
 10
941.0
 20
442.0
 42
0.0
  0
VERTEX
  8
Default
 10
939.7
 20
445.9
 42
0.0
  0
VERTEX
  8
Default
 10
939.0
 20
447.0
 42
0.0
  0
VERTEX
  8
Default
 10
939.0
 20
453.0
 42
0.0
  0
VERTEX
  8
Default
 10
939.647059
 20
454.088235
 42
0.0
  0
VERTEX
  8
Default
 10
940.352941
 20
456.911765
 42
0.0
  0
VERTEX
  8
Default
 10
942.230769
 20
461.846154
 42
0.0
  0
VERTEX
  8
Default
 10
948.245902
 20
469.795082
 42
0.0
  0
VERTEX
  8
Default
 10
953.0
 20
475.0
 42
0.0
  0
VERTEX
  8
Default
 10
953.0
 20
476.0
 42
0.0
  0
VERTEX
  8
Default
 10
953.0
 20
477.0
 42
0.0
  0
VERTEX
  8
Default
 10
951.2
 20
482.1
 42
0.0
  0
VERTEX
  8
Default
 10
949.0
 20
485.0
 42
0.0
  0
VERTEX
  8
Default
 10
948.0
 20
503.0
 42
0.0
  0
VERTEX
  8
Default
 10
948.0
 20
504.0
 42
0.0
  0
VERTEX
  8
Default
 10
947.0
 20
504.0
 42
0.0
  0
VERTEX
  8
Default
 10
941.245902
 20
511.204918
 42
0.0
  0
VERTEX
  8
Default
 10
941.0
 20
512.0
 42
0.0
  0
VERTEX
  8
Default
 10
935.0
 20
518.0
 42
0.0
  0
VERTEX
  8
Default
 10
930.82
 20
520.76
 42
0.0
  0
VERTEX
  8
Default
 10
930.153846
 20
521.230769
 42
0.0
  0
VERTEX
  8
Default
 10
923.9
 20
524.7
 42
0.0
  0
VERTEX
  8
Default
 10
922.1
 20
525.3
 42
0.0
  0
VERTEX
  8
Default
 10
921.0
 20
526.0
 42
0.0
  0
VERTEX
  8
Default
 10
914.0
 20
526.0
 42
0.0
  0
VERTEX
  8
Default
 10
908.0
 20
521.0
 42
0.0
  0
VERTEX
  8
Default
 10
907.0
 20
511.0
 42
0.0
  0
SEQEND
  0
POLYLINE
  8
Default
 66
     1
 10
0.0
 20
0.0
 30
0.0
 70
     0
  0
VERTEX
  8
Default
 10
889.0
 20
443.0
 42
0.0
  0
VERTEX
  8
Default
 10
889.0
 20
444.0
 42
0.0
  0
VERTEX
  8
Default
 10
881.4
 20
461.2
 42
0.0
  0
VERTEX
  8
Default
 10
877.42
 20
473.06
 42
0.0
  0
VERTEX
  8
Default
 10
876.58
 20
478.94
 42
0.0
  0
VERTEX
  8
Default
 10
875.7
 20
481.9
 42
0.0
  0
VERTEX
  8
Default
 10
873.58
 20
508.94
 42
0.0
  0
VERTEX
  8
Default
 10
872.0
 20
512.0
 42
0.0
  0
VERTEX
  8
Default
 10
872.0
 20
513.0
 42
0.0
  0
SEQEND
  0
POLYLINE
  8
Default
 66
     1
 10
0.0
 20
0.0
 30
0.0
 70
     0
  0
VERTEX
  8
Default
 10
1062.0
 20
445.0
 42
0.0
  0
VERTEX
  8
Default
 10
1062.0
 20
446.0
 42
0.0
  0
VERTEX
  8
Default
 10
1062.8
 20
448.1
 42
0.0
  0
VERTEX
  8
Default
 10
1073.230769
 20
461.846154
 42
0.0
  0
VERTEX
  8
Default
 10
1075.4
 20
465.8
 42
0.0
  0
VERTEX
  8
Default
 10
1078.647059
 20
473.088235
 42
0.0
  0
VERTEX
  8
Default
 10
1080.569231
 20
481.053846
 42
0.0
  0
VERTEX
  8
Default
 10
1082.384615
 20
492.923077
 42
0.0
  0
VERTEX
  8
Default
 10
1083.0
 20
494.0
 42
0.0
  0
VERTEX
  8
Default
 10
1083.0
 20
508.0
 42
0.0
  0
VERTEX
  8
Default
 10
1082.352941
 20
509.088235
 42
0.0
  0
VERTEX
  8
Default
 10
1082.0
 20
512.0
 42
0.0
  0
VERTEX
  8
Default
 10
1082.0
 20
513.0
 42
0.0
  0
VERTEX
  8
Default
 10
1079.660377
 20
523.188679
 42
0.0
  0
VERTEX
  8
Default
 10
1079.0
 20
528.0
 42
0.0
  0
VERTEX
  8
Default
 10
1079.0
 20
529.0
 42
0.0
  0
VERTEX
  8
Default
 10
1078.0
 20
529.0
 42
0.0
  0
VERTEX
  8
Default
 10
1075.517241
 20
535.206897
 42
0.0
  0
VERTEX
  8
Default
 10
1072.769231
 20
540.846154
 42
0.0
  0
VERTEX
  8
Default
 10
1069.4
 20
546.2
 42
0.0
  0
VERTEX
  8
Default
 10
1061.243902
 20
557.195122
 42
0.0
  0
VERTEX
  8
Default
 10
1055.0
 20
565.0
 42
0.0
  0
VERTEX
  8
Default
 10
1047.0
 20
573.0
 42
0.0
  0
VERTEX
  8
Default
 10
1045.0
 20
573.0
 42
0.0
  0
VERTEX
  8
Default
 10
1040.0
 20
578.0
 42
0.0
  0
VERTEX
  8
Default
 10
1036.0
 20
583.0
 42
0.0
  0
VERTEX
  8
Default
 10
1035.0
 20
583.0
 42
0.0
  0
VERTEX
  8
Default
 10
1033.9
 20
583.8
 42
0.0
  0
VERTEX
  8
Default
 10
1021.211765
 20
591.247059
 42
0.0
  0
VERTEX
  8
Default
 10
1015.0
 20
597.0
 42
0.0
  0
VERTEX
  8
Default
 10
1014.0
 20
597.0
 42
0.0
  0
VERTEX
  8
Default
 10
1013.0
 20
596.0
 42
0.0
  0
VERTEX
  8
Default
 10
1008.0
 20
596.0
 42
0.0
  0
VERTEX
  8
Default
 10
992.823529
 20
600.294118
 42
0.0
  0
VERTEX
  8
Default
 10
987.176471
 20
601.705882
 42
0.0
  0
VERTEX
  8
Default
 10
985.0
 20
603.0
 42
0.0
  0
VERTEX
  8
Default
 10
976.0
 20
603.0
 42
0.0
  0
VERTEX
  8
Default
 10
959.0
 20
600.0
 42
0.0
  0
VERTEX
  8
Default
 10
958.0
 20
601.0
 42
0.0
  0
VERTEX
  8
Default
 10
944.0
 20
601.0
 42
0.0
  0
VERTEX
  8
Default
 10
941.793103
 20
599.517241
 42
0.0
  0
VERTEX
  8
Default
 10
939.088235
 20
598.647059
 42
0.0
  0
VERTEX
  8
Default
 10
918.9
 20
588.3
 42
0.0
  0
VERTEX
  8
Default
 10
917.0
 20
588.0
 42
0.0
  0
VERTEX
  8
Default
 10
916.0
 20
588.0
 42
0.0
  0
VERTEX
  8
Default
 10
915.0
 20
588.0
 42
0.0
  0
VERTEX
  8
Default
 10
912.846154
 20
586.230769
 42
0.0
  0
VERTEX
  8
Default
 10
904.9
 20
582.3
 42
0.0
  0
VERTEX
  8
Default
 10
903.0
 20
582.0
 42
0.0
  0
VERTEX
  8
Default
 10
902.0
 20
582.0
 42
0.0
  0
VERTEX
  8
Default
 10
902.0
 20
581.0
 42
0.0
  0
VERTEX
  8
Default
 10
901.769231
 20
580.153846
 42
0.0
  0
VERTEX
  8
Default
 10
888.6
 20
561.2
 42
0.0
  0
VERTEX
  8
Default
 10
887.230769
 20
558.846154
 42
0.0
  0
VERTEX
  8
Default
 10
883.517241
 20
551.793103
 42
0.0
  0
VERTEX
  8
Default
 10
880.647059
 20
544.088235
 42
0.0
  0
VERTEX
  8
Default
 10
876.230769
 20
533.846154
 42
0.0
  0
VERTEX
  8
Default
 10
875.0
 20
532.0
 42
0.0
  0
VERTEX
  8
Default
 10
875.0
 20
531.0
 42
0.0
  0
SEQEND
  0
POLYLINE
  8
Default
 66
     1
 10
0.0
 20
0.0
 30
0.0
 70
     0
  0
VERTEX
  8
Default
 10
1029.0
 20
461.0
 42
0.0
  0
VERTEX
  8
Default
 10
1019.0
 20
454.0
 42
0.0
  0
VERTEX
  8
Default
 10
1009.0
 20
454.0
 42
0.0
  0
VERTEX
  8
Default
 10
1004.0
 20
457.0
 42
0.0
  0
VERTEX
  8
Default
 10
1001.0
 20
460.0
 42
0.0
  0
VERTEX
  8
Default
 10
1000.756098
 20
460.804878
 42
0.0
  0
VERTEX
  8
Default
 10
995.230769
 20
469.153846
 42
0.0
  0
VERTEX
  8
Default
 10
992.7
 20
474.9
 42
0.0
  0
VERTEX
  8
Default
 10
991.0
 20
480.0
 42
0.0
  0
VERTEX
  8
Default
 10
991.0
 20
481.0
 42
0.0
  0
VERTEX
  8
Default
 10
990.0
 20
481.0
 42
0.0
  0
VERTEX
  8
Default
 10
979.9
 20
475.3
 42
0.0
  0
VERTEX
  8
Default
 10
972.0
 20
473.0
 42
0.0
  0
VERTEX
  8
Default
 10
965.0
 20
473.0
 42
0.0
  0
VERTEX
  8
Default
 10
956.1
 20
475.2
 42
0.0
  0
VERTEX
  8
Default
 10
954.0
 20
476.0
 42
0.0
  0
VERTEX
  8
Default
 10
953.0
 20
476.0
 42
0.0
  0
SEQEND
  0
POLYLINE
  8
Default
 66
     1
 10
0.0
 20
0.0
 30
0.0
 70
     0
  0
VERTEX
  8
Default
 10
991.0
 20
481.0
 42
0.0
  0
VERTEX
  8
Default
 10
991.0
 20
482.0
 42
0.0
  0
VERTEX
  8
Default
 10
993.352941
 20
487.911765
 42
0.0
  0
VERTEX
  8
Default
 10
995.0
 20
496.0
 42
0.0
  0
VERTEX
  8
Default
 10
994.352941
 20
497.088235
 42
0.0
  0
VERTEX
  8
Default
 10
994.0
 20
500.0
 42
0.0
  0
VERTEX
  8
Default
 10
994.0
 20
501.0
 42
0.0
  0
VERTEX
  8
Default
 10
992.2
 20
506.1
 42
0.0
  0
VERTEX
  8
Default
 10
991.0
 20
509.0
 42
0.0
  0
VERTEX
  8
Default
 10
985.0
 20
515.0
 42
0.0
  0
VERTEX
  8
Default
 10
983.337838
 20
515.472973
 42
0.0
  0
VERTEX
  8
Default
 10
978.0
 20
520.0
 42
0.0
  0
VERTEX
  8
Default
 10
978.0
 20
521.0
 42
0.0
  0
VERTEX
  8
Default
 10
977.0
 20
521.0
 42
0.0
  0
VERTEX
  8
Default
 10
966.9
 20
520.3
 42
0.0
  0
VERTEX
  8
Default
 10
965.1
 20
519.7
 42
0.0
  0
VERTEX
  8
Default
 10
958.0
 20
517.0
 42
0.0
  0
VERTEX
  8
Default
 10
950.0
 20
509.0
 42
0.0
  0
VERTEX
  8
Default
 10
948.0
 20
505.0
 42
0.0
  0
VERTEX
  8
Default
 10
948.0
 20
504.0
 42
0.0
  0
SEQEND
  0
POLYLINE
  8
Default
 66
     1
 10
0.0
 20
0.0
 30
0.0
 70
     0
  0
VERTEX
  8
Default
 10
1184.0
 20
534.0
 42
0.0
  0
VERTEX
  8
Default
 10
1194.310345
 20
539.275862
 42
0.0
  0
VERTEX
  8
Default
 10
1198.0
 20
540.0
 42
0.0
  0
VERTEX
  8
Default
 10
1199.0
 20
540.0
 42
0.0
  0
VERTEX
  8
Default
 10
1200.0
 20
540.0
 42
0.0
  0
VERTEX
  8
Default
 10
1201.037931
 20
539.455172
 42
0.0
  0
VERTEX
  8
Default
 10
1212.0
 20
539.0
 42
0.0
  0
VERTEX
  8
Default
 10
1214.0
 20
537.0
 42
0.0
  0
VERTEX
  8
Default
 10
1223.0
 20
537.0
 42
0.0
  0
VERTEX
  8
Default
 10
1229.2
 20
533.4
 42
0.0
  0
VERTEX
  8
Default
 10
1262.0
 20
516.0
 42
0.0
  0
VERTEX
  8
Default
 10
1262.0
 20
514.0
 42
0.0
  0
VERTEX
  8
Default
 10
1260.0
 20
511.0
 42
0.0
  0
VERTEX
  8
Default
 10
1252.0
 20
503.0
 42
0.0
  0
VERTEX
  8
Default
 10
1251.18
 20
502.76
 42
0.0
  0
VERTEX
  8
Default
 10
1244.846154
 20
498.230769
 42
0.0
  0
VERTEX
  8
Default
 10
1235.1
 20
492.8
 42
0.0
  0
VERTEX
  8
Default
 10
1233.9
 20
492.2
 42
0.0
  0
VERTEX
  8
Default
 10
1225.94
 20
489.42
 42
0.0
  0
VERTEX
  8
Default
 10
1220.176471
 20
488.294118
 42
0.0
  0
VERTEX
  8
Default
 10
1218.0
 20
487.0
 42
0.0
  0
VERTEX
  8
Default
 10
1207.0
 20
487.0
 42
0.0
  0
VERTEX
  8
Default
 10
1199.9
 20
489.8
 42
0.0
  0
VERTEX
  8
Default
 10
1199.1
 20
490.2
 42
0.0
  0
VERTEX
  8
Default
 10
1197.0
 20
491.0
 42
0.0
  0
VERTEX
  8
Default
 10
1191.0
 20
497.0
 42
0.0
  0
VERTEX
  8
Default
 10
1187.7
 20
503.9
 42
0.0
  0
VERTEX
  8
Default
 10
1185.0
 20
509.0
 42
0.0
  0
VERTEX
  8
Default
 10
1185.0
 20
526.0
 42
0.0
  0
VERTEX
  8
Default
 10
1186.0
 20
527.0
 42
0.0
  0
VERTEX
  8
Default
 10
1186.0
 20
530.0
 42
0.0
  0
VERTEX
  8
Default
 10
1184.0
 20
533.0
 42
0.0
  0
VERTEX
  8
Default
 10
1184.0
 20
534.0
 42
0.0
  0
VERTEX
  8
Default
 10
1183.0
 20
534.0
 42
0.0
  0
VERTEX
  8
Default
 10
1182.0
 20
534.0
 42
0.0
  0
VERTEX
  8
Default
 10
1181.0
 20
534.0
 42
0.0
  0
VERTEX
  8
Default
 10
1181.0
 20
533.0
 42
0.0
  0
VERTEX
  8
Default
 10
1178.846154
 20
531.230769
 42
0.0
  0
VERTEX
  8
Default
 10
1171.2
 20
527.6
 42
0.0
  0
VERTEX
  8
Default
 10
1168.8
 20
526.6
 42
0.0
  0
VERTEX
  8
Default
 10
1155.95122
 20
523.439024
 42
0.0
  0
VERTEX
  8
Default
 10
1148.04878
 20
522.560976
 42
0.0
  0
VERTEX
  8
Default
 10
1147.0
 20
522.0
 42
0.0
  0
VERTEX
  8
Default
 10
1140.0
 20
522.0
 42
0.0
  0
VERTEX
  8
Default
 10
1132.932432
 20
523.594595
 42
0.0
  0
VERTEX
  8
Default
 10
1126.0
 20
525.0
 42
0.0
  0
VERTEX
  8
Default
 10
1125.0
 20
525.0
 42
0.0
  0
VERTEX
  8
Default
 10
1124.0
 20
524.0
 42
0.0
  0
VERTEX
  8
Default
 10
1124.0
 20
523.0
 42
0.0
  0
SEQEND
  0
POLYLINE
  8
Default
 66
     1
 10
0.0
 20
0.0
 30
0.0
 70
     0
  0
VERTEX
  8
Default
 10
729.0
 20
488.0
 42
0.0
  0
VERTEX
  8
Default
 10
729.0
 20
489.0
 42
0.0
  0
VERTEX
  8
Default
 10
729.4
 20
490.8
 42
0.0
  0
VERTEX
  8
Default
 10
731.247788
 20
493.783186
 42
0.0
  0
VERTEX
  8
Default
 10
765.0
 20
532.0
 42
0.0
  0
VERTEX
  8
Default
 10
774.0
 20
539.0
 42
0.0
  0
VERTEX
  8
Default
 10
775.0
 20
539.0
 42
0.0
  0
SEQEND
  0
POLYLINE
  8
Default
 66
     1
 10
0.0
 20
0.0
 30
0.0
 70
     0
  0
VERTEX
  8
Default
 10
1016.0
 20
539.0
 42
0.0
  0
VERTEX
  8
Default
 10
1018.911765
 20
538.647059
 42
0.0
  0
VERTEX
  8
Default
 10
1026.1
 20
534.2
 42
0.0
  0
VERTEX
  8
Default
 10
1027.0
 20
534.0
 42
0.0
  0
VERTEX
  8
Default
 10
1030.0
 20
531.0
 42
0.0
  0
VERTEX
  8
Default
 10
1030.8
 20
528.9
 42
0.0
  0
VERTEX
  8
Default
 10
1032.0
 20
527.0
 42
0.0
  0
VERTEX
  8
Default
 10
1032.0
 20
524.0
 42
0.0
  0
VERTEX
  8
Default
 10
1031.2
 20
522.9
 42
0.0
  0
VERTEX
  8
Default
 10
1030.8
 20
522.1
 42
0.0
  0
VERTEX
  8
Default
 10
1029.0
 20
518.0
 42
0.0
  0
VERTEX
  8
Default
 10
1021.0
 20
510.0
 42
0.0
  0
VERTEX
  8
Default
 10
1016.1
 20
506.8
 42
0.0
  0
VERTEX
  8
Default
 10
1006.1
 20
502.8
 42
0.0
  0
VERTEX
  8
Default
 10
995.0
 20
501.0
 42
0.0
  0
VERTEX
  8
Default
 10
994.0
 20
501.0
 42
0.0
  0
SEQEND
  0
POLYLINE
  8
Default
 66
     1
 10
0.0
 20
0.0
 30
0.0
 70
     0
  0
VERTEX
  8
Default
 10
598.0
 20
533.0
 42
0.0
  0
VERTEX
  8
Default
 10
598.0
 20
534.0
 42
0.0
  0
VERTEX
  8
Default
 10
596.594595
 20
543.932432
 42
0.0
  0
VERTEX
  8
Default
 10
595.0
 20
547.0
 42
0.0
  0
VERTEX
  8
Default
 10
595.0
 20
567.0
 42
0.0
  0
VERTEX
  8
Default
 10
596.2
 20
568.9
 42
0.0
  0
VERTEX
  8
Default
 10
597.0
 20
570.0
 42
0.0
  0
VERTEX
  8
Default
 10
597.0
 20
571.0
 42
0.0
  0
VERTEX
  8
Default
 10
598.9
 20
572.2
 42
0.0
  0
VERTEX
  8
Default
 10
604.053846
 20
574.569231
 42
0.0
  0
VERTEX
  8
Default
 10
615.0
 20
576.0
 42
0.0
  0
VERTEX
  8
Default
 10
616.0
 20
576.0
 42
0.0
  0
VERTEX
  8
Default
 10
616.0
 20
575.0
 42
0.0
  0
VERTEX
  8
Default
 10
617.0
 20
574.0
 42
0.0
  0
VERTEX
  8
Default
 10
615.8
 20
571.1
 42
0.0
  0
VERTEX
  8
Default
 10
615.0
 20
570.0
 42
0.0
  0
VERTEX
  8
Default
 10
615.0
 20
549.0
 42
0.0
  0
VERTEX
  8
Default
 10
616.482759
 20
546.793103
 42
0.0
  0
VERTEX
  8
Default
 10
619.461538
 20
539.307692
 42
0.0
  0
VERTEX
  8
Default
 10
622.756098
 20
534.804878
 42
0.0
  0
VERTEX
  8
Default
 10
623.0
 20
534.0
 42
0.0
  0
VERTEX
  8
Default
 10
628.0
 20
529.0
 42
0.0
  0
VERTEX
  8
Default
 10
631.2
 20
527.4
 42
0.0
  0
VERTEX
  8
Default
 10
644.0
 20
523.0
 42
0.0
  0
VERTEX
  8
Default
 10
653.0
 20
523.0
 42
0.0
  0
VERTEX
  8
Default
 10
658.932432
 20
524.405405
 42
0.0
  0
VERTEX
  8
Default
 10
666.1
 20
526.7
 42
0.0
  0
VERTEX
  8
Default
 10
674.153846
 20
530.769231
 42
0.0
  0
VERTEX
  8
Default
 10
678.0
 20
533.0
 42
0.0
  0
VERTEX
  8
Default
 10
693.0
 20
548.0
 42
0.0
  0
VERTEX
  8
Default
 10
693.461538
 20
549.692308
 42
0.0
  0
VERTEX
  8
Default
 10
697.4
 20
555.8
 42
0.0
  0
VERTEX
  8
Default
 10
702.4
 20
566.2
 42
0.0
  0
VERTEX
  8
Default
 10
703.6
 20
569.8
 42
0.0
  0
VERTEX
  8
Default
 10
708.594595
 20
583.067568
 42
0.0
  0
VERTEX
  8
Default
 10
710.0
 20
589.0
 42
0.0
  0
VERTEX
  8
Default
 10
711.0
 20
589.0
 42
0.0
  0
VERTEX
  8
Default
 10
713.911765
 20
588.647059
 42
0.0
  0
VERTEX
  8
Default
 10
725.9
 20
584.8
 42
0.0
  0
VERTEX
  8
Default
 10
727.0
 20
584.0
 42
0.0
  0
VERTEX
  8
Default
 10
727.0
 20
583.0
 42
0.0
  0
VERTEX
  8
Default
 10
727.0
 20
582.0
 42
0.0
  0
VERTEX
  8
Default
 10
726.3
 20
580.9
 42
0.0
  0
VERTEX
  8
Default
 10
720.647059
 20
561.088235
 42
0.0
  0
VERTEX
  8
Default
 10
717.517241
 20
553.793103
 42
0.0
  0
VERTEX
  8
Default
 10
714.769231
 20
548.153846
 42
0.0
  0
VERTEX
  8
Default
 10
708.756098
 20
538.195122
 42
0.0
  0
VERTEX
  8
Default
 10
705.0
 20
533.0
 42
0.0
  0
VERTEX
  8
Default
 10
693.0
 20
521.0
 42
0.0
  0
VERTEX
  8
Default
 10
676.1
 20
510.8
 42
0.0
  0
VERTEX
  8
Default
 10
672.9
 20
509.2
 42
0.0
  0
VERTEX
  8
Default
 10
659.94
 20
505.42
 42
0.0
  0
VERTEX
  8
Default
 10
654.06
 20
504.58
 42
0.0
  0
VERTEX
  8
Default
 10
653.0
 20
504.0
 42
0.0
  0
VERTEX
  8
Default
 10
642.0
 20
504.0
 42
0.0
  0
VERTEX
  8
Default
 10
640.955446
 20
504.554455
 42
0.0
  0
VERTEX
  8
Default
 10
624.911765
 20
506.647059
 42
0.0
  0
VERTEX
  8
Default
 10
622.088235
 20
507.352941
 42
0.0
  0
VERTEX
  8
Default
 10
618.153846
 20
509.230769
 42
0.0
  0
VERTEX
  8
Default
 10
608.195122
 20
517.243902
 42
0.0
  0
VERTEX
  8
Default
 10
604.0
 20
521.0
 42
0.0
  0
VERTEX
  8
Default
 10
603.647059
 20
523.911765
 42
0.0
  0
VERTEX
  8
Default
 10
600.6
 20
530.8
 42
0.0
  0
VERTEX
  8
Default
 10
599.0
 20
533.0
 42
0.0
  0
VERTEX
  8
Default
 10
598.0
 20
533.0
 42
0.0
  0
VERTEX
  8
Default
 10
590.9
 20
528.2
 42
0.0
  0
VERTEX
  8
Default
 10
586.088235
 20
526.647059
 42
0.0
  0
VERTEX
  8
Default
 10
584.923077
 20
526.384615
 42
0.0
  0
VERTEX
  8
Default
 10
580.0
 20
525.0
 42
0.0
  0
VERTEX
  8
Default
 10
566.0
 20
525.0
 42
0.0
  0
VERTEX
  8
Default
 10
564.946154
 20
525.569231
 42
0.0
  0
VERTEX
  8
Default
 10
556.923077
 20
526.615385
 42
0.0
  0
VERTEX
  8
Default
 10
553.2
 20
527.6
 42
0.0
  0
VERTEX
  8
Default
 10
540.206897
 20
531.517241
 42
0.0
  0
VERTEX
  8
Default
 10
530.1
 20
535.3
 42
0.0
  0
VERTEX
  8
Default
 10
519.0
 20
541.0
 42
0.0
  0
VERTEX
  8
Default
 10
509.0
 20
551.0
 42
0.0
  0
VERTEX
  8
Default
 10
503.0
 20
563.0
 42
0.0
  0
VERTEX
  8
Default
 10
503.0
 20
577.0
 42
0.0
  0
VERTEX
  8
Default
 10
504.6
 20
579.2
 42
0.0
  0
VERTEX
  8
Default
 10
507.0
 20
585.0
 42
0.0
  0
VERTEX
  8
Default
 10
513.0
 20
591.0
 42
0.0
  0
VERTEX
  8
Default
 10
518.8
 20
593.4
 42
0.0
  0
VERTEX
  8
Default
 10
526.088235
 20
595.647059
 42
0.0
  0
VERTEX
  8
Default
 10
528.911765
 20
596.352941
 42
0.0
  0
VERTEX
  8
Default
 10
532.0
 20
598.0
 42
0.0
  0
VERTEX
  8
Default
 10
526.76
 20
606.82
 42
0.0
  0
VERTEX
  8
Default
 10
524.0
 20
610.0
 42
0.0
  0
VERTEX
  8
Default
 10
523.0
 20
610.0
 42
0.0
  0
VERTEX
  8
Default
 10
522.0
 20
610.0
 42
0.0
  0
VERTEX
  8
Default
 10
506.8
 20
605.4
 42
0.0
  0
VERTEX
  8
Default
 10
500.22069
 20
600.751724
 42
0.0
  0
VERTEX
  8
Default
 10
491.609756
 20
593.487805
 42
0.0
  0
VERTEX
  8
Default
 10
486.0
 20
590.0
 42
0.0
  0
VERTEX
  8
Default
 10
485.0
 20
590.0
 42
0.0
  0
VERTEX
  8
Default
 10
485.0
 20
589.0
 42
0.0
  0
VERTEX
  8
Default
 10
484.2
 20
587.9
 42
0.0
  0
VERTEX
  8
Default
 10
478.0
 20
573.0
 42
0.0
  0
VERTEX
  8
Default
 10
478.0
 20
572.0
 42
0.0
  0
VERTEX
  8
Default
 10
478.0
 20
571.0
 42
0.0
  0
VERTEX
  8
Default
 10
485.3
 20
549.1
 42
0.0
  0
VERTEX
  8
Default
 10
489.2
 20
542.1
 42
0.0
  0
VERTEX
  8
Default
 10
492.769231
 20
535.846154
 42
0.0
  0
VERTEX
  8
Default
 10
498.0
 20
529.0
 42
0.0
  0
VERTEX
  8
Default
 10
506.0
 20
521.0
 42
0.0
  0
VERTEX
  8
Default
 10
514.2
 20
515.4
 42
0.0
  0
VERTEX
  8
Default
 10
528.793103
 20
508.482759
 42
0.0
  0
VERTEX
  8
Default
 10
539.04878
 20
505.439024
 42
0.0
  0
VERTEX
  8
Default
 10
546.95122
 20
504.560976
 42
0.0
  0
VERTEX
  8
Default
 10
548.0
 20
504.0
 42
0.0
  0
VERTEX
  8
Default
 10
557.0
 20
504.0
 42
0.0
  0
VERTEX
  8
Default
 10
574.932432
 20
507.405405
 42
0.0
  0
VERTEX
  8
Default
 10
584.9
 20
510.3
 42
0.0
  0
VERTEX
  8
Default
 10
586.9
 20
511.2
 42
0.0
  0
VERTEX
  8
Default
 10
598.2
 20
516.6
 42
0.0
  0
VERTEX
  8
Default
 10
604.0
 20
521.0
 42
0.0
  0
SEQEND
  0
POLYLINE
  8
Default
 66
     1
 10
0.0
 20
0.0
 30
0.0
 70
     0
  0
VERTEX
  8
Default
 10
827.0
 20
509.0
 42
0.0
  0
VERTEX
  8
Default
 10
828.0
 20
509.0
 42
0.0
  0
VERTEX
  8
Default
 10
829.0
 20
510.0
 42
0.0
  0
VERTEX
  8
Default
 10
829.0
 20
511.0
 42
0.0
  0
VERTEX
  8
Default
 10
830.0
 20
511.0
 42
0.0
  0
VERTEX
  8
Default
 10
831.0
 20
512.0
 42
0.0
  0
VERTEX
  8
Default
 10
831.0
 20
513.0
 42
0.0
  0
SEQEND
  0
POLYLINE
  8
Default
 66
     1
 10
0.0
 20
0.0
 30
0.0
 70
     0
  0
VERTEX
  8
Default
 10
242.0
 20
511.0
 42
0.0
  0
VERTEX
  8
Default
 10
242.8
 20
512.1
 42
0.0
  0
VERTEX
  8
Default
 10
250.646154
 20
531.630769
 42
0.0
  0
VERTEX
  8
Default
 10
254.0
 20
536.0
 42
0.0
  0
VERTEX
  8
Default
 10
255.0
 20
536.0
 42
0.0
  0
VERTEX
  8
Default
 10
255.0
 20
537.0
 42
0.0
  0
VERTEX
  8
Default
 10
255.7
 20
542.1
 42
0.0
  0
VERTEX
  8
Default
 10
260.230769
 20
551.846154
 42
0.0
  0
VERTEX
  8
Default
 10
262.8
 20
556.1
 42
0.0
  0
VERTEX
  8
Default
 10
281.769231
 20
586.153846
 42
0.0
  0
VERTEX
  8
Default
 10
286.76
 20
593.18
 42
0.0
  0
VERTEX
  8
Default
 10
295.248869
 20
603.773756
 42
0.0
  0
VERTEX
  8
Default
 10
305.0
 20
615.0
 42
0.0
  0
VERTEX
  8
Default
 10
310.0
 20
620.0
 42
0.0
  0
VERTEX
  8
Default
 10
314.0
 20
623.0
 42
0.0
  0
VERTEX
  8
Default
 10
314.0
 20
624.0
 42
0.0
  0
VERTEX
  8
Default
 10
314.0
 20
625.0
 42
0.0
  0
VERTEX
  8
Default
 10
313.0
 20
625.0
 42
0.0
  0
VERTEX
  8
Default
 10
312.0
 20
626.0
 42
0.0
  0
VERTEX
  8
Default
 10
302.04878
 20
624.560976
 42
0.0
  0
VERTEX
  8
Default
 10
301.0
 20
624.0
 42
0.0
  0
VERTEX
  8
Default
 10
292.0
 20
624.0
 42
0.0
  0
VERTEX
  8
Default
 10
290.955446
 20
624.554455
 42
0.0
  0
VERTEX
  8
Default
 10
282.0
 20
625.0
 42
0.0
  0
VERTEX
  8
Default
 10
279.823529
 20
626.294118
 42
0.0
  0
VERTEX
  8
Default
 10
272.9
 20
627.7
 42
0.0
  0
VERTEX
  8
Default
 10
262.1
 20
632.2
 42
0.0
  0
VERTEX
  8
Default
 10
260.153846
 20
633.230769
 42
0.0
  0
VERTEX
  8
Default
 10
249.0
 20
641.0
 42
0.0
  0
VERTEX
  8
Default
 10
244.0
 20
646.0
 42
0.0
  0
VERTEX
  8
Default
 10
243.8
 20
646.9
 42
0.0
  0
VERTEX
  8
Default
 10
243.0
 20
648.0
 42
0.0
  0
VERTEX
  8
Default
 10
264.088235
 20
657.647059
 42
0.0
  0
VERTEX
  8
Default
 10
268.1
 20
658.8
 42
0.0
  0
VERTEX
  8
Default
 10
278.053846
 20
661.569231
 42
0.0
  0
VERTEX
  8
Default
 10
284.946154
 20
662.430769
 42
0.0
  0
VERTEX
  8
Default
 10
286.0
 20
663.0
 42
0.0
  0
VERTEX
  8
Default
 10
291.0
 20
663.0
 42
0.0
  0
VERTEX
  8
Default
 10
303.846154
 20
656.769231
 42
0.0
  0
VERTEX
  8
Default
 10
307.0
 20
655.0
 42
0.0
  0
VERTEX
  8
Default
 10
314.0
 20
648.0
 42
0.0
  0
VERTEX
  8
Default
 10
316.352941
 20
640.088235
 42
0.0
  0
VERTEX
  8
Default
 10
318.0
 20
630.0
 42
0.0
  0
VERTEX
  8
Default
 10
319.0
 20
630.0
 42
0.0
  0
VERTEX
  8
Default
 10
320.0
 20
630.0
 42
0.0
  0
VERTEX
  8
Default
 10
328.22069
 20
637.751724
 42
0.0
  0
VERTEX
  8
Default
 10
370.0
 20
673.0
 42
0.0
  0
VERTEX
  8
Default
 10
373.0
 20
676.0
 42
0.0
  0
VERTEX
  8
Default
 10
374.0
 20
676.0
 42
0.0
  0
VERTEX
  8
Default
 10
375.0
 20
676.0
 42
0.0
  0
VERTEX
  8
Default
 10
381.0
 20
680.0
 42
0.0
  0
VERTEX
  8
Default
 10
382.0
 20
680.0
 42
0.0
  0
VERTEX
  8
Default
 10
383.0
 20
681.0
 42
0.0
  0
VERTEX
  8
Default
 10
381.517241
 20
683.206897
 42
0.0
  0
VERTEX
  8
Default
 10
380.2
 20
687.1
 42
0.0
  0
VERTEX
  8
Default
 10
375.0
 20
698.0
 42
0.0
  0
VERTEX
  8
Default
 10
369.0
 20
704.0
 42
0.0
  0
VERTEX
  8
Default
 10
364.735294
 20
706.558824
 42
0.0
  0
VERTEX
  8
Default
 10
356.9
 20
709.8
 42
0.0
  0
VERTEX
  8
Default
 10
349.923077
 20
711.615385
 42
0.0
  0
VERTEX
  8
Default
 10
334.076923
 20
714.384615
 42
0.0
  0
VERTEX
  8
Default
 10
333.0
 20
715.0
 42
0.0
  0
VERTEX
  8
Default
 10
314.0
 20
715.0
 42
0.0
  0
VERTEX
  8
Default
 10
313.0
 20
714.0
 42
0.0
  0
VERTEX
  8
Default
 10
313.0
 20
711.0
 42
0.0
  0
VERTEX
  8
Default
 10
319.2
 20
697.1
 42
0.0
  0
VERTEX
  8
Default
 10
319.7
 20
695.9
 42
0.0
  0
VERTEX
  8
Default
 10
329.0
 20
680.0
 42
0.0
  0
VERTEX
  8
Default
 10
332.0
 20
677.0
 42
0.0
  0
VERTEX
  8
Default
 10
338.1
 20
673.2
 42
0.0
  0
VERTEX
  8
Default
 10
338.9
 20
672.8
 42
0.0
  0
VERTEX
  8
Default
 10
347.0
 20
671.0
 42
0.0
  0
VERTEX
  8
Default
 10
354.0
 20
671.0
 42
0.0
  0
VERTEX
  8
Default
 10
356.9
 20
672.3
 42
0.0
  0
VERTEX
  8
Default
 10
358.053846
 20
672.569231
 42
0.0
  0
VERTEX
  8
Default
 10
369.0
 20
674.0
 42
0.0
  0
VERTEX
  8
Default
 10
370.0
 20
673.0
 42
0.0
  0
SEQEND
  0
POLYLINE
  8
Default
 66
     1
 10
0.0
 20
0.0
 30
0.0
 70
     0
  0
VERTEX
  8
Default
 10
1109.0
 20
516.0
 42
0.0
  0
VERTEX
  8
Default
 10
1108.0
 20
516.0
 42
0.0
  0
VERTEX
  8
Default
 10
1083.0
 20
513.0
 42
0.0
  0
VERTEX
  8
Default
 10
1082.0
 20
513.0
 42
0.0
  0
SEQEND
  0
POLYLINE
  8
Default
 66
     1
 10
0.0
 20
0.0
 30
0.0
 70
     0
  0
VERTEX
  8
Default
 10
275.0
 20
513.0
 42
0.0
  0
VERTEX
  8
Default
 10
275.0
 20
514.0
 42
0.0
  0
VERTEX
  8
Default
 10
268.0
 20
518.0
 42
0.0
  0
VERTEX
  8
Default
 10
259.0
 20
527.0
 42
0.0
  0
VERTEX
  8
Default
 10
255.8
 20
533.9
 42
0.0
  0
VERTEX
  8
Default
 10
255.0
 20
535.0
 42
0.0
  0
VERTEX
  8
Default
 10
255.0
 20
536.0
 42
0.0
  0
SEQEND
  0
POLYLINE
  8
Default
 66
     1
 10
0.0
 20
0.0
 30
0.0
 70
     0
  0
VERTEX
  8
Default
 10
1125.0
 20
525.0
 42
0.0
  0
VERTEX
  8
Default
 10
1125.0
 20
526.0
 42
0.0
  0
VERTEX
  8
Default
 10
1132.769231
 20
537.153846
 42
0.0
  0
VERTEX
  8
Default
 10
1136.3
 20
544.9
 42
0.0
  0
VERTEX
  8
Default
 10
1136.615385
 20
546.076923
 42
0.0
  0
VERTEX
  8
Default
 10
1138.352941
 20
553.911765
 42
0.0
  0
VERTEX
  8
Default
 10
1139.0
 20
555.0
 42
0.0
  0
VERTEX
  8
Default
 10
1139.0
 20
561.0
 42
0.0
  0
VERTEX
  8
Default
 10
1137.430769
 20
567.053846
 42
0.0
  0
VERTEX
  8
Default
 10
1136.569231
 20
573.946154
 42
0.0
  0
VERTEX
  8
Default
 10
1134.647059
 20
579.911765
 42
0.0
  0
VERTEX
  8
Default
 10
1134.2
 20
581.1
 42
0.0
  0
VERTEX
  8
Default
 10
1129.76
 20
591.82
 42
0.0
  0
VERTEX
  8
Default
 10
1126.512195
 20
596.609756
 42
0.0
  0
VERTEX
  8
Default
 10
1117.0
 20
608.0
 42
0.0
  0
VERTEX
  8
Default
 10
1111.804878
 20
611.756098
 42
0.0
  0
VERTEX
  8
Default
 10
1098.1
 20
621.2
 42
0.0
  0
VERTEX
  8
Default
 10
1087.8
 20
626.6
 42
0.0
  0
VERTEX
  8
Default
 10
1050.9
 20
640.7
 42
0.0
  0
VERTEX
  8
Default
 10
1049.1
 20
641.3
 42
0.0
  0
VERTEX
  8
Default
 10
1038.0
 20
644.0
 42
0.0
  0
VERTEX
  8
Default
 10
1037.0
 20
643.0
 42
0.0
  0
VERTEX
  8
Default
 10
1037.0
 20
642.0
 42
0.0
  0
VERTEX
  8
Default
 10
1037.0
 20
641.0
 42
0.0
  0
VERTEX
  8
Default
 10
1037.384615
 20
637.076923
 42
0.0
  0
VERTEX
  8
Default
 10
1039.352941
 20
628.088235
 42
0.0
  0
VERTEX
  8
Default
 10
1040.0
 20
627.0
 42
0.0
  0
VERTEX
  8
Default
 10
1040.0
 20
626.0
 42
0.0
  0
VERTEX
  8
Default
 10
1041.0
 20
626.0
 42
0.0
  0
VERTEX
  8
Default
 10
1042.1
 20
625.2
 42
0.0
  0
VERTEX
  8
Default
 10
1046.076923
 20
623.384615
 42
0.0
  0
VERTEX
  8
Default
 10
1050.0
 20
623.0
 42
0.0
  0
VERTEX
  8
Default
 10
1054.369231
 20
619.646154
 42
0.0
  0
VERTEX
  8
Default
 10
1079.8
 20
608.6
 42
0.0
  0
VERTEX
  8
Default
 10
1082.2
 20
607.4
 42
0.0
  0
VERTEX
  8
Default
 10
1093.0
 20
601.0
 42
0.0
  0
VERTEX
  8
Default
 10
1103.0
 20
591.0
 42
0.0
  0
VERTEX
  8
Default
 10
1111.4
 20
577.2
 42
0.0
  0
VERTEX
  8
Default
 10
1113.352941
 20
572.088235
 42
0.0
  0
VERTEX
  8
Default
 10
1115.0
 20
569.0
 42
0.0
  0
VERTEX
  8
Default
 10
1115.0
 20
557.0
 42
0.0
  0
VERTEX
  8
Default
 10
1114.2
 20
555.9
 42
0.0
  0
VERTEX
  8
Default
 10
1113.8
 20
555.1
 42
0.0
  0
VERTEX
  8
Default
 10
1111.0
 20
548.0
 42
0.0
  0
VERTEX
  8
Default
 10
1101.0
 20
538.0
 42
0.0
  0
VERTEX
  8
Default
 10
1100.1
 20
537.8
 42
0.0
  0
VERTEX
  8
Default
 10
1095.8
 20
535.4
 42
0.0
  0
VERTEX
  8
Default
 10
1086.1
 20
531.8
 42
0.0
  0
VERTEX
  8
Default
 10
1079.0
 20
530.0
 42
0.0
  0
VERTEX
  8
Default
 10
1079.0
 20
529.0
 42
0.0
  0
SEQEND
  0
POLYLINE
  8
Default
 66
     1
 10
0.0
 20
0.0
 30
0.0
 70
     0
  0
VERTEX
  8
Default
 10
1181.0
 20
534.0
 42
0.0
  0
VERTEX
  8
Default
 10
1181.0
 20
535.0
 42
0.0
  0
VERTEX
  8
Default
 10
1178.24
 20
538.18
 42
0.0
  0
VERTEX
  8
Default
 10
1177.3
 20
540.1
 42
0.0
  0
VERTEX
  8
Default
 10
1176.7
 20
541.9
 42
0.0
  0
VERTEX
  8
Default
 10
1174.384615
 20
550.076923
 42
0.0
  0
VERTEX
  8
Default
 10
1172.0
 20
562.0
 42
0.0
  0
VERTEX
  8
Default
 10
1172.0
 20
573.0
 42
0.0
  0
VERTEX
  8
Default
 10
1175.724138
 20
587.689655
 42
0.0
  0
VERTEX
  8
Default
 10
1181.230769
 20
596.846154
 42
0.0
  0
VERTEX
  8
Default
 10
1182.769231
 20
599.153846
 42
0.0
  0
VERTEX
  8
Default
 10
1183.0
 20
600.0
 42
0.0
  0
VERTEX
  8
Default
 10
1192.0
 20
609.0
 42
0.0
  0
VERTEX
  8
Default
 10
1193.0
 20
609.0
 42
0.0
  0
VERTEX
  8
Default
 10
1207.24
 20
593.18
 42
0.0
  0
VERTEX
  8
Default
 10
1211.230769
 20
587.153846
 42
0.0
  0
VERTEX
  8
Default
 10
1213.594595
 20
581.932432
 42
0.0
  0
VERTEX
  8
Default
 10
1214.42
 20
574.94
 42
0.0
  0
VERTEX
  8
Default
 10
1213.58
 20
569.06
 42
0.0
  0
VERTEX
  8
Default
 10
1210.756098
 20
563.195122
 42
0.0
  0
VERTEX
  8
Default
 10
1206.769231
 20
558.153846
 42
0.0
  0
VERTEX
  8
Default
 10
1201.0
 20
549.0
 42
0.0
  0
VERTEX
  8
Default
 10
1202.0
 20
545.0
 42
0.0
  0
VERTEX
  8
Default
 10
1202.8
 20
544.6
 42
0.0
  0
VERTEX
  8
Default
 10
1205.846154
 20
546.230769
 42
0.0
  0
VERTEX
  8
Default
 10
1208.153846
 20
547.769231
 42
0.0
  0
VERTEX
  8
Default
 10
1223.204918
 20
559.754098
 42
0.0
  0
VERTEX
  8
Default
 10
1231.762812
 20
567.249671
 42
0.0
  0
VERTEX
  8
Default
 10
1251.0
 20
586.0
 42
0.0
  0
VERTEX
  8
Default
 10
1252.0
 20
586.0
 42
0.0
  0
VERTEX
  8
Default
 10
1252.0
 20
587.0
 42
0.0
  0
VERTEX
  8
Default
 10
1252.0
 20
588.0
 42
0.0
  0
VERTEX
  8
Default
 10
1252.0
 20
589.0
 42
0.0
  0
VERTEX
  8
Default
 10
1251.0
 20
589.0
 42
0.0
  0
VERTEX
  8
Default
 10
1249.0
 20
589.0
 42
0.0
  0
VERTEX
  8
Default
 10
1245.0
 20
593.0
 42
0.0
  0
VERTEX
  8
Default
 10
1241.2
 20
602.1
 42
0.0
  0
VERTEX
  8
Default
 10
1240.8
 20
602.9
 42
0.0
  0
VERTEX
  8
Default
 10
1231.405405
 20
627.067568
 42
0.0
  0
VERTEX
  8
Default
 10
1230.594595
 20
631.932432
 42
0.0
  0
VERTEX
  8
Default
 10
1230.0
 20
633.0
 42
0.0
  0
VERTEX
  8
Default
 10
1230.0
 20
650.0
 42
0.0
  0
VERTEX
  8
Default
 10
1232.2
 20
656.9
 42
0.0
  0
VERTEX
  8
Default
 10
1233.352941
 20
660.911765
 42
0.0
  0
VERTEX
  8
Default
 10
1237.230769
 20
668.846154
 42
0.0
  0
VERTEX
  8
Default
 10
1240.0
 20
673.0
 42
0.0
  0
VERTEX
  8
Default
 10
1242.0
 20
673.0
 42
0.0
  0
VERTEX
  8
Default
 10
1249.195122
 20
667.243902
 42
0.0
  0
VERTEX
  8
Default
 10
1250.0
 20
667.0
 42
0.0
  0
VERTEX
  8
Default
 10
1257.0
 20
660.0
 42
0.0
  0
VERTEX
  8
Default
 10
1263.7
 20
649.9
 42
0.0
  0
VERTEX
  8
Default
 10
1264.3
 20
648.1
 42
0.0
  0
VERTEX
  8
Default
 10
1266.0
 20
643.0
 42
0.0
  0
VERTEX
  8
Default
 10
1266.0
 20
631.0
 42
0.0
  0
VERTEX
  8
Default
 10
1265.42
 20
629.94
 42
0.0
  0
VERTEX
  8
Default
 10
1264.3
 20
622.9
 42
0.0
  0
VERTEX
  8
Default
 10
1258.482759
 20
605.206897
 42
0.0
  0
VERTEX
  8
Default
 10
1256.482759
 20
600.206897
 42
0.0
  0
VERTEX
  8
Default
 10
1255.0
 20
598.0
 42
0.0
  0
VERTEX
  8
Default
 10
1255.0
 20
596.0
 42
0.0
  0
VERTEX
  8
Default
 10
1256.0
 20
595.0
 42
0.0
  0
VERTEX
  8
Default
 10
1260.804878
 20
597.243902
 42
0.0
  0
VERTEX
  8
Default
 10
1265.0
 20
601.0
 42
0.0
  0
VERTEX
  8
Default
 10
1266.0
 20
601.0
 42
0.0
  0
VERTEX
  8
Default
 10
1266.0
 20
602.0
 42
0.0
  0
VERTEX
  8
Default
 10
1270.76
 20
609.18
 42
0.0
  0
VERTEX
  8
Default
 10
1281.8
 20
629.1
 42
0.0
  0
VERTEX
  8
Default
 10
1284.2
 20
633.9
 42
0.0
  0
VERTEX
  8
Default
 10
1300.7
 20
673.1
 42
0.0
  0
VERTEX
  8
Default
 10
1306.352941
 20
687.911765
 42
0.0
  0
VERTEX
  8
Default
 10
1311.615385
 20
702.076923
 42
0.0
  0
VERTEX
  8
Default
 10
1312.384615
 20
705.923077
 42
0.0
  0
VERTEX
  8
Default
 10
1315.594595
 20
721.067568
 42
0.0
  0
VERTEX
  8
Default
 10
1316.0
 20
726.0
 42
0.0
  0
VERTEX
  8
Default
 10
1316.0
 20
727.0
 42
0.0
  0
VERTEX
  8
Default
 10
1315.0
 20
727.0
 42
0.0
  0
VERTEX
  8
Default
 10
1314.0
 20
726.0
 42
0.0
  0
VERTEX
  8
Default
 10
1311.0
 20
726.0
 42
0.0
  0
VERTEX
  8
Default
 10
1303.1
 20
731.2
 42
0.0
  0
VERTEX
  8
Default
 10
1301.216814
 20
732.247788
 42
0.0
  0
VERTEX
  8
Default
 10
1294.0
 20
739.0
 42
0.0
  0
VERTEX
  8
Default
 10
1294.0
 20
740.0
 42
0.0
  0
VERTEX
  8
Default
 10
1293.0
 20
740.0
 42
0.0
  0
VERTEX
  8
Default
 10
1283.776243
 20
731.248619
 42
0.0
  0
VERTEX
  8
Default
 10
1279.1
 20
728.7
 42
0.0
  0
VERTEX
  8
Default
 10
1277.9
 20
728.2
 42
0.0
  0
VERTEX
  8
Default
 10
1268.0
 20
725.0
 42
0.0
  0
VERTEX
  8
Default
 10
1262.0
 20
725.0
 42
0.0
  0
VERTEX
  8
Default
 10
1248.793103
 20
728.482759
 42
0.0
  0
VERTEX
  8
Default
 10
1242.9
 20
730.8
 42
0.0
  0
VERTEX
  8
Default
 10
1242.195122
 20
731.243902
 42
0.0
  0
VERTEX
  8
Default
 10
1237.0
 20
735.0
 42
0.0
  0
VERTEX
  8
Default
 10
1231.0
 20
741.0
 42
0.0
  0
VERTEX
  8
Default
 10
1230.6
 20
742.8
 42
0.0
  0
VERTEX
  8
Default
 10
1228.3
 20
748.1
 42
0.0
  0
VERTEX
  8
Default
 10
1227.0
 20
751.0
 42
0.0
  0
VERTEX
  8
Default
 10
1227.0
 20
782.0
 42
0.0
  0
VERTEX
  8
Default
 10
1231.0
 20
790.0
 42
0.0
  0
VERTEX
  8
Default
 10
1233.0
 20
792.0
 42
0.0
  0
VERTEX
  8
Default
 10
1239.9
 20
796.2
 42
0.0
  0
VERTEX
  8
Default
 10
1242.9
 20
797.3
 42
0.0
  0
VERTEX
  8
Default
 10
1246.0
 20
799.0
 42
0.0
  0
VERTEX
  8
Default
 10
1257.0
 20
799.0
 42
0.0
  0
VERTEX
  8
Default
 10
1258.1
 20
798.2
 42
0.0
  0
VERTEX
  8
Default
 10
1262.911765
 20
796.647059
 42
0.0
  0
VERTEX
  8
Default
 10
1265.9
 20
795.7
 42
0.0
  0
VERTEX
  8
Default
 10
1271.153846
 20
793.230769
 42
0.0
  0
VERTEX
  8
Default
 10
1271.9
 20
792.8
 42
0.0
  0
VERTEX
  8
Default
 10
1279.0
 20
789.0
 42
0.0
  0
VERTEX
  8
Default
 10
1289.0
 20
779.0
 42
0.0
  0
VERTEX
  8
Default
 10
1292.2
 20
773.1
 42
0.0
  0
VERTEX
  8
Default
 10
1292.647059
 20
771.911765
 42
0.0
  0
VERTEX
  8
Default
 10
1296.0
 20
758.0
 42
0.0
  0
VERTEX
  8
Default
 10
1296.0
 20
753.0
 42
0.0
  0
VERTEX
  8
Default
 10
1294.384615
 20
744.923077
 42
0.0
  0
VERTEX
  8
Default
 10
1294.0
 20
741.0
 42
0.0
  0
VERTEX
  8
Default
 10
1294.0
 20
740.0
 42
0.0
  0
SEQEND
  0
POLYLINE
  8
Default
 66
     1
 10
0.0
 20
0.0
 30
0.0
 70
     0
  0
VERTEX
  8
Default
 10
831.0
 20
536.0
 42
0.0
  0
VERTEX
  8
Default
 10
831.0
 20
537.0
 42
0.0
  0
VERTEX
  8
Default
 10
829.705882
 20
539.176471
 42
0.0
  0
VERTEX
  8
Default
 10
827.7
 20
547.9
 42
0.0
  0
VERTEX
  8
Default
 10
827.0
 20
549.0
 42
0.0
  0
VERTEX
  8
Default
 10
827.0
 20
564.0
 42
0.0
  0
VERTEX
  8
Default
 10
835.4
 20
585.8
 42
0.0
  0
VERTEX
  8
Default
 10
840.769231
 20
595.153846
 42
0.0
  0
VERTEX
  8
Default
 10
850.0
 20
607.0
 42
0.0
  0
VERTEX
  8
Default
 10
856.8
 20
611.4
 42
0.0
  0
VERTEX
  8
Default
 10
859.0
 20
613.0
 42
0.0
  0
VERTEX
  8
Default
 10
873.0
 20
613.0
 42
0.0
  0
VERTEX
  8
Default
 10
877.793103
 20
610.482759
 42
0.0
  0
VERTEX
  8
Default
 10
880.2
 20
609.4
 42
0.0
  0
VERTEX
  8
Default
 10
888.0
 20
605.0
 42
0.0
  0
VERTEX
  8
Default
 10
897.0
 20
596.0
 42
0.0
  0
VERTEX
  8
Default
 10
901.7
 20
584.9
 42
0.0
  0
VERTEX
  8
Default
 10
902.0
 20
583.0
 42
0.0
  0
VERTEX
  8
Default
 10
902.0
 20
582.0
 42
0.0
  0
SEQEND
  0
POLYLINE
  8
Default
 66
     1
 10
0.0
 20
0.0
 30
0.0
 70
     0
  0
VERTEX
  8
Default
 10
1199.0
 20
540.0
 42
0.0
  0
VERTEX
  8
Default
 10
1199.0
 20
541.0
 42
0.0
  0
VERTEX
  8
Default
 10
1202.0
 20
545.0
 42
0.0
  0
SEQEND
  0
POLYLINE
  8
Default
 66
     1
 10
0.0
 20
0.0
 30
0.0
 70
     0
  0
VERTEX
  8
Default
 10
1266.0
 20
601.0
 42
0.0
  0
VERTEX
  8
Default
 10
1267.9
 20
599.8
 42
0.0
  0
VERTEX
  8
Default
 10
1270.067568
 20
599.594595
 42
0.0
  0
VERTEX
  8
Default
 10
1276.0
 20
601.0
 42
0.0
  0
VERTEX
  8
Default
 10
1291.0
 20
601.0
 42
0.0
  0
VERTEX
  8
Default
 10
1292.067568
 20
600.405405
 42
0.0
  0
VERTEX
  8
Default
 10
1298.037931
 20
599.455172
 42
0.0
  0
VERTEX
  8
Default
 10
1308.962069
 20
598.544828
 42
0.0
  0
VERTEX
  8
Default
 10
1310.0
 20
598.0
 42
0.0
  0
VERTEX
  8
Default
 10
1321.0
 20
598.0
 42
0.0
  0
VERTEX
  8
Default
 10
1322.0
 20
599.0
 42
0.0
  0
VERTEX
  8
Default
 10
1329.0
 20
599.0
 42
0.0
  0
VERTEX
  8
Default
 10
1330.0
 20
598.0
 42
0.0
  0
VERTEX
  8
Default
 10
1328.8
 20
595.1
 42
0.0
  0
VERTEX
  8
Default
 10
1311.243902
 20
572.804878
 42
0.0
  0
VERTEX
  8
Default
 10
1308.769231
 20
569.153846
 42
0.0
  0
VERTEX
  8
Default
 10
1307.0
 20
566.0
 42
0.0
  0
VERTEX
  8
Default
 10
1299.0
 20
558.0
 42
0.0
  0
VERTEX
  8
Default
 10
1294.0
 20
556.0
 42
0.0
  0
VERTEX
  8
Default
 10
1284.0
 20
556.0
 42
0.0
  0
VERTEX
  8
Default
 10
1276.9
 20
557.8
 42
0.0
  0
VERTEX
  8
Default
 10
1271.153846
 20
560.230769
 42
0.0
  0
VERTEX
  8
Default
 10
1268.0
 20
562.0
 42
0.0
  0
VERTEX
  8
Default
 10
1265.0
 20
565.0
 42
0.0
  0
VERTEX
  8
Default
 10
1256.538462
 20
581.692308
 42
0.0
  0
VERTEX
  8
Default
 10
1253.0
 20
586.0
 42
0.0
  0
VERTEX
  8
Default
 10
1252.0
 20
586.0
 42
0.0
  0
SEQEND
  0
POLYLINE
  8
Default
 66
     1
 10
0.0
 20
0.0
 30
0.0
 70
     0
  0
VERTEX
  8
Default
 10
314.0
 20
623.0
 42
0.0
  0
VERTEX
  8
Default
 10
316.0
 20
621.0
 42
0.0
  0
VERTEX
  8
Default
 10
316.0
 20
617.0
 42
0.0
  0
VERTEX
  8
Default
 10
314.615385
 20
612.076923
 42
0.0
  0
VERTEX
  8
Default
 10
313.0
 20
608.0
 42
0.0
  0
VERTEX
  8
Default
 10
313.0
 20
596.0
 42
0.0
  0
VERTEX
  8
Default
 10
313.58
 20
594.94
 42
0.0
  0
VERTEX
  8
Default
 10
314.7
 20
587.9
 42
0.0
  0
VERTEX
  8
Default
 10
319.4
 20
575.2
 42
0.0
  0
VERTEX
  8
Default
 10
322.769231
 20
568.846154
 42
0.0
  0
VERTEX
  8
Default
 10
331.0
 20
558.0
 42
0.0
  0
VERTEX
  8
Default
 10
333.0
 20
558.0
 42
0.0
  0
VERTEX
  8
Default
 10
339.0
 20
564.0
 42
0.0
  0
VERTEX
  8
Default
 10
339.441176
 20
565.735294
 42
0.0
  0
VERTEX
  8
Default
 10
344.230769
 20
572.846154
 42
0.0
  0
VERTEX
  8
Default
 10
346.2
 20
575.9
 42
0.0
  0
VERTEX
  8
Default
 10
351.0
 20
588.0
 42
0.0
  0
VERTEX
  8
Default
 10
351.0
 20
594.0
 42
0.0
  0
VERTEX
  8
Default
 10
349.594595
 20
599.932432
 42
0.0
  0
VERTEX
  8
Default
 10
347.8
 20
605.9
 42
0.0
  0
VERTEX
  8
Default
 10
347.3
 20
607.1
 42
0.0
  0
VERTEX
  8
Default
 10
345.0
 20
613.0
 42
0.0
  0
VERTEX
  8
Default
 10
335.0
 20
623.0
 42
0.0
  0
VERTEX
  8
Default
 10
326.9
 20
625.8
 42
0.0
  0
VERTEX
  8
Default
 10
320.0
 20
628.0
 42
0.0
  0
VERTEX
  8
Default
 10
319.0
 20
628.0
 42
0.0
  0
VERTEX
  8
Default
 10
318.0
 20
628.0
 42
0.0
  0
VERTEX
  8
Default
 10
314.0
 20
625.0
 42
0.0
  0
SEQEND
  0
POLYLINE
  8
Default
 66
     1
 10
0.0
 20
0.0
 30
0.0
 70
     0
  0
VERTEX
  8
Default
 10
806.0
 20
560.0
 42
0.0
  0
VERTEX
  8
Default
 10
806.0
 20
561.0
 42
0.0
  0
VERTEX
  8
Default
 10
808.352941
 20
567.911765
 42
0.0
  0
VERTEX
  8
Default
 10
816.2
 20
587.9
 42
0.0
  0
VERTEX
  8
Default
 10
818.8
 20
593.1
 42
0.0
  0
VERTEX
  8
Default
 10
833.0
 20
616.0
 42
0.0
  0
VERTEX
  8
Default
 10
846.0
 20
629.0
 42
0.0
  0
VERTEX
  8
Default
 10
858.2
 20
636.6
 42
0.0
  0
VERTEX
  8
Default
 10
859.9
 20
637.3
 42
0.0
  0
VERTEX
  8
Default
 10
864.0
 20
639.0
 42
0.0
  0
VERTEX
  8
Default
 10
877.0
 20
639.0
 42
0.0
  0
VERTEX
  8
Default
 10
878.1
 20
638.2
 42
0.0
  0
VERTEX
  8
Default
 10
888.795082
 20
632.754098
 42
0.0
  0
VERTEX
  8
Default
 10
894.337838
 20
628.472973
 42
0.0
  0
VERTEX
  8
Default
 10
896.0
 20
628.0
 42
0.0
  0
VERTEX
  8
Default
 10
897.0
 20
628.0
 42
0.0
  0
VERTEX
  8
Default
 10
897.0
 20
629.0
 42
0.0
  0
VERTEX
  8
Default
 10
901.0
 20
636.0
 42
0.0
  0
VERTEX
  8
Default
 10
920.204918
 20
652.754098
 42
0.0
  0
VERTEX
  8
Default
 10
926.18
 20
656.76
 42
0.0
  0
VERTEX
  8
Default
 10
941.1
 20
664.8
 42
0.0
  0
VERTEX
  8
Default
 10
944.206897
 20
666.482759
 42
0.0
  0
VERTEX
  8
Default
 10
957.1
 20
671.7
 42
0.0
  0
VERTEX
  8
Default
 10
958.9
 20
672.3
 42
0.0
  0
VERTEX
  8
Default
 10
963.06
 20
673.58
 42
0.0
  0
VERTEX
  8
Default
 10
968.94
 20
674.42
 42
0.0
  0
VERTEX
  8
Default
 10
982.0
 20
677.0
 42
0.0
  0
VERTEX
  8
Default
 10
989.0
 20
677.0
 42
0.0
  0
VERTEX
  8
Default
 10
990.9
 20
675.8
 42
0.0
  0
VERTEX
  8
Default
 10
1002.911765
 20
672.647059
 42
0.0
  0
VERTEX
  8
Default
 10
1010.9
 20
668.8
 42
0.0
  0
VERTEX
  8
Default
 10
1012.1
 20
668.2
 42
0.0
  0
VERTEX
  8
Default
 10
1018.0
 20
665.0
 42
0.0
  0
VERTEX
  8
Default
 10
1027.0
 20
656.0
 42
0.0
  0
VERTEX
  8
Default
 10
1028.769231
 20
652.846154
 42
0.0
  0
VERTEX
  8
Default
 10
1033.441176
 20
645.264706
 42
0.0
  0
VERTEX
  8
Default
 10
1036.0
 20
642.0
 42
0.0
  0
VERTEX
  8
Default
 10
1037.0
 20
642.0
 42
0.0
  0
SEQEND
  0
POLYLINE
  8
Default
 66
     1
 10
0.0
 20
0.0
 30
0.0
 70
     0
  0
VERTEX
  8
Default
 10
597.0
 20
571.0
 42
0.0
  0
VERTEX
  8
Default
 10
596.0
 20
571.0
 42
0.0
  0
VERTEX
  8
Default
 10
594.946154
 20
571.569231
 42
0.0
  0
VERTEX
  8
Default
 10
588.053846
 20
572.430769
 42
0.0
  0
VERTEX
  8
Default
 10
570.9
 20
575.8
 42
0.0
  0
VERTEX
  8
Default
 10
566.088235
 20
577.352941
 42
0.0
  0
VERTEX
  8
Default
 10
556.206897
 20
581.517241
 42
0.0
  0
VERTEX
  8
Default
 10
550.8
 20
584.6
 42
0.0
  0
VERTEX
  8
Default
 10
538.195122
 20
593.243902
 42
0.0
  0
VERTEX
  8
Default
 10
532.0
 20
598.0
 42
0.0
  0
SEQEND
  0
POLYLINE
  8
Default
 66
     1
 10
0.0
 20
0.0
 30
0.0
 70
     0
  0
VERTEX
  8
Default
 10
478.0
 20
572.0
 42
0.0
  0
VERTEX
  8
Default
 10
477.0
 20
572.0
 42
0.0
  0
VERTEX
  8
Default
 10
471.846154
 20
574.769231
 42
0.0
  0
VERTEX
  8
Default
 10
461.195122
 20
581.243902
 42
0.0
  0
VERTEX
  8
Default
 10
452.82
 20
587.76
 42
0.0
  0
VERTEX
  8
Default
 10
452.0
 20
588.0
 42
0.0
  0
VERTEX
  8
Default
 10
438.248869
 20
603.226244
 42
0.0
  0
VERTEX
  8
Default
 10
428.6
 20
616.8
 42
0.0
  0
VERTEX
  8
Default
 10
425.4
 20
623.2
 42
0.0
  0
VERTEX
  8
Default
 10
421.7
 20
632.9
 42
0.0
  0
VERTEX
  8
Default
 10
419.594595
 20
642.932432
 42
0.0
  0
VERTEX
  8
Default
 10
419.0
 20
644.0
 42
0.0
  0
VERTEX
  8
Default
 10
419.0
 20
660.0
 42
0.0
  0
VERTEX
  8
Default
 10
420.405405
 20
665.932432
 42
0.0
  0
VERTEX
  8
Default
 10
420.647059
 20
667.088235
 42
0.0
  0
VERTEX
  8
Default
 10
425.4
 20
681.8
 42
0.0
  0
VERTEX
  8
Default
 10
433.8
 20
695.1
 42
0.0
  0
VERTEX
  8
Default
 10
434.0
 20
696.0
 42
0.0
  0
VERTEX
  8
Default
 10
434.0
 20
697.0
 42
0.0
  0
VERTEX
  8
Default
 10
433.0
 20
697.0
 42
0.0
  0
VERTEX
  8
Default
 10
421.035294
 20
696.541176
 42
0.0
  0
VERTEX
  8
Default
 10
415.9
 20
695.3
 42
0.0
  0
VERTEX
  8
Default
 10
386.1
 20
682.8
 42
0.0
  0
VERTEX
  8
Default
 10
383.0
 20
681.0
 42
0.0
  0
SEQEND
  0
POLYLINE
  8
Default
 66
     1
 10
0.0
 20
0.0
 30
0.0
 70
     0
  0
VERTEX
  8
Default
 10
616.0
 20
576.0
 42
0.0
  0
VERTEX
  8
Default
 10
617.0
 20
576.0
 42
0.0
  0
VERTEX
  8
Default
 10
628.088235
 20
578.647059
 42
0.0
  0
VERTEX
  8
Default
 10
635.8
 20
581.4
 42
0.0
  0
VERTEX
  8
Default
 10
646.153846
 20
586.769231
 42
0.0
  0
VERTEX
  8
Default
 10
658.195122
 20
594.756098
 42
0.0
  0
VERTEX
  8
Default
 10
684.0
 20
613.0
 42
0.0
  0
VERTEX
  8
Default
 10
685.0
 20
613.0
 42
0.0
  0
VERTEX
  8
Default
 10
685.0
 20
614.0
 42
0.0
  0
VERTEX
  8
Default
 10
685.2
 20
614.9
 42
0.0
  0
VERTEX
  8
Default
 10
691.441176
 20
625.735294
 42
0.0
  0
VERTEX
  8
Default
 10
694.0
 20
629.0
 42
0.0
  0
VERTEX
  8
Default
 10
695.0
 20
629.0
 42
0.0
  0
VERTEX
  8
Default
 10
695.0
 20
630.0
 42
0.0
  0
VERTEX
  8
Default
 10
700.482759
 20
641.206897
 42
0.0
  0
VERTEX
  8
Default
 10
703.615385
 20
651.076923
 42
0.0
  0
VERTEX
  8
Default
 10
704.384615
 20
654.923077
 42
0.0
  0
VERTEX
  8
Default
 10
706.0
 20
676.0
 42
0.0
  0
VERTEX
  8
Default
 10
705.439024
 20
677.04878
 42
0.0
  0
VERTEX
  8
Default
 10
703.0
 20
696.0
 42
0.0
  0
VERTEX
  8
Default
 10
704.0
 20
698.0
 42
0.0
  0
VERTEX
  8
Default
 10
704.0
 20
699.0
 42
0.0
  0
VERTEX
  8
Default
 10
703.0
 20
699.0
 42
0.0
  0
VERTEX
  8
Default
 10
699.646154
 20
703.369231
 42
0.0
  0
VERTEX
  8
Default
 10
693.517241
 20
717.206897
 42
0.0
  0
VERTEX
  8
Default
 10
693.0
 20
720.0
 42
0.0
  0
VERTEX
  8
Default
 10
693.0
 20
721.0
 42
0.0
  0
VERTEX
  8
Default
 10
692.0
 20
721.0
 42
0.0
  0
VERTEX
  8
Default
 10
691.0
 20
721.0
 42
0.0
  0
VERTEX
  8
Default
 10
673.0
 20
742.0
 42
0.0
  0
VERTEX
  8
Default
 10
666.0
 20
749.0
 42
0.0
  0
VERTEX
  8
Default
 10
646.804878
 20
762.756098
 42
0.0
  0
VERTEX
  8
Default
 10
646.153846
 20
763.230769
 42
0.0
  0
VERTEX
  8
Default
 10
643.8
 20
764.6
 42
0.0
  0
VERTEX
  8
Default
 10
642.0
 20
765.0
 42
0.0
  0
VERTEX
  8
Default
 10
640.8
 20
766.9
 42
0.0
  0
VERTEX
  8
Default
 10
640.0
 20
769.0
 42
0.0
  0
VERTEX
  8
Default
 10
640.0
 20
770.0
 42
0.0
  0
VERTEX
  8
Default
 10
639.0
 20
770.0
 42
0.0
  0
VERTEX
  8
Default
 10
632.053846
 20
770.430769
 42
0.0
  0
VERTEX
  8
Default
 10
624.18
 20
773.24
 42
0.0
  0
VERTEX
  8
Default
 10
621.0
 20
776.0
 42
0.0
  0
VERTEX
  8
Default
 10
614.053846
 20
776.430769
 42
0.0
  0
VERTEX
  8
Default
 10
609.2
 20
777.6
 42
0.0
  0
VERTEX
  8
Default
 10
607.0
 20
779.0
 42
0.0
  0
VERTEX
  8
Default
 10
600.0
 20
779.0
 42
0.0
  0
VERTEX
  8
Default
 10
598.911765
 20
778.352941
 42
0.0
  0
VERTEX
  8
Default
 10
594.955446
 20
777.445545
 42
0.0
  0
VERTEX
  8
Default
 10
586.0
 20
777.0
 42
0.0
  0
VERTEX
  8
Default
 10
575.206897
 20
772.482759
 42
0.0
  0
VERTEX
  8
Default
 10
554.0
 20
766.0
 42
0.0
  0
VERTEX
  8
Default
 10
550.153846
 20
762.769231
 42
0.0
  0
VERTEX
  8
Default
 10
547.8
 20
761.4
 42
0.0
  0
VERTEX
  8
Default
 10
538.1
 20
757.7
 42
0.0
  0
VERTEX
  8
Default
 10
535.0
 20
757.0
 42
0.0
  0
VERTEX
  8
Default
 10
533.0
 20
760.0
 42
0.0
  0
VERTEX
  8
Default
 10
520.0
 20
773.0
 42
0.0
  0
VERTEX
  8
Default
 10
517.206897
 20
773.517241
 42
0.0
  0
VERTEX
  8
Default
 10
512.9
 20
775.8
 42
0.0
  0
VERTEX
  8
Default
 10
507.793103
 20
778.482759
 42
0.0
  0
VERTEX
  8
Default
 10
502.811321
 20
780.339623
 42
0.0
  0
VERTEX
  8
Default
 10
498.067568
 20
781.405405
 42
0.0
  0
VERTEX
  8
Default
 10
495.0
 20
783.0
 42
0.0
  0
VERTEX
  8
Default
 10
484.0
 20
783.0
 42
0.0
  0
VERTEX
  8
Default
 10
482.9
 20
782.3
 42
0.0
  0
VERTEX
  8
Default
 10
471.0
 20
779.0
 42
0.0
  0
VERTEX
  8
Default
 10
463.0
 20
772.0
 42
0.0
  0
VERTEX
  8
Default
 10
462.6
 20
770.2
 42
0.0
  0
VERTEX
  8
Default
 10
455.4
 20
755.8
 42
0.0
  0
VERTEX
  8
Default
 10
451.384615
 20
745.923077
 42
0.0
  0
VERTEX
  8
Default
 10
450.615385
 20
742.076923
 42
0.0
  0
VERTEX
  8
Default
 10
449.0
 20
739.0
 42
0.0
  0
VERTEX
  8
Default
 10
449.0
 20
715.0
 42
0.0
  0
VERTEX
  8
Default
 10
449.647059
 20
713.911765
 42
0.0
  0
VERTEX
  8
Default
 10
451.0
 20
708.0
 42
0.0
  0
VERTEX
  8
Default
 10
451.0
 20
707.0
 42
0.0
  0
VERTEX
  8
Default
 10
452.0
 20
707.0
 42
0.0
  0
VERTEX
  8
Default
 10
455.067568
 20
706.405405
 42
0.0
  0
VERTEX
  8
Default
 10
461.035294
 20
705.458824
 42
0.0
  0
VERTEX
  8
Default
 10
473.0
 20
705.0
 42
0.0
  0
VERTEX
  8
Default
 10
475.206897
 20
703.517241
 42
0.0
  0
VERTEX
  8
Default
 10
488.911765
 20
698.647059
 42
0.0
  0
VERTEX
  8
Default
 10
490.1
 20
698.2
 42
0.0
  0
VERTEX
  8
Default
 10
495.1
 20
695.3
 42
0.0
  0
VERTEX
  8
Default
 10
497.0
 20
695.0
 42
0.0
  0
VERTEX
  8
Default
 10
498.0
 20
695.0
 42
0.0
  0
VERTEX
  8
Default
 10
498.0
 20
696.0
 42
0.0
  0
VERTEX
  8
Default
 10
500.352941
 20
705.911765
 42
0.0
  0
VERTEX
  8
Default
 10
501.0
 20
717.0
 42
0.0
  0
VERTEX
  8
Default
 10
504.6
 20
726.2
 42
0.0
  0
VERTEX
  8
Default
 10
513.0
 20
740.0
 42
0.0
  0
VERTEX
  8
Default
 10
516.0
 20
743.0
 42
0.0
  0
VERTEX
  8
Default
 10
517.64
 20
743.48
 42
0.0
  0
VERTEX
  8
Default
 10
533.9
 20
756.2
 42
0.0
  0
VERTEX
  8
Default
 10
535.0
 20
757.0
 42
0.0
  0
SEQEND
  0
POLYLINE
  8
Default
 66
     1
 10
0.0
 20
0.0
 30
0.0
 70
     0
  0
VERTEX
  8
Default
 10
1036.0
 20
583.0
 42
0.0
  0
VERTEX
  8
Default
 10
1036.0
 20
584.0
 42
0.0
  0
VERTEX
  8
Default
 10
1037.594595
 20
587.067568
 42
0.0
  0
VERTEX
  8
Default
 10
1040.0
 20
607.0
 42
0.0
  0
VERTEX
  8
Default
 10
1039.0
 20
608.0
 42
0.0
  0
VERTEX
  8
Default
 10
1039.0
 20
624.0
 42
0.0
  0
VERTEX
  8
Default
 10
1040.0
 20
625.0
 42
0.0
  0
VERTEX
  8
Default
 10
1040.0
 20
626.0
 42
0.0
  0
SEQEND
  0
POLYLINE
  8
Default
 66
     1
 10
0.0
 20
0.0
 30
0.0
 70
     0
  0
VERTEX
  8
Default
 10
727.0
 20
583.0
 42
0.0
  0
VERTEX
  8
Default
 10
728.0
 20
583.0
 42
0.0
  0
VERTEX
  8
Default
 10
731.911765
 20
584.352941
 42
0.0
  0
VERTEX
  8
Default
 10
733.0
 20
585.0
 42
0.0
  0
VERTEX
  8
Default
 10
735.0
 20
585.0
 42
0.0
  0
VERTEX
  8
Default
 10
736.0
 20
584.0
 42
0.0
  0
VERTEX
  8
Default
 10
744.9
 20
586.2
 42
0.0
  0
VERTEX
  8
Default
 10
752.1
 20
588.8
 42
0.0
  0
VERTEX
  8
Default
 10
759.0
 20
593.0
 42
0.0
  0
VERTEX
  8
Default
 10
769.0
 20
603.0
 42
0.0
  0
VERTEX
  8
Default
 10
771.76
 20
607.18
 42
0.0
  0
VERTEX
  8
Default
 10
776.647059
 20
617.088235
 42
0.0
  0
VERTEX
  8
Default
 10
778.0
 20
621.0
 42
0.0
  0
VERTEX
  8
Default
 10
778.0
 20
622.0
 42
0.0
  0
VERTEX
  8
Default
 10
780.58
 20
632.06
 42
0.0
  0
VERTEX
  8
Default
 10
781.42
 20
637.94
 42
0.0
  0
VERTEX
  8
Default
 10
782.0
 20
639.0
 42
0.0
  0
VERTEX
  8
Default
 10
782.0
 20
646.0
 42
0.0
  0
VERTEX
  8
Default
 10
776.615385
 20
667.923077
 42
0.0
  0
VERTEX
  8
Default
 10
772.6
 20
676.8
 42
0.0
  0
VERTEX
  8
Default
 10
769.230769
 20
683.153846
 42
0.0
  0
VERTEX
  8
Default
 10
763.0
 20
693.0
 42
0.0
  0
VERTEX
  8
Default
 10
738.0
 20
717.0
 42
0.0
  0
VERTEX
  8
Default
 10
737.0
 20
717.0
 42
0.0
  0
VERTEX
  8
Default
 10
735.2
 20
716.6
 42
0.0
  0
VERTEX
  8
Default
 10
732.846154
 20
715.230769
 42
0.0
  0
VERTEX
  8
Default
 10
732.153846
 20
714.769231
 42
0.0
  0
VERTEX
  8
Default
 10
729.0
 20
713.0
 42
0.0
  0
VERTEX
  8
Default
 10
724.0
 20
708.0
 42
0.0
  0
VERTEX
  8
Default
 10
723.8
 20
707.1
 42
0.0
  0
VERTEX
  8
Default
 10
723.0
 20
706.0
 42
0.0
  0
VERTEX
  8
Default
 10
718.067568
 20
705.594595
 42
0.0
  0
VERTEX
  8
Default
 10
705.0
 20
699.0
 42
0.0
  0
VERTEX
  8
Default
 10
704.0
 20
699.0
 42
0.0
  0
SEQEND
  0
POLYLINE
  8
Default
 66
     1
 10
0.0
 20
0.0
 30
0.0
 70
     0
  0
VERTEX
  8
Default
 10
916.0
 20
588.0
 42
0.0
  0
VERTEX
  8
Default
 10
916.0
 20
589.0
 42
0.0
  0
VERTEX
  8
Default
 10
915.647059
 20
591.911765
 42
0.0
  0
VERTEX
  8
Default
 10
907.0
 20
616.0
 42
0.0
  0
VERTEX
  8
Default
 10
907.0
 20
617.0
 42
0.0
  0
VERTEX
  8
Default
 10
906.0
 20
617.0
 42
0.0
  0
VERTEX
  8
Default
 10
904.0
 20
618.0
 42
0.0
  0
VERTEX
  8
Default
 10
899.0
 20
623.0
 42
0.0
  0
VERTEX
  8
Default
 10
897.0
 20
627.0
 42
0.0
  0
VERTEX
  8
Default
 10
897.0
 20
628.0
 42
0.0
  0
SEQEND
  0
POLYLINE
  8
Default
 66
     1
 10
0.0
 20
0.0
 30
0.0
 70
     0
  0
VERTEX
  8
Default
 10
1252.0
 20
589.0
 42
0.0
  0
VERTEX
  8
Default
 10
1252.0
 20
590.0
 42
0.0
  0
VERTEX
  8
Default
 10
1256.0
 20
595.0
 42
0.0
  0
SEQEND
  0
POLYLINE
  8
Default
 66
     1
 10
0.0
 20
0.0
 30
0.0
 70
     0
  0
VERTEX
  8
Default
 10
710.0
 20
589.0
 42
0.0
  0
VERTEX
  8
Default
 10
710.0
 20
590.0
 42
0.0
  0
VERTEX
  8
Default
 10
706.82
 20
592.76
 42
0.0
  0
VERTEX
  8
Default
 10
704.237188
 20
594.249671
 42
0.0
  0
VERTEX
  8
Default
 10
685.0
 20
613.0
 42
0.0
  0
SEQEND
  0
POLYLINE
  8
Default
 66
     1
 10
0.0
 20
0.0
 30
0.0
 70
     0
  0
VERTEX
  8
Default
 10
485.0
 20
590.0
 42
0.0
  0
VERTEX
  8
Default
 10
484.0
 20
590.0
 42
0.0
  0
VERTEX
  8
Default
 10
480.735294
 20
592.558824
 42
0.0
  0
VERTEX
  8
Default
 10
479.0
 20
593.0
 42
0.0
  0
VERTEX
  8
Default
 10
465.0
 20
607.0
 42
0.0
  0
VERTEX
  8
Default
 10
457.230769
 20
619.153846
 42
0.0
  0
VERTEX
  8
Default
 10
455.4
 20
622.2
 42
0.0
  0
VERTEX
  8
Default
 10
449.352941
 20
635.088235
 42
0.0
  0
VERTEX
  8
Default
 10
445.8
 20
647.9
 42
0.0
  0
VERTEX
  8
Default
 10
445.0
 20
649.0
 42
0.0
  0
VERTEX
  8
Default
 10
445.0
 20
659.0
 42
0.0
  0
VERTEX
  8
Default
 10
446.4
 20
661.2
 42
0.0
  0
VERTEX
  8
Default
 10
447.384615
 20
664.923077
 42
0.0
  0
VERTEX
  8
Default
 10
451.0
 20
673.0
 42
0.0
  0
VERTEX
  8
Default
 10
459.0
 20
681.0
 42
0.0
  0
VERTEX
  8
Default
 10
464.8
 20
683.4
 42
0.0
  0
VERTEX
  8
Default
 10
467.0
 20
685.0
 42
0.0
  0
VERTEX
  8
Default
 10
477.0
 20
685.0
 42
0.0
  0
VERTEX
  8
Default
 10
479.2
 20
683.6
 42
0.0
  0
VERTEX
  8
Default
 10
492.076923
 20
680.384615
 42
0.0
  0
VERTEX
  8
Default
 10
499.0
 20
679.0
 42
0.0
  0
VERTEX
  8
Default
 10
500.0
 20
679.0
 42
0.0
  0
VERTEX
  8
Default
 10
500.0
 20
680.0
 42
0.0
  0
VERTEX
  8
Default
 10
501.0
 20
681.0
 42
0.0
  0
VERTEX
  8
Default
 10
501.0
 20
686.0
 42
0.0
  0
VERTEX
  8
Default
 10
498.7
 20
692.9
 42
0.0
  0
VERTEX
  8
Default
 10
498.0
 20
694.0
 42
0.0
  0
VERTEX
  8
Default
 10
498.0
 20
695.0
 42
0.0
  0
SEQEND
  0
POLYLINE
  8
Default
 66
     1
 10
0.0
 20
0.0
 30
0.0
 70
     0
  0
VERTEX
  8
Default
 10
382.0
 20
680.0
 42
0.0
  0
VERTEX
  8
Default
 10
382.0
 20
679.0
 42
0.0
  0
VERTEX
  8
Default
 10
391.756098
 20
666.804878
 42
0.0
  0
VERTEX
  8
Default
 10
396.594595
 20
654.932432
 42
0.0
  0
VERTEX
  8
Default
 10
397.405405
 20
650.067568
 42
0.0
  0
VERTEX
  8
Default
 10
399.0
 20
647.0
 42
0.0
  0
VERTEX
  8
Default
 10
399.0
 20
638.0
 42
0.0
  0
VERTEX
  8
Default
 10
396.3
 20
628.9
 42
0.0
  0
VERTEX
  8
Default
 10
395.7
 20
627.1
 42
0.0
  0
VERTEX
  8
Default
 10
383.4
 20
604.8
 42
0.0
  0
VERTEX
  8
Default
 10
380.0
 20
595.0
 42
0.0
  0
VERTEX
  8
Default
 10
377.0
 20
592.0
 42
0.0
  0
VERTEX
  8
Default
 10
376.0
 20
592.0
 42
0.0
  0
VERTEX
  8
Default
 10
375.0
 20
593.0
 42
0.0
  0
VERTEX
  8
Default
 10
365.6
 20
613.2
 42
0.0
  0
VERTEX
  8
Default
 10
362.0
 20
628.0
 42
0.0
  0
VERTEX
  8
Default
 10
362.0
 20
638.0
 42
0.0
  0
VERTEX
  8
Default
 10
365.384615
 20
653.923077
 42
0.0
  0
VERTEX
  8
Default
 10
369.7
 20
665.1
 42
0.0
  0
VERTEX
  8
Default
 10
375.0
 20
675.0
 42
0.0
  0
VERTEX
  8
Default
 10
375.0
 20
676.0
 42
0.0
  0
SEQEND
  0
POLYLINE
  8
Default
 66
     1
 10
0.0
 20
0.0
 30
0.0
 70
     0
  0
VERTEX
  8
Default
 10
1015.0
 20
597.0
 42
0.0
  0
VERTEX
  8
Default
 10
1015.0
 20
598.0
 42
0.0
  0
VERTEX
  8
Default
 10
1015.2
 20
598.9
 42
0.0
  0
VERTEX
  8
Default
 10
1016.0
 20
600.0
 42
0.0
  0
VERTEX
  8
Default
 10
1016.0
 20
606.0
 42
0.0
  0
VERTEX
  8
Default
 10
1011.8
 20
623.9
 42
0.0
  0
VERTEX
  8
Default
 10
1010.6
 20
626.8
 42
0.0
  0
VERTEX
  8
Default
 10
1007.660377
 20
634.188679
 42
0.0
  0
VERTEX
  8
Default
 10
1007.0
 20
639.0
 42
0.0
  0
VERTEX
  8
Default
 10
999.0
 20
647.0
 42
0.0
  0
VERTEX
  8
Default
 10
993.804878
 20
650.756098
 42
0.0
  0
VERTEX
  8
Default
 10
993.153846
 20
651.230769
 42
0.0
  0
VERTEX
  8
Default
 10
986.793103
 20
654.482759
 42
0.0
  0
VERTEX
  8
Default
 10
984.088235
 20
655.352941
 42
0.0
  0
VERTEX
  8
Default
 10
981.0
 20
657.0
 42
0.0
  0
VERTEX
  8
Default
 10
967.0
 20
657.0
 42
0.0
  0
VERTEX
  8
Default
 10
964.793103
 20
655.517241
 42
0.0
  0
VERTEX
  8
Default
 10
962.088235
 20
654.647059
 42
0.0
  0
VERTEX
  8
Default
 10
948.2
 20
648.6
 42
0.0
  0
VERTEX
  8
Default
 10
927.195122
 20
634.756098
 42
0.0
  0
VERTEX
  8
Default
 10
913.609756
 20
623.487805
 42
0.0
  0
VERTEX
  8
Default
 10
912.0
 20
623.0
 42
0.0
  0
VERTEX
  8
Default
 10
910.0
 20
621.0
 42
0.0
  0
VERTEX
  8
Default
 10
910.0
 20
620.0
 42
0.0
  0
VERTEX
  8
Default
 10
908.1
 20
618.8
 42
0.0
  0
VERTEX
  8
Default
 10
907.0
 20
618.0
 42
0.0
  0
VERTEX
  8
Default
 10
907.0
 20
617.0
 42
0.0
  0
SEQEND
  0
POLYLINE
  8
Default
 66
     1
 10
0.0
 20
0.0
 30
0.0
 70
     0
  0
VERTEX
  8
Default
 10
523.0
 20
610.0
 42
0.0
  0
VERTEX
  8
Default
 10
523.0
 20
611.0
 42
0.0
  0
VERTEX
  8
Default
 10
522.6
 20
612.8
 42
0.0
  0
VERTEX
  8
Default
 10
514.8
 20
626.9
 42
0.0
  0
VERTEX
  8
Default
 10
506.647059
 20
645.911765
 42
0.0
  0
VERTEX
  8
Default
 10
505.384615
 20
649.076923
 42
0.0
  0
VERTEX
  8
Default
 10
502.294118
 20
660.823529
 42
0.0
  0
VERTEX
  8
Default
 10
501.0
 20
663.0
 42
0.0
  0
VERTEX
  8
Default
 10
500.533074
 20
677.970817
 42
0.0
  0
VERTEX
  8
Default
 10
500.0
 20
679.0
 42
0.0
  0
SEQEND
  0
POLYLINE
  8
Default
 66
     1
 10
0.0
 20
0.0
 30
0.0
 70
     0
  0
VERTEX
  8
Default
 10
601.0
 20
619.0
 42
0.0
  0
VERTEX
  8
Default
 10
591.630769
 20
612.646154
 42
0.0
  0
VERTEX
  8
Default
 10
588.0
 20
611.0
 42
0.0
  0
VERTEX
  8
Default
 10
586.0
 20
611.0
 42
0.0
  0
VERTEX
  8
Default
 10
583.0
 20
612.0
 42
0.0
  0
VERTEX
  8
Default
 10
577.0
 20
618.0
 42
0.0
  0
VERTEX
  8
Default
 10
575.0
 20
624.0
 42
0.0
  0
VERTEX
  8
Default
 10
575.0
 20
632.0
 42
0.0
  0
VERTEX
  8
Default
 10
580.243902
 20
642.804878
 42
0.0
  0
VERTEX
  8
Default
 10
584.0
 20
647.0
 42
0.0
  0
VERTEX
  8
Default
 10
584.0
 20
648.0
 42
0.0
  0
VERTEX
  8
Default
 10
583.538462
 20
649.692308
 42
0.0
  0
VERTEX
  8
Default
 10
580.243902
 20
654.195122
 42
0.0
  0
VERTEX
  8
Default
 10
575.8
 20
661.9
 42
0.0
  0
VERTEX
  8
Default
 10
575.0
 20
679.0
 42
0.0
  0
VERTEX
  8
Default
 10
563.0
 20
692.0
 42
0.0
  0
VERTEX
  8
Default
 10
559.846154
 20
693.769231
 42
0.0
  0
VERTEX
  8
Default
 10
556.846154
 20
695.769231
 42
0.0
  0
VERTEX
  8
Default
 10
550.9
 20
698.7
 42
0.0
  0
VERTEX
  8
Default
 10
549.1
 20
699.3
 42
0.0
  0
VERTEX
  8
Default
 10
548.0
 20
700.0
 42
0.0
  0
VERTEX
  8
Default
 10
539.0
 20
700.0
 42
0.0
  0
VERTEX
  8
Default
 10
534.0
 20
695.0
 42
0.0
  0
VERTEX
  8
Default
 10
533.0
 20
687.0
 42
0.0
  0
SEQEND
  0
POLYLINE
  8
Default
 66
     1
 10
0.0
 20
0.0
 30
0.0
 70
     0
  0
VERTEX
  8
Default
 10
778.0
 20
621.0
 42
0.0
  0
VERTEX
  8
Default
 10
779.0
 20
621.0
 42
0.0
  0
VERTEX
  8
Default
 10
780.0
 20
620.0
 42
0.0
  0
VERTEX
  8
Default
 10
784.0
 20
620.0
 42
0.0
  0
VERTEX
  8
Default
 10
785.1
 20
620.8
 42
0.0
  0
VERTEX
  8
Default
 10
793.2
 20
623.6
 42
0.0
  0
VERTEX
  8
Default
 10
796.1
 20
624.8
 42
0.0
  0
VERTEX
  8
Default
 10
805.153846
 20
629.769231
 42
0.0
  0
VERTEX
  8
Default
 10
805.82
 20
630.24
 42
0.0
  0
VERTEX
  8
Default
 10
819.0
 20
641.0
 42
0.0
  0
VERTEX
  8
Default
 10
822.0
 20
645.0
 42
0.0
  0
VERTEX
  8
Default
 10
822.0
 20
646.0
 42
0.0
  0
VERTEX
  8
Default
 10
821.0
 20
647.0
 42
0.0
  0
VERTEX
  8
Default
 10
821.0
 20
652.0
 42
0.0
  0
VERTEX
  8
Default
 10
822.384615
 20
656.923077
 42
0.0
  0
VERTEX
  8
Default
 10
827.0
 20
687.0
 42
0.0
  0
VERTEX
  8
Default
 10
827.0
 20
744.0
 42
0.0
  0
VERTEX
  8
Default
 10
825.594595
 20
749.932432
 42
0.0
  0
VERTEX
  8
Default
 10
825.461929
 20
751.032995
 42
0.0
  0
VERTEX
  8
Default
 10
822.544828
 20
777.962069
 42
0.0
  0
VERTEX
  8
Default
 10
821.430769
 20
781.053846
 42
0.0
  0
VERTEX
  8
Default
 10
820.569231
 20
787.946154
 42
0.0
  0
VERTEX
  8
Default
 10
815.615385
 20
808.923077
 42
0.0
  0
VERTEX
  8
Default
 10
813.647059
 20
815.911765
 42
0.0
  0
VERTEX
  8
Default
 10
805.7
 20
837.9
 42
0.0
  0
VERTEX
  8
Default
 10
805.2
 20
839.1
 42
0.0
  0
VERTEX
  8
Default
 10
796.2
 20
856.1
 42
0.0
  0
VERTEX
  8
Default
 10
791.754098
 20
862.795082
 42
0.0
  0
VERTEX
  8
Default
 10
787.245902
 20
868.204918
 42
0.0
  0
VERTEX
  8
Default
 10
760.8
 20
901.9
 42
0.0
  0
VERTEX
  8
Default
 10
760.0
 20
903.0
 42
0.0
  0
VERTEX
  8
Default
 10
760.0
 20
904.0
 42
0.0
  0
VERTEX
  8
Default
 10
759.0
 20
904.0
 42
0.0
  0
VERTEX
  8
Default
 10
758.1
 20
904.2
 42
0.0
  0
VERTEX
  8
Default
 10
749.18
 20
910.24
 42
0.0
  0
VERTEX
  8
Default
 10
746.0
 20
913.0
 42
0.0
  0
VERTEX
  8
Default
 10
745.0
 20
913.0
 42
0.0
  0
VERTEX
  8
Default
 10
744.0
 20
913.0
 42
0.0
  0
VERTEX
  8
Default
 10
743.153846
 20
912.769231
 42
0.0
  0
VERTEX
  8
Default
 10
716.1
 20
901.8
 42
0.0
  0
VERTEX
  8
Default
 10
715.0
 20
901.0
 42
0.0
  0
VERTEX
  8
Default
 10
714.0
 20
901.0
 42
0.0
  0
VERTEX
  8
Default
 10
714.0
 20
900.0
 42
0.0
  0
VERTEX
  8
Default
 10
714.647059
 20
898.911765
 42
0.0
  0
VERTEX
  8
Default
 10
716.0
 20
895.0
 42
0.0
  0
VERTEX
  8
Default
 10
716.0
 20
887.0
 42
0.0
  0
VERTEX
  8
Default
 10
715.3
 20
885.9
 42
0.0
  0
VERTEX
  8
Default
 10
713.769231
 20
882.153846
 42
0.0
  0
VERTEX
  8
Default
 10
712.0
 20
879.0
 42
0.0
  0
VERTEX
  8
Default
 10
709.0
 20
876.0
 42
0.0
  0
VERTEX
  8
Default
 10
708.153846
 20
875.769231
 42
0.0
  0
VERTEX
  8
Default
 10
705.8
 20
874.6
 42
0.0
  0
VERTEX
  8
Default
 10
701.0
 20
873.0
 42
0.0
  0
VERTEX
  8
Default
 10
693.0
 20
874.0
 42
0.0
  0
VERTEX
  8
Default
 10
689.0
 20
878.0
 42
0.0
  0
VERTEX
  8
Default
 10
688.6
 20
879.8
 42
0.0
  0
VERTEX
  8
Default
 10
687.0
 20
882.0
 42
0.0
  0
VERTEX
  8
Default
 10
687.0
 20
896.0
 42
0.0
  0
VERTEX
  8
Default
 10
687.8
 20
897.1
 42
0.0
  0
VERTEX
  8
Default
 10
690.0
 20
901.0
 42
0.0
  0
VERTEX
  8
Default
 10
695.0
 20
905.0
 42
0.0
  0
VERTEX
  8
Default
 10
705.0
 20
905.0
 42
0.0
  0
VERTEX
  8
Default
 10
712.1
 20
901.2
 42
0.0
  0
VERTEX
  8
Default
 10
713.0
 20
901.0
 42
0.0
  0
VERTEX
  8
Default
 10
714.0
 20
901.0
 42
0.0
  0
SEQEND
  0
POLYLINE
  8
Default
 66
     1
 10
0.0
 20
0.0
 30
0.0
 70
     0
  0
VERTEX
  8
Default
 10
319.0
 20
628.0
 42
0.0
  0
VERTEX
  8
Default
 10
319.0
 20
629.0
 42
0.0
  0
VERTEX
  8
Default
 10
319.0
 20
630.0
 42
0.0
  0
SEQEND
  0
POLYLINE
  8
Default
 66
     1
 10
0.0
 20
0.0
 30
0.0
 70
     0
  0
VERTEX
  8
Default
 10
657.0
 20
653.0
 42
0.0
  0
VERTEX
  8
Default
 10
658.0
 20
652.0
 42
0.0
  0
VERTEX
  8
Default
 10
658.0
 20
643.0
 42
0.0
  0
VERTEX
  8
Default
 10
657.2
 20
641.9
 42
0.0
  0
VERTEX
  8
Default
 10
657.0
 20
641.0
 42
0.0
  0
VERTEX
  8
Default
 10
651.0
 20
635.0
 42
0.0
  0
VERTEX
  8
Default
 10
649.0
 20
634.0
 42
0.0
  0
VERTEX
  8
Default
 10
644.0
 20
634.0
 42
0.0
  0
VERTEX
  8
Default
 10
632.9
 20
638.8
 42
0.0
  0
VERTEX
  8
Default
 10
632.0
 20
639.0
 42
0.0
  0
VERTEX
  8
Default
 10
625.0
 20
646.0
 42
0.0
  0
VERTEX
  8
Default
 10
621.6
 20
652.8
 42
0.0
  0
VERTEX
  8
Default
 10
620.0
 20
655.0
 42
0.0
  0
VERTEX
  8
Default
 10
620.0
 20
656.0
 42
0.0
  0
VERTEX
  8
Default
 10
619.0
 20
656.0
 42
0.0
  0
VERTEX
  8
Default
 10
612.1
 20
650.8
 42
0.0
  0
VERTEX
  8
Default
 10
610.9
 20
650.2
 42
0.0
  0
VERTEX
  8
Default
 10
603.923077
 20
647.384615
 42
0.0
  0
VERTEX
  8
Default
 10
599.0
 20
646.0
 42
0.0
  0
VERTEX
  8
Default
 10
592.0
 20
646.0
 42
0.0
  0
VERTEX
  8
Default
 10
590.94
 20
646.58
 42
0.0
  0
VERTEX
  8
Default
 10
585.0
 20
647.0
 42
0.0
  0
VERTEX
  8
Default
 10
584.0
 20
647.0
 42
0.0
  0
SEQEND
  0
POLYLINE
  8
Default
 66
     1
 10
0.0
 20
0.0
 30
0.0
 70
     0
  0
VERTEX
  8
Default
 10
822.0
 20
645.0
 42
0.0
  0
VERTEX
  8
Default
 10
823.0
 20
645.0
 42
0.0
  0
VERTEX
  8
Default
 10
827.767221
 20
649.249406
 42
0.0
  0
VERTEX
  8
Default
 10
866.0
 20
685.0
 42
0.0
  0
VERTEX
  8
Default
 10
867.0
 20
687.0
 42
0.0
  0
VERTEX
  8
Default
 10
867.0
 20
688.0
 42
0.0
  0
VERTEX
  8
Default
 10
863.384615
 20
699.076923
 42
0.0
  0
VERTEX
  8
Default
 10
862.615385
 20
702.923077
 42
0.0
  0
VERTEX
  8
Default
 10
854.430769
 20
742.053846
 42
0.0
  0
VERTEX
  8
Default
 10
853.569231
 20
748.946154
 42
0.0
  0
VERTEX
  8
Default
 10
850.0
 20
775.0
 42
0.0
  0
VERTEX
  8
Default
 10
850.0
 20
778.0
 42
0.0
  0
VERTEX
  8
Default
 10
852.405405
 20
799.932432
 42
0.0
  0
VERTEX
  8
Default
 10
853.405405
 20
805.932432
 42
0.0
  0
VERTEX
  8
Default
 10
857.8
 20
819.1
 42
0.0
  0
VERTEX
  8
Default
 10
859.2
 20
821.9
 42
0.0
  0
VERTEX
  8
Default
 10
864.769231
 20
832.153846
 42
0.0
  0
VERTEX
  8
Default
 10
872.0
 20
842.0
 42
0.0
  0
VERTEX
  8
Default
 10
877.0
 20
847.0
 42
0.0
  0
VERTEX
  8
Default
 10
877.804878
 20
847.243902
 42
0.0
  0
VERTEX
  8
Default
 10
885.0
 20
853.0
 42
0.0
  0
VERTEX
  8
Default
 10
887.0
 20
853.0
 42
0.0
  0
VERTEX
  8
Default
 10
889.0
 20
851.0
 42
0.0
  0
VERTEX
  8
Default
 10
889.615385
 20
837.923077
 42
0.0
  0
VERTEX
  8
Default
 10
890.384615
 20
834.076923
 42
0.0
  0
VERTEX
  8
Default
 10
892.615385
 20
822.923077
 42
0.0
  0
VERTEX
  8
Default
 10
893.6
 20
819.2
 42
0.0
  0
VERTEX
  8
Default
 10
904.3
 20
794.1
 42
0.0
  0
VERTEX
  8
Default
 10
906.647059
 20
787.911765
 42
0.0
  0
VERTEX
  8
Default
 10
907.352941
 20
785.088235
 42
0.0
  0
VERTEX
  8
Default
 10
908.535398
 20
780.969027
 42
0.0
  0
VERTEX
  8
Default
 10
909.464602
 20
767.030973
 42
0.0
  0
VERTEX
  8
Default
 10
910.0
 20
766.0
 42
0.0
  0
VERTEX
  8
Default
 10
910.0
 20
763.0
 42
0.0
  0
VERTEX
  8
Default
 10
909.430769
 20
761.946154
 42
0.0
  0
VERTEX
  8
Default
 10
908.569231
 20
755.053846
 42
0.0
  0
VERTEX
  8
Default
 10
906.482759
 20
747.206897
 42
0.0
  0
VERTEX
  8
Default
 10
901.4
 20
735.8
 42
0.0
  0
VERTEX
  8
Default
 10
895.230769
 20
725.846154
 42
0.0
  0
VERTEX
  8
Default
 10
889.243902
 20
717.804878
 42
0.0
  0
VERTEX
  8
Default
 10
882.769231
 20
709.153846
 42
0.0
  0
VERTEX
  8
Default
 10
881.4
 20
706.8
 42
0.0
  0
VERTEX
  8
Default
 10
879.0
 20
702.0
 42
0.0
  0
VERTEX
  8
Default
 10
880.0
 20
701.0
 42
0.0
  0
VERTEX
  8
Default
 10
880.0
 20
700.0
 42
0.0
  0
VERTEX
  8
Default
 10
881.0
 20
700.0
 42
0.0
  0
VERTEX
  8
Default
 10
912.750118
 20
732.24231
 42
0.0
  0
VERTEX
  8
Default
 10
916.756098
 20
737.195122
 42
0.0
  0
VERTEX
  8
Default
 10
922.8
 20
746.1
 42
0.0
  0
VERTEX
  8
Default
 10
926.0
 20
751.0
 42
0.0
  0
VERTEX
  8
Default
 10
926.0
 20
752.0
 42
0.0
  0
VERTEX
  8
Default
 10
926.0
 20
753.0
 42
0.0
  0
VERTEX
  8
Default
 10
925.0
 20
754.0
 42
0.0
  0
VERTEX
  8
Default
 10
925.0
 20
756.0
 42
0.0
  0
VERTEX
  8
Default
 10
926.4
 20
758.2
 42
0.0
  0
VERTEX
  8
Default
 10
929.54918
 20
771.040984
 42
0.0
  0
VERTEX
  8
Default
 10
930.45082
 20
780.959016
 42
0.0
  0
VERTEX
  8
Default
 10
931.0
 20
782.0
 42
0.0
  0
VERTEX
  8
Default
 10
931.0
 20
813.0
 42
0.0
  0
VERTEX
  8
Default
 10
929.461929
 20
827.032995
 42
0.0
  0
VERTEX
  8
Default
 10
928.538071
 20
839.967005
 42
0.0
  0
VERTEX
  8
Default
 10
927.0
 20
849.0
 42
0.0
  0
VERTEX
  8
Default
 10
927.0
 20
902.0
 42
0.0
  0
VERTEX
  8
Default
 10
928.0
 20
903.0
 42
0.0
  0
VERTEX
  8
Default
 10
928.0
 20
914.0
 42
0.0
  0
VERTEX
  8
Default
 10
927.352941
 20
915.088235
 42
0.0
  0
VERTEX
  8
Default
 10
927.0
 20
918.0
 42
0.0
  0
VERTEX
  8
Default
 10
927.0
 20
919.0
 42
0.0
  0
VERTEX
  8
Default
 10
926.0
 20
919.0
 42
0.0
  0
VERTEX
  8
Default
 10
925.0
 20
919.0
 42
0.0
  0
VERTEX
  8
Default
 10
915.756098
 20
929.804878
 42
0.0
  0
VERTEX
  8
Default
 10
912.243902
 20
934.195122
 42
0.0
  0
VERTEX
  8
Default
 10
903.230769
 20
947.153846
 42
0.0
  0
VERTEX
  8
Default
 10
900.0
 20
953.0
 42
0.0
  0
VERTEX
  8
Default
 10
899.0
 20
953.0
 42
0.0
  0
VERTEX
  8
Default
 10
892.18
 20
946.76
 42
0.0
  0
VERTEX
  8
Default
 10
888.82
 20
944.24
 42
0.0
  0
VERTEX
  8
Default
 10
885.1
 20
942.7
 42
0.0
  0
VERTEX
  8
Default
 10
884.0
 20
942.0
 42
0.0
  0
VERTEX
  8
Default
 10
881.0
 20
942.0
 42
0.0
  0
VERTEX
  8
Default
 10
878.846154
 20
943.769231
 42
0.0
  0
VERTEX
  8
Default
 10
878.0
 20
944.0
 42
0.0
  0
VERTEX
  8
Default
 10
875.0
 20
947.0
 42
0.0
  0
VERTEX
  8
Default
 10
874.482759
 20
949.793103
 42
0.0
  0
VERTEX
  8
Default
 10
873.0
 20
952.0
 42
0.0
  0
VERTEX
  8
Default
 10
873.0
 20
971.0
 42
0.0
  0
VERTEX
  8
Default
 10
877.0
 20
976.0
 42
0.0
  0
VERTEX
  8
Default
 10
877.846154
 20
976.230769
 42
0.0
  0
VERTEX
  8
Default
 10
880.206897
 20
977.482759
 42
0.0
  0
VERTEX
  8
Default
 10
884.0
 20
979.0
 42
0.0
  0
VERTEX
  8
Default
 10
888.0
 20
979.0
 42
0.0
  0
VERTEX
  8
Default
 10
889.1
 20
978.3
 42
0.0
  0
VERTEX
  8
Default
 10
893.0
 20
977.0
 42
0.0
  0
VERTEX
  8
Default
 10
901.0
 20
969.0
 42
0.0
  0
VERTEX
  8
Default
 10
901.352941
 20
966.088235
 42
0.0
  0
VERTEX
  8
Default
 10
902.0
 20
965.0
 42
0.0
  0
VERTEX
  8
Default
 10
902.0
 20
959.0
 42
0.0
  0
VERTEX
  8
Default
 10
901.2
 20
957.9
 42
0.0
  0
VERTEX
  8
Default
 10
900.0
 20
954.0
 42
0.0
  0
VERTEX
  8
Default
 10
900.0
 20
953.0
 42
0.0
  0
SEQEND
  0
POLYLINE
  8
Default
 66
     1
 10
0.0
 20
0.0
 30
0.0
 70
     0
  0
VERTEX
  8
Default
 10
620.0
 20
656.0
 42
0.0
  0
VERTEX
  8
Default
 10
624.0
 20
665.0
 42
0.0
  0
VERTEX
  8
Default
 10
623.384615
 20
667.076923
 42
0.0
  0
VERTEX
  8
Default
 10
620.482759
 20
677.793103
 42
0.0
  0
VERTEX
  8
Default
 10
619.0
 20
680.0
 42
0.0
  0
VERTEX
  8
Default
 10
619.0
 20
681.0
 42
0.0
  0
VERTEX
  8
Default
 10
618.0
 20
681.0
 42
0.0
  0
VERTEX
  8
Default
 10
602.0
 20
694.0
 42
0.0
  0
VERTEX
  8
Default
 10
601.0
 20
694.0
 42
0.0
  0
VERTEX
  8
Default
 10
600.0
 20
695.0
 42
0.0
  0
VERTEX
  8
Default
 10
599.0
 20
695.0
 42
0.0
  0
VERTEX
  8
Default
 10
598.0
 20
694.0
 42
0.0
  0
VERTEX
  8
Default
 10
596.0
 20
694.0
 42
0.0
  0
VERTEX
  8
Default
 10
595.0
 20
695.0
 42
0.0
  0
VERTEX
  8
Default
 10
588.0
 20
695.0
 42
0.0
  0
VERTEX
  8
Default
 10
586.0
 20
694.0
 42
0.0
  0
VERTEX
  8
Default
 10
579.0
 20
687.0
 42
0.0
  0
VERTEX
  8
Default
 10
578.7
 20
685.1
 42
0.0
  0
VERTEX
  8
Default
 10
576.230769
 20
680.846154
 42
0.0
  0
VERTEX
  8
Default
 10
575.0
 20
679.0
 42
0.0
  0
SEQEND
  0
POLYLINE
  8
Default
 66
     1
 10
0.0
 20
0.0
 30
0.0
 70
     0
  0
VERTEX
  8
Default
 10
644.0
 20
713.0
 42
0.0
  0
VERTEX
  8
Default
 10
646.0
 20
714.0
 42
0.0
  0
VERTEX
  8
Default
 10
650.0
 20
712.0
 42
0.0
  0
VERTEX
  8
Default
 10
653.0
 20
709.0
 42
0.0
  0
VERTEX
  8
Default
 10
653.2
 20
708.1
 42
0.0
  0
VERTEX
  8
Default
 10
654.0
 20
707.0
 42
0.0
  0
VERTEX
  8
Default
 10
654.0
 20
702.0
 42
0.0
  0
VERTEX
  8
Default
 10
652.2
 20
697.9
 42
0.0
  0
VERTEX
  8
Default
 10
651.8
 20
697.1
 42
0.0
  0
VERTEX
  8
Default
 10
650.0
 20
693.0
 42
0.0
  0
VERTEX
  8
Default
 10
646.0
 20
689.0
 42
0.0
  0
VERTEX
  8
Default
 10
645.18
 20
688.76
 42
0.0
  0
VERTEX
  8
Default
 10
641.82
 20
686.24
 42
0.0
  0
VERTEX
  8
Default
 10
632.932432
 20
682.405405
 42
0.0
  0
VERTEX
  8
Default
 10
626.946154
 20
681.430769
 42
0.0
  0
VERTEX
  8
Default
 10
620.0
 20
681.0
 42
0.0
  0
VERTEX
  8
Default
 10
619.0
 20
681.0
 42
0.0
  0
SEQEND
  0
POLYLINE
  8
Default
 66
     1
 10
0.0
 20
0.0
 30
0.0
 70
     0
  0
VERTEX
  8
Default
 10
880.0
 20
700.0
 42
0.0
  0
VERTEX
  8
Default
 10
868.0
 20
687.0
 42
0.0
  0
VERTEX
  8
Default
 10
867.0
 20
687.0
 42
0.0
  0
SEQEND
  0
POLYLINE
  8
Default
 66
     1
 10
0.0
 20
0.0
 30
0.0
 70
     0
  0
VERTEX
  8
Default
 10
602.0
 20
694.0
 42
0.0
  0
VERTEX
  8
Default
 10
602.0
 20
695.0
 42
0.0
  0
VERTEX
  8
Default
 10
604.230769
 20
697.846154
 42
0.0
  0
VERTEX
  8
Default
 10
610.0
 20
709.0
 42
0.0
  0
VERTEX
  8
Default
 10
610.0
 20
717.0
 42
0.0
  0
VERTEX
  8
Default
 10
608.615385
 20
721.923077
 42
0.0
  0
VERTEX
  8
Default
 10
606.0
 20
729.0
 42
0.0
  0
VERTEX
  8
Default
 10
599.0
 20
736.0
 42
0.0
  0
VERTEX
  8
Default
 10
592.0
 20
739.0
 42
0.0
  0
VERTEX
  8
Default
 10
589.911765
 20
738.352941
 42
0.0
  0
VERTEX
  8
Default
 10
587.0
 20
738.0
 42
0.0
  0
VERTEX
  8
Default
 10
583.724138
 20
732.689655
 42
0.0
  0
VERTEX
  8
Default
 10
583.0
 20
729.0
 42
0.0
  0
SEQEND
  0
POLYLINE
  8
Default
 66
     1
 10
0.0
 20
0.0
 30
0.0
 70
     0
  0
VERTEX
  8
Default
 10
434.0
 20
697.0
 42
0.0
  0
VERTEX
  8
Default
 10
435.0
 20
697.0
 42
0.0
  0
VERTEX
  8
Default
 10
436.0
 20
698.0
 42
0.0
  0
VERTEX
  8
Default
 10
436.0
 20
699.0
 42
0.0
  0
VERTEX
  8
Default
 10
434.594595
 20
704.932432
 42
0.0
  0
VERTEX
  8
Default
 10
431.0
 20
719.0
 42
0.0
  0
VERTEX
  8
Default
 10
431.0
 20
738.0
 42
0.0
  0
VERTEX
  8
Default
 10
431.569231
 20
739.053846
 42
0.0
  0
VERTEX
  8
Default
 10
432.430769
 20
745.946154
 42
0.0
  0
VERTEX
  8
Default
 10
435.3
 20
757.9
 42
0.0
  0
VERTEX
  8
Default
 10
436.4
 20
760.8
 42
0.0
  0
VERTEX
  8
Default
 10
442.769231
 20
774.153846
 42
0.0
  0
VERTEX
  8
Default
 10
446.756098
 20
779.195122
 42
0.0
  0
VERTEX
  8
Default
 10
447.0
 20
780.0
 42
0.0
  0
VERTEX
  8
Default
 10
453.0
 20
786.0
 42
0.0
  0
VERTEX
  8
Default
 10
464.9
 20
794.2
 42
0.0
  0
VERTEX
  8
Default
 10
466.9
 20
795.2
 42
0.0
  0
VERTEX
  8
Default
 10
478.088235
 20
799.647059
 42
0.0
  0
VERTEX
  8
Default
 10
485.923077
 20
801.384615
 42
0.0
  0
VERTEX
  8
Default
 10
490.04878
 20
802.560976
 42
0.0
  0
VERTEX
  8
Default
 10
505.946154
 20
804.430769
 42
0.0
  0
VERTEX
  8
Default
 10
507.0
 20
805.0
 42
0.0
  0
VERTEX
  8
Default
 10
508.0
 20
805.0
 42
0.0
  0
VERTEX
  8
Default
 10
508.0
 20
806.0
 42
0.0
  0
VERTEX
  8
Default
 10
509.0
 20
807.0
 42
0.0
  0
VERTEX
  8
Default
 10
507.230769
 20
809.153846
 42
0.0
  0
VERTEX
  8
Default
 10
480.0
 20
856.0
 42
0.0
  0
VERTEX
  8
Default
 10
480.0
 20
857.0
 42
0.0
  0
VERTEX
  8
Default
 10
479.0
 20
857.0
 42
0.0
  0
VERTEX
  8
Default
 10
475.0
 20
860.0
 42
0.0
  0
VERTEX
  8
Default
 10
471.2
 20
866.1
 42
0.0
  0
VERTEX
  8
Default
 10
470.0
 20
868.0
 42
0.0
  0
VERTEX
  8
Default
 10
470.0
 20
869.0
 42
0.0
  0
VERTEX
  8
Default
 10
469.0
 20
869.0
 42
0.0
  0
VERTEX
  8
Default
 10
457.804878
 20
878.756098
 42
0.0
  0
VERTEX
  8
Default
 10
457.0
 20
879.0
 42
0.0
  0
VERTEX
  8
Default
 10
451.0
 20
869.0
 42
0.0
  0
VERTEX
  8
Default
 10
427.0
 20
845.0
 42
0.0
  0
VERTEX
  8
Default
 10
426.195122
 20
844.756098
 42
0.0
  0
VERTEX
  8
Default
 10
414.1
 20
836.8
 42
0.0
  0
VERTEX
  8
Default
 10
412.9
 20
836.2
 42
0.0
  0
VERTEX
  8
Default
 10
396.946154
 20
831.430769
 42
0.0
  0
VERTEX
  8
Default
 10
390.053846
 20
830.569231
 42
0.0
  0
VERTEX
  8
Default
 10
389.0
 20
830.0
 42
0.0
  0
VERTEX
  8
Default
 10
371.030973
 20
831.464602
 42
0.0
  0
VERTEX
  8
Default
 10
369.923077
 20
831.615385
 42
0.0
  0
VERTEX
  8
Default
 10
360.1
 20
834.3
 42
0.0
  0
VERTEX
  8
Default
 10
354.9
 20
836.8
 42
0.0
  0
VERTEX
  8
Default
 10
348.18
 20
841.24
 42
0.0
  0
VERTEX
  8
Default
 10
344.82
 20
843.76
 42
0.0
  0
VERTEX
  8
Default
 10
342.0
 20
846.0
 42
0.0
  0
VERTEX
  8
Default
 10
342.0
 20
849.0
 42
0.0
  0
VERTEX
  8
Default
 10
343.0
 20
850.0
 42
0.0
  0
VERTEX
  8
Default
 10
344.0
 20
850.0
 42
0.0
  0
VERTEX
  8
Default
 10
372.0
 20
878.0
 42
0.0
  0
VERTEX
  8
Default
 10
372.0
 20
879.0
 42
0.0
  0
VERTEX
  8
Default
 10
376.0
 20
883.0
 42
0.0
  0
VERTEX
  8
Default
 10
379.804878
 20
885.243902
 42
0.0
  0
VERTEX
  8
Default
 10
385.8
 20
889.4
 42
0.0
  0
VERTEX
  8
Default
 10
394.793103
 20
893.517241
 42
0.0
  0
VERTEX
  8
Default
 10
404.95122
 20
895.439024
 42
0.0
  0
VERTEX
  8
Default
 10
406.0
 20
896.0
 42
0.0
  0
VERTEX
  8
Default
 10
414.0
 20
896.0
 42
0.0
  0
VERTEX
  8
Default
 10
415.04878
 20
895.439024
 42
0.0
  0
VERTEX
  8
Default
 10
422.846154
 20
894.230769
 42
0.0
  0
VERTEX
  8
Default
 10
449.0
 20
884.0
 42
0.0
  0
VERTEX
  8
Default
 10
452.0
 20
884.0
 42
0.0
  0
VERTEX
  8
Default
 10
453.0
 20
885.0
 42
0.0
  0
VERTEX
  8
Default
 10
451.9
 20
885.8
 42
0.0
  0
VERTEX
  8
Default
 10
430.0
 20
906.0
 42
0.0
  0
VERTEX
  8
Default
 10
416.0
 20
920.0
 42
0.0
  0
VERTEX
  8
Default
 10
416.0
 20
921.0
 42
0.0
  0
VERTEX
  8
Default
 10
416.0
 20
922.0
 42
0.0
  0
VERTEX
  8
Default
 10
415.0
 20
922.0
 42
0.0
  0
VERTEX
  8
Default
 10
406.0
 20
927.0
 42
0.0
  0
VERTEX
  8
Default
 10
406.0
 20
928.0
 42
0.0
  0
VERTEX
  8
Default
 10
405.0
 20
928.0
 42
0.0
  0
VERTEX
  8
Default
 10
399.0
 20
926.0
 42
0.0
  0
VERTEX
  8
Default
 10
394.0
 20
926.0
 42
0.0
  0
VERTEX
  8
Default
 10
388.923077
 20
927.615385
 42
0.0
  0
VERTEX
  8
Default
 10
372.0
 20
931.0
 42
0.0
  0
VERTEX
  8
Default
 10
350.0
 20
931.0
 42
0.0
  0
VERTEX
  8
Default
 10
348.962069
 20
930.455172
 42
0.0
  0
VERTEX
  8
Default
 10
326.037931
 20
928.544828
 42
0.0
  0
VERTEX
  8
Default
 10
315.0
 20
928.0
 42
0.0
  0
VERTEX
  8
Default
 10
314.0
 20
928.0
 42
0.0
  0
VERTEX
  8
Default
 10
314.0
 20
927.0
 42
0.0
  0
VERTEX
  8
Default
 10
313.405405
 20
919.932432
 42
0.0
  0
VERTEX
  8
Default
 10
312.594595
 20
915.067568
 42
0.0
  0
VERTEX
  8
Default
 10
309.352941
 20
906.911765
 42
0.0
  0
VERTEX
  8
Default
 10
308.3
 20
902.9
 42
0.0
  0
VERTEX
  8
Default
 10
302.769231
 20
892.153846
 42
0.0
  0
VERTEX
  8
Default
 10
299.754098
 20
887.204918
 42
0.0
  0
VERTEX
  8
Default
 10
295.0
 20
881.0
 42
0.0
  0
VERTEX
  8
Default
 10
283.0
 20
869.0
 42
0.0
  0
VERTEX
  8
Default
 10
274.153846
 20
861.769231
 42
0.0
  0
VERTEX
  8
Default
 10
272.0
 20
860.0
 42
0.0
  0
VERTEX
  8
Default
 10
271.0
 20
860.0
 42
0.0
  0
VERTEX
  8
Default
 10
271.0
 20
859.0
 42
0.0
  0
VERTEX
  8
Default
 10
264.756098
 20
849.195122
 42
0.0
  0
VERTEX
  8
Default
 10
261.0
 20
844.0
 42
0.0
  0
VERTEX
  8
Default
 10
254.0
 20
837.0
 42
0.0
  0
VERTEX
  8
Default
 10
247.0
 20
834.0
 42
0.0
  0
VERTEX
  8
Default
 10
236.0
 20
834.0
 42
0.0
  0
VERTEX
  8
Default
 10
226.9
 20
837.8
 42
0.0
  0
VERTEX
  8
Default
 10
226.18
 20
838.24
 42
0.0
  0
VERTEX
  8
Default
 10
217.0
 20
845.0
 42
0.0
  0
VERTEX
  8
Default
 10
214.0
 20
848.0
 42
0.0
  0
VERTEX
  8
Default
 10
207.4
 20
857.2
 42
0.0
  0
VERTEX
  8
Default
 10
203.2
 20
867.1
 42
0.0
  0
VERTEX
  8
Default
 10
203.0
 20
868.0
 42
0.0
  0
VERTEX
  8
Default
 10
203.0
 20
869.0
 42
0.0
  0
VERTEX
  8
Default
 10
202.0
 20
869.0
 42
0.0
  0
VERTEX
  8
Default
 10
201.0
 20
869.0
 42
0.0
  0
VERTEX
  8
Default
 10
193.0
 20
877.0
 42
0.0
  0
VERTEX
  8
Default
 10
190.2
 20
883.1
 42
0.0
  0
VERTEX
  8
Default
 10
189.8
 20
883.9
 42
0.0
  0
VERTEX
  8
Default
 10
187.0
 20
896.0
 42
0.0
  0
VERTEX
  8
Default
 10
188.594595
 20
903.067568
 42
0.0
  0
VERTEX
  8
Default
 10
190.3
 20
910.9
 42
0.0
  0
VERTEX
  8
Default
 10
191.8
 20
915.1
 42
0.0
  0
VERTEX
  8
Default
 10
195.0
 20
922.0
 42
0.0
  0
VERTEX
  8
Default
 10
203.0
 20
930.0
 42
0.0
  0
VERTEX
  8
Default
 10
211.1
 20
934.8
 42
0.0
  0
VERTEX
  8
Default
 10
224.2
 20
940.4
 42
0.0
  0
VERTEX
  8
Default
 10
230.9
 20
942.3
 42
0.0
  0
VERTEX
  8
Default
 10
238.946154
 20
943.430769
 42
0.0
  0
VERTEX
  8
Default
 10
245.0
 20
944.0
 42
0.0
  0
VERTEX
  8
Default
 10
246.0
 20
944.0
 42
0.0
  0
VERTEX
  8
Default
 10
246.0
 20
943.0
 42
0.0
  0
VERTEX
  8
Default
 10
246.5
 20
942.0
 42
0.0
  0
VERTEX
  8
Default
 10
245.0
 20
938.0
 42
0.0
  0
VERTEX
  8
Default
 10
245.0
 20
921.0
 42
0.0
  0
VERTEX
  8
Default
 10
246.4
 20
918.8
 42
0.0
  0
VERTEX
  8
Default
 10
247.569231
 20
913.946154
 42
0.0
  0
VERTEX
  8
Default
 10
248.0
 20
907.0
 42
0.0
  0
VERTEX
  8
Default
 10
248.0
 20
906.0
 42
0.0
  0
VERTEX
  8
Default
 10
249.0
 20
906.0
 42
0.0
  0
VERTEX
  8
Default
 10
250.0
 20
906.0
 42
0.0
  0
VERTEX
  8
Default
 10
253.0
 20
903.0
 42
0.0
  0
VERTEX
  8
Default
 10
253.4
 20
901.2
 42
0.0
  0
VERTEX
  8
Default
 10
269.3
 20
868.1
 42
0.0
  0
VERTEX
  8
Default
 10
271.0
 20
861.0
 42
0.0
  0
VERTEX
  8
Default
 10
271.0
 20
860.0
 42
0.0
  0
SEQEND
  0
POLYLINE
  8
Default
 66
     1
 10
0.0
 20
0.0
 30
0.0
 70
     0
  0
VERTEX
  8
Default
 10
451.0
 20
707.0
 42
0.0
  0
VERTEX
  8
Default
 10
450.0
 20
707.0
 42
0.0
  0
VERTEX
  8
Default
 10
446.735294
 20
704.441176
 42
0.0
  0
VERTEX
  8
Default
 10
438.1
 20
699.8
 42
0.0
  0
VERTEX
  8
Default
 10
437.0
 20
699.0
 42
0.0
  0
VERTEX
  8
Default
 10
436.0
 20
699.0
 42
0.0
  0
SEQEND
  0
POLYLINE
  8
Default
 66
     1
 10
0.0
 20
0.0
 30
0.0
 70
     0
  0
VERTEX
  8
Default
 10
1136.0
 20
719.0
 42
0.0
  0
VERTEX
  8
Default
 10
1145.0
 20
717.0
 42
0.0
  0
VERTEX
  8
Default
 10
1156.1
 20
718.8
 42
0.0
  0
VERTEX
  8
Default
 10
1163.153846
 20
721.769231
 42
0.0
  0
VERTEX
  8
Default
 10
1171.0
 20
727.0
 42
0.0
  0
VERTEX
  8
Default
 10
1179.0
 20
735.0
 42
0.0
  0
VERTEX
  8
Default
 10
1187.8
 20
749.1
 42
0.0
  0
VERTEX
  8
Default
 10
1188.2
 20
749.9
 42
0.0
  0
VERTEX
  8
Default
 10
1191.58
 20
761.06
 42
0.0
  0
VERTEX
  8
Default
 10
1192.42
 20
766.94
 42
0.0
  0
VERTEX
  8
Default
 10
1193.0
 20
768.0
 42
0.0
  0
VERTEX
  8
Default
 10
1193.0
 20
779.0
 42
0.0
  0
VERTEX
  8
Default
 10
1190.647059
 20
788.911765
 42
0.0
  0
VERTEX
  8
Default
 10
1189.3
 20
793.1
 42
0.0
  0
VERTEX
  8
Default
 10
1184.2
 20
805.1
 42
0.0
  0
VERTEX
  8
Default
 10
1183.8
 20
805.9
 42
0.0
  0
VERTEX
  8
Default
 10
1175.0
 20
819.0
 42
0.0
  0
VERTEX
  8
Default
 10
1167.0
 20
827.0
 42
0.0
  0
VERTEX
  8
Default
 10
1150.846154
 20
838.769231
 42
0.0
  0
VERTEX
  8
Default
 10
1137.1
 20
846.2
 42
0.0
  0
VERTEX
  8
Default
 10
1123.923077
 20
850.615385
 42
0.0
  0
VERTEX
  8
Default
 10
1108.946154
 20
853.569231
 42
0.0
  0
VERTEX
  8
Default
 10
1102.053846
 20
854.430769
 42
0.0
  0
VERTEX
  8
Default
 10
1101.0
 20
855.0
 42
0.0
  0
VERTEX
  8
Default
 10
1084.0
 20
855.0
 42
0.0
  0
VERTEX
  8
Default
 10
1071.088235
 20
852.647059
 42
0.0
  0
VERTEX
  8
Default
 10
1067.088235
 20
851.647059
 42
0.0
  0
VERTEX
  8
Default
 10
1047.1
 20
845.7
 42
0.0
  0
VERTEX
  8
Default
 10
1036.911765
 20
842.352941
 42
0.0
  0
VERTEX
  8
Default
 10
1034.0
 20
842.0
 42
0.0
  0
VERTEX
  8
Default
 10
1033.0
 20
842.0
 42
0.0
  0
VERTEX
  8
Default
 10
1032.0
 20
842.0
 42
0.0
  0
VERTEX
  8
Default
 10
1025.9
 20
838.2
 42
0.0
  0
VERTEX
  8
Default
 10
1001.195122
 20
821.756098
 42
0.0
  0
VERTEX
  8
Default
 10
996.804878
 20
818.243902
 42
0.0
  0
VERTEX
  8
Default
 10
994.0
 20
817.0
 42
0.0
  0
VERTEX
  8
Default
 10
993.0
 20
817.0
 42
0.0
  0
VERTEX
  8
Default
 10
993.0
 20
816.0
 42
0.0
  0
VERTEX
  8
Default
 10
964.0
 20
790.0
 42
0.0
  0
VERTEX
  8
Default
 10
955.0
 20
780.0
 42
0.0
  0
VERTEX
  8
Default
 10
955.0
 20
779.0
 42
0.0
  0
VERTEX
  8
Default
 10
958.6
 20
773.8
 42
0.0
  0
VERTEX
  8
Default
 10
959.4
 20
772.2
 42
0.0
  0
VERTEX
  8
Default
 10
972.0
 20
754.0
 42
0.0
  0
VERTEX
  8
Default
 10
983.0
 20
743.0
 42
0.0
  0
VERTEX
  8
Default
 10
988.307692
 20
739.461538
 42
0.0
  0
VERTEX
  8
Default
 10
989.8
 20
738.6
 42
0.0
  0
VERTEX
  8
Default
 10
999.2
 20
733.4
 42
0.0
  0
VERTEX
  8
Default
 10
1013.0
 20
729.0
 42
0.0
  0
VERTEX
  8
Default
 10
1035.0
 20
729.0
 42
0.0
  0
VERTEX
  8
Default
 10
1036.053846
 20
729.569231
 42
0.0
  0
VERTEX
  8
Default
 10
1042.946154
 20
730.430769
 42
0.0
  0
VERTEX
  8
Default
 10
1051.9
 20
733.3
 42
0.0
  0
VERTEX
  8
Default
 10
1053.1
 20
733.7
 42
0.0
  0
VERTEX
  8
Default
 10
1082.2
 20
746.6
 42
0.0
  0
VERTEX
  8
Default
 10
1086.2
 20
748.6
 42
0.0
  0
VERTEX
  8
Default
 10
1088.0
 20
749.0
 42
0.0
  0
VERTEX
  8
Default
 10
1092.0
 20
753.0
 42
0.0
  0
VERTEX
  8
Default
 10
1087.0
 20
758.0
 42
0.0
  0
VERTEX
  8
Default
 10
1086.153846
 20
758.230769
 42
0.0
  0
VERTEX
  8
Default
 10
1072.18
 20
769.24
 42
0.0
  0
VERTEX
  8
Default
 10
1056.692308
 20
780.538462
 42
0.0
  0
VERTEX
  8
Default
 10
1042.8
 20
787.6
 42
0.0
  0
VERTEX
  8
Default
 10
1041.1
 20
788.3
 42
0.0
  0
VERTEX
  8
Default
 10
1030.1
 20
792.2
 42
0.0
  0
VERTEX
  8
Default
 10
1029.0
 20
793.0
 42
0.0
  0
VERTEX
  8
Default
 10
993.0
 20
793.0
 42
0.0
  0
VERTEX
  8
Default
 10
991.0
 20
791.0
 42
0.0
  0
VERTEX
  8
Default
 10
980.037931
 20
790.544828
 42
0.0
  0
VERTEX
  8
Default
 10
970.044554
 20
789.554455
 42
0.0
  0
VERTEX
  8
Default
 10
969.0
 20
789.0
 42
0.0
  0
VERTEX
  8
Default
 10
965.0
 20
789.0
 42
0.0
  0
VERTEX
  8
Default
 10
964.0
 20
790.0
 42
0.0
  0
SEQEND
  0
POLYLINE
  8
Default
 66
     1
 10
0.0
 20
0.0
 30
0.0
 70
     0
  0
VERTEX
  8
Default
 10
738.0
 20
717.0
 42
0.0
  0
VERTEX
  8
Default
 10
738.0
 20
718.0
 42
0.0
  0
VERTEX
  8
Default
 10
744.2
 20
732.9
 42
0.0
  0
VERTEX
  8
Default
 10
748.0
 20
745.0
 42
0.0
  0
VERTEX
  8
Default
 10
748.0
 20
754.0
 42
0.0
  0
VERTEX
  8
Default
 10
744.339623
 20
769.811321
 42
0.0
  0
VERTEX
  8
Default
 10
740.6
 20
777.8
 42
0.0
  0
VERTEX
  8
Default
 10
739.4
 20
780.2
 42
0.0
  0
VERTEX
  8
Default
 10
735.230769
 20
787.153846
 42
0.0
  0
VERTEX
  8
Default
 10
732.0
 20
792.0
 42
0.0
  0
VERTEX
  8
Default
 10
722.0
 20
802.0
 42
0.0
  0
VERTEX
  8
Default
 10
718.195122
 20
804.243902
 42
0.0
  0
VERTEX
  8
Default
 10
713.804878
 20
807.756098
 42
0.0
  0
VERTEX
  8
Default
 10
706.9
 20
811.8
 42
0.0
  0
VERTEX
  8
Default
 10
699.8
 20
815.6
 42
0.0
  0
VERTEX
  8
Default
 10
688.9
 20
819.8
 42
0.0
  0
VERTEX
  8
Default
 10
688.1
 20
820.2
 42
0.0
  0
VERTEX
  8
Default
 10
676.067568
 20
822.405405
 42
0.0
  0
VERTEX
  8
Default
 10
663.0
 20
824.0
 42
0.0
  0
VERTEX
  8
Default
 10
661.970817
 20
823.466926
 42
0.0
  0
VERTEX
  8
Default
 10
647.029183
 20
822.533074
 42
0.0
  0
VERTEX
  8
Default
 10
644.1
 20
821.7
 42
0.0
  0
VERTEX
  8
Default
 10
643.0
 20
821.0
 42
0.0
  0
VERTEX
  8
Default
 10
642.0
 20
821.0
 42
0.0
  0
VERTEX
  8
Default
 10
642.0
 20
820.0
 42
0.0
  0
VERTEX
  8
Default
 10
646.2
 20
809.1
 42
0.0
  0
VERTEX
  8
Default
 10
647.0
 20
808.0
 42
0.0
  0
VERTEX
  8
Default
 10
647.0
 20
807.0
 42
0.0
  0
VERTEX
  8
Default
 10
648.0
 20
807.0
 42
0.0
  0
VERTEX
  8
Default
 10
654.029183
 20
805.466926
 42
0.0
  0
VERTEX
  8
Default
 10
670.1
 20
804.3
 42
0.0
  0
VERTEX
  8
Default
 10
678.823529
 20
802.294118
 42
0.0
  0
VERTEX
  8
Default
 10
691.2
 20
797.4
 42
0.0
  0
VERTEX
  8
Default
 10
692.8
 20
796.6
 42
0.0
  0
VERTEX
  8
Default
 10
703.0
 20
791.0
 42
0.0
  0
VERTEX
  8
Default
 10
711.0
 20
783.0
 42
0.0
  0
VERTEX
  8
Default
 10
720.6
 20
769.8
 42
0.0
  0
VERTEX
  8
Default
 10
722.0
 20
767.0
 42
0.0
  0
VERTEX
  8
Default
 10
722.0
 20
759.0
 42
0.0
  0
VERTEX
  8
Default
 10
718.6
 20
748.2
 42
0.0
  0
VERTEX
  8
Default
 10
716.538462
 20
744.307692
 42
0.0
  0
VERTEX
  8
Default
 10
713.243902
 20
739.804878
 42
0.0
  0
VERTEX
  8
Default
 10
711.0
 20
736.0
 42
0.0
  0
VERTEX
  8
Default
 10
704.0
 20
729.0
 42
0.0
  0
VERTEX
  8
Default
 10
694.1
 20
722.8
 42
0.0
  0
VERTEX
  8
Default
 10
693.0
 20
722.0
 42
0.0
  0
VERTEX
  8
Default
 10
693.0
 20
721.0
 42
0.0
  0
SEQEND
  0
POLYLINE
  8
Default
 66
     1
 10
0.0
 20
0.0
 30
0.0
 70
     0
  0
VERTEX
  8
Default
 10
1316.0
 20
727.0
 42
0.0
  0
VERTEX
  8
Default
 10
1316.0
 20
728.0
 42
0.0
  0
VERTEX
  8
Default
 10
1319.0
 20
744.0
 42
0.0
  0
VERTEX
  8
Default
 10
1319.0
 20
748.0
 42
0.0
  0
VERTEX
  8
Default
 10
1318.430769
 20
749.053846
 42
0.0
  0
VERTEX
  8
Default
 10
1317.569231
 20
755.946154
 42
0.0
  0
VERTEX
  8
Default
 10
1317.0
 20
757.0
 42
0.0
  0
VERTEX
  8
Default
 10
1317.0
 20
765.0
 42
0.0
  0
VERTEX
  8
Default
 10
1317.594595
 20
766.067568
 42
0.0
  0
VERTEX
  8
Default
 10
1318.0
 20
771.0
 42
0.0
  0
VERTEX
  8
Default
 10
1316.464602
 20
786.030973
 42
0.0
  0
VERTEX
  8
Default
 10
1315.535398
 20
799.969027
 42
0.0
  0
VERTEX
  8
Default
 10
1313.615385
 20
811.923077
 42
0.0
  0
VERTEX
  8
Default
 10
1312.3
 20
818.1
 42
0.0
  0
VERTEX
  8
Default
 10
1294.8
 20
872.9
 42
0.0
  0
VERTEX
  8
Default
 10
1294.2
 20
874.1
 42
0.0
  0
VERTEX
  8
Default
 10
1288.8
 20
883.9
 42
0.0
  0
VERTEX
  8
Default
 10
1288.0
 20
885.0
 42
0.0
  0
VERTEX
  8
Default
 10
1287.0
 20
885.0
 42
0.0
  0
VERTEX
  8
Default
 10
1286.0
 20
884.5
 42
0.0
  0
VERTEX
  8
Default
 10
1278.973846
 20
886.529231
 42
0.0
  0
VERTEX
  8
Default
 10
1262.0
 20
887.0
 42
0.0
  0
VERTEX
  8
Default
 10
1261.0
 20
887.0
 42
0.0
  0
VERTEX
  8
Default
 10
1261.0
 20
886.0
 42
0.0
  0
VERTEX
  8
Default
 10
1261.2
 20
885.1
 42
0.0
  0
VERTEX
  8
Default
 10
1263.0
 20
882.0
 42
0.0
  0
VERTEX
  8
Default
 10
1263.0
 20
875.0
 42
0.0
  0
VERTEX
  8
Default
 10
1260.647059
 20
867.088235
 42
0.0
  0
VERTEX
  8
Default
 10
1259.2
 20
863.9
 42
0.0
  0
VERTEX
  8
Default
 10
1258.8
 20
863.1
 42
0.0
  0
VERTEX
  8
Default
 10
1254.0
 20
855.0
 42
0.0
  0
VERTEX
  8
Default
 10
1251.0
 20
852.0
 42
0.0
  0
VERTEX
  8
Default
 10
1240.1
 20
845.8
 42
0.0
  0
VERTEX
  8
Default
 10
1238.9
 20
845.2
 42
0.0
  0
VERTEX
  8
Default
 10
1231.0
 20
843.0
 42
0.0
  0
VERTEX
  8
Default
 10
1222.0
 20
843.0
 42
0.0
  0
VERTEX
  8
Default
 10
1212.1
 20
846.2
 42
0.0
  0
VERTEX
  8
Default
 10
1204.0
 20
851.0
 42
0.0
  0
VERTEX
  8
Default
 10
1198.0
 20
857.0
 42
0.0
  0
VERTEX
  8
Default
 10
1193.8
 20
863.9
 42
0.0
  0
VERTEX
  8
Default
 10
1193.3
 20
865.1
 42
0.0
  0
VERTEX
  8
Default
 10
1189.0
 20
875.0
 42
0.0
  0
VERTEX
  8
Default
 10
1189.0
 20
899.0
 42
0.0
  0
VERTEX
  8
Default
 10
1193.0
 20
908.0
 42
0.0
  0
VERTEX
  8
Default
 10
1203.0
 20
918.0
 42
0.0
  0
VERTEX
  8
Default
 10
1214.0
 20
923.0
 42
0.0
  0
VERTEX
  8
Default
 10
1221.0
 20
923.0
 42
0.0
  0
VERTEX
  8
Default
 10
1222.088235
 20
922.352941
 42
0.0
  0
VERTEX
  8
Default
 10
1227.9
 20
920.7
 42
0.0
  0
VERTEX
  8
Default
 10
1236.793103
 20
917.482759
 42
0.0
  0
VERTEX
  8
Default
 10
1242.153846
 20
914.230769
 42
0.0
  0
VERTEX
  8
Default
 10
1245.0
 20
913.0
 42
0.0
  0
VERTEX
  8
Default
 10
1255.0
 20
903.0
 42
0.0
  0
VERTEX
  8
Default
 10
1260.615385
 20
891.923077
 42
0.0
  0
VERTEX
  8
Default
 10
1261.0
 20
888.0
 42
0.0
  0
VERTEX
  8
Default
 10
1261.0
 20
887.0
 42
0.0
  0
SEQEND
  0
POLYLINE
  8
Default
 66
     1
 10
0.0
 20
0.0
 30
0.0
 70
     1
  0
VERTEX
  8
Default
 10
1334.0
 20
785.0
 42
0.0
  0
VERTEX
  8
Default
 10
1334.0
 20
786.0
 42
0.0
  0
VERTEX
  8
Default
 10
1335.339623
 20
789.188679
 42
0.0
  0
VERTEX
  8
Default
 10
1337.405405
 20
799.932432
 42
0.0
  0
VERTEX
  8
Default
 10
1337.7
 20
801.1
 42
0.0
  0
VERTEX
  8
Default
 10
1341.2
 20
809.9
 42
0.0
  0
VERTEX
  8
Default
 10
1343.0
 20
814.0
 42
0.0
  0
VERTEX
  8
Default
 10
1352.0
 20
823.0
 42
0.0
  0
VERTEX
  8
Default
 10
1363.076923
 20
827.615385
 42
0.0
  0
VERTEX
  8
Default
 10
1368.0
 20
829.0
 42
0.0
  0
VERTEX
  8
Default
 10
1378.0
 20
829.0
 42
0.0
  0
VERTEX
  8
Default
 10
1380.9
 20
827.7
 42
0.0
  0
VERTEX
  8
Default
 10
1392.0
 20
822.0
 42
0.0
  0
VERTEX
  8
Default
 10
1395.0
 20
819.0
 42
0.0
  0
VERTEX
  8
Default
 10
1399.3
 20
811.1
 42
0.0
  0
VERTEX
  8
Default
 10
1403.0
 20
798.0
 42
0.0
  0
VERTEX
  8
Default
 10
1403.0
 20
790.0
 42
0.0
  0
VERTEX
  8
Default
 10
1399.3
 20
776.9
 42
0.0
  0
VERTEX
  8
Default
 10
1394.0
 20
767.0
 42
0.0
  0
VERTEX
  8
Default
 10
1388.0
 20
761.0
 42
0.0
  0
VERTEX
  8
Default
 10
1381.153846
 20
756.769231
 42
0.0
  0
VERTEX
  8
Default
 10
1378.846154
 20
755.230769
 42
0.0
  0
VERTEX
  8
Default
 10
1375.1
 20
753.7
 42
0.0
  0
VERTEX
  8
Default
 10
1364.0
 20
751.0
 42
0.0
  0
VERTEX
  8
Default
 10
1358.0
 20
751.0
 42
0.0
  0
VERTEX
  8
Default
 10
1349.2
 20
753.6
 42
0.0
  0
VERTEX
  8
Default
 10
1345.0
 20
755.0
 42
0.0
  0
VERTEX
  8
Default
 10
1339.0
 20
761.0
 42
0.0
  0
VERTEX
  8
Default
 10
1338.769231
 20
761.846154
 42
0.0
  0
VERTEX
  8
Default
 10
1337.4
 20
764.2
 42
0.0
  0
VERTEX
  8
Default
 10
1335.461929
 20
769.032995
 42
0.0
  0
VERTEX
  8
Default
 10
1334.0
 20
784.0
 42
0.0
  0
SEQEND
  0
POLYLINE
  8
Default
 66
     1
 10
0.0
 20
0.0
 30
0.0
 70
     0
  0
VERTEX
  8
Default
 10
955.0
 20
779.0
 42
0.0
  0
VERTEX
  8
Default
 10
954.0
 20
779.0
 42
0.0
  0
VERTEX
  8
Default
 10
953.0
 20
779.0
 42
0.0
  0
VERTEX
  8
Default
 10
927.0
 20
752.0
 42
0.0
  0
VERTEX
  8
Default
 10
926.0
 20
752.0
 42
0.0
  0
SEQEND
  0
POLYLINE
  8
Default
 66
     1
 10
0.0
 20
0.0
 30
0.0
 70
     0
  0
VERTEX
  8
Default
 10
1266.0
 20
763.0
 42
0.0
  0
VERTEX
  8
Default
 10
1266.0
 20
764.0
 42
0.0
  0
VERTEX
  8
Default
 10
1265.0
 20
765.0
 42
0.0
  0
VERTEX
  8
Default
 10
1264.0
 20
765.0
 42
0.0
  0
VERTEX
  8
Default
 10
1263.0
 20
764.0
 42
0.0
  0
VERTEX
  8
Default
 10
1263.0
 20
763.0
 42
0.0
  0
VERTEX
  8
Default
 10
1264.0
 20
762.0
 42
0.0
  0
VERTEX
  8
Default
 10
1265.0
 20
762.0
 42
0.0
  0
VERTEX
  8
Default
 10
1266.0
 20
763.0
 42
0.0
  0
VERTEX
  8
Default
 10
1267.0
 20
763.0
 42
0.0
  0
VERTEX
  8
Default
 10
1268.0
 20
763.0
 42
0.0
  0
VERTEX
  8
Default
 10
1272.0
 20
759.0
 42
0.0
  0
VERTEX
  8
Default
 10
1272.0
 20
757.0
 42
0.0
  0
VERTEX
  8
Default
 10
1270.0
 20
755.0
 42
0.0
  0
VERTEX
  8
Default
 10
1268.1
 20
754.7
 42
0.0
  0
VERTEX
  8
Default
 10
1267.0
 20
754.0
 42
0.0
  0
VERTEX
  8
Default
 10
1263.0
 20
754.0
 42
0.0
  0
VERTEX
  8
Default
 10
1261.9
 20
754.8
 42
0.0
  0
VERTEX
  8
Default
 10
1261.0
 20
755.0
 42
0.0
  0
VERTEX
  8
Default
 10
1260.0
 20
755.0
 42
0.0
  0
VERTEX
  8
Default
 10
1260.0
 20
756.0
 42
0.0
  0
VERTEX
  8
Default
 10
1260.0
 20
758.0
 42
0.0
  0
VERTEX
  8
Default
 10
1259.0
 20
759.0
 42
0.0
  0
VERTEX
  8
Default
 10
1259.0
 20
760.0
 42
0.0
  0
VERTEX
  8
Default
 10
1260.0
 20
761.0
 42
0.0
  0
VERTEX
  8
Default
 10
1261.0
 20
761.0
 42
0.0
  0
VERTEX
  8
Default
 10
1262.0
 20
761.0
 42
0.0
  0
VERTEX
  8
Default
 10
1262.0
 20
762.0
 42
0.0
  0
VERTEX
  8
Default
 10
1263.0
 20
763.0
 42
0.0
  0
SEQEND
  0
POLYLINE
  8
Default
 66
     1
 10
0.0
 20
0.0
 30
0.0
 70
     0
  0
VERTEX
  8
Default
 10
1260.0
 20
758.0
 42
0.0
  0
VERTEX
  8
Default
 10
1262.0
 20
760.0
 42
0.0
  0
VERTEX
  8
Default
 10
1262.0
 20
761.0
 42
0.0
  0
SEQEND
  0
POLYLINE
  8
Default
 66
     1
 10
0.0
 20
0.0
 30
0.0
 70
     0
  0
VERTEX
  8
Default
 10
554.0
 20
766.0
 42
0.0
  0
VERTEX
  8
Default
 10
537.0
 20
782.0
 42
0.0
  0
VERTEX
  8
Default
 10
537.0
 20
783.0
 42
0.0
  0
VERTEX
  8
Default
 10
529.0
 20
791.0
 42
0.0
  0
VERTEX
  8
Default
 10
527.0
 20
791.0
 42
0.0
  0
VERTEX
  8
Default
 10
522.0
 20
796.0
 42
0.0
  0
VERTEX
  8
Default
 10
521.0
 20
798.0
 42
0.0
  0
VERTEX
  8
Default
 10
521.0
 20
799.0
 42
0.0
  0
VERTEX
  8
Default
 10
520.0
 20
799.0
 42
0.0
  0
VERTEX
  8
Default
 10
518.1
 20
799.3
 42
0.0
  0
VERTEX
  8
Default
 10
513.307692
 20
801.461538
 42
0.0
  0
VERTEX
  8
Default
 10
509.0
 20
805.0
 42
0.0
  0
VERTEX
  8
Default
 10
508.0
 20
805.0
 42
0.0
  0
SEQEND
  0
POLYLINE
  8
Default
 66
     1
 10
0.0
 20
0.0
 30
0.0
 70
     0
  0
VERTEX
  8
Default
 10
640.0
 20
770.0
 42
0.0
  0
VERTEX
  8
Default
 10
640.0
 20
771.0
 42
0.0
  0
VERTEX
  8
Default
 10
643.2
 20
776.9
 42
0.0
  0
VERTEX
  8
Default
 10
644.594595
 20
780.067568
 42
0.0
  0
VERTEX
  8
Default
 10
645.405405
 20
784.932432
 42
0.0
  0
VERTEX
  8
Default
 10
646.531034
 20
790.027586
 42
0.0
  0
VERTEX
  8
Default
 10
647.0
 20
806.0
 42
0.0
  0
VERTEX
  8
Default
 10
647.0
 20
807.0
 42
0.0
  0
SEQEND
  0
POLYLINE
  8
Default
 66
     1
 10
0.0
 20
0.0
 30
0.0
 70
     0
  0
VERTEX
  8
Default
 10
1318.0
 20
771.0
 42
0.0
  0
VERTEX
  8
Default
 10
1333.0
 20
785.0
 42
0.0
  0
VERTEX
  8
Default
 10
1334.0
 20
785.0
 42
0.0
  0
SEQEND
  0
POLYLINE
  8
Default
 66
     1
 10
0.0
 20
0.0
 30
0.0
 70
     0
  0
VERTEX
  8
Default
 10
621.0
 20
776.0
 42
0.0
  0
VERTEX
  8
Default
 10
623.339623
 20
780.188679
 42
0.0
  0
VERTEX
  8
Default
 10
624.405405
 20
784.932432
 42
0.0
  0
VERTEX
  8
Default
 10
625.0
 20
786.0
 42
0.0
  0
VERTEX
  8
Default
 10
625.0
 20
793.0
 42
0.0
  0
VERTEX
  8
Default
 10
623.615385
 20
797.923077
 42
0.0
  0
VERTEX
  8
Default
 10
623.3
 20
799.1
 42
0.0
  0
VERTEX
  8
Default
 10
620.769231
 20
804.846154
 42
0.0
  0
VERTEX
  8
Default
 10
617.0
 20
812.0
 42
0.0
  0
VERTEX
  8
Default
 10
606.0
 20
823.0
 42
0.0
  0
VERTEX
  8
Default
 10
595.206897
 20
827.517241
 42
0.0
  0
VERTEX
  8
Default
 10
581.0
 20
831.0
 42
0.0
  0
VERTEX
  8
Default
 10
574.0
 20
831.0
 42
0.0
  0
VERTEX
  8
Default
 10
556.206897
 20
824.482759
 42
0.0
  0
VERTEX
  8
Default
 10
553.8
 20
823.4
 42
0.0
  0
VERTEX
  8
Default
 10
546.846154
 20
819.230769
 42
0.0
  0
VERTEX
  8
Default
 10
537.692308
 20
813.461538
 42
0.0
  0
VERTEX
  8
Default
 10
536.0
 20
813.0
 42
0.0
  0
VERTEX
  8
Default
 10
529.0
 20
806.0
 42
0.0
  0
VERTEX
  8
Default
 10
529.0
 20
805.0
 42
0.0
  0
VERTEX
  8
Default
 10
526.195122
 20
802.756098
 42
0.0
  0
VERTEX
  8
Default
 10
522.0
 20
799.0
 42
0.0
  0
VERTEX
  8
Default
 10
521.0
 20
799.0
 42
0.0
  0
SEQEND
  0
POLYLINE
  8
Default
 66
     1
 10
0.0
 20
0.0
 30
0.0
 70
     1
  0
VERTEX
  8
Default
 10
1361.0
 20
787.0
 42
0.0
  0
VERTEX
  8
Default
 10
1362.230769
 20
789.846154
 42
0.0
  0
VERTEX
  8
Default
 10
1364.0
 20
793.0
 42
0.0
  0
VERTEX
  8
Default
 10
1367.0
 20
796.0
 42
0.0
  0
VERTEX
  8
Default
 10
1367.9
 20
796.2
 42
0.0
  0
VERTEX
  8
Default
 10
1369.0
 20
797.0
 42
0.0
  0
VERTEX
  8
Default
 10
1371.0
 20
795.0
 42
0.0
  0
VERTEX
  8
Default
 10
1372.0
 20
789.0
 42
0.0
  0
VERTEX
  8
Default
 10
1370.0
 20
787.0
 42
0.0
  0
VERTEX
  8
Default
 10
1362.0
 20
786.0
 42
0.0
  0
VERTEX
  8
Default
 10
1361.0
 20
786.0
 42
0.0
  0
SEQEND
  0
POLYLINE
  8
Default
 66
     1
 10
0.0
 20
0.0
 30
0.0
 70
     0
  0
VERTEX
  8
Default
 10
993.0
 20
817.0
 42
0.0
  0
VERTEX
  8
Default
 10
987.0
 20
839.0
 42
0.0
  0
VERTEX
  8
Default
 10
987.0
 20
856.0
 42
0.0
  0
VERTEX
  8
Default
 10
988.384615
 20
860.923077
 42
0.0
  0
VERTEX
  8
Default
 10
993.352941
 20
881.911765
 42
0.0
  0
VERTEX
  8
Default
 10
999.4
 20
897.8
 42
0.0
  0
VERTEX
  8
Default
 10
1005.769231
 20
909.153846
 42
0.0
  0
VERTEX
  8
Default
 10
1020.0
 20
929.0
 42
0.0
  0
VERTEX
  8
Default
 10
1035.0
 20
944.0
 42
0.0
  0
VERTEX
  8
Default
 10
1050.204918
 20
956.754098
 42
0.0
  0
VERTEX
  8
Default
 10
1060.9
 20
964.2
 42
0.0
  0
VERTEX
  8
Default
 10
1062.9
 20
965.2
 42
0.0
  0
VERTEX
  8
Default
 10
1070.0
 20
969.0
 42
0.0
  0
VERTEX
  8
Default
 10
1072.0
 20
969.0
 42
0.0
  0
VERTEX
  8
Default
 10
1074.0
 20
967.0
 42
0.0
  0
VERTEX
  8
Default
 10
1074.0
 20
965.0
 42
0.0
  0
VERTEX
  8
Default
 10
1067.8
 20
950.1
 42
0.0
  0
VERTEX
  8
Default
 10
1065.8
 20
943.1
 42
0.0
  0
VERTEX
  8
Default
 10
1065.0
 20
942.0
 42
0.0
  0
VERTEX
  8
Default
 10
1065.0
 20
927.0
 42
0.0
  0
VERTEX
  8
Default
 10
1065.569231
 20
925.946154
 42
0.0
  0
VERTEX
  8
Default
 10
1066.430769
 20
919.053846
 42
0.0
  0
VERTEX
  8
Default
 10
1067.0
 20
918.0
 42
0.0
  0
VERTEX
  8
Default
 10
1067.0
 20
904.0
 42
0.0
  0
VERTEX
  8
Default
 10
1065.430769
 20
897.946154
 42
0.0
  0
VERTEX
  8
Default
 10
1064.569231
 20
891.053846
 42
0.0
  0
VERTEX
  8
Default
 10
1062.647059
 20
885.088235
 42
0.0
  0
VERTEX
  8
Default
 10
1061.3
 20
881.9
 42
0.0
  0
VERTEX
  8
Default
 10
1058.769231
 20
876.153846
 42
0.0
  0
VERTEX
  8
Default
 10
1055.230769
 20
869.846154
 42
0.0
  0
VERTEX
  8
Default
 10
1048.750685
 20
861.231507
 42
0.0
  0
VERTEX
  8
Default
 10
1036.249315
 20
847.768493
 42
0.0
  0
VERTEX
  8
Default
 10
1033.24
 20
843.82
 42
0.0
  0
VERTEX
  8
Default
 10
1033.0
 20
843.0
 42
0.0
  0
VERTEX
  8
Default
 10
1033.0
 20
842.0
 42
0.0
  0
SEQEND
  0
POLYLINE
  8
Default
 66
     1
 10
0.0
 20
0.0
 30
0.0
 70
     0
  0
VERTEX
  8
Default
 10
480.0
 20
857.0
 42
0.0
  0
VERTEX
  8
Default
 10
503.0
 20
878.0
 42
0.0
  0
VERTEX
  8
Default
 10
513.8
 20
895.1
 42
0.0
  0
VERTEX
  8
Default
 10
516.2
 20
901.9
 42
0.0
  0
VERTEX
  8
Default
 10
518.0
 20
909.0
 42
0.0
  0
VERTEX
  8
Default
 10
518.0
 20
921.0
 42
0.0
  0
VERTEX
  8
Default
 10
514.6
 20
929.8
 42
0.0
  0
VERTEX
  8
Default
 10
513.4
 20
932.2
 42
0.0
  0
VERTEX
  8
Default
 10
508.769231
 20
940.846154
 42
0.0
  0
VERTEX
  8
Default
 10
496.6
 20
957.8
 42
0.0
  0
VERTEX
  8
Default
 10
493.4
 20
964.2
 42
0.0
  0
VERTEX
  8
Default
 10
493.0
 20
966.0
 42
0.0
  0
VERTEX
  8
Default
 10
489.0
 20
970.0
 42
0.0
  0
VERTEX
  8
Default
 10
488.0
 20
970.0
 42
0.0
  0
VERTEX
  8
Default
 10
486.0
 20
968.0
 42
0.0
  0
VERTEX
  8
Default
 10
479.4
 20
955.8
 42
0.0
  0
VERTEX
  8
Default
 10
476.7
 20
950.1
 42
0.0
  0
VERTEX
  8
Default
 10
469.384615
 20
929.923077
 42
0.0
  0
VERTEX
  8
Default
 10
468.615385
 20
926.076923
 42
0.0
  0
VERTEX
  8
Default
 10
467.0
 20
920.0
 42
0.0
  0
VERTEX
  8
Default
 10
467.0
 20
893.0
 42
0.0
  0
VERTEX
  8
Default
 10
467.615385
 20
891.923077
 42
0.0
  0
VERTEX
  8
Default
 10
469.58
 20
879.94
 42
0.0
  0
VERTEX
  8
Default
 10
470.42
 20
874.06
 42
0.0
  0
VERTEX
  8
Default
 10
471.0
 20
873.0
 42
0.0
  0
VERTEX
  8
Default
 10
471.0
 20
872.0
 42
0.0
  0
VERTEX
  8
Default
 10
470.0
 20
870.0
 42
0.0
  0
VERTEX
  8
Default
 10
470.0
 20
869.0
 42
0.0
  0
SEQEND
  0
POLYLINE
  8
Default
 66
     1
 10
0.0
 20
0.0
 30
0.0
 70
     0
  0
VERTEX
  8
Default
 10
203.0
 20
869.0
 42
0.0
  0
VERTEX
  8
Default
 10
203.0
 20
870.0
 42
0.0
  0
VERTEX
  8
Default
 10
205.461538
 20
874.692308
 42
0.0
  0
VERTEX
  8
Default
 10
208.538462
 20
879.307692
 42
0.0
  0
VERTEX
  8
Default
 10
209.0
 20
881.0
 42
0.0
  0
VERTEX
  8
Default
 10
213.0
 20
885.0
 42
0.0
  0
VERTEX
  8
Default
 10
225.307692
 20
894.538462
 42
0.0
  0
VERTEX
  8
Default
 10
232.206897
 20
898.482759
 42
0.0
  0
VERTEX
  8
Default
 10
247.0
 20
906.0
 42
0.0
  0
VERTEX
  8
Default
 10
248.0
 20
906.0
 42
0.0
  0
SEQEND
  0
POLYLINE
  8
Default
 66
     1
 10
0.0
 20
0.0
 30
0.0
 70
     1
  0
VERTEX
  8
Default
 10
1225.0
 20
877.0
 42
0.0
  0
VERTEX
  8
Default
 10
1225.430769
 20
883.946154
 42
0.0
  0
VERTEX
  8
Default
 10
1226.0
 20
886.0
 42
0.0
  0
VERTEX
  8
Default
 10
1229.0
 20
889.0
 42
0.0
  0
VERTEX
  8
Default
 10
1231.2
 20
887.4
 42
0.0
  0
VERTEX
  8
Default
 10
1238.0
 20
884.0
 42
0.0
  0
VERTEX
  8
Default
 10
1238.0
 20
883.0
 42
0.0
  0
VERTEX
  8
Default
 10
1237.0
 20
881.0
 42
0.0
  0
VERTEX
  8
Default
 10
1232.0
 20
876.0
 42
0.0
  0
VERTEX
  8
Default
 10
1226.0
 20
876.0
 42
0.0
  0
VERTEX
  8
Default
 10
1225.0
 20
876.0
 42
0.0
  0
SEQEND
  0
POLYLINE
  8
Default
 66
     1
 10
0.0
 20
0.0
 30
0.0
 70
     0
  0
VERTEX
  8
Default
 10
1288.0
 20
885.0
 42
0.0
  0
VERTEX
  8
Default
 10
1288.0
 20
886.0
 42
0.0
  0
VERTEX
  8
Default
 10
1289.0
 20
887.0
 42
0.0
  0
VERTEX
  8
Default
 10
1286.3
 20
894.1
 42
0.0
  0
VERTEX
  8
Default
 10
1286.0
 20
896.0
 42
0.0
  0
VERTEX
  8
Default
 10
1286.0
 20
897.0
 42
0.0
  0
VERTEX
  8
Default
 10
1285.0
 20
897.0
 42
0.0
  0
VERTEX
  8
Default
 10
1282.6
 20
900.3
 42
0.0
  0
VERTEX
  8
Default
 10
1271.2
 20
925.1
 42
0.0
  0
VERTEX
  8
Default
 10
1257.769231
 20
949.846154
 42
0.0
  0
VERTEX
  8
Default
 10
1253.230769
 20
957.153846
 42
0.0
  0
VERTEX
  8
Default
 10
1243.769231
 20
973.846154
 42
0.0
  0
VERTEX
  8
Default
 10
1240.0
 20
982.0
 42
0.0
  0
VERTEX
  8
Default
 10
1239.0
 20
982.0
 42
0.0
  0
VERTEX
  8
Default
 10
1238.0
 20
983.0
 42
0.0
  0
VERTEX
  8
Default
 10
1236.0
 20
983.0
 42
0.0
  0
VERTEX
  8
Default
 10
1234.9
 20
982.2
 42
0.0
  0
VERTEX
  8
Default
 10
1227.1
 20
979.7
 42
0.0
  0
VERTEX
  8
Default
 10
1220.06
 20
978.58
 42
0.0
  0
VERTEX
  8
Default
 10
1219.0
 20
978.0
 42
0.0
  0
VERTEX
  8
Default
 10
1208.0
 20
978.0
 42
0.0
  0
VERTEX
  8
Default
 10
1206.923077
 20
978.615385
 42
0.0
  0
VERTEX
  8
Default
 10
1203.076923
 20
979.384615
 42
0.0
  0
VERTEX
  8
Default
 10
1194.9
 20
983.8
 42
0.0
  0
VERTEX
  8
Default
 10
1194.0
 20
984.0
 42
0.0
  0
VERTEX
  8
Default
 10
1188.0
 20
990.0
 42
0.0
  0
VERTEX
  8
Default
 10
1183.8
 20
997.9
 42
0.0
  0
VERTEX
  8
Default
 10
1183.2
 20
999.1
 42
0.0
  0
VERTEX
  8
Default
 10
1179.0
 20
1011.0
 42
0.0
  0
VERTEX
  8
Default
 10
1179.0
 20
1022.0
 42
0.0
  0
VERTEX
  8
Default
 10
1179.647059
 20
1023.088235
 42
0.0
  0
VERTEX
  8
Default
 10
1180.7
 20
1027.1
 42
0.0
  0
VERTEX
  8
Default
 10
1184.4
 20
1036.8
 42
0.0
  0
VERTEX
  8
Default
 10
1186.0
 20
1040.0
 42
0.0
  0
VERTEX
  8
Default
 10
1193.0
 20
1047.0
 42
0.0
  0
VERTEX
  8
Default
 10
1205.0
 20
1053.0
 42
0.0
  0
VERTEX
  8
Default
 10
1217.0
 20
1053.0
 42
0.0
  0
VERTEX
  8
Default
 10
1222.088235
 20
1051.352941
 42
0.0
  0
VERTEX
  8
Default
 10
1224.911765
 20
1050.647059
 42
0.0
  0
VERTEX
  8
Default
 10
1237.0
 20
1044.0
 42
0.0
  0
VERTEX
  8
Default
 10
1245.0
 20
1036.0
 42
0.0
  0
VERTEX
  8
Default
 10
1245.230769
 20
1035.153846
 42
0.0
  0
VERTEX
  8
Default
 10
1246.769231
 20
1032.846154
 42
0.0
  0
VERTEX
  8
Default
 10
1251.615385
 20
1021.923077
 42
0.0
  0
VERTEX
  8
Default
 10
1253.0
 20
1017.0
 42
0.0
  0
VERTEX
  8
Default
 10
1253.0
 20
1006.0
 42
0.0
  0
VERTEX
  8
Default
 10
1250.8
 20
999.1
 42
0.0
  0
VERTEX
  8
Default
 10
1249.353846
 20
995.369231
 42
0.0
  0
VERTEX
  8
Default
 10
1240.0
 20
983.0
 42
0.0
  0
VERTEX
  8
Default
 10
1240.0
 20
982.0
 42
0.0
  0
SEQEND
  0
POLYLINE
  8
Default
 66
     1
 10
0.0
 20
0.0
 30
0.0
 70
     0
  0
VERTEX
  8
Default
 10
1286.0
 20
897.0
 42
0.0
  0
VERTEX
  8
Default
 10
1303.0
 20
919.0
 42
0.0
  0
VERTEX
  8
Default
 10
1303.0
 20
920.0
 42
0.0
  0
VERTEX
  8
Default
 10
1301.6
 20
922.8
 42
0.0
  0
VERTEX
  8
Default
 10
1293.0
 20
939.0
 42
0.0
  0
VERTEX
  8
Default
 10
1293.0
 20
952.0
 42
0.0
  0
VERTEX
  8
Default
 10
1297.0
 20
965.0
 42
0.0
  0
VERTEX
  8
Default
 10
1307.0
 20
975.0
 42
0.0
  0
VERTEX
  8
Default
 10
1312.9
 20
977.3
 42
0.0
  0
VERTEX
  8
Default
 10
1314.1
 20
977.8
 42
0.0
  0
VERTEX
  8
Default
 10
1316.0
 20
979.0
 42
0.0
  0
VERTEX
  8
Default
 10
1337.0
 20
979.0
 42
0.0
  0
VERTEX
  8
Default
 10
1350.0
 20
975.0
 42
0.0
  0
VERTEX
  8
Default
 10
1357.0
 20
968.0
 42
0.0
  0
VERTEX
  8
Default
 10
1363.352941
 20
951.088235
 42
0.0
  0
VERTEX
  8
Default
 10
1363.7
 20
949.9
 42
0.0
  0
VERTEX
  8
Default
 10
1366.0
 20
939.0
 42
0.0
  0
VERTEX
  8
Default
 10
1366.0
 20
937.0
 42
0.0
  0
VERTEX
  8
Default
 10
1363.2
 20
924.9
 42
0.0
  0
VERTEX
  8
Default
 10
1362.8
 20
924.1
 42
0.0
  0
VERTEX
  8
Default
 10
1361.0
 20
920.0
 42
0.0
  0
VERTEX
  8
Default
 10
1354.0
 20
913.0
 42
0.0
  0
VERTEX
  8
Default
 10
1342.1
 20
906.7
 42
0.0
  0
VERTEX
  8
Default
 10
1336.0
 20
905.0
 42
0.0
  0
VERTEX
  8
Default
 10
1324.0
 20
905.0
 42
0.0
  0
VERTEX
  8
Default
 10
1319.076923
 20
906.384615
 42
0.0
  0
VERTEX
  8
Default
 10
1314.0
 20
908.0
 42
0.0
  0
VERTEX
  8
Default
 10
1311.0
 20
911.0
 42
0.0
  0
VERTEX
  8
Default
 10
1310.756098
 20
911.804878
 42
0.0
  0
VERTEX
  8
Default
 10
1305.0
 20
919.0
 42
0.0
  0
VERTEX
  8
Default
 10
1304.0
 20
919.0
 42
0.0
  0
VERTEX
  8
Default
 10
1303.0
 20
919.0
 42
0.0
  0
SEQEND
  0
POLYLINE
  8
Default
 66
     1
 10
0.0
 20
0.0
 30
0.0
 70
     0
  0
VERTEX
  8
Default
 10
760.0
 20
904.0
 42
0.0
  0
VERTEX
  8
Default
 10
760.0
 20
905.0
 42
0.0
  0
VERTEX
  8
Default
 10
762.76
 20
908.18
 42
0.0
  0
VERTEX
  8
Default
 10
770.0
 20
920.0
 42
0.0
  0
VERTEX
  8
Default
 10
770.0
 20
921.0
 42
0.0
  0
VERTEX
  8
Default
 10
769.647059
 20
923.911765
 42
0.0
  0
VERTEX
  8
Default
 10
767.7
 20
931.9
 42
0.0
  0
VERTEX
  8
Default
 10
767.0
 20
933.0
 42
0.0
  0
VERTEX
  8
Default
 10
767.0
 20
938.0
 42
0.0
  0
VERTEX
  8
Default
 10
768.8
 20
941.1
 42
0.0
  0
VERTEX
  8
Default
 10
769.0
 20
942.0
 42
0.0
  0
VERTEX
  8
Default
 10
774.0
 20
947.0
 42
0.0
  0
VERTEX
  8
Default
 10
778.0
 20
948.0
 42
0.0
  0
VERTEX
  8
Default
 10
781.911765
 20
946.647059
 42
0.0
  0
VERTEX
  8
Default
 10
786.0
 20
945.0
 42
0.0
  0
VERTEX
  8
Default
 10
790.0
 20
941.0
 42
0.0
  0
VERTEX
  8
Default
 10
790.230769
 20
940.153846
 42
0.0
  0
VERTEX
  8
Default
 10
791.769231
 20
937.846154
 42
0.0
  0
VERTEX
  8
Default
 10
792.594595
 20
935.932432
 42
0.0
  0
VERTEX
  8
Default
 10
794.0
 20
930.0
 42
0.0
  0
VERTEX
  8
Default
 10
794.0
 20
924.0
 42
0.0
  0
VERTEX
  8
Default
 10
793.2
 20
922.9
 42
0.0
  0
VERTEX
  8
Default
 10
792.0
 20
919.0
 42
0.0
  0
VERTEX
  8
Default
 10
786.0
 20
914.0
 42
0.0
  0
VERTEX
  8
Default
 10
777.0
 20
914.0
 42
0.0
  0
VERTEX
  8
Default
 10
771.0
 20
920.0
 42
0.0
  0
VERTEX
  8
Default
 10
770.0
 20
920.0
 42
0.0
  0
SEQEND
  0
POLYLINE
  8
Default
 66
     1
 10
0.0
 20
0.0
 30
0.0
 70
     0
  0
VERTEX
  8
Default
 10
943.0
 20
930.0
 42
0.0
  0
VERTEX
  8
Default
 10
943.0
 20
929.0
 42
0.0
  0
VERTEX
  8
Default
 10
944.0
 20
928.0
 42
0.0
  0
VERTEX
  8
Default
 10
944.0
 20
926.0
 42
0.0
  0
VERTEX
  8
Default
 10
943.0
 20
925.0
 42
0.0
  0
VERTEX
  8
Default
 10
943.0
 20
922.0
 42
0.0
  0
VERTEX
  8
Default
 10
944.6
 20
919.8
 42
0.0
  0
VERTEX
  8
Default
 10
945.0
 20
918.0
 42
0.0
  0
VERTEX
  8
Default
 10
948.0
 20
915.0
 42
0.0
  0
VERTEX
  8
Default
 10
948.9
 20
914.8
 42
0.0
  0
VERTEX
  8
Default
 10
954.0
 20
913.0
 42
0.0
  0
VERTEX
  8
Default
 10
957.0
 20
913.0
 42
0.0
  0
VERTEX
  8
Default
 10
958.076923
 20
913.615385
 42
0.0
  0
VERTEX
  8
Default
 10
966.0
 20
916.0
 42
0.0
  0
VERTEX
  8
Default
 10
971.0
 20
921.0
 42
0.0
  0
VERTEX
  8
Default
 10
971.24
 20
921.82
 42
0.0
  0
VERTEX
  8
Default
 10
975.0
 20
930.0
 42
0.0
  0
VERTEX
  8
Default
 10
975.0
 20
936.0
 42
0.0
  0
VERTEX
  8
Default
 10
973.7
 20
938.9
 42
0.0
  0
VERTEX
  8
Default
 10
973.2
 20
940.1
 42
0.0
  0
VERTEX
  8
Default
 10
973.0
 20
941.0
 42
0.0
  0
VERTEX
  8
Default
 10
969.0
 20
945.0
 42
0.0
  0
VERTEX
  8
Default
 10
966.9
 20
945.7
 42
0.0
  0
VERTEX
  8
Default
 10
965.1
 20
946.3
 42
0.0
  0
VERTEX
  8
Default
 10
964.0
 20
947.0
 42
0.0
  0
VERTEX
  8
Default
 10
960.0
 20
947.0
 42
0.0
  0
VERTEX
  8
Default
 10
958.1
 20
945.8
 42
0.0
  0
VERTEX
  8
Default
 10
956.9
 20
945.2
 42
0.0
  0
VERTEX
  8
Default
 10
956.0
 20
945.0
 42
0.0
  0
VERTEX
  8
Default
 10
948.0
 20
937.0
 42
0.0
  0
VERTEX
  8
Default
 10
943.0
 20
930.0
 42
0.0
  0
VERTEX
  8
Default
 10
942.0
 20
930.0
 42
0.0
  0
VERTEX
  8
Default
 10
930.0
 20
924.0
 42
0.0
  0
VERTEX
  8
Default
 10
929.0
 20
924.0
 42
0.0
  0
VERTEX
  8
Default
 10
929.0
 20
923.0
 42
0.0
  0
VERTEX
  8
Default
 10
929.0
 20
922.0
 42
0.0
  0
VERTEX
  8
Default
 10
927.0
 20
920.0
 42
0.0
  0
VERTEX
  8
Default
 10
927.0
 20
919.0
 42
0.0
  0
SEQEND
  0
POLYLINE
  8
Default
 66
     1
 10
0.0
 20
0.0
 30
0.0
 70
     0
  0
VERTEX
  8
Default
 10
745.0
 20
913.0
 42
0.0
  0
VERTEX
  8
Default
 10
745.0
 20
914.0
 42
0.0
  0
VERTEX
  8
Default
 10
721.0
 20
940.0
 42
0.0
  0
VERTEX
  8
Default
 10
721.0
 20
941.0
 42
0.0
  0
VERTEX
  8
Default
 10
720.0
 20
941.0
 42
0.0
  0
VERTEX
  8
Default
 10
709.0
 20
950.0
 42
0.0
  0
VERTEX
  8
Default
 10
708.0
 20
950.0
 42
0.0
  0
VERTEX
  8
Default
 10
707.0
 20
950.0
 42
0.0
  0
VERTEX
  8
Default
 10
702.067568
 20
950.405405
 42
0.0
  0
VERTEX
  8
Default
 10
692.076923
 20
952.384615
 42
0.0
  0
VERTEX
  8
Default
 10
691.0
 20
953.0
 42
0.0
  0
VERTEX
  8
Default
 10
681.0
 20
953.0
 42
0.0
  0
VERTEX
  8
Default
 10
676.1
 20
950.8
 42
0.0
  0
VERTEX
  8
Default
 10
675.0
 20
950.0
 42
0.0
  0
VERTEX
  8
Default
 10
675.0
 20
949.0
 42
0.0
  0
VERTEX
  8
Default
 10
669.0
 20
938.0
 42
0.0
  0
VERTEX
  8
Default
 10
665.0
 20
934.0
 42
0.0
  0
VERTEX
  8
Default
 10
662.0
 20
932.0
 42
0.0
  0
VERTEX
  8
Default
 10
653.0
 20
932.0
 42
0.0
  0
VERTEX
  8
Default
 10
650.846154
 20
933.769231
 42
0.0
  0
VERTEX
  8
Default
 10
650.0
 20
934.0
 42
0.0
  0
VERTEX
  8
Default
 10
647.0
 20
937.0
 42
0.0
  0
VERTEX
  8
Default
 10
646.6
 20
938.8
 42
0.0
  0
VERTEX
  8
Default
 10
645.0
 20
941.0
 42
0.0
  0
VERTEX
  8
Default
 10
645.0
 20
956.0
 42
0.0
  0
VERTEX
  8
Default
 10
651.0
 20
962.0
 42
0.0
  0
VERTEX
  8
Default
 10
653.9
 20
963.2
 42
0.0
  0
VERTEX
  8
Default
 10
655.0
 20
964.0
 42
0.0
  0
VERTEX
  8
Default
 10
659.0
 20
964.0
 42
0.0
  0
VERTEX
  8
Default
 10
666.18
 20
960.24
 42
0.0
  0
VERTEX
  8
Default
 10
667.0
 20
960.0
 42
0.0
  0
VERTEX
  8
Default
 10
672.0
 20
955.0
 42
0.0
  0
VERTEX
  8
Default
 10
673.3
 20
951.1
 42
0.0
  0
VERTEX
  8
Default
 10
674.0
 20
950.0
 42
0.0
  0
VERTEX
  8
Default
 10
675.0
 20
950.0
 42
0.0
  0
SEQEND
  0
POLYLINE
  8
Default
 66
     1
 10
0.0
 20
0.0
 30
0.0
 70
     0
  0
VERTEX
  8
Default
 10
416.0
 20
922.0
 42
0.0
  0
VERTEX
  8
Default
 10
417.0
 20
922.0
 42
0.0
  0
VERTEX
  8
Default
 10
424.751724
 20
930.22069
 42
0.0
  0
VERTEX
  8
Default
 10
427.8
 20
935.1
 42
0.0
  0
VERTEX
  8
Default
 10
428.2
 20
935.9
 42
0.0
  0
VERTEX
  8
Default
 10
432.594595
 20
950.067568
 42
0.0
  0
VERTEX
  8
Default
 10
433.405405
 20
954.932432
 42
0.0
  0
VERTEX
  8
Default
 10
435.54918
 20
969.040984
 42
0.0
  0
VERTEX
  8
Default
 10
436.45082
 20
978.959016
 42
0.0
  0
VERTEX
  8
Default
 10
437.0
 20
980.0
 42
0.0
  0
VERTEX
  8
Default
 10
437.0
 20
987.0
 42
0.0
  0
VERTEX
  8
Default
 10
436.384615
 20
988.076923
 42
0.0
  0
VERTEX
  8
Default
 10
434.352941
 20
1003.088235
 42
0.0
  0
VERTEX
  8
Default
 10
433.3
 20
1007.1
 42
0.0
  0
VERTEX
  8
Default
 10
427.0
 20
1019.0
 42
0.0
  0
VERTEX
  8
Default
 10
406.788235
 20
1035.752941
 42
0.0
  0
VERTEX
  8
Default
 10
406.0
 20
1036.0
 42
0.0
  0
VERTEX
  8
Default
 10
405.0
 20
1036.0
 42
0.0
  0
VERTEX
  8
Default
 10
404.0
 20
1036.0
 42
0.0
  0
VERTEX
  8
Default
 10
403.0
 20
1037.0
 42
0.0
  0
VERTEX
  8
Default
 10
403.0
 20
1038.0
 42
0.0
  0
VERTEX
  8
Default
 10
392.773756
 20
1047.751131
 42
0.0
  0
VERTEX
  8
Default
 10
391.0
 20
1049.0
 42
0.0
  0
VERTEX
  8
Default
 10
388.0
 20
1046.0
 42
0.0
  0
VERTEX
  8
Default
 10
379.7
 20
1014.1
 42
0.0
  0
VERTEX
  8
Default
 10
378.544828
 20
1002.037931
 42
0.0
  0
VERTEX
  8
Default
 10
378.0
 20
1001.0
 42
0.0
  0
VERTEX
  8
Default
 10
378.0
 20
984.0
 42
0.0
  0
VERTEX
  8
Default
 10
381.7
 20
967.9
 42
0.0
  0
VERTEX
  8
Default
 10
382.3
 20
966.1
 42
0.0
  0
VERTEX
  8
Default
 10
386.8
 20
956.9
 42
0.0
  0
VERTEX
  8
Default
 10
387.2
 20
956.1
 42
0.0
  0
VERTEX
  8
Default
 10
391.243902
 20
949.195122
 42
0.0
  0
VERTEX
  8
Default
 10
399.754098
 20
938.795082
 42
0.0
  0
VERTEX
  8
Default
 10
405.2
 20
931.1
 42
0.0
  0
VERTEX
  8
Default
 10
406.0
 20
929.0
 42
0.0
  0
VERTEX
  8
Default
 10
406.0
 20
928.0
 42
0.0
  0
SEQEND
  0
POLYLINE
  8
Default
 66
     1
 10
0.0
 20
0.0
 30
0.0
 70
     0
  0
VERTEX
  8
Default
 10
929.0
 20
924.0
 42
0.0
  0
VERTEX
  8
Default
 10
929.0
 20
925.0
 42
0.0
  0
VERTEX
  8
Default
 10
928.8
 20
925.9
 42
0.0
  0
VERTEX
  8
Default
 10
928.0
 20
927.0
 42
0.0
  0
VERTEX
  8
Default
 10
928.0
 20
931.0
 42
0.0
  0
VERTEX
  8
Default
 10
930.384615
 20
943.923077
 42
0.0
  0
VERTEX
  8
Default
 10
931.384615
 20
948.923077
 42
0.0
  0
VERTEX
  8
Default
 10
939.3
 20
977.9
 42
0.0
  0
VERTEX
  8
Default
 10
939.8
 20
979.1
 42
0.0
  0
VERTEX
  8
Default
 10
942.7
 20
988.1
 42
0.0
  0
VERTEX
  8
Default
 10
943.0
 20
990.0
 42
0.0
  0
VERTEX
  8
Default
 10
943.0
 20
991.0
 42
0.0
  0
VERTEX
  8
Default
 10
942.0
 20
991.0
 42
0.0
  0
VERTEX
  8
Default
 10
939.8
 20
993.9
 42
0.0
  0
VERTEX
  8
Default
 10
931.352941
 20
1011.088235
 42
0.0
  0
VERTEX
  8
Default
 10
930.0
 20
1015.0
 42
0.0
  0
VERTEX
  8
Default
 10
930.0
 20
1016.0
 42
0.0
  0
VERTEX
  8
Default
 10
933.76
 20
1021.18
 42
0.0
  0
VERTEX
  8
Default
 10
935.4
 20
1024.2
 42
0.0
  0
VERTEX
  8
Default
 10
936.384615
 20
1027.923077
 42
0.0
  0
VERTEX
  8
Default
 10
937.0
 20
1029.0
 42
0.0
  0
VERTEX
  8
Default
 10
937.0
 20
1032.0
 42
0.0
  0
VERTEX
  8
Default
 10
934.0
 20
1039.0
 42
0.0
  0
VERTEX
  8
Default
 10
931.0
 20
1042.0
 42
0.0
  0
VERTEX
  8
Default
 10
926.1
 20
1044.2
 42
0.0
  0
VERTEX
  8
Default
 10
925.0
 20
1045.0
 42
0.0
  0
VERTEX
  8
Default
 10
916.0
 20
1045.0
 42
0.0
  0
VERTEX
  8
Default
 10
914.0
 20
1044.0
 42
0.0
  0
VERTEX
  8
Default
 10
907.0
 20
1037.0
 42
0.0
  0
VERTEX
  8
Default
 10
906.2
 20
1033.9
 42
0.0
  0
VERTEX
  8
Default
 10
905.8
 20
1033.1
 42
0.0
  0
VERTEX
  8
Default
 10
905.0
 20
1032.0
 42
0.0
  0
VERTEX
  8
Default
 10
905.0
 20
1025.0
 42
0.0
  0
VERTEX
  8
Default
 10
906.3
 20
1022.1
 42
0.0
  0
VERTEX
  8
Default
 10
906.7
 20
1020.9
 42
0.0
  0
VERTEX
  8
Default
 10
907.0
 20
1019.0
 42
0.0
  0
VERTEX
  8
Default
 10
913.0
 20
1014.0
 42
0.0
  0
VERTEX
  8
Default
 10
922.0
 20
1014.0
 42
0.0
  0
VERTEX
  8
Default
 10
924.8
 20
1015.4
 42
0.0
  0
VERTEX
  8
Default
 10
927.2
 20
1016.4
 42
0.0
  0
VERTEX
  8
Default
 10
929.0
 20
1016.0
 42
0.0
  0
VERTEX
  8
Default
 10
930.0
 20
1016.0
 42
0.0
  0
SEQEND
  0
POLYLINE
  8
Default
 66
     1
 10
0.0
 20
0.0
 30
0.0
 70
     0
  0
VERTEX
  8
Default
 10
405.0
 20
928.0
 42
0.0
  0
VERTEX
  8
Default
 10
382.9
 20
940.8
 42
0.0
  0
VERTEX
  8
Default
 10
285.1
 20
984.3
 42
0.0
  0
VERTEX
  8
Default
 10
281.9
 20
985.7
 42
0.0
  0
VERTEX
  8
Default
 10
266.153846
 20
993.230769
 42
0.0
  0
VERTEX
  8
Default
 10
263.846154
 20
994.769231
 42
0.0
  0
VERTEX
  8
Default
 10
259.0
 20
999.0
 42
0.0
  0
VERTEX
  8
Default
 10
258.0
 20
999.0
 42
0.0
  0
VERTEX
  8
Default
 10
254.9
 20
997.2
 42
0.0
  0
VERTEX
  8
Default
 10
240.932432
 20
991.405405
 42
0.0
  0
VERTEX
  8
Default
 10
232.088235
 20
989.647059
 42
0.0
  0
VERTEX
  8
Default
 10
222.0
 20
988.0
 42
0.0
  0
VERTEX
  8
Default
 10
220.955446
 20
988.554455
 42
0.0
  0
VERTEX
  8
Default
 10
212.044554
 20
989.445545
 42
0.0
  0
VERTEX
  8
Default
 10
203.8
 20
991.6
 42
0.0
  0
VERTEX
  8
Default
 10
202.1
 20
992.3
 42
0.0
  0
VERTEX
  8
Default
 10
196.153846
 20
995.230769
 42
0.0
  0
VERTEX
  8
Default
 10
192.2
 20
997.4
 42
0.0
  0
VERTEX
  8
Default
 10
189.195122
 20
999.243902
 42
0.0
  0
VERTEX
  8
Default
 10
180.0
 20
1007.0
 42
0.0
  0
VERTEX
  8
Default
 10
179.0
 20
1007.0
 42
0.0
  0
VERTEX
  8
Default
 10
176.0
 20
1006.0
 42
0.0
  0
VERTEX
  8
Default
 10
168.0
 20
1006.0
 42
0.0
  0
VERTEX
  8
Default
 10
164.088235
 20
1007.352941
 42
0.0
  0
VERTEX
  8
Default
 10
153.0
 20
1014.0
 42
0.0
  0
VERTEX
  8
Default
 10
151.0
 20
1016.0
 42
0.0
  0
VERTEX
  8
Default
 10
146.6
 20
1022.8
 42
0.0
  0
VERTEX
  8
Default
 10
145.6
 20
1025.2
 42
0.0
  0
VERTEX
  8
Default
 10
144.0
 20
1030.0
 42
0.0
  0
VERTEX
  8
Default
 10
144.0
 20
1043.0
 42
0.0
  0
VERTEX
  8
Default
 10
146.615385
 20
1052.076923
 42
0.0
  0
VERTEX
  8
Default
 10
147.6
 20
1055.8
 42
0.0
  0
VERTEX
  8
Default
 10
152.769231
 20
1066.153846
 42
0.0
  0
VERTEX
  8
Default
 10
156.756098
 20
1071.195122
 42
0.0
  0
VERTEX
  8
Default
 10
158.0
 20
1073.0
 42
0.0
  0
VERTEX
  8
Default
 10
160.0
 20
1074.0
 42
0.0
  0
VERTEX
  8
Default
 10
160.0
 20
1075.0
 42
0.0
  0
VERTEX
  8
Default
 10
160.243902
 20
1075.804878
 42
0.0
  0
VERTEX
  8
Default
 10
164.0
 20
1081.0
 42
0.0
  0
VERTEX
  8
Default
 10
169.0
 20
1086.0
 42
0.0
  0
VERTEX
  8
Default
 10
175.9
 20
1089.3
 42
0.0
  0
VERTEX
  8
Default
 10
177.1
 20
1089.7
 42
0.0
  0
VERTEX
  8
Default
 10
180.0
 20
1091.0
 42
0.0
  0
VERTEX
  8
Default
 10
201.0
 20
1091.0
 42
0.0
  0
VERTEX
  8
Default
 10
213.1
 20
1086.2
 42
0.0
  0
VERTEX
  8
Default
 10
216.846154
 20
1083.769231
 42
0.0
  0
VERTEX
  8
Default
 10
229.0
 20
1076.0
 42
0.0
  0
VERTEX
  8
Default
 10
237.0
 20
1068.0
 42
0.0
  0
VERTEX
  8
Default
 10
240.0
 20
1063.0
 42
0.0
  0
VERTEX
  8
Default
 10
240.0
 20
1062.0
 42
0.0
  0
VERTEX
  8
Default
 10
241.0
 20
1062.0
 42
0.0
  0
VERTEX
  8
Default
 10
242.24
 20
1060.18
 42
0.0
  0
VERTEX
  8
Default
 10
247.4
 20
1051.2
 42
0.0
  0
VERTEX
  8
Default
 10
250.482759
 20
1043.793103
 42
0.0
  0
VERTEX
  8
Default
 10
254.594595
 20
1031.932432
 42
0.0
  0
VERTEX
  8
Default
 10
256.3
 20
1024.1
 42
0.0
  0
VERTEX
  8
Default
 10
257.560976
 20
1013.95122
 42
0.0
  0
VERTEX
  8
Default
 10
259.0
 20
1000.0
 42
0.0
  0
VERTEX
  8
Default
 10
259.0
 20
999.0
 42
0.0
  0
SEQEND
  0
POLYLINE
  8
Default
 66
     1
 10
0.0
 20
0.0
 30
0.0
 70
     0
  0
VERTEX
  8
Default
 10
721.0
 20
941.0
 42
0.0
  0
VERTEX
  8
Default
 10
721.0
 20
942.0
 42
0.0
  0
VERTEX
  8
Default
 10
729.3
 20
962.9
 42
0.0
  0
VERTEX
  8
Default
 10
730.0
 20
964.0
 42
0.0
  0
VERTEX
  8
Default
 10
730.0
 20
965.0
 42
0.0
  0
VERTEX
  8
Default
 10
730.0
 20
966.0
 42
0.0
  0
VERTEX
  8
Default
 10
729.0
 20
969.0
 42
0.0
  0
VERTEX
  8
Default
 10
729.0
 20
978.0
 42
0.0
  0
VERTEX
  8
Default
 10
730.769231
 20
980.153846
 42
0.0
  0
VERTEX
  8
Default
 10
732.0
 20
983.0
 42
0.0
  0
VERTEX
  8
Default
 10
739.0
 20
989.0
 42
0.0
  0
VERTEX
  8
Default
 10
746.0
 20
989.0
 42
0.0
  0
VERTEX
  8
Default
 10
747.1
 20
988.3
 42
0.0
  0
VERTEX
  8
Default
 10
749.0
 20
988.0
 42
0.0
  0
VERTEX
  8
Default
 10
755.0
 20
982.0
 42
0.0
  0
VERTEX
  8
Default
 10
755.8
 20
979.9
 42
0.0
  0
VERTEX
  8
Default
 10
757.0
 20
978.0
 42
0.0
  0
VERTEX
  8
Default
 10
757.0
 20
973.0
 42
0.0
  0
VERTEX
  8
Default
 10
754.0
 20
965.0
 42
0.0
  0
VERTEX
  8
Default
 10
752.153846
 20
963.769231
 42
0.0
  0
VERTEX
  8
Default
 10
747.0
 20
960.0
 42
0.0
  0
VERTEX
  8
Default
 10
739.0
 20
960.0
 42
0.0
  0
VERTEX
  8
Default
 10
731.846154
 20
964.769231
 42
0.0
  0
VERTEX
  8
Default
 10
731.0
 20
965.0
 42
0.0
  0
VERTEX
  8
Default
 10
730.0
 20
965.0
 42
0.0
  0
SEQEND
  0
POLYLINE
  8
Default
 66
     1
 10
0.0
 20
0.0
 30
0.0
 70
     0
  0
VERTEX
  8
Default
 10
708.0
 20
950.0
 42
0.0
  0
VERTEX
  8
Default
 10
708.0
 20
951.0
 42
0.0
  0
VERTEX
  8
Default
 10
691.230769
 20
974.153846
 42
0.0
  0
VERTEX
  8
Default
 10
686.2
 20
983.1
 42
0.0
  0
VERTEX
  8
Default
 10
680.0
 20
997.0
 42
0.0
  0
VERTEX
  8
Default
 10
680.0
 20
998.0
 42
0.0
  0
VERTEX
  8
Default
 10
679.0
 20
998.0
 42
0.0
  0
VERTEX
  8
Default
 10
675.9
 20
998.7
 42
0.0
  0
VERTEX
  8
Default
 10
669.153846
 20
1001.230769
 42
0.0
  0
VERTEX
  8
Default
 10
666.1
 20
1003.2
 42
0.0
  0
VERTEX
  8
Default
 10
663.0
 20
1005.0
 42
0.0
  0
VERTEX
  8
Default
 10
659.6
 20
1011.2
 42
0.0
  0
VERTEX
  8
Default
 10
658.384615
 20
1016.076923
 42
0.0
  0
VERTEX
  8
Default
 10
657.0
 20
1023.0
 42
0.0
  0
VERTEX
  8
Default
 10
657.7
 20
1024.1
 42
0.0
  0
VERTEX
  8
Default
 10
660.0
 20
1030.0
 42
0.0
  0
VERTEX
  8
Default
 10
666.0
 20
1035.0
 42
0.0
  0
VERTEX
  8
Default
 10
672.0
 20
1035.0
 42
0.0
  0
VERTEX
  8
Default
 10
677.9
 20
1032.8
 42
0.0
  0
VERTEX
  8
Default
 10
682.153846
 20
1030.230769
 42
0.0
  0
VERTEX
  8
Default
 10
683.0
 20
1030.0
 42
0.0
  0
VERTEX
  8
Default
 10
691.0
 20
1022.0
 42
0.0
  0
VERTEX
  8
Default
 10
691.517241
 20
1019.206897
 42
0.0
  0
VERTEX
  8
Default
 10
693.0
 20
1017.0
 42
0.0
  0
VERTEX
  8
Default
 10
693.0
 20
1009.0
 42
0.0
  0
VERTEX
  8
Default
 10
692.3
 20
1007.9
 42
0.0
  0
VERTEX
  8
Default
 10
692.0
 20
1006.0
 42
0.0
  0
VERTEX
  8
Default
 10
688.0
 20
1002.0
 42
0.0
  0
VERTEX
  8
Default
 10
682.2
 20
1000.4
 42
0.0
  0
VERTEX
  8
Default
 10
680.0
 20
999.0
 42
0.0
  0
VERTEX
  8
Default
 10
680.0
 20
998.0
 42
0.0
  0
SEQEND
  0
POLYLINE
  8
Default
 66
     1
 10
0.0
 20
0.0
 30
0.0
 70
     1
  0
VERTEX
  8
Default
 10
965.0
 20
998.0
 42
0.0
  0
VERTEX
  8
Default
 10
965.0
 20
999.0
 42
0.0
  0
VERTEX
  8
Default
 10
966.1
 20
999.8
 42
0.0
  0
VERTEX
  8
Default
 10
968.0
 20
1001.0
 42
0.0
  0
VERTEX
  8
Default
 10
968.0
 20
1002.0
 42
0.0
  0
VERTEX
  8
Default
 10
974.0
 20
1008.0
 42
0.0
  0
VERTEX
  8
Default
 10
974.9
 20
1008.2
 42
0.0
  0
VERTEX
  8
Default
 10
976.1
 20
1008.8
 42
0.0
  0
VERTEX
  8
Default
 10
978.0
 20
1010.0
 42
0.0
  0
VERTEX
  8
Default
 10
983.0
 20
1010.0
 42
0.0
  0
VERTEX
  8
Default
 10
988.1
 20
1008.2
 42
0.0
  0
VERTEX
  8
Default
 10
988.9
 20
1007.8
 42
0.0
  0
VERTEX
  8
Default
 10
992.0
 20
1007.0
 42
0.0
  0
VERTEX
  8
Default
 10
996.0
 20
1003.0
 42
0.0
  0
VERTEX
  8
Default
 10
996.2
 20
1002.1
 42
0.0
  0
VERTEX
  8
Default
 10
996.7
 20
1000.9
 42
0.0
  0
VERTEX
  8
Default
 10
998.0
 20
998.0
 42
0.0
  0
VERTEX
  8
Default
 10
998.0
 20
991.0
 42
0.0
  0
VERTEX
  8
Default
 10
997.384615
 20
989.923077
 42
0.0
  0
VERTEX
  8
Default
 10
996.2
 20
984.9
 42
0.0
  0
VERTEX
  8
Default
 10
993.0
 20
980.0
 42
0.0
  0
VERTEX
  8
Default
 10
988.0
 20
976.0
 42
0.0
  0
VERTEX
  8
Default
 10
982.06
 20
975.58
 42
0.0
  0
VERTEX
  8
Default
 10
980.0
 20
975.0
 42
0.0
  0
VERTEX
  8
Default
 10
974.1
 20
977.2
 42
0.0
  0
VERTEX
  8
Default
 10
972.0
 20
978.0
 42
0.0
  0
VERTEX
  8
Default
 10
967.0
 20
983.0
 42
0.0
  0
VERTEX
  8
Default
 10
965.0
 20
986.0
 42
0.0
  0
VERTEX
  8
Default
 10
965.0
 20
997.0
 42
0.0
  0
SEQEND
  0
POLYLINE
  8
Default
 66
     1
 10
0.0
 20
0.0
 30
0.0
 70
     0
  0
VERTEX
  8
Default
 10
943.0
 20
991.0
 42
0.0
  0
VERTEX
  8
Default
 10
950.0
 20
999.0
 42
0.0
  0
VERTEX
  8
Default
 10
950.517241
 20
1001.793103
 42
0.0
  0
VERTEX
  8
Default
 10
953.230769
 20
1006.846154
 42
0.0
  0
VERTEX
  8
Default
 10
966.0
 20
1026.0
 42
0.0
  0
VERTEX
  8
Default
 10
976.0
 20
1036.0
 42
0.0
  0
VERTEX
  8
Default
 10
990.0
 20
1048.0
 42
0.0
  0
VERTEX
  8
Default
 10
991.0
 20
1048.0
 42
0.0
  0
VERTEX
  8
Default
 10
991.0
 20
1049.0
 42
0.0
  0
VERTEX
  8
Default
 10
991.58
 20
1050.06
 42
0.0
  0
VERTEX
  8
Default
 10
993.42
 20
1062.94
 42
0.0
  0
VERTEX
  8
Default
 10
994.24
 20
1064.82
 42
0.0
  0
VERTEX
  8
Default
 10
996.76
 20
1068.18
 42
0.0
  0
VERTEX
  8
Default
 10
999.0
 20
1071.0
 42
0.0
  0
VERTEX
  8
Default
 10
1002.0
 20
1073.0
 42
0.0
  0
VERTEX
  8
Default
 10
1005.0
 20
1073.0
 42
0.0
  0
VERTEX
  8
Default
 10
1008.0
 20
1073.0
 42
0.0
  0
VERTEX
  8
Default
 10
1017.0
 20
1069.0
 42
0.0
  0
VERTEX
  8
Default
 10
1022.0
 20
1064.0
 42
0.0
  0
VERTEX
  8
Default
 10
1022.2
 20
1063.1
 42
0.0
  0
VERTEX
  8
Default
 10
1024.0
 20
1060.0
 42
0.0
  0
VERTEX
  8
Default
 10
1024.0
 20
1052.0
 42
0.0
  0
VERTEX
  8
Default
 10
1022.0
 20
1049.0
 42
0.0
  0
VERTEX
  8
Default
 10
1016.0
 20
1043.0
 42
0.0
  0
VERTEX
  8
Default
 10
1006.0
 20
1038.0
 42
0.0
  0
VERTEX
  8
Default
 10
1001.088235
 20
1039.352941
 42
0.0
  0
VERTEX
  8
Default
 10
999.0
 20
1040.0
 42
0.0
  0
VERTEX
  8
Default
 10
992.0
 20
1048.0
 42
0.0
  0
VERTEX
  8
Default
 10
991.0
 20
1048.0
 42
0.0
  0
SEQEND
  0
POLYLINE
  8
Default
 66
     1
 10
0.0
 20
0.0
 30
0.0
 70
     0
  0
VERTEX
  8
Default
 10
950.0
 20
999.0
 42
0.0
  0
VERTEX
  8
Default
 10
952.0
 20
997.0
 42
0.0
  0
VERTEX
  8
Default
 10
955.0
 20
997.0
 42
0.0
  0
VERTEX
  8
Default
 10
956.04878
 20
997.560976
 42
0.0
  0
VERTEX
  8
Default
 10
964.0
 20
998.0
 42
0.0
  0
VERTEX
  8
Default
 10
965.0
 20
998.0
 42
0.0
  0
SEQEND
  0
POLYLINE
  8
Default
 66
     1
 10
0.0
 20
0.0
 30
0.0
 70
     0
  0
VERTEX
  8
Default
 10
180.0
 20
1007.0
 42
0.0
  0
VERTEX
  8
Default
 10
180.0
 20
1008.0
 42
0.0
  0
VERTEX
  8
Default
 10
183.517241
 20
1018.793103
 42
0.0
  0
VERTEX
  8
Default
 10
189.0
 20
1029.0
 42
0.0
  0
VERTEX
  8
Default
 10
212.0
 20
1049.0
 42
0.0
  0
VERTEX
  8
Default
 10
212.0
 20
1050.0
 42
0.0
  0
VERTEX
  8
Default
 10
198.768493
 20
1062.750685
 42
0.0
  0
VERTEX
  8
Default
 10
191.8
 20
1066.6
 42
0.0
  0
VERTEX
  8
Default
 10
190.2
 20
1067.4
 42
0.0
  0
VERTEX
  8
Default
 10
182.811321
 20
1070.339623
 42
0.0
  0
VERTEX
  8
Default
 10
178.067568
 20
1071.405405
 42
0.0
  0
VERTEX
  8
Default
 10
174.967005
 20
1072.538071
 42
0.0
  0
VERTEX
  8
Default
 10
162.032995
 20
1073.461929
 42
0.0
  0
VERTEX
  8
Default
 10
161.0
 20
1074.0
 42
0.0
  0
VERTEX
  8
Default
 10
160.0
 20
1074.0
 42
0.0
  0
SEQEND
  0
POLYLINE
  8
Default
 66
     1
 10
0.0
 20
0.0
 30
0.0
 70
     0
  0
VERTEX
  8
Default
 10
405.0
 20
1036.0
 42
0.0
  0
VERTEX
  8
Default
 10
405.0
 20
1037.0
 42
0.0
  0
VERTEX
  8
Default
 10
404.0
 20
1038.0
 42
0.0
  0
VERTEX
  8
Default
 10
403.0
 20
1038.0
 42
0.0
  0
SEQEND
  0
POLYLINE
  8
Default
 66
     1
 10
0.0
 20
0.0
 30
0.0
 70
     0
  0
VERTEX
  8
Default
 10
240.0
 20
1062.0
 42
0.0
  0
VERTEX
  8
Default
 10
238.153846
 20
1060.769231
 42
0.0
  0
VERTEX
  8
Default
 10
217.1
 20
1050.7
 42
0.0
  0
VERTEX
  8
Default
 10
213.0
 20
1050.0
 42
0.0
  0
VERTEX
  8
Default
 10
212.0
 20
1050.0
 42
0.0
  0
SEQEND
  0
POLYLINE
  8
Default
 66
     1
 10
0.0
 20
0.0
 30
0.0
 70
     0
  0
VERTEX
  8
Default
 10
503.0
 20
1106.0
 42
0.0
  0
VERTEX
  8
Default
 10
502.0
 20
1106.0
 42
0.0
  0
VERTEX
  8
Default
 10
501.0
 20
1107.0
 42
0.0
  0
VERTEX
  8
Default
 10
501.0
 20
1108.0
 42
0.0
  0
SEQEND
  0
ENDSEC
  0
EOF
