  0
SECTION
  2
HEADER
  9
$CLAYER
  8
0
  9
$VIEWDIR
 10
0.0
 20
0.0
 30
1.0
999
DXF Unit: INCH
  9
$LIMMAX
 10
53.035
 20
76.225
  9
$LIMMIN
 10
7.29
 20
63.373
  0
ENDSEC
  0
SECTION
  2
TABLES
  0
TABLE
  2
LTYPE
 70
    12
  0
LTYPE
  2
CONTINUOUS
  3
Solid
 70
     0
 72
    65
 73
     0
 40
0
  0
LTYPE
  2
HIDDEN
  3
Short Dashed
 70
     0
 72
    65
 73
     2
 40
0.68618
 49
0.45745
 49
-0.22873
  0
LTYPE
  2
DASHED
  3
Dashed
 70
     0
 72
    65
 73
     2
 40
1.37235
 49
0.68618
 49
-0.68618
  0
LTYPE
  2
LONGDASH
  3
Long Dash
 70
     0
 72
    65
 73
     2
 40
1.37235
 49
0.9149
 49
-0.45745
  0
LTYPE
  2
DOT
  3
Short Dotted
 70
     0
 72
    65
 73
     2
 40
0.22873
 49
0
 49
-0.22873
  0
LTYPE
  2
LONGDOT
  3
Dotted
 70
     0
 72
    65
 73
     2
 40
0.45745
 49
0
 49
-0.45745
  0
LTYPE
  2
DASHDOT
  3
Dot Center
 70
     0
 72
    65
 73
     4
 40
0.9149
 49
0.45745
 49
-0.22873
 49
0
 49
-0.22873
  0
LTYPE
  2
DIVIDE
  3
Dash Dot Dot
 70
     0
 72
    65
 73
     6
 40
1.14363
 49
0.45745
 49
-0.22873
 49
0
 49
-0.22873
 49
0
 49
-0.22873
  0
LTYPE
  2
CENTER
  3
Dash Center
 70
     0
 72
    65
 73
     4
 40
1.02926
 49
0.45745
 49
-0.22873
 49
0.11436
 49
-0.22873
  0
LTYPE
  2
LONGCENTER
  3
Long Center
 70
     0
 72
    65
 73
     4
 40
1.48671
 49
0.9149
 49
-0.22873
 49
0.11436
 49
-0.22873
  0
LTYPE
  2
PHANTOM
  3
Phantom
 70
     0
 72
    65
 73
     6
 40
1.37235
 49
0.45745
 49
-0.22873
 49
0.11436
 49
-0.22873
 49
0.11436
 49
-0.22873
  0
LTYPE
  2
LONGPHANTOM
  3
Long Phantom
 70
     0
 72
    65
 73
     6
 40
1.8298
 49
0.9149
 49
-0.22873
 49
0.11436
 49
-0.22873
 49
0.11436
 49
-0.22873
  0
ENDTAB
  0
TABLE
  2
LAYER
 70
     2
  0
LAYER
  2
0
 62
     1
  6
CONTINUOUS
 70
     0
  0
LAYER
  2
janitáp_LPDP1
 62
     1
  6
CONTINUOUS
 70
     0
  0
ENDTAB
  0
TABLE
  2
STYLE
 70
     4
  0
STYLE
  2
FONT0
 70
     0
 40
1
 41
1
 50
0
 71
     0
 42
1
  3
txt
  4

  0
STYLE
  2
FONT1
 70
     0
 40
1
 41
1
 50
0
 71
     0
 42
1
  3
txt
  4

  0
STYLE
  2
FONT2
 70
     0
 40
1
 41
1
 50
0
 71
     0
 42
1
  3
txt
  4

  0
STYLE
  2
FONT3
 70
     0
 40
1
 41
1
 50
0
 71
     0
 42
1
  3
txt
  4

  0
ENDTAB
  0
ENDSEC
  0
SECTION
  2
BLOCKS
  0
BLOCK
  8
0
  2
F_012
 70
     0
 10
0
 20
0
  0
CIRCLE
  8
0
 10
0
 20
0
 40
1.651
  0
ENDBLK
  8
0
  0
BLOCK
  8
0
  2
F_016
 70
     0
 10
0
 20
0
  0
CIRCLE
  8
0
 10
0
 20
0
 40
1.905
  0
ENDBLK
  8
0
  0
BLOCK
  8
0
  2
F_018
 70
     0
 10
0
 20
0
  0
POLYLINE
  8
0
 66
     1
 70
     1
  0
VERTEX
  8
0
 10
1.905
 20
1.905
  0
VERTEX
  8
0
 10
-1.905
 20
1.905
  0
VERTEX
  8
0
 10
-1.905
 20
-1.905
  0
VERTEX
  8
0
 10
1.905
 20
-1.905
  0
SEQEND
  8
0
  0
ENDBLK
  8
0
  0
ENDSEC
  0
SECTION
  2
ENTITIES
  0
POLYLINE
  8
janitáp_LPDP1
 66
     1
 70
     1
  0
VERTEX
  8
janitáp_LPDP1
 10
22.276
 20
65.532
 42
-1
  0
VERTEX
  8
janitáp_LPDP1
 10
23.546
 20
65.532
  0
VERTEX
  8
janitáp_LPDP1
 10
23.546
 20
65.456
 42
-1
  0
VERTEX
  8
janitáp_LPDP1
 10
22.276
 20
65.456
  0
SEQEND
  8
janitáp_LPDP1
  0
POLYLINE
  8
janitáp_LPDP1
 66
     1
 70
     1
  0
VERTEX
  8
janitáp_LPDP1
 10
22.784
 20
69.977
 42
-1
  0
VERTEX
  8
janitáp_LPDP1
 10
22.784
 20
71.247
  0
VERTEX
  8
janitáp_LPDP1
 10
22.911
 20
71.247
 42
-1
  0
VERTEX
  8
janitáp_LPDP1
 10
22.911
 20
69.977
  0
SEQEND
  8
janitáp_LPDP1
  0
INSERT
  8
janitáp_LPDP1
  2
F_012
 10
36.373
 20
70.358
  0
INSERT
  8
janitáp_LPDP1
  2
F_012
 10
36.373
 20
65.278
  0
POLYLINE
  8
janitáp_LPDP1
 66
     1
 70
     1
  0
VERTEX
  8
janitáp_LPDP1
 10
31.623
 20
67.234
 42
-1
  0
VERTEX
  8
janitáp_LPDP1
 10
31.623
 20
68.25
  0
VERTEX
  8
janitáp_LPDP1
 10
38.837
 20
68.25
 42
-1
  0
VERTEX
  8
janitáp_LPDP1
 10
38.837
 20
67.234
  0
SEQEND
  8
janitáp_LPDP1
  0
POLYLINE
  8
janitáp_LPDP1
 66
     1
 70
     1
  0
VERTEX
  8
janitáp_LPDP1
 10
30.607
 20
70.485
 42
-1
  0
VERTEX
  8
janitáp_LPDP1
 10
32.639
 20
70.485
  0
VERTEX
  8
janitáp_LPDP1
 10
32.639
 20
67.742
 42
-1
  0
VERTEX
  8
janitáp_LPDP1
 10
30.607
 20
67.742
  0
SEQEND
  8
janitáp_LPDP1
  0
POLYLINE
  8
janitáp_LPDP1
 66
     1
 70
     1
  0
VERTEX
  8
janitáp_LPDP1
 10
22.896
 20
69.596
 42
-1
  0
VERTEX
  8
janitáp_LPDP1
 10
22.926
 20
71.628
  0
VERTEX
  8
janitáp_LPDP1
 10
31.638
 20
71.501
 42
-1
  0
VERTEX
  8
janitáp_LPDP1
 10
31.608
 20
69.469
  0
SEQEND
  8
janitáp_LPDP1
  0
POLYLINE
  8
janitáp_LPDP1
 66
     1
 70
     1
  0
VERTEX
  8
janitáp_LPDP1
 10
9.195
 20
69.596
 42
-1
  0
VERTEX
  8
janitáp_LPDP1
 10
9.195
 20
71.628
  0
VERTEX
  8
janitáp_LPDP1
 10
22.784
 20
71.628
 42
-1
  0
VERTEX
  8
janitáp_LPDP1
 10
22.784
 20
69.596
  0
SEQEND
  8
janitáp_LPDP1
  0
POLYLINE
  8
janitáp_LPDP1
 66
     1
 70
     1
  0
VERTEX
  8
janitáp_LPDP1
 10
22.911
 20
66.472
 42
-1
  0
VERTEX
  8
janitáp_LPDP1
 10
22.911
 20
64.44
  0
VERTEX
  8
janitáp_LPDP1
 10
9.195
 20
64.44
 42
-1
  0
VERTEX
  8
janitáp_LPDP1
 10
9.195
 20
66.472
  0
SEQEND
  8
janitáp_LPDP1
  0
POLYLINE
  8
janitáp_LPDP1
 66
     1
 70
     1
  0
VERTEX
  8
janitáp_LPDP1
 10
28.168
 20
66.293
 42
-1
  0
VERTEX
  8
janitáp_LPDP1
 10
28.068
 20
64.263
  0
VERTEX
  8
janitáp_LPDP1
 10
22.861
 20
64.517
 42
-1
  0
VERTEX
  8
janitáp_LPDP1
 10
22.961
 20
66.547
  0
SEQEND
  8
janitáp_LPDP1
  0
POLYLINE
  8
janitáp_LPDP1
 66
     1
 70
     1
  0
VERTEX
  8
janitáp_LPDP1
 10
36.373
 20
66.294
 42
-1
  0
VERTEX
  8
janitáp_LPDP1
 10
36.373
 20
64.262
  0
VERTEX
  8
janitáp_LPDP1
 10
28.118
 20
64.262
 42
-1
  0
VERTEX
  8
janitáp_LPDP1
 10
28.118
 20
66.294
  0
SEQEND
  8
janitáp_LPDP1
  0
POLYLINE
  8
janitáp_LPDP1
 66
     1
 70
     1
  0
VERTEX
  8
janitáp_LPDP1
 10
40.735
 20
71.076
 42
-1
  0
VERTEX
  8
janitáp_LPDP1
 10
42.171
 20
69.64
  0
VERTEX
  8
janitáp_LPDP1
 10
39.555
 20
67.024
 42
-1
  0
VERTEX
  8
janitáp_LPDP1
 10
38.119
 20
68.46
  0
SEQEND
  8
janitáp_LPDP1
  0
POLYLINE
  8
janitáp_LPDP1
 66
     1
 70
     1
  0
VERTEX
  8
janitáp_LPDP1
 10
46.995
 20
66.547
 42
-1
  0
VERTEX
  8
janitáp_LPDP1
 10
47.087
 20
64.517
  0
VERTEX
  8
janitáp_LPDP1
 10
41.499
 20
64.263
 42
-1
  0
VERTEX
  8
janitáp_LPDP1
 10
41.407
 20
66.293
  0
SEQEND
  8
janitáp_LPDP1
  0
POLYLINE
  8
janitáp_LPDP1
 66
     1
 70
     1
  0
VERTEX
  8
janitáp_LPDP1
 10
51.13
 20
66.548
 42
-1
  0
VERTEX
  8
janitáp_LPDP1
 10
51.13
 20
64.516
  0
VERTEX
  8
janitáp_LPDP1
 10
47.041
 20
64.516
 42
-1
  0
VERTEX
  8
janitáp_LPDP1
 10
47.041
 20
66.548
  0
SEQEND
  8
janitáp_LPDP1
  0
POLYLINE
  8
janitáp_LPDP1
 66
     1
 70
     1
  0
VERTEX
  8
janitáp_LPDP1
 10
46.961
 20
74.604
 42
-1
  0
VERTEX
  8
janitáp_LPDP1
 10
48.593
 20
75.814
  0
VERTEX
  8
janitáp_LPDP1
 10
51.946
 20
71.293
 42
-1
  0
VERTEX
  8
janitáp_LPDP1
 10
50.314
 20
70.083
  0
SEQEND
  8
janitáp_LPDP1
  0
POLYLINE
  8
janitáp_LPDP1
 66
     1
 70
     1
  0
VERTEX
  8
janitáp_LPDP1
 10
39.472
 20
74.193
 42
-1
  0
VERTEX
  8
janitáp_LPDP1
 10
39.472
 20
76.225
  0
VERTEX
  8
janitáp_LPDP1
 10
47.777
 20
76.225
 42
-1
  0
VERTEX
  8
janitáp_LPDP1
 10
47.777
 20
74.193
  0
SEQEND
  8
janitáp_LPDP1
  0
POLYLINE
  8
janitáp_LPDP1
 66
     1
 70
     1
  0
VERTEX
  8
janitáp_LPDP1
 10
37.229
 20
69.811
 42
-1
  0
VERTEX
  8
janitáp_LPDP1
 10
35.517
 20
70.905
  0
VERTEX
  8
janitáp_LPDP1
 10
38.616
 20
75.756
 42
-1
  0
VERTEX
  8
janitáp_LPDP1
 10
40.328
 20
74.662
  0
SEQEND
  8
janitáp_LPDP1
  0
INSERT
  8
janitáp_LPDP1
  2
F_016
 10
41.453
 20
65.278
  0
INSERT
  8
janitáp_LPDP1
  2
F_016
 10
51.13
 20
65.532
  0
INSERT
  8
janitáp_LPDP1
  2
F_016
 10
51.13
 20
70.688
  0
INSERT
  8
janitáp_LPDP1
  2
F_016
 10
22.911
 20
65.532
  0
INSERT
  8
janitáp_LPDP1
  2
F_016
 10
9.195
 20
65.456
  0
INSERT
  8
janitáp_LPDP1
  2
F_016
 10
9.195
 20
70.612
  0
INSERT
  8
janitáp_LPDP1
  2
F_018
 10
22.911
 20
70.612
  0
INSERT
  8
janitáp_LPDP1
  2
F_018
 10
41.453
 20
70.358
  0
ENDSEC
  0
EOF
