  0
SECTION
  2
HEADER
  9
$ACADVER
  1
AC1014
  9
$ACADMAINTVER
 70
     9
  9
$DWGCODEPAGE
  3
ANSI_1250
  9
$INSBASE
 10
0.0
 20
0.0
 30
0.0
  9
$EXTMIN
 10
-109.5427
 20
-78.5743
 30
0.0
  9
$EXTMAX
 10
106.3313
 20
80.2789
 30
0.0
  9
$LIMMIN
 10
0.0
 20
0.0
  9
$LIMMAX
 10
12.0
 20
9.0
  9
$ORTHOMODE
 70
     0
  9
$REGENMODE
 70
     1
  9
$FILLMODE
 70
     1
  9
$QTEXTMODE
 70
     0
  9
$MIRRTEXT
 70
     1
  9
$DRAGMODE
 70
     2
  9
$LTSCALE
 40
1.0
  9
$OSMODE
 70
    37
  9
$ATTMODE
 70
     1
  9
$TEXTSIZE
 40
0.2
  9
$TRACEWID
 40
0.05
  9
$TEXTSTYLE
  7
STANDARD
  9
$CLAYER
  8
0
  9
$CELTYPE
  6
BYLAYER
  9
$CECOLOR
 62
   256
  9
$CELTSCALE
 40
1.0
  9
$DELOBJ
 70
     1
  9
$DISPSILH
 70
     0
  9
$DIMSCALE
 40
1.0
  9
$DIMASZ
 40
0.18
  9
$DIMEXO
 40
0.0625
  9
$DIMDLI
 40
0.38
  9
$DIMRND
 40
0.0
  9
$DIMDLE
 40
0.0
  9
$DIMEXE
 40
0.18
  9
$DIMTP
 40
0.0
  9
$DIMTM
 40
0.0
  9
$DIMTXT
 40
0.18
  9
$DIMCEN
 40
0.09
  9
$DIMTSZ
 40
0.0
  9
$DIMTOL
 70
     0
  9
$DIMLIM
 70
     0
  9
$DIMTIH
 70
     1
  9
$DIMTOH
 70
     1
  9
$DIMSE1
 70
     0
  9
$DIMSE2
 70
     0
  9
$DIMTAD
 70
     0
  9
$DIMZIN
 70
     0
  9
$DIMBLK
  1

  9
$DIMASO
 70
     1
  9
$DIMSHO
 70
     1
  9
$DIMPOST
  1

  9
$DIMAPOST
  1

  9
$DIMALT
 70
     0
  9
$DIMALTD
 70
     2
  9
$DIMALTF
 40
25.4
  9
$DIMLFAC
 40
1.0
  9
$DIMTOFL
 70
     0
  9
$DIMTVP
 40
0.0
  9
$DIMTIX
 70
     0
  9
$DIMSOXD
 70
     0
  9
$DIMSAH
 70
     0
  9
$DIMBLK1
  1

  9
$DIMBLK2
  1

  9
$DIMSTYLE
  2
STANDARD
  9
$DIMCLRD
 70
     0
  9
$DIMCLRE
 70
     0
  9
$DIMCLRT
 70
     0
  9
$DIMTFAC
 40
1.0
  9
$DIMGAP
 40
0.09
  9
$DIMJUST
 70
     0
  9
$DIMSD1
 70
     0
  9
$DIMSD2
 70
     0
  9
$DIMTOLJ
 70
     1
  9
$DIMTZIN
 70
     0
  9
$DIMALTZ
 70
     0
  9
$DIMALTTZ
 70
     0
  9
$DIMFIT
 70
     3
  9
$DIMUPT
 70
     0
  9
$DIMUNIT
 70
     2
  9
$DIMDEC
 70
     4
  9
$DIMTDEC
 70
     4
  9
$DIMALTU
 70
     2
  9
$DIMALTTD
 70
     2
  9
$DIMTXSTY
  7
STANDARD
  9
$DIMAUNIT
 70
     0
  9
$LUNITS
 70
     2
  9
$LUPREC
 70
     4
  9
$SKETCHINC
 40
0.1
  9
$FILLETRAD
 40
0.5
  9
$AUNITS
 70
     0
  9
$AUPREC
 70
     0
  9
$MENU
  1
.
  9
$ELEVATION
 40
0.0
  9
$PELEVATION
 40
0.0
  9
$THICKNESS
 40
0.0
  9
$LIMCHECK
 70
     0
  9
$CHAMFERA
 40
0.5
  9
$CHAMFERB
 40
0.5
  9
$CHAMFERC
 40
1.0
  9
$CHAMFERD
 40
0.0
  9
$SKPOLY
 70
     0
  9
$TDCREATE
 40
2457189.438907674
  9
$TDUPDATE
 40
2457189.438907685
  9
$TDINDWG
 40
0.0000000116
  9
$TDUSRTIMER
 40
0.0000000116
  9
$USRTIMER
 70
     1
  9
$ANGBASE
 50
0.0
  9
$ANGDIR
 70
     0
  9
$PDMODE
 70
     0
  9
$PDSIZE
 40
0.0
  9
$PLINEWID
 40
0.0
  9
$COORDS
 70
     1
  9
$SPLFRAME
 70
     0
  9
$SPLINETYPE
 70
     6
  9
$SPLINESEGS
 70
     8
  9
$ATTDIA
 70
     0
  9
$ATTREQ
 70
     1
  9
$HANDLING
 70
     1
  9
$HANDSEED
  5
114
  9
$SURFTAB1
 70
     6
  9
$SURFTAB2
 70
     6
  9
$SURFTYPE
 70
     6
  9
$SURFU
 70
     6
  9
$SURFV
 70
     6
  9
$UCSNAME
  2

  9
$UCSORG
 10
0.0
 20
0.0
 30
0.0
  9
$UCSXDIR
 10
1.0
 20
0.0
 30
0.0
  9
$UCSYDIR
 10
0.0
 20
1.0
 30
0.0
  9
$PUCSNAME
  2

  9
$PUCSORG
 10
0.0
 20
0.0
 30
0.0
  9
$PUCSXDIR
 10
1.0
 20
0.0
 30
0.0
  9
$PUCSYDIR
 10
0.0
 20
1.0
 30
0.0
  9
$USERI1
 70
     0
  9
$USERI2
 70
     0
  9
$USERI3
 70
     0
  9
$USERI4
 70
     0
  9
$USERI5
 70
     0
  9
$USERR1
 40
0.0
  9
$USERR2
 40
0.0
  9
$USERR3
 40
0.0
  9
$USERR4
 40
0.0
  9
$USERR5
 40
0.0
  9
$WORLDVIEW
 70
     1
  9
$SHADEDGE
 70
     3
  9
$SHADEDIF
 70
    70
  9
$TILEMODE
 70
     1
  9
$MAXACTVP
 70
    64
  9
$PINSBASE
 10
0.0
 20
0.0
 30
0.0
  9
$PLIMCHECK
 70
     0
  9
$PEXTMIN
 10
1.000000000000000E+20
 20
1.000000000000000E+20
 30
1.000000000000000E+20
  9
$PEXTMAX
 10
-1.000000000000000E+20
 20
-1.000000000000000E+20
 30
-1.000000000000000E+20
  9
$PLIMMIN
 10
0.0
 20
0.0
  9
$PLIMMAX
 10
12.0
 20
9.0
  9
$UNITMODE
 70
     0
  9
$VISRETAIN
 70
     1
  9
$PLINEGEN
 70
     0
  9
$PSLTSCALE
 70
     1
  9
$TREEDEPTH
 70
  3020
  9
$PICKSTYLE
 70
     1
  9
$CMLSTYLE
  2
STANDARD
  9
$CMLJUST
 70
     0
  9
$CMLSCALE
 40
1.0
  9
$PROXYGRAPHICS
 70
     1
  9
$MEASUREMENT
 70
     0
  0
ENDSEC
  0
SECTION
  2
CLASSES
  0
CLASS
  1
ACDBDICTIONARYWDFLT
  2
AcDbDictionaryWithDefault
  3
ObjectDBX Classes
 90
        0
280
     0
281
     0
  0
CLASS
  1
VISUALSTYLE
  2
AcDbVisualStyle
  3
ObjectDBX Classes
 90
     4095
280
     0
281
     0
  0
CLASS
  1
SCALE
  2
AcDbScale
  3
ObjectDBX Classes
 90
     1153
280
     0
281
     0
  0
CLASS
  1
DICTIONARYVAR
  2
AcDbDictionaryVar
  3
ObjectDBX Classes
 90
        0
280
     0
281
     0
  0
CLASS
  1
XRECORD
  2
AcDbXrecord
  3
AutoCAD 2000
 90
        0
280
     0
281
     0
  0
CLASS
  1
LWPOLYLINE
  2
AcDbPolyline
  3
AutoCAD 2000
 90
        0
280
     0
281
     1
  0
CLASS
  1
HATCH
  2
AcDbHatch
  3
AutoCAD 2000
 90
        0
280
     0
281
     1
  0
CLASS
  1
ACDBPLACEHOLDER
  2
AcDbPlaceHolder
  3
ObjectDBX Classes
 90
        0
280
     0
281
     0
  0
CLASS
  1
LAYOUT
  2
AcDbLayout
  3
ObjectDBX Classes
 90
        0
280
     0
281
     0
  0
ENDSEC
  0
SECTION
  2
TABLES
  0
TABLE
  2
VPORT
  5
8
330
0
100
AcDbSymbolTable
 70
     1
  0
VPORT
  5
29
330
8
100
AcDbSymbolTableRecord
100
AcDbViewportTableRecord
  2
*ACTIVE
 70
     0
 10
0.0
 20
0.0
 11
1.0
 21
1.0
 12
10.42990654205607
 22
4.5
 13
0.0
 23
0.0
 14
0.5
 24
0.5
 15
0.5
 25
0.5
 16
0.0
 26
0.0
 36
1.0
 17
0.0
 27
0.0
 37
0.0
 40
9.0
 41
1.972972972850329
 42
50.0
 43
0.0
 44
0.0
 50
0.0
 51
0.0
 71
     0
 72
   100
 73
     1
 74
     3
 75
     0
 76
     0
 77
     0
 78
     0
  0
ENDTAB
  0
TABLE
  2
LTYPE
  5
5
330
0
100
AcDbSymbolTable
 70
     1
  0
LTYPE
  5
14
330
5
100
AcDbSymbolTableRecord
100
AcDbLinetypeTableRecord
  2
BYBLOCK
 70
     0
  3

 72
    65
 73
     0
 40
0.0
  0
LTYPE
  5
15
330
5
100
AcDbSymbolTableRecord
100
AcDbLinetypeTableRecord
  2
BYLAYER
 70
     0
  3

 72
    65
 73
     0
 40
0.0
  0
LTYPE
  5
16
330
5
100
AcDbSymbolTableRecord
100
AcDbLinetypeTableRecord
  2
CONTINUOUS
 70
     0
  3
Solid line
 72
    65
 73
     0
 40
0.0
  0
ENDTAB
  0
TABLE
  2
LAYER
  5
2
330
0
100
AcDbSymbolTable
 70
     2
  0
LAYER
  5
10
330
2
100
AcDbSymbolTableRecord
100
AcDbLayerTableRecord
  2
0
 70
     0
 62
     7
  6
CONTINUOUS
  0
LAYER
  5
5E
330
2
100
AcDbSymbolTableRecord
100
AcDbLayerTableRecord
  2
LAYER_1
 70
     0
 62
     7
  6
CONTINUOUS
  0
ENDTAB
  0
TABLE
  2
STYLE
  5
3
330
0
100
AcDbSymbolTable
 70
     1
  0
STYLE
  5
11
330
3
100
AcDbSymbolTableRecord
100
AcDbTextStyleTableRecord
  2
STANDARD
 70
     0
 40
0.0
 41
1.0
 50
0.0
 71
     0
 42
0.2
  3
txt
  4

  0
ENDTAB
  0
TABLE
  2
VIEW
  5
6
330
0
100
AcDbSymbolTable
 70
     0
  0
ENDTAB
  0
TABLE
  2
UCS
  5
7
330
0
100
AcDbSymbolTable
 70
     0
  0
ENDTAB
  0
TABLE
  2
APPID
  5
9
330
0
100
AcDbSymbolTable
 70
     2
  0
APPID
  5
12
330
9
100
AcDbSymbolTableRecord
100
AcDbRegAppTableRecord
  2
ACAD
 70
     0
  0
APPID
  5
5D
330
9
100
AcDbSymbolTableRecord
100
AcDbRegAppTableRecord
  2
ODA
 70
     0
  0
ENDTAB
  0
TABLE
  2
DIMSTYLE
  5
A
330
0
100
AcDbSymbolTable
 70
     1
  0
DIMSTYLE
105
27
330
A
100
AcDbSymbolTableRecord
100
AcDbDimStyleTableRecord
  2
STANDARD
 70
     0
  3

  4

  5

  6

  7

 40
1.0
 41
0.18
 42
0.0625
 43
0.38
 44
0.18
 45
0.0
 46
0.0
 47
0.0
 48
0.0
140
0.18
141
0.09
142
0.0
143
25.4
144
1.0
145
0.0
146
1.0
147
0.09
 71
     0
 72
     0
 73
     1
 74
     1
 75
     0
 76
     0
 77
     0
 78
     0
170
     0
171
     2
172
     0
173
     0
174
     0
175
     0
176
     0
177
     0
178
     0
270
     2
271
     4
272
     4
273
     2
274
     2
340
11
275
     0
280
     0
281
     0
282
     0
283
     1
284
     0
285
     0
286
     0
287
     3
288
     0
  0
ENDTAB
  0
TABLE
  2
BLOCK_RECORD
  5
1
330
0
100
AcDbSymbolTable
 70
     1
  0
BLOCK_RECORD
  5
1F
330
1
100
AcDbSymbolTableRecord
100
AcDbBlockTableRecord
  2
*MODEL_SPACE
  0
BLOCK_RECORD
  5
1B
330
1
100
AcDbSymbolTableRecord
100
AcDbBlockTableRecord
  2
*PAPER_SPACE
  0
ENDTAB
  0
ENDSEC
  0
SECTION
  2
BLOCKS
  0
BLOCK
  5
20
330
1F
100
AcDbEntity
  8
0
100
AcDbBlockBegin
  2
*MODEL_SPACE
 70
     0
 10
0.0
 20
0.0
 30
0.0
  3
*MODEL_SPACE
  1

  0
ENDBLK
  5
21
330
1F
100
AcDbEntity
  8
0
100
AcDbBlockEnd
  0
BLOCK
  5
1C
330
1B
100
AcDbEntity
 67
     1
  8
0
100
AcDbBlockBegin
  2
*PAPER_SPACE
 70
     0
 10
0.0
 20
0.0
 30
0.0
  3
*PAPER_SPACE
  1

  0
ENDBLK
  5
1D
330
1B
100
AcDbEntity
 67
     1
  8
0
100
AcDbBlockEnd
  0
ENDSEC
  0
SECTION
  2
ENTITIES
  0
SPLINE
  5
5F
330
1F
100
AcDbEntity
  8
LAYER_1
100
AcDbSpline
210
0.0
220
0.0
230
1.0
 70
    11
 71
     3
 72
    28
 73
    24
 74
     0
 42
0.0000000001
 43
0.0000000001
 40
0.0
 40
0.0
 40
0.0
 40
0.0
 40
0.1666666666666667
 40
0.1666666666666667
 40
0.1666666666666667
 40
0.1666666666666667
 40
0.3333333333333333
 40
0.3333333333333333
 40
0.3333333333333333
 40
0.3333333333333333
 40
0.5
 40
0.5
 40
0.5
 40
0.5
 40
0.6666666666666666
 40
0.6666666666666666
 40
0.6666666666666666
 40
0.6666666666666666
 40
0.8333333333333333
 40
0.8333333333333333
 40
0.8333333333333333
 40
0.8333333333333333
 40
1.0
 40
1.0
 40
1.0
 40
1.0
 10
63.0655
 20
-37.5896
 30
0.0
 10
63.0034
 20
-39.0632
 30
0.0
 10
68.2935
 20
-50.1105
 30
0.0
 10
69.6801
 20
-51.6125
 30
0.0
 10
69.6801
 20
-51.6125
 30
0.0
 10
70.45
 20
-52.0568
 30
0.0
 10
71.1022
 20
-52.4063
 30
0.0
 10
72.0614
 20
-52.4063
 30
0.0
 10
72.0614
 20
-52.4063
 30
0.0
 10
72.0614
 20
-52.4063
 30
0.0
 10
75.2364
 20
-52.4063
 30
0.0
 10
75.2364
 20
-52.4063
 30
0.0
 10
75.2364
 20
-52.4063
 30
0.0
 10
79.5075
 20
-52.4063
 30
0.0
 10
82.0923
 20
-50.7187
 30
0.0
 10
84.7617
 20
-47.3792
 30
0.0
 10
84.7617
 20
-47.3792
 30
0.0
 10
86.6065
 20
-45.0714
 30
0.0
 10
89.5239
 20
-40.591
 30
0.0
 10
89.5239
 20
-37.5896
 30
0.0
 10
89.5239
 20
-37.5896
 30
0.0
 10
86.5052
 20
-36.4178
 30
0.0
 10
67.5369
 20
-37.5896
 30
0.0
 10
63.0655
 20
-37.5896
 30
0.0
  0
SPLINE
  5
60
330
1F
100
AcDbEntity
  8
LAYER_1
100
AcDbSpline
210
0.0
220
0.0
230
1.0
 70
    11
 71
     3
 72
    36
 73
    32
 74
     0
 42
0.0000000001
 43
0.0000000001
 40
0.0
 40
0.0
 40
0.0
 40
0.0
 40
0.125
 40
0.125
 40
0.125
 40
0.125
 40
0.25
 40
0.25
 40
0.25
 40
0.25
 40
0.375
 40
0.375
 40
0.375
 40
0.375
 40
0.5
 40
0.5
 40
0.5
 40
0.5
 40
0.625
 40
0.625
 40
0.625
 40
0.625
 40
0.75
 40
0.75
 40
0.75
 40
0.75
 40
0.875
 40
0.875
 40
0.875
 40
0.875
 40
1.0
 40
1.0
 40
1.0
 40
1.0
 10
-93.0386
 20
-37.8542
 30
0.0
 10
-92.8924
 20
-39.7572
 30
0.0
 10
-89.3691
 20
-45.6203
 30
0.0
 10
-88.1098
 20
-47.3792
 30
0.0
 10
-88.1098
 20
-47.3792
 30
0.0
 10
-85.6078
 20
-50.8741
 30
0.0
 10
-82.8293
 20
-52.4063
 30
0.0
 10
-78.7511
 20
-52.4063
 30
0.0
 10
-78.7511
 20
-52.4063
 30
0.0
 10
-78.7511
 20
-52.4063
 30
0.0
 10
-75.5761
 20
-52.4063
 30
0.0
 10
-75.5761
 20
-52.4063
 30
0.0
 10
-75.5761
 20
-52.4063
 30
0.0
 10
-74.4383
 20
-52.4063
 30
0.0
 10
-73.576
 20
-51.8932
 30
0.0
 10
-72.6656
 20
-51.3479
 30
0.0
 10
-72.6656
 20
-51.3479
 30
0.0
 10
-71.3486
 20
-49.149
 30
0.0
 10
-70.3232
 20
-46.8219
 30
0.0
 10
-69.2979
 20
-44.4688
 30
0.0
 10
-69.2979
 20
-44.4688
 30
0.0
 10
-68.4693
 20
-42.5671
 30
0.0
 10
-66.0583
 20
-39.6158
 30
0.0
 10
-66.8448
 20
-37.5896
 30
0.0
 10
-66.8448
 20
-37.5896
 30
0.0
 10
-68.7011
 20
-36.869
 30
0.0
 10
-77.1754
 20
-37.325
 30
0.0
 10
-79.8094
 20
-37.325
 30
0.0
 10
-79.8094
 20
-37.325
 30
0.0
 10
-82.9909
 20
-37.325
 30
0.0
 10
-90.6305
 20
-36.4709
 30
0.0
 10
-93.0386
 20
-37.8542
 30
0.0
  0
SPLINE
  5
61
330
1F
100
AcDbEntity
  8
LAYER_1
100
AcDbSpline
210
0.0
220
0.0
230
1.0
 70
    11
 71
     3
 72
    44
 73
    40
 74
     0
 42
0.0000000001
 43
0.0000000001
 40
0.0
 40
0.0
 40
0.0
 40
0.0
 40
0.1
 40
0.1
 40
0.1
 40
0.1
 40
0.2
 40
0.2
 40
0.2
 40
0.2
 40
0.3
 40
0.3
 40
0.3
 40
0.3
 40
0.4
 40
0.4
 40
0.4
 40
0.4
 40
0.5
 40
0.5
 40
0.5
 40
0.5
 40
0.6
 40
0.6
 40
0.6
 40
0.6
 40
0.7
 40
0.7
 40
0.7
 40
0.7
 40
0.7999999999999999
 40
0.7999999999999999
 40
0.7999999999999999
 40
0.7999999999999999
 40
0.8999999999999999
 40
0.8999999999999999
 40
0.8999999999999999
 40
0.8999999999999999
 40
1.0
 40
1.0
 40
1.0
 40
1.0
 10
-42.7677
 20
-27.8
 30
0.0
 10
-43.6592
 20
-28.3454
 30
0.0
 10
-43.8432
 20
-28.6109
 30
0.0
 10
-44.6198
 20
-29.3875
 30
0.0
 10
-44.6198
 20
-29.3875
 30
0.0
 10
-44.7306
 20
-29.9738
 30
0.0
 10
-44.8844
 20
-30.3404
 30
0.0
 10
-44.8844
 20
-30.975
 30
0.0
 10
-44.8844
 20
-30.975
 30
0.0
 10
-44.8844
 20
-30.975
 30
0.0
 10
-44.8844
 20
-31.5042
 30
0.0
 10
-44.8844
 20
-31.5042
 30
0.0
 10
-44.8844
 20
-31.5042
 30
0.0
 10
-44.8844
 20
-32.6595
 30
0.0
 10
-43.852
 20
-33.595
 30
0.0
 10
-43.0323
 20
-34.4146
 30
0.0
 10
-43.0323
 20
-34.4146
 30
0.0
 10
-42.5025
 20
-34.5979
 30
0.0
 10
-41.9747
 20
-34.7604
 30
0.0
 10
-41.4448
 20
-34.9438
 30
0.0
 10
-41.4448
 20
-34.9438
 30
0.0
 10
-40.3105
 20
-34.7294
 30
0.0
 10
-39.839
 20
-34.5671
 30
0.0
 10
-38.799
 20
-34.15
 30
0.0
 10
-38.799
 20
-34.15
 30
0.0
 10
-38.003
 20
-32.9721
 30
0.0
 10
-37.4761
 20
-32.524
 30
0.0
 10
-37.4761
 20
-30.975
 30
0.0
 10
-37.4761
 20
-30.975
 30
0.0
 10
-37.4761
 20
-30.3404
 30
0.0
 10
-37.6299
 20
-29.9738
 30
0.0
 10
-37.7407
 20
-29.3875
 30
0.0
 10
-37.7407
 20
-29.3875
 30
0.0
 10
-38.5517
 20
-28.5765
 30
0.0
 10
-39.0337
 20
-28.2035
 30
0.0
 10
-39.8573
 20
-27.5354
 30
0.0
 10
-39.8573
 20
-27.5354
 30
0.0
 10
-40.6883
 20
-27.5354
 30
0.0
 10
-42.5326
 20
-27.8
 30
0.0
 10
-42.7677
 20
-27.8
 30
0.0
  0
SPLINE
  5
62
330
1F
100
AcDbEntity
  8
LAYER_1
100
AcDbSpline
210
0.0
220
0.0
230
1.0
 70
     8
 71
     3
 72
    16
 73
    12
 74
     0
 42
0.0000000001
 43
0.0000000001
 40
0.0
 40
0.0
 40
0.0
 40
0.0
 40
0.3333333333333333
 40
0.3333333333333333
 40
0.3333333333333333
 40
0.3333333333333333
 40
0.6666666666666666
 40
0.6666666666666666
 40
0.6666666666666666
 40
0.6666666666666666
 40
1.0
 40
1.0
 40
1.0
 40
1.0
 10
-0.1698
 20
55.5437
 30
0.0
 10
-0.2945
 20
54.2799
 30
0.0
 10
-0.1229
 20
54.6475
 30
0.0
 10
-1.2282
 20
53.9562
 30
0.0
 10
-1.2282
 20
53.9562
 30
0.0
 10
-2.3996
 20
54.0462
 30
0.0
 10
-1.788
 20
53.8923
 30
0.0
 10
-2.8157
 20
54.4854
 30
0.0
 10
-2.8157
 20
54.4854
 30
0.0
 10
-3.145
 20
55.2501
 30
0.0
 10
-3.0047
 20
54.5815
 30
0.0
 10
-3.0803
 20
55.5437
 30
0.0
  0
SPLINE
  5
63
330
1F
100
AcDbEntity
  8
LAYER_1
100
AcDbSpline
210
0.0
220
0.0
230
1.0
 70
     8
 71
     3
 72
    16
 73
    12
 74
     0
 42
0.0000000001
 43
0.0000000001
 40
0.0
 40
0.0
 40
0.0
 40
0.0
 40
0.3333333333333333
 40
0.3333333333333333
 40
0.3333333333333333
 40
0.3333333333333333
 40
0.6666666666666666
 40
0.6666666666666666
 40
0.6666666666666666
 40
0.6666666666666666
 40
1.0
 40
1.0
 40
1.0
 40
1.0
 10
1.1531
 20
63.4812
 30
0.0
 10
1.1531
 20
61.9272
 30
0.0
 10
1.1849
 20
61.6744
 30
0.0
 10
0.6239
 20
60.3062
 30
0.0
 10
0.6239
 20
60.3062
 30
0.0
 10
-1.1271
 20
59.492
 30
0.0
 10
-1.8918
 20
59.3149
 30
0.0
 10
-3.6094
 20
60.3062
 30
0.0
 10
-3.6094
 20
60.3062
 30
0.0
 10
-4.1452
 20
61.613
 30
0.0
 10
-3.9719
 20
62.3702
 30
0.0
 10
-4.4032
 20
63.4812
 30
0.0
  0
SPLINE
  5
64
330
1F
100
AcDbEntity
  8
LAYER_1
100
AcDbSpline
210
0.0
220
0.0
230
1.0
 70
     8
 71
     3
 72
    12
 73
     8
 74
     0
 42
0.0000000001
 43
0.0000000001
 40
0.0
 40
0.0
 40
0.0
 40
0.0
 40
0.5
 40
0.5
 40
0.5
 40
0.5
 40
1.0
 40
1.0
 40
1.0
 40
1.0
 10
22.8489
 20
64.0104
 30
0.0
 10
22.0831
 20
63.6543
 30
0.0
 10
21.9323
 20
63.4812
 30
0.0
 10
20.9968
 20
63.4812
 30
0.0
 10
20.9968
 20
63.4812
 30
0.0
 10
18.6888
 20
63.4812
 30
0.0
 10
11.5962
 20
64.043
 30
0.0
 10
10.1489
 20
63.4812
 30
0.0
  0
SPLINE
  5
65
330
1F
100
AcDbEntity
  8
LAYER_1
100
AcDbSpline
210
0.0
220
0.0
230
1.0
 70
     8
 71
     3
 72
     8
 73
     4
 74
     0
 42
0.0000000001
 43
0.0000000001
 40
0.0
 40
0.0
 40
0.0
 40
0.0
 40
1.0
 40
1.0
 40
1.0
 40
1.0
 10
23.3781
 20
64.275
 30
0.0
 10
23.0513
 20
63.9482
 30
0.0
 10
23.2386
 20
64.0104
 30
0.0
 10
22.8489
 20
64.0104
 30
0.0
  0
SPLINE
  5
66
330
1F
100
AcDbEntity
  8
LAYER_1
100
AcDbSpline
210
0.0
220
0.0
230
1.0
 70
     8
 71
     3
 72
     8
 73
     4
 74
     0
 42
0.0000000001
 43
0.0000000001
 40
0.0
 40
0.0
 40
0.0
 40
0.0
 40
1.0
 40
1.0
 40
1.0
 40
1.0
 10
24.1718
 20
64.5395
 30
0.0
 10
23.6232
 20
64.1981
 30
0.0
 10
24.2654
 20
64.275
 30
0.0
 10
23.3781
 20
64.275
 30
0.0
  0
SPLINE
  5
67
330
1F
100
AcDbEntity
  8
LAYER_1
100
AcDbSpline
210
0.0
220
0.0
230
1.0
 70
     8
 71
     3
 72
     8
 73
     4
 74
     0
 42
0.0000000001
 43
0.0000000001
 40
0.0
 40
0.0
 40
0.0
 40
0.0
 40
1.0
 40
1.0
 40
1.0
 40
1.0
 10
24.701
 20
64.8041
 30
0.0
 10
24.3742
 20
64.4774
 30
0.0
 10
24.5615
 20
64.5395
 30
0.0
 10
24.1718
 20
64.5395
 30
0.0
  0
SPLINE
  5
68
330
1F
100
AcDbEntity
  8
LAYER_1
100
AcDbSpline
210
0.0
220
0.0
230
1.0
 70
     8
 71
     3
 72
     8
 73
     4
 74
     0
 42
0.0000000001
 43
0.0000000001
 40
0.0
 40
0.0
 40
0.0
 40
0.0
 40
1.0
 40
1.0
 40
1.0
 40
1.0
 10
25.2301
 20
65.0687
 30
0.0
 10
24.9034
 20
64.7419
 30
0.0
 10
25.0906
 20
64.8041
 30
0.0
 10
24.701
 20
64.8041
 30
0.0
  0
SPLINE
  5
69
330
1F
100
AcDbEntity
  8
LAYER_1
100
AcDbSpline
210
0.0
220
0.0
230
1.0
 70
     8
 71
     3
 72
    76
 73
    72
 74
     0
 42
0.0000000001
 43
0.0000000001
 40
0.0
 40
0.0
 40
0.0
 40
0.0
 40
0.0555555555555556
 40
0.0555555555555556
 40
0.0555555555555556
 40
0.0555555555555556
 40
0.1111111111111111
 40
0.1111111111111111
 40
0.1111111111111111
 40
0.1111111111111111
 40
0.1666666666666667
 40
0.1666666666666667
 40
0.1666666666666667
 40
0.1666666666666667
 40
0.2222222222222222
 40
0.2222222222222222
 40
0.2222222222222222
 40
0.2222222222222222
 40
0.2777777777777778
 40
0.2777777777777778
 40
0.2777777777777778
 40
0.2777777777777778
 40
0.3333333333333334
 40
0.3333333333333334
 40
0.3333333333333334
 40
0.3333333333333334
 40
0.388888888888889
 40
0.388888888888889
 40
0.388888888888889
 40
0.388888888888889
 40
0.4444444444444445
 40
0.4444444444444445
 40
0.4444444444444445
 40
0.4444444444444445
 40
0.5000000000000001
 40
0.5000000000000001
 40
0.5000000000000001
 40
0.5000000000000001
 40
0.5555555555555557
 40
0.5555555555555557
 40
0.5555555555555557
 40
0.5555555555555557
 40
0.6111111111111113
 40
0.6111111111111113
 40
0.6111111111111113
 40
0.6111111111111113
 40
0.6666666666666669
 40
0.6666666666666669
 40
0.6666666666666669
 40
0.6666666666666669
 40
0.7222222222222224
 40
0.7222222222222224
 40
0.7222222222222224
 40
0.7222222222222224
 40
0.777777777777778
 40
0.777777777777778
 40
0.777777777777778
 40
0.777777777777778
 40
0.8333333333333336
 40
0.8333333333333336
 40
0.8333333333333336
 40
0.8333333333333336
 40
0.8888888888888892
 40
0.8888888888888892
 40
0.8888888888888892
 40
0.8888888888888892
 40
0.9444444444444448
 40
0.9444444444444448
 40
0.9444444444444448
 40
0.9444444444444448
 40
1.0
 40
1.0
 40
1.0
 40
1.0
 10
-30.0677
 20
65.0687
 30
0.0
 10
-32.0775
 20
64.2885
 30
0.0
 10
-44.0883
 20
64.5558
 30
0.0
 10
-47.5302
 20
63.9211
 30
0.0
 10
-47.5302
 20
63.9211
 30
0.0
 10
-52.9139
 20
62.9283
 30
0.0
 10
-59.4597
 20
63.2038
 30
0.0
 10
-64.9927
 20
62.1583
 30
0.0
 10
-64.9927
 20
62.1583
 30
0.0
 10
-69.0235
 20
58.1275
 30
0.0
 10
-82.3398
 20
30.6764
 30
0.0
 10
-82.4552
 20
25.3812
 30
0.0
 10
-82.4552
 20
25.3812
 30
0.0
 10
-80.9894
 20
24.2243
 30
0.0
 10
-80.2174
 20
24.642
 30
0.0
 10
-78.4865
 20
24.8459
 30
0.0
 10
-78.4865
 20
24.8459
 30
0.0
 10
-77.2674
 20
24.9895
 30
0.0
 10
-75.5613
 20
24.9755
 30
0.0
 10
-74.5177
 20
25.1341
 30
0.0
 10
-74.5177
 20
25.1341
 30
0.0
 10
-71.9297
 20
25.5273
 30
0.0
 10
-68.9753
 20
25.6505
 30
0.0
 10
-66.3156
 20
25.9191
 30
0.0
 10
-66.3156
 20
25.9191
 30
0.0
 10
-64.0348
 20
26.1494
 30
0.0
 10
-60.222
 20
25.8754
 30
0.0
 10
-58.1136
 20
26.2643
 30
0.0
 10
-58.1136
 20
26.2643
 30
0.0
 10
-56.541
 20
26.5543
 30
0.0
 10
-51.6429
 20
26.7044
 30
0.0
 10
-49.9115
 20
26.7041
 30
0.0
 10
-49.9115
 20
26.7041
 30
0.0
 10
-39.1044
 20
26.7026
 30
0.0
 10
-28.1687
 20
27.4979
 30
0.0
 10
-17.1032
 20
27.4979
 30
0.0
 10
-17.1032
 20
27.4979
 30
0.0
 10
-17.1032
 20
27.4979
 30
0.0
 10
14.6468
 20
27.4979
 30
0.0
 10
14.6468
 20
27.4979
 30
0.0
 10
14.6468
 20
27.4979
 30
0.0
 10
25.3538
 20
27.4979
 30
0.0
 10
35.9608
 20
26.7041
 30
0.0
 10
46.3968
 20
26.7041
 30
0.0
 10
46.3968
 20
26.7041
 30
0.0
 10
51.6342
 20
26.7041
 30
0.0
 10
57.0771
 20
25.9145
 30
0.0
 10
62.2718
 20
25.9107
 30
0.0
 10
62.2718
 20
25.9107
 30
0.0
 10
64.2901
 20
25.9093
 30
0.0
 10
68.0935
 20
25.6033
 30
0.0
 10
70.2093
 20
25.3899
 30
0.0
 10
70.2093
 20
25.3899
 30
0.0
 10
72.4682
 20
25.1621
 30
0.0
 10
76.0126
 20
24.5875
 30
0.0
 10
78.1468
 20
24.5875
 30
0.0
 10
78.1468
 20
24.5875
 30
0.0
 10
78.5305
 20
24.5875
 30
0.0
 10
78.8978
 20
24.9353
 30
0.0
 10
79.2051
 20
25.1166
 30
0.0
 10
79.2051
 20
25.1166
 30
0.0
 10
79.2051
 20
30.4712
 30
0.0
 10
66.1502
 20
57.9289
 30
0.0
 10
62.2718
 20
61.8937
 30
0.0
 10
62.2718
 20
61.8937
 30
0.0
 10
59.192
 20
62.8923
 30
0.0
 10
47.5932
 20
63.8241
 30
0.0
 10
43.751
 20
64.0205
 30
0.0
 10
43.751
 20
64.0205
 30
0.0
 10
37.7956
 20
64.3249
 30
0.0
 10
31.1135
 20
65.0687
 30
0.0
 10
25.2301
 20
65.0687
 30
0.0
  0
SPLINE
  5
6A
330
1F
100
AcDbEntity
  8
LAYER_1
100
AcDbSpline
210
0.0
220
0.0
230
1.0
 70
     8
 71
     3
 72
    12
 73
     8
 74
     0
 42
0.0000000001
 43
0.0000000001
 40
0.0
 40
0.0
 40
0.0
 40
0.0
 40
0.5
 40
0.5
 40
0.5
 40
0.5
 40
1.0
 40
1.0
 40
1.0
 40
1.0
 10
-13.399
 20
63.4812
 30
0.0
 10
-14.8463
 20
64.043
 30
0.0
 10
-21.9389
 20
63.4812
 30
0.0
 10
-24.2469
 20
63.4812
 30
0.0
 10
-24.2469
 20
63.4812
 30
0.0
 10
-26.283
 20
63.4812
 30
0.0
 10
-27.2361
 20
65.0687
 30
0.0
 10
-30.0677
 20
65.0687
 30
0.0
  0
SPLINE
  5
6B
330
1F
100
AcDbEntity
  8
LAYER_1
100
AcDbSpline
210
0.0
220
0.0
230
1.0
 70
    11
 71
     3
 72
    60
 73
    56
 74
     0
 42
0.0000000001
 43
0.0000000001
 40
0.0
 40
0.0
 40
0.0
 40
0.0
 40
0.0714285714285714
 40
0.0714285714285714
 40
0.0714285714285714
 40
0.0714285714285714
 40
0.1428571428571428
 40
0.1428571428571428
 40
0.1428571428571428
 40
0.1428571428571428
 40
0.2142857142857143
 40
0.2142857142857143
 40
0.2142857142857143
 40
0.2142857142857143
 40
0.2857142857142857
 40
0.2857142857142857
 40
0.2857142857142857
 40
0.2857142857142857
 40
0.3571428571428571
 40
0.3571428571428571
 40
0.3571428571428571
 40
0.3571428571428571
 40
0.4285714285714285
 40
0.4285714285714285
 40
0.4285714285714285
 40
0.4285714285714285
 40
0.4999999999999999
 40
0.4999999999999999
 40
0.4999999999999999
 40
0.4999999999999999
 40
0.5714285714285713
 40
0.5714285714285713
 40
0.5714285714285713
 40
0.5714285714285713
 40
0.6428571428571427
 40
0.6428571428571427
 40
0.6428571428571427
 40
0.6428571428571427
 40
0.7142857142857141
 40
0.7142857142857141
 40
0.7142857142857141
 40
0.7142857142857141
 40
0.7857142857142855
 40
0.7857142857142855
 40
0.7857142857142855
 40
0.7857142857142855
 40
0.8571428571428569
 40
0.8571428571428569
 40
0.8571428571428569
 40
0.8571428571428569
 40
0.9285714285714283
 40
0.9285714285714283
 40
0.9285714285714283
 40
0.9285714285714283
 40
1.0
 40
1.0
 40
1.0
 40
1.0
 10
-2.5511
 20
66.6562
 30
0.0
 10
-3.2931
 20
66.3035
 30
0.0
 10
-3.175
 20
66.3715
 30
0.0
 10
-3.874
 20
65.8625
 30
0.0
 10
-3.874
 20
65.8625
 30
0.0
 10
-4.1899
 20
64.8882
 30
0.0
 10
-4.0873
 20
64.4555
 30
0.0
 10
-4.4032
 20
63.4812
 30
0.0
 10
-4.4032
 20
63.4812
 30
0.0
 10
-4.4032
 20
63.4812
 30
0.0
 10
-13.399
 20
63.4812
 30
0.0
 10
-13.399
 20
63.4812
 30
0.0
 10
-13.399
 20
63.4812
 30
0.0
 10
-14.0637
 20
62.3715
 30
0.0
 10
-14.9865
 20
61.4401
 30
0.0
 10
-14.9865
 20
60.0416
 30
0.0
 10
-14.9865
 20
60.0416
 30
0.0
 10
-14.9865
 20
60.0416
 30
0.0
 10
-14.9865
 20
58.1895
 30
0.0
 10
-14.9865
 20
58.1895
 30
0.0
 10
-14.9865
 20
58.1895
 30
0.0
 10
-14.9865
 20
57.3409
 30
0.0
 10
-14.4949
 20
56.9525
 30
0.0
 10
-13.9282
 20
56.3375
 30
0.0
 10
-13.9282
 20
56.3375
 30
0.0
 10
-12.4213
 20
55.6367
 30
0.0
 10
-5.1644
 20
55.5437
 30
0.0
 10
-3.0803
 20
55.5437
 30
0.0
 10
-3.0803
 20
55.5437
 30
0.0
 10
-3.0803
 20
55.5437
 30
0.0
 10
-0.1698
 20
55.5437
 30
0.0
 10
-0.1698
 20
55.5437
 30
0.0
 10
-0.1698
 20
55.5437
 30
0.0
 10
2.485
 20
55.5437
 30
0.0
 10
9.197
 20
55.4419
 30
0.0
 10
11.2072
 20
56.602
 30
0.0
 10
11.2072
 20
56.602
 30
0.0
 10
11.7432
 20
57.5307
 30
0.0
 10
12.001
 20
58.3597
 30
0.0
 10
12.001
 20
59.5125
 30
0.0
 10
12.001
 20
59.5125
 30
0.0
 10
12.001
 20
61.4922
 30
0.0
 10
11.0333
 20
62.0357
 30
0.0
 10
10.1489
 20
63.4812
 30
0.0
 10
10.1489
 20
63.4812
 30
0.0
 10
10.1489
 20
63.4812
 30
0.0
 10
1.1531
 20
63.4812
 30
0.0
 10
1.1531
 20
63.4812
 30
0.0
 10
1.1531
 20
63.4812
 30
0.0
 10
1.1531
 20
64.6335
 30
0.0
 10
1.2277
 20
64.5517
 30
0.0
 10
0.8885
 20
65.5979
 30
0.0
 10
0.8885
 20
65.5979
 30
0.0
 10
-0.4951
 20
66.845
 30
0.0
 10
-0.733
 20
66.6562
 30
0.0
 10
-2.5511
 20
66.6562
 30
0.0
  0
SPLINE
  5
6C
330
1F
100
AcDbEntity
  8
LAYER_1
100
AcDbSpline
210
0.0
220
0.0
230
1.0
 70
     8
 71
     3
 72
     8
 73
     4
 74
     0
 42
0.0000000001
 43
0.0000000001
 40
0.0
 40
0.0
 40
0.0
 40
0.0
 40
1.0
 40
1.0
 40
1.0
 40
1.0
 10
-3.874
 20
-7.9563
 30
0.0
 10
-4.6935
 20
-7.8283
 30
0.0
 10
-4.229
 20
-8.1404
 30
0.0
 10
-4.6678
 20
-7.4271
 30
0.0
  0
SPLINE
  5
6D
330
1F
100
AcDbEntity
  8
LAYER_1
100
AcDbSpline
210
0.0
220
0.0
230
1.0
 70
     8
 71
     3
 72
    16
 73
    12
 74
     0
 42
0.0000000001
 43
0.0000000001
 40
0.0
 40
0.0
 40
0.0
 40
0.0
 40
0.3333333333333333
 40
0.3333333333333333
 40
0.3333333333333333
 40
0.3333333333333333
 40
0.6666666666666666
 40
0.6666666666666666
 40
0.6666666666666666
 40
0.6666666666666666
 40
1.0
 40
1.0
 40
1.0
 40
1.0
 10
1.9468
 20
-8.75
 30
0.0
 10
1.3962
 20
-10.0238
 30
0.0
 10
1.9602
 20
-9.4745
 30
0.0
 10
0.8885
 20
-9.8084
 30
0.0
 10
0.8885
 20
-9.8084
 30
0.0
 10
0.7765
 20
-8.72
 30
0.0
 10
0.5157
 20
-8.8911
 30
0.0
 10
1.9468
 20
-8.75
 30
0.0
 10
1.9468
 20
-8.75
 30
0.0
 10
1.9468
 20
-8.75
 30
0.0
 10
2.476
 20
-8.2209
 30
0.0
 10
2.476
 20
-8.2209
 30
0.0
  0
SPLINE
  5
6E
330
1F
100
AcDbEntity
  8
LAYER_1
100
AcDbSpline
210
0.0
220
0.0
230
1.0
 70
     8
 71
     3
 72
    12
 73
     8
 74
     0
 42
0.0000000001
 43
0.0000000001
 40
0.0
 40
0.0
 40
0.0
 40
0.0
 40
0.5
 40
0.5
 40
0.5
 40
0.5
 40
1.0
 40
1.0
 40
1.0
 40
1.0
 10
-5.4615
 20
-8.75
 30
0.0
 10
-5.3549
 20
-10.108
 30
0.0
 10
-5.6952
 20
-9.0255
 30
0.0
 10
-4.9323
 20
-10.0729
 30
0.0
 10
-4.9323
 20
-10.0729
 30
0.0
 10
-3.846
 20
-9.3388
 30
0.0
 10
-3.8824
 20
-9.2099
 30
0.0
 10
-3.0803
 20
-8.2209
 30
0.0
  0
SPLINE
  5
6F
330
1F
100
AcDbEntity
  8
LAYER_1
100
AcDbSpline
210
0.0
220
0.0
230
1.0
 70
     8
 71
     3
 72
    12
 73
     8
 74
     0
 42
0.0000000001
 43
0.0000000001
 40
0.0
 40
0.0
 40
0.0
 40
0.0
 40
0.5
 40
0.5
 40
0.5
 40
0.5
 40
1.0
 40
1.0
 40
1.0
 40
1.0
 10
-2.2865
 20
-8.2209
 30
0.0
 10
-2.2865
 20
-8.2209
 30
0.0
 10
-3.0803
 20
-8.2209
 30
0.0
 10
-3.0803
 20
-8.2209
 30
0.0
 10
-3.0803
 20
-8.2209
 30
0.0
 10
-2.7333
 20
-7.5526
 30
0.0
 10
-2.8898
 20
-7.7658
 30
0.0
 10
-2.2865
 20
-7.1625
 30
0.0
  0
SPLINE
  5
70
330
1F
100
AcDbEntity
  8
LAYER_1
100
AcDbSpline
210
0.0
220
0.0
230
1.0
 70
     8
 71
     3
 72
    12
 73
     8
 74
     0
 42
0.0000000001
 43
0.0000000001
 40
0.0
 40
0.0
 40
0.0
 40
0.0
 40
0.5
 40
0.5
 40
0.5
 40
0.5
 40
1.0
 40
1.0
 40
1.0
 40
1.0
 10
-0.1698
 20
-7.4271
 30
0.0
 10
-1.1827
 20
-7.0339
 30
0.0
 10
-1.1409
 20
-7.1625
 30
0.0
 10
-2.2865
 20
-7.1625
 30
0.0
 10
-2.2865
 20
-7.1625
 30
0.0
 10
-3.0874
 20
-6.8447
 30
0.0
 10
-2.553
 20
-6.8979
 30
0.0
 10
-3.6094
 20
-6.8979
 30
0.0
  0
SPLINE
  5
71
330
1F
100
AcDbEntity
  8
LAYER_1
100
AcDbSpline
210
0.0
220
0.0
230
1.0
 70
     8
 71
     3
 72
    16
 73
    12
 74
     0
 42
0.0000000001
 43
0.0000000001
 40
0.0
 40
0.0
 40
0.0
 40
0.0
 40
0.3333333333333333
 40
0.3333333333333333
 40
0.3333333333333333
 40
0.3333333333333333
 40
0.6666666666666666
 40
0.6666666666666666
 40
0.6666666666666666
 40
0.6666666666666666
 40
1.0
 40
1.0
 40
1.0
 40
1.0
 10
-0.4344
 20
-9.2792
 30
0.0
 10
-0.7325
 20
-8.6243
 30
0.0
 10
-0.3088
 20
-9.0481
 30
0.0
 10
-0.9636
 20
-8.75
 30
0.0
 10
-0.9636
 20
-8.75
 30
0.0
 10
-1.9797
 20
-9.4938
 30
0.0
 10
-1.487
 20
-9.4769
 30
0.0
 10
-2.5511
 20
-9.8084
 30
0.0
 10
-2.5511
 20
-9.8084
 30
0.0
 10
-2.9587
 20
-9.0603
 30
0.0
 10
-2.6029
 20
-10.0294
 30
0.0
 10
-2.8157
 20
-9.0146
 30
0.0
  0
SPLINE
  5
72
330
1F
100
AcDbEntity
  8
LAYER_1
100
AcDbSpline
210
0.0
220
0.0
230
1.0
 70
     8
 71
     3
 72
    16
 73
    12
 74
     0
 42
0.0000000001
 43
0.0000000001
 40
0.0
 40
0.0
 40
0.0
 40
0.0
 40
0.3333333333333333
 40
0.3333333333333333
 40
0.3333333333333333
 40
0.3333333333333333
 40
0.6666666666666666
 40
0.6666666666666666
 40
0.6666666666666666
 40
0.6666666666666666
 40
1.0
 40
1.0
 40
1.0
 40
1.0
 10
83.1739
 20
-21.7146
 30
0.0
 10
83.1739
 20
-21.7146
 30
0.0
 10
83.1739
 20
-24.625
 30
0.0
 10
83.1739
 20
-24.625
 30
0.0
 10
83.1739
 20
-24.625
 30
0.0
 10
81.7846
 20
-25.1643
 30
0.0
 10
34.8215
 20
-25.1643
 30
0.0
 10
33.4322
 20
-24.625
 30
0.0
 10
33.4322
 20
-24.625
 30
0.0
 10
33.4322
 20
-24.625
 30
0.0
 10
33.4322
 20
-21.7146
 30
0.0
 10
33.4322
 20
-21.7146
 30
0.0
  0
SPLINE
  5
73
330
1F
100
AcDbEntity
  8
LAYER_1
100
AcDbSpline
210
0.0
220
0.0
230
1.0
 70
    11
 71
     3
 72
    24
 73
    20
 74
     0
 42
0.0000000001
 43
0.0000000001
 40
0.0
 40
0.0
 40
0.0
 40
0.0
 40
0.2
 40
0.2
 40
0.2
 40
0.2
 40
0.4
 40
0.4
 40
0.4
 40
0.4
 40
0.6000000000000001
 40
0.6000000000000001
 40
0.6000000000000001
 40
0.6000000000000001
 40
0.8
 40
0.8
 40
0.8
 40
0.8
 40
1.0
 40
1.0
 40
1.0
 40
1.0
 10
33.9614
 20
-20.1271
 30
0.0
 10
33.4339
 20
-20.6546
 30
0.0
 10
33.6409
 20
-20.4623
 30
0.0
 10
33.4322
 20
-20.9209
 30
0.0
 10
33.4322
 20
-20.9209
 30
0.0
 10
33.4322
 20
-20.9209
 30
0.0
 10
33.4322
 20
-21.7146
 30
0.0
 10
33.4322
 20
-21.7146
 30
0.0
 10
33.4322
 20
-21.7146
 30
0.0
 10
33.4322
 20
-21.7146
 30
0.0
 10
83.1739
 20
-21.7146
 30
0.0
 10
83.1739
 20
-21.7146
 30
0.0
 10
83.1739
 20
-21.7146
 30
0.0
 10
83.1739
 20
-20.627
 30
0.0
 10
83.2607
 20
-21.0323
 30
0.0
 10
82.9093
 20
-20.1271
 30
0.0
 10
82.9093
 20
-20.1271
 30
0.0
 10
82.9093
 20
-20.1271
 30
0.0
 10
33.9614
 20
-20.1271
 30
0.0
 10
33.9614
 20
-20.1271
 30
0.0
  0
SPLINE
  5
74
330
1F
100
AcDbEntity
  8
LAYER_1
100
AcDbSpline
210
0.0
220
0.0
230
1.0
 70
     8
 71
     3
 72
    16
 73
    12
 74
     0
 42
0.0000000001
 43
0.0000000001
 40
0.0
 40
0.0
 40
0.0
 40
0.0
 40
0.3333333333333333
 40
0.3333333333333333
 40
0.3333333333333333
 40
0.3333333333333333
 40
0.6666666666666666
 40
0.6666666666666666
 40
0.6666666666666666
 40
0.6666666666666666
 40
1.0
 40
1.0
 40
1.0
 40
1.0
 10
-36.6823
 20
-21.9792
 30
0.0
 10
-36.6823
 20
-23.2047
 30
0.0
 10
-36.5273
 20
-23.8088
 30
0.0
 10
-36.9469
 20
-24.8896
 30
0.0
 10
-36.9469
 20
-24.8896
 30
0.0
 10
-42.9381
 20
-24.8896
 30
0.0
 10
-84.3521
 20
-25.4293
 30
0.0
 10
-86.424
 20
-24.625
 30
0.0
 10
-86.424
 20
-24.625
 30
0.0
 10
-86.424
 20
-24.625
 30
0.0
 10
-86.424
 20
-21.9792
 30
0.0
 10
-86.424
 20
-21.9792
 30
0.0
  0
SPLINE
  5
75
330
1F
100
AcDbEntity
  8
LAYER_1
100
AcDbSpline
210
0.0
220
0.0
230
1.0
 70
    11
 71
     3
 72
    20
 73
    16
 74
     0
 42
0.0000000001
 43
0.0000000001
 40
0.0
 40
0.0
 40
0.0
 40
0.0
 40
0.25
 40
0.25
 40
0.25
 40
0.25
 40
0.5
 40
0.5
 40
0.5
 40
0.5
 40
0.75
 40
0.75
 40
0.75
 40
0.75
 40
1.0
 40
1.0
 40
1.0
 40
1.0
 10
-86.1594
 20
-20.1271
 30
0.0
 10
-86.5364
 20
-21.0983
 30
0.0
 10
-86.424
 20
-20.8615
 30
0.0
 10
-86.424
 20
-21.9792
 30
0.0
 10
-86.424
 20
-21.9792
 30
0.0
 10
-86.424
 20
-21.9792
 30
0.0
 10
-36.6823
 20
-21.9792
 30
0.0
 10
-36.6823
 20
-21.9792
 30
0.0
 10
-36.6823
 20
-21.9792
 30
0.0
 10
-36.6823
 20
-20.8615
 30
0.0
 10
-36.5699
 20
-21.0983
 30
0.0
 10
-36.9469
 20
-20.1271
 30
0.0
 10
-36.9469
 20
-20.1271
 30
0.0
 10
-36.9469
 20
-20.1271
 30
0.0
 10
-86.1594
 20
-20.1271
 30
0.0
 10
-86.1594
 20
-20.1271
 30
0.0
  0
SPLINE
  5
76
330
1F
100
AcDbEntity
  8
LAYER_1
100
AcDbSpline
210
0.0
220
0.0
230
1.0
 70
     8
 71
     3
 72
     8
 73
     4
 74
     0
 42
0.0000000001
 43
0.0000000001
 40
0.0
 40
0.0
 40
0.0
 40
0.0
 40
1.0
 40
1.0
 40
1.0
 40
1.0
 10
-65.2573
 20
-58.2271
 30
0.0
 10
-66.3209
 20
-58.64
 30
0.0
 10
-67.8979
 20
-58.64
 30
0.0
 10
-68.9615
 20
-58.2271
 30
0.0
  0
SPLINE
  5
77
330
1F
100
AcDbEntity
  8
LAYER_1
100
AcDbSpline
210
0.0
220
0.0
230
1.0
 70
     8
 71
     3
 72
     8
 73
     4
 74
     0
 42
0.0000000001
 43
0.0000000001
 40
0.0
 40
0.0
 40
0.0
 40
0.0
 40
1.0
 40
1.0
 40
1.0
 40
1.0
 10
-47.7948
 20
-57.9625
 30
0.0
 10
-49.7099
 20
-58.7059
 30
0.0
 10
-62.1847
 20
-58.2271
 30
0.0
 10
-65.2573
 20
-58.2271
 30
0.0
  0
SPLINE
  5
78
330
1F
100
AcDbEntity
  8
LAYER_1
100
AcDbSpline
210
0.0
220
0.0
230
1.0
 70
     8
 71
     3
 72
    12
 73
     8
 74
     0
 42
0.0000000001
 43
0.0000000001
 40
0.0
 40
0.0
 40
0.0
 40
0.0
 40
0.5
 40
0.5
 40
0.5
 40
0.5
 40
1.0
 40
1.0
 40
1.0
 40
1.0
 10
65.4468
 20
-58.2271
 30
0.0
 10
64.79
 20
-58.4821
 30
0.0
 10
14.7492
 20
-57.9625
 30
0.0
 10
8.826
 20
-57.9625
 30
0.0
 10
8.826
 20
-57.9625
 30
0.0
 10
-10.0476
 20
-57.9625
 30
0.0
 10
-28.9212
 20
-57.9625
 30
0.0
 10
-47.7948
 20
-57.9625
 30
0.0
  0
SPLINE
  5
79
330
1F
100
AcDbEntity
  8
LAYER_1
100
AcDbSpline
210
0.0
220
0.0
230
1.0
 70
    24
 71
     3
 72
     8
 73
     4
 74
     0
 42
0.0000000001
 43
0.0000000001
 40
0.0
 40
0.0
 40
0.0
 40
0.0
 40
1.0
 40
1.0
 40
1.0
 40
1.0
 10
-26.099
 20
-54.2583
 30
0.0
 10
-26.099
 20
-54.2583
 30
0.0
 10
-26.099
 20
-49.7604
 30
0.0
 10
-26.099
 20
-49.7604
 30
0.0
  0
SPLINE
  5
7A
330
1F
100
AcDbEntity
  8
LAYER_1
100
AcDbSpline
210
0.0
220
0.0
230
1.0
 70
    24
 71
     3
 72
     8
 73
     4
 74
     0
 42
0.0000000001
 43
0.0000000001
 40
0.0
 40
0.0
 40
0.0
 40
0.0
 40
1.0
 40
1.0
 40
1.0
 40
1.0
 10
47.4551
 20
-54.5229
 30
0.0
 10
47.4551
 20
-54.5229
 30
0.0
 10
47.4551
 20
-49.4958
 30
0.0
 10
47.4551
 20
-49.4958
 30
0.0
  0
SPLINE
  5
7B
330
1F
100
AcDbEntity
  8
LAYER_1
100
AcDbSpline
210
0.0
220
0.0
230
1.0
 70
    24
 71
     3
 72
     8
 73
     4
 74
     0
 42
0.0000000001
 43
0.0000000001
 40
0.0
 40
0.0
 40
0.0
 40
0.0
 40
1.0
 40
1.0
 40
1.0
 40
1.0
 10
23.1135
 20
-54.2583
 30
0.0
 10
23.1135
 20
-54.2583
 30
0.0
 10
23.1135
 20
-49.4958
 30
0.0
 10
23.1135
 20
-49.4958
 30
0.0
  0
SPLINE
  5
7C
330
1F
100
AcDbEntity
  8
LAYER_1
100
AcDbSpline
210
0.0
220
0.0
230
1.0
 70
     8
 71
     3
 72
    12
 73
     8
 74
     0
 42
0.0000000001
 43
0.0000000001
 40
0.0
 40
0.0
 40
0.0
 40
0.0
 40
0.5
 40
0.5
 40
0.5
 40
0.5
 40
1.0
 40
1.0
 40
1.0
 40
1.0
 10
-1.7573
 20
-54.2583
 30
0.0
 10
-1.7573
 20
-54.2583
 30
0.0
 10
-1.7573
 20
-49.7604
 30
0.0
 10
-1.7573
 20
-49.7604
 30
0.0
 10
-1.7573
 20
-49.7604
 30
0.0
 10
-1.7573
 20
-49.7604
 30
0.0
 10
-26.099
 20
-49.7604
 30
0.0
 10
-26.099
 20
-49.7604
 30
0.0
  0
SPLINE
  5
7D
330
1F
100
AcDbEntity
  8
LAYER_1
100
AcDbSpline
210
0.0
220
0.0
230
1.0
 70
     8
 71
     3
 72
    12
 73
     8
 74
     0
 42
0.0000000001
 43
0.0000000001
 40
0.0
 40
0.0
 40
0.0
 40
0.0
 40
0.5
 40
0.5
 40
0.5
 40
0.5
 40
1.0
 40
1.0
 40
1.0
 40
1.0
 10
63.5947
 20
-54.5229
 30
0.0
 10
63.1356
 20
-53.1069
 30
0.0
 10
63.1089
 20
-51.6796
 30
0.0
 10
62.5364
 20
-50.025
 30
0.0
 10
62.5364
 20
-50.025
 30
0.0
 10
61.9867
 20
-49.4753
 30
0.0
 10
62.0575
 20
-49.6751
 30
0.0
 10
61.7426
 20
-49.4958
 30
0.0
  0
SPLINE
  5
7E
330
1F
100
AcDbEntity
  8
LAYER_1
100
AcDbSpline
210
0.0
220
0.0
230
1.0
 70
    24
 71
     3
 72
     8
 73
     4
 74
     0
 42
0.0000000001
 43
0.0000000001
 40
0.0
 40
0.0
 40
0.0
 40
0.0
 40
1.0
 40
1.0
 40
1.0
 40
1.0
 10
47.4551
 20
-49.4958
 30
0.0
 10
47.4551
 20
-49.4958
 30
0.0
 10
47.4551
 20
-45.2625
 30
0.0
 10
47.4551
 20
-45.2625
 30
0.0
  0
SPLINE
  5
7F
330
1F
100
AcDbEntity
  8
LAYER_1
100
AcDbSpline
210
0.0
220
0.0
230
1.0
 70
    24
 71
     3
 72
     8
 73
     4
 74
     0
 42
0.0000000001
 43
0.0000000001
 40
0.0
 40
0.0
 40
0.0
 40
0.0
 40
1.0
 40
1.0
 40
1.0
 40
1.0
 10
23.1135
 20
-49.4958
 30
0.0
 10
23.1135
 20
-49.4958
 30
0.0
 10
23.1135
 20
-45.2625
 30
0.0
 10
23.1135
 20
-45.2625
 30
0.0
  0
SPLINE
  5
80
330
1F
100
AcDbEntity
  8
LAYER_1
100
AcDbSpline
210
0.0
220
0.0
230
1.0
 70
     8
 71
     3
 72
    16
 73
    12
 74
     0
 42
0.0000000001
 43
0.0000000001
 40
0.0
 40
0.0
 40
0.0
 40
0.0
 40
0.3333333333333333
 40
0.3333333333333333
 40
0.3333333333333333
 40
0.3333333333333333
 40
0.6666666666666666
 40
0.6666666666666666
 40
0.6666666666666666
 40
0.6666666666666666
 40
1.0
 40
1.0
 40
1.0
 40
1.0
 10
-50.7052
 20
-54.5229
 30
0.0
 10
-50.7052
 20
-52.9949
 30
0.0
 10
-50.96
 20
-51.0983
 30
0.0
 10
-50.4407
 20
-49.7604
 30
0.0
 10
-50.4407
 20
-49.7604
 30
0.0
 10
-50.4407
 20
-49.7604
 30
0.0
 10
-26.099
 20
-49.7604
 30
0.0
 10
-26.099
 20
-49.7604
 30
0.0
 10
-26.099
 20
-49.7604
 30
0.0
 10
-26.099
 20
-49.7604
 30
0.0
 10
-26.099
 20
-45.2625
 30
0.0
 10
-26.099
 20
-45.2625
 30
0.0
  0
SPLINE
  5
81
330
1F
100
AcDbEntity
  8
LAYER_1
100
AcDbSpline
210
0.0
220
0.0
230
1.0
 70
     8
 71
     3
 72
    28
 73
    24
 74
     0
 42
0.0000000001
 43
0.0000000001
 40
0.0
 40
0.0
 40
0.0
 40
0.0
 40
0.1666666666666667
 40
0.1666666666666667
 40
0.1666666666666667
 40
0.1666666666666667
 40
0.3333333333333333
 40
0.3333333333333333
 40
0.3333333333333333
 40
0.3333333333333333
 40
0.5
 40
0.5
 40
0.5
 40
0.5
 40
0.6666666666666666
 40
0.6666666666666666
 40
0.6666666666666666
 40
0.6666666666666666
 40
0.8333333333333333
 40
0.8333333333333333
 40
0.8333333333333333
 40
0.8333333333333333
 40
1.0
 40
1.0
 40
1.0
 40
1.0
 10
-1.7573
 20
-45.2625
 30
0.0
 10
-1.7573
 20
-45.2625
 30
0.0
 10
-1.7573
 20
-49.4958
 30
0.0
 10
-1.7573
 20
-49.4958
 30
0.0
 10
-1.7573
 20
-49.4958
 30
0.0
 10
-1.7573
 20
-49.4958
 30
0.0
 10
23.1135
 20
-49.4958
 30
0.0
 10
23.1135
 20
-49.4958
 30
0.0
 10
23.1135
 20
-49.4958
 30
0.0
 10
23.1135
 20
-49.4958
 30
0.0
 10
47.4551
 20
-49.4958
 30
0.0
 10
47.4551
 20
-49.4958
 30
0.0
 10
47.4551
 20
-49.4958
 30
0.0
 10
47.4551
 20
-49.4958
 30
0.0
 10
61.7426
 20
-49.4958
 30
0.0
 10
61.7426
 20
-49.4958
 30
0.0
 10
61.7426
 20
-49.4958
 30
0.0
 10
61.7426
 20
-47.5741
 30
0.0
 10
61.4632
 20
-46.944
 30
0.0
 10
60.1551
 20
-45.5271
 30
0.0
 10
60.1551
 20
-45.5271
 30
0.0
 10
59.4071
 20
-45.1195
 30
0.0
 10
60.3762
 20
-45.4752
 30
0.0
 10
59.3614
 20
-45.2625
 30
0.0
  0
SPLINE
  5
82
330
1F
100
AcDbEntity
  8
LAYER_1
100
AcDbSpline
210
0.0
220
0.0
230
1.0
 70
    24
 71
     3
 72
     8
 73
     4
 74
     0
 42
0.0000000001
 43
0.0000000001
 40
0.0
 40
0.0
 40
0.0
 40
0.0
 40
1.0
 40
1.0
 40
1.0
 40
1.0
 10
47.4551
 20
-45.2625
 30
0.0
 10
47.4551
 20
-45.2625
 30
0.0
 10
47.4551
 20
-41.0292
 30
0.0
 10
47.4551
 20
-41.0292
 30
0.0
  0
SPLINE
  5
83
330
1F
100
AcDbEntity
  8
LAYER_1
100
AcDbSpline
210
0.0
220
0.0
230
1.0
 70
    24
 71
     3
 72
     8
 73
     4
 74
     0
 42
0.0000000001
 43
0.0000000001
 40
0.0
 40
0.0
 40
0.0
 40
0.0
 40
1.0
 40
1.0
 40
1.0
 40
1.0
 10
23.1135
 20
-45.2625
 30
0.0
 10
23.1135
 20
-45.2625
 30
0.0
 10
23.1135
 20
-41.0292
 30
0.0
 10
23.1135
 20
-41.0292
 30
0.0
  0
SPLINE
  5
84
330
1F
100
AcDbEntity
  8
LAYER_1
100
AcDbSpline
210
0.0
220
0.0
230
1.0
 70
    24
 71
     3
 72
     8
 73
     4
 74
     0
 42
0.0000000001
 43
0.0000000001
 40
0.0
 40
0.0
 40
0.0
 40
0.0
 40
1.0
 40
1.0
 40
1.0
 40
1.0
 10
-1.7573
 20
-45.2625
 30
0.0
 10
-1.7573
 20
-45.2625
 30
0.0
 10
-1.7573
 20
-41.0292
 30
0.0
 10
-1.7573
 20
-41.0292
 30
0.0
  0
SPLINE
  5
85
330
1F
100
AcDbEntity
  8
LAYER_1
100
AcDbSpline
210
0.0
220
0.0
230
1.0
 70
    24
 71
     3
 72
     8
 73
     4
 74
     0
 42
0.0000000001
 43
0.0000000001
 40
0.0
 40
0.0
 40
0.0
 40
0.0
 40
1.0
 40
1.0
 40
1.0
 40
1.0
 10
-26.099
 20
-45.2625
 30
0.0
 10
-26.099
 20
-45.2625
 30
0.0
 10
-26.099
 20
-41.0292
 30
0.0
 10
-26.099
 20
-41.0292
 30
0.0
  0
SPLINE
  5
86
330
1F
100
AcDbEntity
  8
LAYER_1
100
AcDbSpline
210
0.0
220
0.0
230
1.0
 70
     8
 71
     3
 72
    36
 73
    32
 74
     0
 42
0.0000000001
 43
0.0000000001
 40
0.0
 40
0.0
 40
0.0
 40
0.0
 40
0.125
 40
0.125
 40
0.125
 40
0.125
 40
0.25
 40
0.25
 40
0.25
 40
0.25
 40
0.375
 40
0.375
 40
0.375
 40
0.375
 40
0.5
 40
0.5
 40
0.5
 40
0.5
 40
0.625
 40
0.625
 40
0.625
 40
0.625
 40
0.75
 40
0.75
 40
0.75
 40
0.75
 40
0.875
 40
0.875
 40
0.875
 40
0.875
 40
1.0
 40
1.0
 40
1.0
 40
1.0
 10
-50.7052
 20
-41.0292
 30
0.0
 10
-50.7052
 20
-42.4147
 30
0.0
 10
-50.9091
 20
-44.0558
 30
0.0
 10
-50.4407
 20
-45.2625
 30
0.0
 10
-50.4407
 20
-45.2625
 30
0.0
 10
-50.4407
 20
-45.2625
 30
0.0
 10
-26.099
 20
-45.2625
 30
0.0
 10
-26.099
 20
-45.2625
 30
0.0
 10
-26.099
 20
-45.2625
 30
0.0
 10
-26.099
 20
-45.2625
 30
0.0
 10
-1.7573
 20
-45.2625
 30
0.0
 10
-1.7573
 20
-45.2625
 30
0.0
 10
-1.7573
 20
-45.2625
 30
0.0
 10
-1.7573
 20
-45.2625
 30
0.0
 10
23.1135
 20
-45.2625
 30
0.0
 10
23.1135
 20
-45.2625
 30
0.0
 10
23.1135
 20
-45.2625
 30
0.0
 10
23.1135
 20
-45.2625
 30
0.0
 10
47.4551
 20
-45.2625
 30
0.0
 10
47.4551
 20
-45.2625
 30
0.0
 10
47.4551
 20
-45.2625
 30
0.0
 10
47.4551
 20
-45.2625
 30
0.0
 10
59.3614
 20
-45.2625
 30
0.0
 10
59.3614
 20
-45.2625
 30
0.0
 10
59.3614
 20
-45.2625
 30
0.0
 10
59.2018
 20
-43.1847
 30
0.0
 10
58.2083
 20
-42.5219
 30
0.0
 10
56.7156
 20
-41.0292
 30
0.0
 10
56.7156
 20
-41.0292
 30
0.0
 10
56.0653
 20
-40.7953
 30
0.0
 10
56.262
 20
-40.8814
 30
0.0
 10
55.6572
 20
-40.7646
 30
0.0
  0
SPLINE
  5
87
330
1F
100
AcDbEntity
  8
LAYER_1
100
AcDbSpline
210
0.0
220
0.0
230
1.0
 70
     8
 71
     3
 72
    32
 73
    28
 74
     0
 42
0.0000000001
 43
0.0000000001
 40
0.0
 40
0.0
 40
0.0
 40
0.0
 40
0.1428571428571428
 40
0.1428571428571428
 40
0.1428571428571428
 40
0.1428571428571428
 40
0.2857142857142857
 40
0.2857142857142857
 40
0.2857142857142857
 40
0.2857142857142857
 40
0.4285714285714285
 40
0.4285714285714285
 40
0.4285714285714285
 40
0.4285714285714285
 40
0.5714285714285714
 40
0.5714285714285714
 40
0.5714285714285714
 40
0.5714285714285714
 40
0.7142857142857142
 40
0.7142857142857142
 40
0.7142857142857142
 40
0.7142857142857142
 40
0.857142857142857
 40
0.857142857142857
 40
0.857142857142857
 40
0.857142857142857
 40
1.0
 40
1.0
 40
1.0
 40
1.0
 10
-73.724
 20
-58.4917
 30
0.0
 10
-73.724
 20
-61.907
 30
0.0
 10
-73.2687
 20
-75.057
 30
0.0
 10
-73.9886
 20
-77.2771
 30
0.0
 10
-73.9886
 20
-77.2771
 30
0.0
 10
-73.9886
 20
-77.2771
 30
0.0
 10
-74.7823
 20
-78.0708
 30
0.0
 10
-74.7823
 20
-78.0708
 30
0.0
 10
-74.7823
 20
-78.0708
 30
0.0
 10
-76.9827
 20
-78.7843
 30
0.0
 10
-93.3054
 20
-78.3354
 30
0.0
 10
-97.0073
 20
-78.3354
 30
0.0
 10
-97.0073
 20
-78.3354
 30
0.0
 10
-99.0964
 20
-76.0725
 30
0.0
 10
-98.3302
 20
-72.1643
 30
0.0
 10
-98.3302
 20
-69.075
 30
0.0
 10
-98.3302
 20
-69.075
 30
0.0
 10
-98.3302
 20
-65.9882
 30
0.0
 10
-98.3302
 20
-62.9014
 30
0.0
 10
-98.3302
 20
-59.8146
 30
0.0
 10
-98.3302
 20
-59.8146
 30
0.0
 10
-98.3302
 20
-53.5528
 30
0.0
 10
-98.3302
 20
-47.291
 30
0.0
 10
-98.3302
 20
-41.0292
 30
0.0
 10
-98.3302
 20
-41.0292
 30
0.0
 10
-98.0354
 20
-40.3815
 30
0.0
 10
-98.2251
 20
-40.772
 30
0.0
 10
-97.801
 20
-40.2354
 30
0.0
  0
SPLINE
  5
88
330
1F
100
AcDbEntity
  8
LAYER_1
100
AcDbSpline
210
0.0
220
0.0
230
1.0
 70
     8
 71
     3
 72
    20
 73
    16
 74
     0
 42
0.0000000001
 43
0.0000000001
 40
0.0
 40
0.0
 40
0.0
 40
0.0
 40
0.25
 40
0.25
 40
0.25
 40
0.25
 40
0.5
 40
0.5
 40
0.5
 40
0.5
 40
0.75
 40
0.75
 40
0.75
 40
0.75
 40
1.0
 40
1.0
 40
1.0
 40
1.0
 10
70.4739
 20
-58.4917
 30
0.0
 10
74.3514
 20
-58.4917
 30
0.0
 10
77.7432
 20
-58.7563
 30
0.0
 10
81.5864
 20
-58.7563
 30
0.0
 10
81.5864
 20
-58.7563
 30
0.0
 10
82.8152
 20
-58.7563
 30
0.0
 10
84.2301
 20
-58.6387
 30
0.0
 10
85.2905
 20
-58.2271
 30
0.0
 10
85.2905
 20
-58.2271
 30
0.0
 10
89.7355
 20
-55.6045
 30
0.0
 10
93.6513
 20
-45.3607
 30
0.0
 10
93.7572
 20
-40.5
 30
0.0
 10
93.7572
 20
-40.5
 30
0.0
 10
93.7572
 20
-40.5
 30
0.0
 10
94.8155
 20
-39.4417
 30
0.0
 10
94.8155
 20
-39.4417
 30
0.0
  0
SPLINE
  5
89
330
1F
100
AcDbEntity
  8
LAYER_1
100
AcDbSpline
210
0.0
220
0.0
230
1.0
 70
     8
 71
     3
 72
    32
 73
    28
 74
     0
 42
0.0000000001
 43
0.0000000001
 40
0.0
 40
0.0
 40
0.0
 40
0.0
 40
0.1428571428571428
 40
0.1428571428571428
 40
0.1428571428571428
 40
0.1428571428571428
 40
0.2857142857142857
 40
0.2857142857142857
 40
0.2857142857142857
 40
0.2857142857142857
 40
0.4285714285714285
 40
0.4285714285714285
 40
0.4285714285714285
 40
0.4285714285714285
 40
0.5714285714285714
 40
0.5714285714285714
 40
0.5714285714285714
 40
0.5714285714285714
 40
0.7142857142857142
 40
0.7142857142857142
 40
0.7142857142857142
 40
0.7142857142857142
 40
0.857142857142857
 40
0.857142857142857
 40
0.857142857142857
 40
0.857142857142857
 40
1.0
 40
1.0
 40
1.0
 40
1.0
 10
-67.1094
 20
-54.5229
 30
0.0
 10
-67.7005
 20
-56.2311
 30
0.0
 10
-68.3438
 20
-56.6871
 30
0.0
 10
-68.9615
 20
-58.2271
 30
0.0
 10
-68.9615
 20
-58.2271
 30
0.0
 10
-70.6795
 20
-58.3591
 30
0.0
 10
-71.8226
 20
-58.4917
 30
0.0
 10
-73.724
 20
-58.4917
 30
0.0
 10
-73.724
 20
-58.4917
 30
0.0
 10
-77.9317
 20
-58.4917
 30
0.0
 10
-81.677
 20
-58.7563
 30
0.0
 10
-85.8948
 20
-58.7563
 30
0.0
 10
-85.8948
 20
-58.7563
 30
0.0
 10
-85.8948
 20
-58.7563
 30
0.0
 10
-86.424
 20
-58.7563
 30
0.0
 10
-86.424
 20
-58.7563
 30
0.0
 10
-86.424
 20
-58.7563
 30
0.0
 10
-91.9941
 20
-58.7563
 30
0.0
 10
-96.6499
 20
-45.0239
 30
0.0
 10
-96.7427
 20
-40.7646
 30
0.0
 10
-96.7427
 20
-40.7646
 30
0.0
 10
-97.2544
 20
-40.437
 30
0.0
 10
-97.2543
 20
-40.4596
 30
0.0
 10
-97.801
 20
-40.2354
 30
0.0
 10
-97.801
 20
-40.2354
 30
0.0
 10
-97.801
 20
-40.2354
 30
0.0
 10
-97.801
 20
-37.5896
 30
0.0
 10
-97.801
 20
-37.5896
 30
0.0
  0
SPLINE
  5
8A
330
1F
100
AcDbEntity
  8
LAYER_1
100
AcDbSpline
210
0.0
220
0.0
230
1.0
 70
     8
 71
     3
 72
    68
 73
    64
 74
     0
 42
0.0000000001
 43
0.0000000001
 40
0.0
 40
0.0
 40
0.0
 40
0.0
 40
0.0625
 40
0.0625
 40
0.0625
 40
0.0625
 40
0.125
 40
0.125
 40
0.125
 40
0.125
 40
0.1875
 40
0.1875
 40
0.1875
 40
0.1875
 40
0.25
 40
0.25
 40
0.25
 40
0.25
 40
0.3125
 40
0.3125
 40
0.3125
 40
0.3125
 40
0.375
 40
0.375
 40
0.375
 40
0.375
 40
0.4375
 40
0.4375
 40
0.4375
 40
0.4375
 40
0.5
 40
0.5
 40
0.5
 40
0.5
 40
0.5625
 40
0.5625
 40
0.5625
 40
0.5625
 40
0.625
 40
0.625
 40
0.625
 40
0.625
 40
0.6875
 40
0.6875
 40
0.6875
 40
0.6875
 40
0.75
 40
0.75
 40
0.75
 40
0.75
 40
0.8125
 40
0.8125
 40
0.8125
 40
0.8125
 40
0.875
 40
0.875
 40
0.875
 40
0.875
 40
0.9375
 40
0.9375
 40
0.9375
 40
0.9375
 40
1.0
 40
1.0
 40
1.0
 40
1.0
 10
-65.5219
 20
-49.4958
 30
0.0
 10
-66.253
 20
-51.068
 30
0.0
 10
-66.7815
 20
-52.7875
 30
0.0
 10
-67.1094
 20
-54.5229
 30
0.0
 10
-67.1094
 20
-54.5229
 30
0.0
 10
-67.1094
 20
-54.5229
 30
0.0
 10
-50.7052
 20
-54.5229
 30
0.0
 10
-50.7052
 20
-54.5229
 30
0.0
 10
-50.7052
 20
-54.5229
 30
0.0
 10
-42.7392
 20
-53.911
 30
0.0
 10
-34.2518
 20
-54.2583
 30
0.0
 10
-26.099
 20
-54.2583
 30
0.0
 10
-26.099
 20
-54.2583
 30
0.0
 10
-26.099
 20
-54.2583
 30
0.0
 10
-1.7573
 20
-54.2583
 30
0.0
 10
-1.7573
 20
-54.2583
 30
0.0
 10
-1.7573
 20
-54.2583
 30
0.0
 10
-1.7573
 20
-54.2583
 30
0.0
 10
23.1135
 20
-54.2583
 30
0.0
 10
23.1135
 20
-54.2583
 30
0.0
 10
23.1135
 20
-54.2583
 30
0.0
 10
31.2797
 20
-54.2583
 30
0.0
 10
39.4648
 20
-54.3488
 30
0.0
 10
47.4551
 20
-54.5229
 30
0.0
 10
47.4551
 20
-54.5229
 30
0.0
 10
47.4551
 20
-54.5229
 30
0.0
 10
63.5947
 20
-54.5229
 30
0.0
 10
63.5947
 20
-54.5229
 30
0.0
 10
63.5947
 20
-54.5229
 30
0.0
 10
64.0509
 20
-55.2846
 30
0.0
 10
65.2883
 20
-57.4752
 30
0.0
 10
65.4468
 20
-58.2271
 30
0.0
 10
65.4468
 20
-58.2271
 30
0.0
 10
67.2514
 20
-58.3657
 30
0.0
 10
68.491
 20
-58.4917
 30
0.0
 10
70.4739
 20
-58.4917
 30
0.0
 10
70.4739
 20
-58.4917
 30
0.0
 10
70.4739
 20
-61.7549
 30
0.0
 10
70.4739
 20
-65.0181
 30
0.0
 10
70.4739
 20
-68.2813
 30
0.0
 10
70.4739
 20
-68.2813
 30
0.0
 10
70.4739
 20
-71.71
 30
0.0
 10
69.643
 20
-75.8632
 30
0.0
 10
72.0614
 20
-78.3354
 30
0.0
 10
72.0614
 20
-78.3354
 30
0.0
 10
72.0614
 20
-78.3354
 30
0.0
 10
93.7572
 20
-78.3354
 30
0.0
 10
93.7572
 20
-78.3354
 30
0.0
 10
93.7572
 20
-78.3354
 30
0.0
 10
94.4832
 20
-77.6094
 30
0.0
 10
94.5773
 20
-77.5698
 30
0.0
 10
95.0801
 20
-76.7479
 30
0.0
 10
95.0801
 20
-76.7479
 30
0.0
 10
95.888
 20
-74.6669
 30
0.0
 10
95.3447
 20
-45.1006
 30
0.0
 10
95.3447
 20
-40.2354
 30
0.0
 10
95.3447
 20
-40.2354
 30
0.0
 10
95.0499
 20
-39.5878
 30
0.0
 10
95.2396
 20
-39.9782
 30
0.0
 10
94.8155
 20
-39.4417
 30
0.0
 10
94.8155
 20
-39.4417
 30
0.0
 10
94.8155
 20
-39.4417
 30
0.0
 10
94.8155
 20
-36.7959
 30
0.0
 10
94.8155
 20
-36.7959
 30
0.0
  0
SPLINE
  5
8B
330
1F
100
AcDbEntity
  8
LAYER_1
100
AcDbSpline
210
0.0
220
0.0
230
1.0
 70
     8
 71
     3
 72
     8
 73
     4
 74
     0
 42
0.0000000001
 43
0.0000000001
 40
0.0
 40
0.0
 40
0.0
 40
0.0
 40
1.0
 40
1.0
 40
1.0
 40
1.0
 10
3.5343
 20
-16.1584
 30
0.0
 10
2.8569
 20
-16.58
 30
0.0
 10
3.418
 20
-16.58
 30
0.0
 10
2.7406
 20
-16.1584
 30
0.0
  0
SPLINE
  5
8C
330
1F
100
AcDbEntity
  8
LAYER_1
100
AcDbSpline
210
0.0
220
0.0
230
1.0
 70
     8
 71
     3
 72
     8
 73
     4
 74
     0
 42
0.0000000001
 43
0.0000000001
 40
0.0
 40
0.0
 40
0.0
 40
0.0
 40
1.0
 40
1.0
 40
1.0
 40
1.0
 10
17.8218
 20
-15.8938
 30
0.0
 10
16.7578
 20
-16.3068
 30
0.0
 10
16.5046
 20
-16.3068
 30
0.0
 10
15.4406
 20
-15.8938
 30
0.0
  0
SPLINE
  5
8D
330
1F
100
AcDbEntity
  8
LAYER_1
100
AcDbSpline
210
0.0
220
0.0
230
1.0
 70
     8
 71
     3
 72
     8
 73
     4
 74
     0
 42
0.0000000001
 43
0.0000000001
 40
0.0
 40
0.0
 40
0.0
 40
0.0
 40
1.0
 40
1.0
 40
1.0
 40
1.0
 10
5.651
 20
-15.8938
 30
0.0
 10
4.6381
 20
-16.287
 30
0.0
 10
4.68
 20
-16.1584
 30
0.0
 10
3.5343
 20
-16.1584
 30
0.0
  0
SPLINE
  5
8E
330
1F
100
AcDbEntity
  8
LAYER_1
100
AcDbSpline
210
0.0
220
0.0
230
1.0
 70
     8
 71
     3
 72
     8
 73
     4
 74
     0
 42
0.0000000001
 43
0.0000000001
 40
0.0
 40
0.0
 40
0.0
 40
0.0
 40
1.0
 40
1.0
 40
1.0
 40
1.0
 10
-18.9552
 20
-15.8938
 30
0.0
 10
-20.0193
 20
-16.3068
 30
0.0
 10
-20.2725
 20
-16.3068
 30
0.0
 10
-21.3365
 20
-15.8938
 30
0.0
  0
SPLINE
  5
8F
330
1F
100
AcDbEntity
  8
LAYER_1
100
AcDbSpline
210
0.0
220
0.0
230
1.0
 70
     8
 71
     3
 72
    12
 73
     8
 74
     0
 42
0.0000000001
 43
0.0000000001
 40
0.0
 40
0.0
 40
0.0
 40
0.0
 40
0.5
 40
0.5
 40
0.5
 40
0.5
 40
1.0
 40
1.0
 40
1.0
 40
1.0
 10
28.6697
 20
-15.3646
 30
0.0
 10
27.287
 20
-16.1626
 30
0.0
 10
19.4783
 20
-16.4309
 30
0.0
 10
17.8218
 20
-15.8938
 30
0.0
 10
17.8218
 20
-15.8938
 30
0.0
 10
17.636
 20
-15.3332
 30
0.0
 10
17.5424
 20
-15.0962
 30
0.0
 10
17.2927
 20
-14.5709
 30
0.0
  0
SPLINE
  5
90
330
1F
100
AcDbEntity
  8
LAYER_1
100
AcDbSpline
210
0.0
220
0.0
230
1.0
 70
     8
 71
     3
 72
    16
 73
    12
 74
     0
 42
0.0000000001
 43
0.0000000001
 40
0.0
 40
0.0
 40
0.0
 40
0.0
 40
0.3333333333333333
 40
0.3333333333333333
 40
0.3333333333333333
 40
0.3333333333333333
 40
0.6666666666666666
 40
0.6666666666666666
 40
0.6666666666666666
 40
0.6666666666666666
 40
1.0
 40
1.0
 40
1.0
 40
1.0
 10
15.9697
 20
-14.5709
 30
0.0
 10
15.794
 20
-14.9995
 30
0.0
 10
15.6163
 20
-15.4651
 30
0.0
 10
15.4406
 20
-15.8938
 30
0.0
 10
15.4406
 20
-15.8938
 30
0.0
 10
13.8095
 20
-16.4226
 30
0.0
 10
7.282
 20
-16.4226
 30
0.0
 10
5.651
 20
-15.8938
 30
0.0
 10
5.651
 20
-15.8938
 30
0.0
 10
5.4652
 20
-15.3332
 30
0.0
 10
5.3715
 20
-15.0962
 30
0.0
 10
5.1218
 20
-14.5709
 30
0.0
  0
SPLINE
  5
91
330
1F
100
AcDbEntity
  8
LAYER_1
100
AcDbSpline
210
0.0
220
0.0
230
1.0
 70
     8
 71
     3
 72
    20
 73
    16
 74
     0
 42
0.0000000001
 43
0.0000000001
 40
0.0
 40
0.0
 40
0.0
 40
0.0
 40
0.25
 40
0.25
 40
0.25
 40
0.25
 40
0.5
 40
0.5
 40
0.5
 40
0.5
 40
0.75
 40
0.75
 40
0.75
 40
0.75
 40
1.0
 40
1.0
 40
1.0
 40
1.0
 10
-6.5198
 20
-16.1584
 30
0.0
 10
-4.3092
 20
-16.3282
 30
0.0
 10
-3.8825
 20
-16.1584
 30
0.0
 10
-1.7573
 20
-16.1584
 30
0.0
 10
-1.7573
 20
-16.1584
 30
0.0
 10
-1.7573
 20
-16.1584
 30
0.0
 10
-1.4928
 20
-16.1584
 30
0.0
 10
-1.4928
 20
-16.1584
 30
0.0
 10
-1.4928
 20
-16.1584
 30
0.0
 10
0.0534
 20
-16.1584
 30
0.0
 10
1.3287
 20
-16.6161
 30
0.0
 10
2.7406
 20
-16.1584
 30
0.0
 10
2.7406
 20
-16.1584
 30
0.0
 10
3.1381
 20
-15.4946
 30
0.0
 10
3.2494
 20
-15.2812
 30
0.0
 10
3.5343
 20
-14.5709
 30
0.0
  0
SPLINE
  5
92
330
1F
100
AcDbEntity
  8
LAYER_1
100
AcDbSpline
210
0.0
220
0.0
230
1.0
 70
     8
 71
     3
 72
    12
 73
     8
 74
     0
 42
0.0000000001
 43
0.0000000001
 40
0.0
 40
0.0
 40
0.0
 40
0.0
 40
0.5
 40
0.5
 40
0.5
 40
0.5
 40
1.0
 40
1.0
 40
1.0
 40
1.0
 10
-9.1657
 20
-16.1584
 30
0.0
 10
-9.1657
 20
-16.1584
 30
0.0
 10
-6.5198
 20
-16.1584
 30
0.0
 10
-6.5198
 20
-16.1584
 30
0.0
 10
-6.5198
 20
-16.1584
 30
0.0
 10
-6.6738
 20
-15.3436
 30
0.0
 10
-6.7165
 20
-15.2859
 30
0.0
 10
-7.049
 20
-14.5709
 30
0.0
  0
SPLINE
  5
93
330
1F
100
AcDbEntity
  8
LAYER_1
100
AcDbSpline
210
0.0
220
0.0
230
1.0
 70
     8
 71
     3
 72
    16
 73
    12
 74
     0
 42
0.0000000001
 43
0.0000000001
 40
0.0
 40
0.0
 40
0.0
 40
0.0
 40
0.3333333333333333
 40
0.3333333333333333
 40
0.3333333333333333
 40
0.3333333333333333
 40
0.6666666666666666
 40
0.6666666666666666
 40
0.6666666666666666
 40
0.6666666666666666
 40
1.0
 40
1.0
 40
1.0
 40
1.0
 10
-8.6365
 20
-14.5709
 30
0.0
 10
-8.9264
 20
-15.2937
 30
0.0
 10
-8.9991
 20
-15.368
 30
0.0
 10
-9.1657
 20
-16.1584
 30
0.0
 10
-9.1657
 20
-16.1584
 30
0.0
 10
-11.6152
 20
-16.1584
 30
0.0
 10
-16.9694
 20
-16.5377
 30
0.0
 10
-18.9552
 20
-15.8938
 30
0.0
 10
-18.9552
 20
-15.8938
 30
0.0
 10
-19.1411
 20
-15.3332
 30
0.0
 10
-19.2347
 20
-15.0962
 30
0.0
 10
-19.4844
 20
-14.5709
 30
0.0
  0
SPLINE
  5
94
330
1F
100
AcDbEntity
  8
LAYER_1
100
AcDbSpline
210
0.0
220
0.0
230
1.0
 70
     8
 71
     3
 72
    12
 73
     8
 74
     0
 42
0.0000000001
 43
0.0000000001
 40
0.0
 40
0.0
 40
0.0
 40
0.0
 40
0.5
 40
0.5
 40
0.5
 40
0.5
 40
1.0
 40
1.0
 40
1.0
 40
1.0
 10
-32.1844
 20
-15.3646
 30
0.0
 10
-30.6786
 20
-16.0648
 30
0.0
 10
-23.0122
 20
-16.4371
 30
0.0
 10
-21.3365
 20
-15.8938
 30
0.0
 10
-21.3365
 20
-15.8938
 30
0.0
 10
-21.1607
 20
-15.4651
 30
0.0
 10
-20.9831
 20
-14.9995
 30
0.0
 10
-20.8073
 20
-14.5709
 30
0.0
  0
SPLINE
  5
95
330
1F
100
AcDbEntity
  8
LAYER_1
100
AcDbSpline
210
0.0
220
0.0
230
1.0
 70
     8
 71
     3
 72
     8
 73
     4
 74
     0
 42
0.0000000001
 43
0.0000000001
 40
0.0
 40
0.0
 40
0.0
 40
0.0
 40
1.0
 40
1.0
 40
1.0
 40
1.0
 10
35.5489
 20
-15.8938
 30
0.0
 10
35.594
 20
-13.824
 30
0.0
 10
36.6931
 20
-13.7215
 30
0.0
 10
36.8718
 20
-11.3959
 30
0.0
  0
SPLINE
  5
96
330
1F
100
AcDbEntity
  8
LAYER_1
100
AcDbSpline
210
0.0
220
0.0
230
1.0
 70
     8
 71
     3
 72
     8
 73
     4
 74
     0
 42
0.0000000001
 43
0.0000000001
 40
0.0
 40
0.0
 40
0.0
 40
0.0
 40
1.0
 40
1.0
 40
1.0
 40
1.0
 10
29.1989
 20
-15.3646
 30
0.0
 10
31.2613
 20
-12.8218
 30
0.0
 10
33.2484
 20
-12.8709
 30
0.0
 10
34.226
 20
-11.3959
 30
0.0
  0
SPLINE
  5
97
330
1F
100
AcDbEntity
  8
LAYER_1
100
AcDbSpline
210
0.0
220
0.0
230
1.0
 70
     8
 71
     3
 72
    20
 73
    16
 74
     0
 42
0.0000000001
 43
0.0000000001
 40
0.0
 40
0.0
 40
0.0
 40
0.0
 40
0.25
 40
0.25
 40
0.25
 40
0.25
 40
0.5
 40
0.5
 40
0.5
 40
0.5
 40
0.75
 40
0.75
 40
0.75
 40
0.75
 40
1.0
 40
1.0
 40
1.0
 40
1.0
 10
22.0551
 20
-11.3959
 30
0.0
 10
21.0878
 20
-12.8556
 30
0.0
 10
18.9355
 20
-13.0542
 30
0.0
 10
17.2927
 20
-14.5709
 30
0.0
 10
17.2927
 20
-14.5709
 30
0.0
 10
17.2927
 20
-14.5709
 30
0.0
 10
15.9697
 20
-14.5709
 30
0.0
 10
15.9697
 20
-14.5709
 30
0.0
 10
15.9697
 20
-14.5709
 30
0.0
 10
15.761
 20
-14.1123
 30
0.0
 10
15.9681
 20
-14.3046
 30
0.0
 10
15.4406
 20
-13.7771
 30
0.0
 10
15.4406
 20
-13.7771
 30
0.0
 10
13.9326
 20
-13.1723
 30
0.0
 10
12.4826
 20
-12.5733
 30
0.0
 10
11.2072
 20
-11.3959
 30
0.0
  0
SPLINE
  5
98
330
1F
100
AcDbEntity
  8
LAYER_1
100
AcDbSpline
210
0.0
220
0.0
230
1.0
 70
     8
 71
     3
 72
    16
 73
    12
 74
     0
 42
0.0000000001
 43
0.0000000001
 40
0.0
 40
0.0
 40
0.0
 40
0.0
 40
0.3333333333333333
 40
0.3333333333333333
 40
0.3333333333333333
 40
0.3333333333333333
 40
0.6666666666666666
 40
0.6666666666666666
 40
0.6666666666666666
 40
0.6666666666666666
 40
1.0
 40
1.0
 40
1.0
 40
1.0
 10
0.0947
 20
-11.6604
 30
0.0
 10
1.4145
 20
-13.8176
 30
0.0
 10
2.3935
 20
-12.8494
 30
0.0
 10
3.5343
 20
-14.5709
 30
0.0
 10
3.5343
 20
-14.5709
 30
0.0
 10
3.5343
 20
-14.5709
 30
0.0
 10
5.1218
 20
-14.5709
 30
0.0
 10
5.1218
 20
-14.5709
 30
0.0
 10
5.1218
 20
-14.5709
 30
0.0
 10
6.9234
 20
-12.8085
 30
0.0
 10
8.5725
 20
-12.9761
 30
0.0
 10
9.6197
 20
-11.3959
 30
0.0
  0
SPLINE
  5
99
330
1F
100
AcDbEntity
  8
LAYER_1
100
AcDbSpline
210
0.0
220
0.0
230
1.0
 70
     8
 71
     3
 72
    16
 73
    12
 74
     0
 42
0.0000000001
 43
0.0000000001
 40
0.0
 40
0.0
 40
0.0
 40
0.0
 40
0.3333333333333333
 40
0.3333333333333333
 40
0.3333333333333333
 40
0.3333333333333333
 40
0.6666666666666666
 40
0.6666666666666666
 40
0.6666666666666666
 40
0.6666666666666666
 40
1.0
 40
1.0
 40
1.0
 40
1.0
 10
-14.7219
 20
-11.3959
 30
0.0
 10
-15.6893
 20
-12.8556
 30
0.0
 10
-17.8416
 20
-13.0542
 30
0.0
 10
-19.4844
 20
-14.5709
 30
0.0
 10
-19.4844
 20
-14.5709
 30
0.0
 10
-19.4844
 20
-14.5709
 30
0.0
 10
-20.8073
 20
-14.5709
 30
0.0
 10
-20.8073
 20
-14.5709
 30
0.0
 10
-20.8073
 20
-14.5709
 30
0.0
 10
-21.7747
 20
-13.1112
 30
0.0
 10
-23.927
 20
-12.9125
 30
0.0
 10
-25.5698
 20
-11.3959
 30
0.0
  0
SPLINE
  5
9A
330
1F
100
AcDbEntity
  8
LAYER_1
100
AcDbSpline
210
0.0
220
0.0
230
1.0
 70
     8
 71
     3
 72
     8
 73
     4
 74
     0
 42
0.0000000001
 43
0.0000000001
 40
0.0
 40
0.0
 40
0.0
 40
0.0
 40
1.0
 40
1.0
 40
1.0
 40
1.0
 10
-32.1844
 20
-15.1
 30
0.0
 10
-30.2773
 20
-13.0342
 30
0.0
 10
-28.0717
 20
-12.7756
 30
0.0
 10
-27.1573
 20
-11.3959
 30
0.0
  0
SPLINE
  5
9B
330
1F
100
AcDbEntity
  8
LAYER_1
100
AcDbSpline
210
0.0
220
0.0
230
1.0
 70
     8
 71
     3
 72
    16
 73
    12
 74
     0
 42
0.0000000001
 43
0.0000000001
 40
0.0
 40
0.0
 40
0.0
 40
0.0
 40
0.3333333333333333
 40
0.3333333333333333
 40
0.3333333333333333
 40
0.3333333333333333
 40
0.6666666666666666
 40
0.6666666666666666
 40
0.6666666666666666
 40
0.6666666666666666
 40
1.0
 40
1.0
 40
1.0
 40
1.0
 10
-38.5344
 20
-15.8938
 30
0.0
 10
-36.0304
 20
-15.8938
 30
0.0
 10
-34.426
 20
-16.1403
 30
0.0
 10
-32.1844
 20
-15.3646
 30
0.0
 10
-32.1844
 20
-15.3646
 30
0.0
 10
-32.1844
 20
-15.3646
 30
0.0
 10
-32.1844
 20
-15.1
 30
0.0
 10
-32.1844
 20
-15.1
 30
0.0
 10
-32.1844
 20
-15.1
 30
0.0
 10
-33.4625
 20
-14.3181
 30
0.0
 10
-36.8114
 20
-12.3049
 30
0.0
 10
-37.7407
 20
-11.3959
 30
0.0
  0
SPLINE
  5
9C
330
1F
100
AcDbEntity
  8
LAYER_1
100
AcDbSpline
210
0.0
220
0.0
230
1.0
 70
     8
 71
     3
 72
    32
 73
    28
 74
     0
 42
0.0000000001
 43
0.0000000001
 40
0.0
 40
0.0
 40
0.0
 40
0.0
 40
0.1428571428571428
 40
0.1428571428571428
 40
0.1428571428571428
 40
0.1428571428571428
 40
0.2857142857142857
 40
0.2857142857142857
 40
0.2857142857142857
 40
0.2857142857142857
 40
0.4285714285714285
 40
0.4285714285714285
 40
0.4285714285714285
 40
0.4285714285714285
 40
0.5714285714285714
 40
0.5714285714285714
 40
0.5714285714285714
 40
0.5714285714285714
 40
0.7142857142857142
 40
0.7142857142857142
 40
0.7142857142857142
 40
0.7142857142857142
 40
0.857142857142857
 40
0.857142857142857
 40
0.857142857142857
 40
0.857142857142857
 40
1.0
 40
1.0
 40
1.0
 40
1.0
 10
23.6426
 20
-11.3959
 30
0.0
 10
25.1901
 20
-12.9095
 30
0.0
 10
26.1861
 20
-13.0296
 30
0.0
 10
27.876
 20
-14.0417
 30
0.0
 10
27.876
 20
-14.0417
 30
0.0
 10
28.1956
 20
-14.5198
 30
0.0
 10
28.4058
 20
-14.8713
 30
0.0
 10
28.6697
 20
-15.3646
 30
0.0
 10
28.6697
 20
-15.3646
 30
0.0
 10
28.6697
 20
-15.3646
 30
0.0
 10
29.1989
 20
-15.3646
 30
0.0
 10
29.1989
 20
-15.3646
 30
0.0
 10
29.1989
 20
-15.3646
 30
0.0
 10
30.9961
 20
-16.2003
 30
0.0
 10
33.4214
 20
-15.8938
 30
0.0
 10
35.5489
 20
-15.8938
 30
0.0
 10
35.5489
 20
-15.8938
 30
0.0
 10
43.1677
 20
-15.8938
 30
0.0
 10
51.0483
 20
-15.3645
 30
0.0
 10
58.5676
 20
-15.3646
 30
0.0
 10
58.5676
 20
-15.3646
 30
0.0
 10
62.6222
 20
-15.3647
 30
0.0
 10
66.2328
 20
-15.0919
 30
0.0
 10
70.2093
 20
-15.1
 30
0.0
 10
70.2093
 20
-15.1
 30
0.0
 10
75.4016
 20
-15.1106
 30
0.0
 10
78.41
 20
-15.5511
 30
0.0
 10
81.0572
 20
-11.1313
 30
0.0
  0
SPLINE
  5
9D
330
1F
100
AcDbEntity
  8
LAYER_1
100
AcDbSpline
210
0.0
220
0.0
230
1.0
 70
     8
 71
     3
 72
    24
 73
    20
 74
     0
 42
0.0000000001
 43
0.0000000001
 40
0.0
 40
0.0
 40
0.0
 40
0.0
 40
0.2
 40
0.2
 40
0.2
 40
0.2
 40
0.4
 40
0.4
 40
0.4
 40
0.4
 40
0.6000000000000001
 40
0.6000000000000001
 40
0.6000000000000001
 40
0.6000000000000001
 40
0.8
 40
0.8
 40
0.8
 40
0.8
 40
1.0
 40
1.0
 40
1.0
 40
1.0
 10
-40.1219
 20
-11.3959
 30
0.0
 10
-39.5499
 20
-13.1599
 30
0.0
 10
-38.8745
 20
-14.0941
 30
0.0
 10
-38.5344
 20
-15.8938
 30
0.0
 10
-38.5344
 20
-15.8938
 30
0.0
 10
-46.1615
 20
-15.8938
 30
0.0
 10
-54.0379
 20
-15.3635
 30
0.0
 10
-61.5531
 20
-15.3646
 30
0.0
 10
-61.5531
 20
-15.3646
 30
0.0
 10
-65.6062
 20
-15.3652
 30
0.0
 10
-69.2368
 20
-15.0995
 30
0.0
 10
-73.1948
 20
-15.1
 30
0.0
 10
-73.1948
 20
-15.1
 30
0.0
 10
-74.7676
 20
-15.1002
 30
0.0
 10
-77.4427
 20
-14.9996
 30
0.0
 10
-79.0156
 20
-14.8441
 30
0.0
 10
-79.0156
 20
-14.8441
 30
0.0
 10
-81.8209
 20
-14.567
 30
0.0
 10
-82.6741
 20
-13.4163
 30
0.0
 10
-84.0427
 20
-11.1313
 30
0.0
  0
SPLINE
  5
9E
330
1F
100
AcDbEntity
  8
LAYER_1
100
AcDbSpline
210
0.0
220
0.0
230
1.0
 70
     8
 71
     3
 72
     8
 73
     4
 74
     0
 42
0.0000000001
 43
0.0000000001
 40
0.0
 40
0.0
 40
0.0
 40
0.0
 40
1.0
 40
1.0
 40
1.0
 40
1.0
 10
-3.6094
 20
-11.6604
 30
0.0
 10
-6.0288
 20
-10.6685
 30
0.0
 10
-6.7071
 20
-11.4253
 30
0.0
 10
-8.9011
 20
-9.2792
 30
0.0
  0
SPLINE
  5
9F
330
1F
100
AcDbEntity
  8
LAYER_1
100
AcDbSpline
210
0.0
220
0.0
230
1.0
 70
     8
 71
     3
 72
    20
 73
    16
 74
     0
 42
0.0000000001
 43
0.0000000001
 40
0.0
 40
0.0
 40
0.0
 40
0.0
 40
0.25
 40
0.25
 40
0.25
 40
0.25
 40
0.5
 40
0.5
 40
0.5
 40
0.5
 40
0.75
 40
0.75
 40
0.75
 40
0.75
 40
1.0
 40
1.0
 40
1.0
 40
1.0
 10
28.1406
 20
-8.2209
 30
0.0
 10
28.1406
 20
-9.1783
 30
0.0
 10
28.2034
 20
-8.4136
 30
0.0
 10
27.876
 20
-9.0146
 30
0.0
 10
27.876
 20
-9.0146
 30
0.0
 10
26.3914
 20
-9.61
 30
0.0
 10
24.8936
 20
-10.241
 30
0.0
 10
23.6426
 20
-11.3959
 30
0.0
 10
23.6426
 20
-11.3959
 30
0.0
 10
23.6426
 20
-11.3959
 30
0.0
 10
22.0551
 20
-11.3959
 30
0.0
 10
22.0551
 20
-11.3959
 30
0.0
 10
22.0551
 20
-11.3959
 30
0.0
 10
20.8924
 20
-9.6413
 30
0.0
 10
18.8927
 20
-10.0453
 30
0.0
 10
17.5572
 20
-8.2209
 30
0.0
  0
SPLINE
  5
A0
330
1F
100
AcDbEntity
  8
LAYER_1
100
AcDbSpline
210
0.0
220
0.0
230
1.0
 70
     8
 71
     3
 72
    16
 73
    12
 74
     0
 42
0.0000000001
 43
0.0000000001
 40
0.0
 40
0.0
 40
0.0
 40
0.0
 40
0.3333333333333333
 40
0.3333333333333333
 40
0.3333333333333333
 40
0.3333333333333333
 40
0.6666666666666666
 40
0.6666666666666666
 40
0.6666666666666666
 40
0.6666666666666666
 40
1.0
 40
1.0
 40
1.0
 40
1.0
 10
6.1802
 20
-9.5438
 30
0.0
 10
7.515
 20
-9.6463
 30
0.0
 10
8.9225
 20
-10.3438
 30
0.0
 10
9.6197
 20
-11.3959
 30
0.0
 10
9.6197
 20
-11.3959
 30
0.0
 10
9.6197
 20
-11.3959
 30
0.0
 10
11.2072
 20
-11.3959
 30
0.0
 10
11.2072
 20
-11.3959
 30
0.0
 10
11.2072
 20
-11.3959
 30
0.0
 10
12.8501
 20
-9.8792
 30
0.0
 10
15.0024
 20
-9.6806
 30
0.0
 10
15.9697
 20
-8.2209
 30
0.0
  0
SPLINE
  5
A1
330
1F
100
AcDbEntity
  8
LAYER_1
100
AcDbSpline
210
0.0
220
0.0
230
1.0
 70
     8
 71
     3
 72
    24
 73
    20
 74
     0
 42
0.0000000001
 43
0.0000000001
 40
0.0
 40
0.0
 40
0.0
 40
0.0
 40
0.2
 40
0.2
 40
0.2
 40
0.2
 40
0.4
 40
0.4
 40
0.4
 40
0.4
 40
0.6000000000000001
 40
0.6000000000000001
 40
0.6000000000000001
 40
0.6000000000000001
 40
0.8
 40
0.8
 40
0.8
 40
0.8
 40
1.0
 40
1.0
 40
1.0
 40
1.0
 10
-21.0719
 20
-8.2209
 30
0.0
 10
-21.0719
 20
-9.1783
 30
0.0
 10
-21.009
 20
-8.4136
 30
0.0
 10
-21.3365
 20
-9.0146
 30
0.0
 10
-21.3365
 20
-9.0146
 30
0.0
 10
-22.8211
 20
-9.61
 30
0.0
 10
-24.3189
 20
-10.241
 30
0.0
 10
-25.5698
 20
-11.3959
 30
0.0
 10
-25.5698
 20
-11.3959
 30
0.0
 10
-25.5698
 20
-11.3959
 30
0.0
 10
-27.1573
 20
-11.3959
 30
0.0
 10
-27.1573
 20
-11.3959
 30
0.0
 10
-27.1573
 20
-11.3959
 30
0.0
 10
-27.9629
 20
-10.1803
 30
0.0
 10
-29.6046
 20
-9.7674
 30
0.0
 10
-30.8615
 20
-9.0146
 30
0.0
 10
-30.8615
 20
-9.0146
 30
0.0
 10
-31.4112
 20
-8.4649
 30
0.0
 10
-31.2114
 20
-8.5357
 30
0.0
 10
-31.3907
 20
-8.2209
 30
0.0
  0
SPLINE
  5
A2
330
1F
100
AcDbEntity
  8
LAYER_1
100
AcDbSpline
210
0.0
220
0.0
230
1.0
 70
     8
 71
     3
 72
    20
 73
    16
 74
     0
 42
0.0000000001
 43
0.0000000001
 40
0.0
 40
0.0
 40
0.0
 40
0.0
 40
0.25
 40
0.25
 40
0.25
 40
0.25
 40
0.5
 40
0.5
 40
0.5
 40
0.5
 40
0.75
 40
0.75
 40
0.75
 40
0.75
 40
1.0
 40
1.0
 40
1.0
 40
1.0
 10
29.9926
 20
-8.2209
 30
0.0
 10
30.2013
 20
-8.6794
 30
0.0
 10
29.9943
 20
-8.4871
 30
0.0
 10
30.5218
 20
-9.0146
 30
0.0
 10
30.5218
 20
-9.0146
 30
0.0
 10
31.7787
 20
-9.7674
 30
0.0
 10
33.4204
 20
-10.1803
 30
0.0
 10
34.226
 20
-11.3959
 30
0.0
 10
34.226
 20
-11.3959
 30
0.0
 10
34.226
 20
-11.3959
 30
0.0
 10
36.8718
 20
-11.3959
 30
0.0
 10
36.8718
 20
-11.3959
 30
0.0
 10
36.8718
 20
-11.3959
 30
0.0
 10
38.9243
 20
-10.0089
 30
0.0
 10
39.1639
 20
-9.8453
 30
0.0
 10
40.0468
 20
-7.6917
 30
0.0
  0
SPLINE
  5
A3
330
1F
100
AcDbEntity
  8
LAYER_1
100
AcDbSpline
210
0.0
220
0.0
230
1.0
 70
     8
 71
     3
 72
    12
 73
     8
 74
     0
 42
0.0000000001
 43
0.0000000001
 40
0.0
 40
0.0
 40
0.0
 40
0.0
 40
0.5
 40
0.5
 40
0.5
 40
0.5
 40
1.0
 40
1.0
 40
1.0
 40
1.0
 10
-13.1344
 20
-11.3959
 30
0.0
 10
-12.3528
 20
-10.3875
 30
0.0
 10
-10.3258
 20
-9.3886
 30
0.0
 10
-8.9011
 20
-9.2792
 30
0.0
 10
-8.9011
 20
-9.2792
 30
0.0
 10
-8.9011
 20
-9.2792
 30
0.0
 10
-8.9011
 20
-7.6917
 30
0.0
 10
-8.9011
 20
-7.6917
 30
0.0
  0
SPLINE
  5
A4
330
1F
100
AcDbEntity
  8
LAYER_1
100
AcDbSpline
210
0.0
220
0.0
230
1.0
 70
     8
 71
     3
 72
    20
 73
    16
 74
     0
 42
0.0000000001
 43
0.0000000001
 40
0.0
 40
0.0
 40
0.0
 40
0.0
 40
0.25
 40
0.25
 40
0.25
 40
0.25
 40
0.5
 40
0.5
 40
0.5
 40
0.5
 40
0.75
 40
0.75
 40
0.75
 40
0.75
 40
1.0
 40
1.0
 40
1.0
 40
1.0
 10
-33.2427
 20
-8.2209
 30
0.0
 10
-33.2427
 20
-9.1783
 30
0.0
 10
-33.1799
 20
-8.4136
 30
0.0
 10
-33.5073
 20
-9.0146
 30
0.0
 10
-33.5073
 20
-9.0146
 30
0.0
 10
-34.9919
 20
-9.61
 30
0.0
 10
-36.4897
 20
-10.241
 30
0.0
 10
-37.7407
 20
-11.3959
 30
0.0
 10
-37.7407
 20
-11.3959
 30
0.0
 10
-37.7407
 20
-11.3959
 30
0.0
 10
-40.1219
 20
-11.3959
 30
0.0
 10
-40.1219
 20
-11.3959
 30
0.0
 10
-40.1219
 20
-11.3959
 30
0.0
 10
-41.4235
 20
-10.3402
 30
0.0
 10
-42.9471
 20
-9.096
 30
0.0
 10
-43.2969
 20
-7.4271
 30
0.0
  0
SPLINE
  5
A5
330
1F
100
AcDbEntity
  8
LAYER_1
100
AcDbSpline
210
0.0
220
0.0
230
1.0
 70
     8
 71
     3
 72
    12
 73
     8
 74
     0
 42
0.0000000001
 43
0.0000000001
 40
0.0
 40
0.0
 40
0.0
 40
0.0
 40
0.5
 40
0.5
 40
0.5
 40
0.5
 40
1.0
 40
1.0
 40
1.0
 40
1.0
 10
6.1802
 20
-7.6917
 30
0.0
 10
7.1375
 20
-6.9361
 30
0.0
 10
8.2923
 20
-6.357
 30
0.0
 10
9.3552
 20
-5.8396
 30
0.0
 10
9.3552
 20
-5.8396
 30
0.0
 10
9.9048
 20
-5.2899
 30
0.0
 10
9.7051
 20
-5.3607
 30
0.0
 10
9.8843
 20
-5.0459
 30
0.0
  0
SPLINE
  5
A6
330
1F
100
AcDbEntity
  8
LAYER_1
100
AcDbSpline
210
0.0
220
0.0
230
1.0
 70
     8
 71
     3
 72
    20
 73
    16
 74
     0
 42
0.0000000001
 43
0.0000000001
 40
0.0
 40
0.0
 40
0.0
 40
0.0
 40
0.25
 40
0.25
 40
0.25
 40
0.25
 40
0.5
 40
0.5
 40
0.5
 40
0.5
 40
0.75
 40
0.75
 40
0.75
 40
0.75
 40
1.0
 40
1.0
 40
1.0
 40
1.0
 10
-2.2865
 20
-5.3104
 30
0.0
 10
-2.5845
 20
-5.9653
 30
0.0
 10
-2.1608
 20
-5.5416
 30
0.0
 10
-2.8157
 20
-5.8396
 30
0.0
 10
-2.8157
 20
-5.8396
 30
0.0
 10
-6.0773
 20
-6.4559
 30
0.0
 10
-5.9353
 20
-6.5022
 30
0.0
 10
-8.9011
 20
-7.6917
 30
0.0
 10
-8.9011
 20
-7.6917
 30
0.0
 10
-10.1571
 20
-7.1076
 30
0.0
 10
-11.4021
 20
-6.5602
 30
0.0
 10
-12.6053
 20
-5.8396
 30
0.0
 10
-12.6053
 20
-5.8396
 30
0.0
 10
-13.1549
 20
-5.2899
 30
0.0
 10
-12.9552
 20
-5.3607
 30
0.0
 10
-13.1344
 20
-5.0459
 30
0.0
  0
SPLINE
  5
A7
330
1F
100
AcDbEntity
  8
LAYER_1
100
AcDbSpline
210
0.0
220
0.0
230
1.0
 70
     8
 71
     3
 72
     8
 73
     4
 74
     0
 42
0.0000000001
 43
0.0000000001
 40
0.0
 40
0.0
 40
0.0
 40
0.0
 40
1.0
 40
1.0
 40
1.0
 40
1.0
 10
-19.2198
 20
-8.2209
 30
0.0
 10
-18.0503
 20
-6.7121
 30
0.0
 10
-15.7907
 20
-6.6586
 30
0.0
 10
-14.7219
 20
-5.0459
 30
0.0
  0
SPLINE
  5
A8
330
1F
100
AcDbEntity
  8
LAYER_1
100
AcDbSpline
210
0.0
220
0.0
230
1.0
 70
     8
 71
     3
 72
    20
 73
    16
 74
     0
 42
0.0000000001
 43
0.0000000001
 40
0.0
 40
0.0
 40
0.0
 40
0.0
 40
0.25
 40
0.25
 40
0.25
 40
0.25
 40
0.5
 40
0.5
 40
0.5
 40
0.5
 40
0.75
 40
0.75
 40
0.75
 40
0.75
 40
1.0
 40
1.0
 40
1.0
 40
1.0
 10
-26.8927
 20
-5.3104
 30
0.0
 10
-28.2812
 20
-6.5923
 30
0.0
 10
-30.362
 20
-6.8939
 30
0.0
 10
-31.3907
 20
-8.2209
 30
0.0
 10
-31.3907
 20
-8.2209
 30
0.0
 10
-31.3907
 20
-8.2209
 30
0.0
 10
-33.2427
 20
-8.2209
 30
0.0
 10
-33.2427
 20
-8.2209
 30
0.0
 10
-33.2427
 20
-8.2209
 30
0.0
 10
-34.1003
 20
-7.1145
 30
0.0
 10
-35.9285
 20
-6.608
 30
0.0
 10
-37.2115
 20
-5.8396
 30
0.0
 10
-37.2115
 20
-5.8396
 30
0.0
 10
-37.7612
 20
-5.2899
 30
0.0
 10
-37.5614
 20
-5.3607
 30
0.0
 10
-37.7407
 20
-5.0459
 30
0.0
  0
SPLINE
  5
A9
330
1F
100
AcDbEntity
  8
LAYER_1
100
AcDbSpline
210
0.0
220
0.0
230
1.0
 70
     8
 71
     3
 72
     8
 73
     4
 74
     0
 42
0.0000000001
 43
0.0000000001
 40
0.0
 40
0.0
 40
0.0
 40
0.0
 40
1.0
 40
1.0
 40
1.0
 40
1.0
 10
-44.8844
 20
-3.4584
 30
0.0
 10
-45.1876
 20
-3.6042
 30
0.0
 10
-45.6396
 20
-3.8417
 30
0.0
 10
-45.9427
 20
-3.9875
 30
0.0
  0
SPLINE
  5
AA
330
1F
100
AcDbEntity
  8
LAYER_1
100
AcDbSpline
210
0.0
220
0.0
230
1.0
 70
     8
 71
     3
 72
     8
 73
     4
 74
     0
 42
0.0000000001
 43
0.0000000001
 40
0.0
 40
0.0
 40
0.0
 40
0.0
 40
1.0
 40
1.0
 40
1.0
 40
1.0
 10
36.0781
 20
-5.0459
 30
0.0
 10
37.0256
 20
-4.0772
 30
0.0
 10
36.914
 20
-4.3455
 30
0.0
 10
37.401
 20
-3.1938
 30
0.0
  0
SPLINE
  5
AB
330
1F
100
AcDbEntity
  8
LAYER_1
100
AcDbSpline
210
0.0
220
0.0
230
1.0
 70
     8
 71
     3
 72
     8
 73
     4
 74
     0
 42
0.0000000001
 43
0.0000000001
 40
0.0
 40
0.0
 40
0.0
 40
0.0
 40
1.0
 40
1.0
 40
1.0
 40
1.0
 10
-43.2969
 20
-3.1938
 30
0.0
 10
-44.2021
 20
-3.5452
 30
0.0
 10
-43.7968
 20
-3.4584
 30
0.0
 10
-44.8844
 20
-3.4584
 30
0.0
  0
SPLINE
  5
AC
330
1F
100
AcDbEntity
  8
LAYER_1
100
AcDbSpline
210
0.0
220
0.0
230
1.0
 70
     8
 71
     3
 72
    12
 73
     8
 74
     0
 42
0.0000000001
 43
0.0000000001
 40
0.0
 40
0.0
 40
0.0
 40
0.0
 40
0.5
 40
0.5
 40
0.5
 40
0.5
 40
1.0
 40
1.0
 40
1.0
 40
1.0
 10
-39.3282
 20
-5.0459
 30
0.0
 10
-40.4019
 20
-4.175
 30
0.0
 10
-40.5363
 20
-4.5129
 30
0.0
 10
-40.9157
 20
-3.1938
 30
0.0
 10
-40.9157
 20
-3.1938
 30
0.0
 10
-40.9157
 20
-3.1938
 30
0.0
 10
-43.2969
 20
-3.1938
 30
0.0
 10
-43.2969
 20
-3.1938
 30
0.0
  0
SPLINE
  5
AD
330
1F
100
AcDbEntity
  8
LAYER_1
100
AcDbSpline
210
0.0
220
0.0
230
1.0
 70
     8
 71
     3
 72
     8
 73
     4
 74
     0
 42
0.0000000001
 43
0.0000000001
 40
0.0
 40
0.0
 40
0.0
 40
0.0
 40
1.0
 40
1.0
 40
1.0
 40
1.0
 10
-39.5927
 20
-2.6646
 30
0.0
 10
-40.2028
 20
-2.958
 30
0.0
 10
-39.7071
 20
-2.9292
 30
0.0
 10
-40.6511
 20
-2.9292
 30
0.0
  0
SPLINE
  5
AE
330
1F
100
AcDbEntity
  8
LAYER_1
100
AcDbSpline
210
0.0
220
0.0
230
1.0
 70
     8
 71
     3
 72
    12
 73
     8
 74
     0
 42
0.0000000001
 43
0.0000000001
 40
0.0
 40
0.0
 40
0.0
 40
0.0
 40
0.5
 40
0.5
 40
0.5
 40
0.5
 40
1.0
 40
1.0
 40
1.0
 40
1.0
 10
34.4906
 20
-5.0459
 30
0.0
 10
33.5398
 20
-4.2955
 30
0.0
 10
33.0601
 20
-4.2088
 30
0.0
 10
32.1093
 20
-3.4584
 30
0.0
 10
32.1093
 20
-3.4584
 30
0.0
 10
31.7817
 20
-2.9466
 30
0.0
 10
31.8043
 20
-2.9468
 30
0.0
 10
31.5801
 20
-2.4
 30
0.0
  0
SPLINE
  5
AF
330
1F
100
AcDbEntity
  8
LAYER_1
100
AcDbSpline
210
0.0
220
0.0
230
1.0
 70
     8
 71
     3
 72
     8
 73
     4
 74
     0
 42
0.0000000001
 43
0.0000000001
 40
0.0
 40
0.0
 40
0.0
 40
0.0
 40
1.0
 40
1.0
 40
1.0
 40
1.0
 10
-37.2115
 20
-2.4
 30
0.0
 10
-38.2536
 20
-2.8045
 30
0.0
 10
-38.42
 20
-2.6646
 30
0.0
 10
-39.5927
 20
-2.6646
 30
0.0
  0
SPLINE
  5
B0
330
1F
100
AcDbEntity
  8
LAYER_1
100
AcDbSpline
210
0.0
220
0.0
230
1.0
 70
     8
 71
     3
 72
    12
 73
     8
 74
     0
 42
0.0000000001
 43
0.0000000001
 40
0.0
 40
0.0
 40
0.0
 40
0.0
 40
0.5
 40
0.5
 40
0.5
 40
0.5
 40
1.0
 40
1.0
 40
1.0
 40
1.0
 10
23.6426
 20
-5.3104
 30
0.0
 10
24.5349
 20
-4.0915
 30
0.0
 10
25.4864
 20
-3.9911
 30
0.0
 10
26.8176
 20
-3.1938
 30
0.0
 10
26.8176
 20
-3.1938
 30
0.0
 10
27.1453
 20
-2.6821
 30
0.0
 10
27.1227
 20
-2.6822
 30
0.0
 10
27.3468
 20
-2.1354
 30
0.0
  0
SPLINE
  5
B1
330
1F
100
AcDbEntity
  8
LAYER_1
100
AcDbSpline
210
0.0
220
0.0
230
1.0
 70
     8
 71
     3
 72
     8
 73
     4
 74
     0
 42
0.0000000001
 43
0.0000000001
 40
0.0
 40
0.0
 40
0.0
 40
0.0
 40
1.0
 40
1.0
 40
1.0
 40
1.0
 10
-35.3594
 20
-2.6646
 30
0.0
 10
-36.3306
 20
-2.2876
 30
0.0
 10
-36.0938
 20
-2.4
 30
0.0
 10
-37.2115
 20
-2.4
 30
0.0
  0
SPLINE
  5
B2
330
1F
100
AcDbEntity
  8
LAYER_1
100
AcDbSpline
210
0.0
220
0.0
230
1.0
 70
     8
 71
     3
 72
    12
 73
     8
 74
     0
 42
0.0000000001
 43
0.0000000001
 40
0.0
 40
0.0
 40
0.0
 40
0.0
 40
0.5
 40
0.5
 40
0.5
 40
0.5
 40
1.0
 40
1.0
 40
1.0
 40
1.0
 10
11.4718
 20
-5.0459
 30
0.0
 10
12.7917
 20
-3.8274
 30
0.0
 10
13.9784
 20
-3.5403
 30
0.0
 10
15.4406
 20
-2.6646
 30
0.0
 10
15.4406
 20
-2.6646
 30
0.0
 10
15.9903
 20
-2.1149
 30
0.0
 10
15.7905
 20
-2.1857
 30
0.0
 10
15.9697
 20
-1.8709
 30
0.0
  0
SPLINE
  5
B3
330
1F
100
AcDbEntity
  8
LAYER_1
100
AcDbSpline
210
0.0
220
0.0
230
1.0
 70
     8
 71
     3
 72
    28
 73
    24
 74
     0
 42
0.0000000001
 43
0.0000000001
 40
0.0
 40
0.0
 40
0.0
 40
0.0
 40
0.1666666666666667
 40
0.1666666666666667
 40
0.1666666666666667
 40
0.1666666666666667
 40
0.3333333333333333
 40
0.3333333333333333
 40
0.3333333333333333
 40
0.3333333333333333
 40
0.5
 40
0.5
 40
0.5
 40
0.5
 40
0.6666666666666666
 40
0.6666666666666666
 40
0.6666666666666666
 40
0.6666666666666666
 40
0.8333333333333333
 40
0.8333333333333333
 40
0.8333333333333333
 40
0.8333333333333333
 40
1.0
 40
1.0
 40
1.0
 40
1.0
 10
22.0551
 20
-5.3104
 30
0.0
 10
21.0265
 20
-6.6374
 30
0.0
 10
18.9457
 20
-6.939
 30
0.0
 10
17.5572
 20
-8.2209
 30
0.0
 10
17.5572
 20
-8.2209
 30
0.0
 10
17.5572
 20
-8.2209
 30
0.0
 10
15.9697
 20
-8.2209
 30
0.0
 10
15.9697
 20
-8.2209
 30
0.0
 10
15.9697
 20
-8.2209
 30
0.0
 10
15.1121
 20
-7.1145
 30
0.0
 10
13.284
 20
-6.608
 30
0.0
 10
12.001
 20
-5.8396
 30
0.0
 10
12.001
 20
-5.8396
 30
0.0
 10
11.4513
 20
-5.2899
 30
0.0
 10
11.6511
 20
-5.3607
 30
0.0
 10
11.4718
 20
-5.0459
 30
0.0
 10
11.4718
 20
-5.0459
 30
0.0
 10
11.4718
 20
-5.0459
 30
0.0
 10
9.8843
 20
-5.0459
 30
0.0
 10
9.8843
 20
-5.0459
 30
0.0
 10
9.8843
 20
-5.0459
 30
0.0
 10
8.0622
 20
-3.6077
 30
0.0
 10
6.6915
 20
-3.6651
 30
0.0
 10
4.8572
 20
-1.8709
 30
0.0
  0
SPLINE
  5
B4
330
1F
100
AcDbEntity
  8
LAYER_1
100
AcDbSpline
210
0.0
220
0.0
230
1.0
 70
     8
 71
     3
 72
    12
 73
     8
 74
     0
 42
0.0000000001
 43
0.0000000001
 40
0.0
 40
0.0
 40
0.0
 40
0.0
 40
0.5
 40
0.5
 40
0.5
 40
0.5
 40
1.0
 40
1.0
 40
1.0
 40
1.0
 10
-0.9636
 20
-5.3104
 30
0.0
 10
0.0099
 20
-3.9805
 30
0.0
 10
1.841
 20
-3.5203
 30
0.0
 10
3.2697
 20
-2.6646
 30
0.0
 10
3.2697
 20
-2.6646
 30
0.0
 10
3.8194
 20
-2.1149
 30
0.0
 10
3.6197
 20
-2.1857
 30
0.0
 10
3.7989
 20
-1.8709
 30
0.0
  0
SPLINE
  5
B5
330
1F
100
AcDbEntity
  8
LAYER_1
100
AcDbSpline
210
0.0
220
0.0
230
1.0
 70
     8
 71
     3
 72
    68
 73
    64
 74
     0
 42
0.0000000001
 43
0.0000000001
 40
0.0
 40
0.0
 40
0.0
 40
0.0
 40
0.0625
 40
0.0625
 40
0.0625
 40
0.0625
 40
0.125
 40
0.125
 40
0.125
 40
0.125
 40
0.1875
 40
0.1875
 40
0.1875
 40
0.1875
 40
0.25
 40
0.25
 40
0.25
 40
0.25
 40
0.3125
 40
0.3125
 40
0.3125
 40
0.3125
 40
0.375
 40
0.375
 40
0.375
 40
0.375
 40
0.4375
 40
0.4375
 40
0.4375
 40
0.4375
 40
0.5
 40
0.5
 40
0.5
 40
0.5
 40
0.5625
 40
0.5625
 40
0.5625
 40
0.5625
 40
0.625
 40
0.625
 40
0.625
 40
0.625
 40
0.6875
 40
0.6875
 40
0.6875
 40
0.6875
 40
0.75
 40
0.75
 40
0.75
 40
0.75
 40
0.8125
 40
0.8125
 40
0.8125
 40
0.8125
 40
0.875
 40
0.875
 40
0.875
 40
0.875
 40
0.9375
 40
0.9375
 40
0.9375
 40
0.9375
 40
1.0
 40
1.0
 40
1.0
 40
1.0
 10
-25.3052
 20
-5.3104
 30
0.0
 10
-24.1295
 20
-6.8271
 30
0.0
 10
-22.1986
 20
-6.7674
 30
0.0
 10
-21.0719
 20
-8.2209
 30
0.0
 10
-21.0719
 20
-8.2209
 30
0.0
 10
-21.0719
 20
-8.2209
 30
0.0
 10
-19.2198
 20
-8.2209
 30
0.0
 10
-19.2198
 20
-8.2209
 30
0.0
 10
-19.2198
 20
-8.2209
 30
0.0
 10
-19.0111
 20
-8.6794
 30
0.0
 10
-19.2182
 20
-8.4871
 30
0.0
 10
-18.6907
 20
-9.0146
 30
0.0
 10
-18.6907
 20
-9.0146
 30
0.0
 10
-17.4077
 20
-9.783
 30
0.0
 10
-15.5795
 20
-10.2895
 30
0.0
 10
-14.7219
 20
-11.3959
 30
0.0
 10
-14.7219
 20
-11.3959
 30
0.0
 10
-14.7219
 20
-11.3959
 30
0.0
 10
-13.1344
 20
-11.3959
 30
0.0
 10
-13.1344
 20
-11.3959
 30
0.0
 10
-13.1344
 20
-11.3959
 30
0.0
 10
-11.9534
 20
-13.1779
 30
0.0
 10
-9.8175
 20
-12.7888
 30
0.0
 10
-8.6365
 20
-14.5709
 30
0.0
 10
-8.6365
 20
-14.5709
 30
0.0
 10
-8.6365
 20
-14.5709
 30
0.0
 10
-7.049
 20
-14.5709
 30
0.0
 10
-7.049
 20
-14.5709
 30
0.0
 10
-7.049
 20
-14.5709
 30
0.0
 10
-6.1567
 20
-13.3519
 30
0.0
 10
-5.2053
 20
-13.2515
 30
0.0
 10
-3.874
 20
-12.4542
 30
0.0
 10
-3.874
 20
-12.4542
 30
0.0
 10
-3.4664
 20
-11.7061
 30
0.0
 10
-3.8221
 20
-12.6752
 30
0.0
 10
-3.6094
 20
-11.6604
 30
0.0
 10
-3.6094
 20
-11.6604
 30
0.0
 10
-3.6094
 20
-11.6604
 30
0.0
 10
0.0947
 20
-11.6604
 30
0.0
 10
0.0947
 20
-11.6604
 30
0.0
 10
0.0947
 20
-11.6604
 30
0.0
 10
2.8898
 20
-10.7542
 30
0.0
 10
3.2775
 20
-11.0967
 30
0.0
 10
6.1802
 20
-9.5438
 30
0.0
 10
6.1802
 20
-9.5438
 30
0.0
 10
6.1802
 20
-9.5438
 30
0.0
 10
6.1802
 20
-7.6917
 30
0.0
 10
6.1802
 20
-7.6917
 30
0.0
 10
6.1802
 20
-7.6917
 30
0.0
 10
3.6047
 20
-6.6588
 30
0.0
 10
2.6911
 20
-5.9077
 30
0.0
 10
-0.4344
 20
-5.8396
 30
0.0
 10
-0.4344
 20
-5.8396
 30
0.0
 10
-1.4708
 20
-5.3679
 30
0.0
 10
-0.62
 20
-5.7874
 30
0.0
 10
-0.9636
 20
-5.3104
 30
0.0
 10
-0.9636
 20
-5.3104
 30
0.0
 10
-0.9636
 20
-5.3104
 30
0.0
 10
-2.2865
 20
-5.3104
 30
0.0
 10
-2.2865
 20
-5.3104
 30
0.0
 10
-2.2865
 20
-5.3104
 30
0.0
 10
-4.0024
 20
-3.7264
 30
0.0
 10
-5.3604
 20
-3.7815
 30
0.0
 10
-7.3136
 20
-1.8709
 30
0.0
  0
SPLINE
  5
B6
330
1F
100
AcDbEntity
  8
LAYER_1
100
AcDbSpline
210
0.0
220
0.0
230
1.0
 70
     8
 71
     3
 72
    20
 73
    16
 74
     0
 42
0.0000000001
 43
0.0000000001
 40
0.0
 40
0.0
 40
0.0
 40
0.0
 40
0.25
 40
0.25
 40
0.25
 40
0.25
 40
0.5
 40
0.5
 40
0.5
 40
0.5
 40
0.75
 40
0.75
 40
0.75
 40
0.75
 40
1.0
 40
1.0
 40
1.0
 40
1.0
 10
-8.6365
 20
-1.8709
 30
0.0
 10
-8.8452
 20
-2.3294
 30
0.0
 10
-8.6382
 20
-2.1371
 30
0.0
 10
-9.1657
 20
-2.6646
 30
0.0
 10
-9.1657
 20
-2.6646
 30
0.0
 10
-10.4487
 20
-3.433
 30
0.0
 10
-12.2768
 20
-3.9395
 30
0.0
 10
-13.1344
 20
-5.0459
 30
0.0
 10
-13.1344
 20
-5.0459
 30
0.0
 10
-13.1344
 20
-5.0459
 30
0.0
 10
-14.7219
 20
-5.0459
 30
0.0
 10
-14.7219
 20
-5.0459
 30
0.0
 10
-14.7219
 20
-5.0459
 30
0.0
 10
-16.576
 20
-3.5825
 30
0.0
 10
-17.501
 20
-3.8542
 30
0.0
 10
-19.4844
 20
-1.8709
 30
0.0
  0
SPLINE
  5
B7
330
1F
100
AcDbEntity
  8
LAYER_1
100
AcDbSpline
210
0.0
220
0.0
230
1.0
 70
     8
 71
     3
 72
     8
 73
     4
 74
     0
 42
0.0000000001
 43
0.0000000001
 40
0.0
 40
0.0
 40
0.0
 40
0.0
 40
1.0
 40
1.0
 40
1.0
 40
1.0
 10
-28.4802
 20
-1.6063
 30
0.0
 10
-29.5434
 20
-2.019
 30
0.0
 10
-29.5338
 20
-1.7228
 30
0.0
 10
-30.5969
 20
-2.1354
 30
0.0
  0
SPLINE
  5
B8
330
1F
100
AcDbEntity
  8
LAYER_1
100
AcDbSpline
210
0.0
220
0.0
230
1.0
 70
     8
 71
     3
 72
    20
 73
    16
 74
     0
 42
0.0000000001
 43
0.0000000001
 40
0.0
 40
0.0
 40
0.0
 40
0.0
 40
0.25
 40
0.25
 40
0.25
 40
0.25
 40
0.5
 40
0.5
 40
0.5
 40
0.5
 40
0.75
 40
0.75
 40
0.75
 40
0.75
 40
1.0
 40
1.0
 40
1.0
 40
1.0
 10
42.9572
 20
-3.9875
 30
0.0
 10
41.202
 20
-3.2679
 30
0.0
 10
39.4475
 20
-3.1938
 30
0.0
 10
37.401
 20
-3.1938
 30
0.0
 10
37.401
 20
-3.1938
 30
0.0
 10
35.7967
 20
-2.5361
 30
0.0
 10
33.4788
 20
-2.4
 30
0.0
 10
31.5801
 20
-2.4
 30
0.0
 10
31.5801
 20
-2.4
 30
0.0
 10
30.1952
 20
-2.3698
 30
0.0
 10
28.9942
 20
-2.1354
 30
0.0
 10
27.3468
 20
-2.1354
 30
0.0
 10
27.3468
 20
-2.1354
 30
0.0
 10
25.7067
 20
-1.4988
 30
0.0
 10
19.289
 20
-1.1986
 30
0.0
 10
17.5572
 20
-1.8709
 30
0.0
  0
SPLINE
  5
B9
330
1F
100
AcDbEntity
  8
LAYER_1
100
AcDbSpline
210
0.0
220
0.0
230
1.0
 70
     8
 71
     3
 72
     8
 73
     4
 74
     0
 42
0.0000000001
 43
0.0000000001
 40
0.0
 40
0.0
 40
0.0
 40
0.0
 40
1.0
 40
1.0
 40
1.0
 40
1.0
 10
-21.3365
 20
-1.8709
 30
0.0
 10
-23.2647
 20
-1.1224
 30
0.0
 10
-26.311
 20
-1.6063
 30
0.0
 10
-28.4802
 20
-1.6063
 30
0.0
  0
SPLINE
  5
BA
330
1F
100
AcDbEntity
  8
LAYER_1
100
AcDbSpline
210
0.0
220
0.0
230
1.0
 70
     8
 71
     3
 72
   164
 73
   160
 74
     0
 42
0.0000000001
 43
0.0000000001
 40
0.0
 40
0.0
 40
0.0
 40
0.0
 40
0.025
 40
0.025
 40
0.025
 40
0.025
 40
0.05
 40
0.05
 40
0.05
 40
0.05
 40
0.075
 40
0.075
 40
0.075
 40
0.075
 40
0.1
 40
0.1
 40
0.1
 40
0.1
 40
0.125
 40
0.125
 40
0.125
 40
0.125
 40
0.15
 40
0.15
 40
0.15
 40
0.15
 40
0.175
 40
0.175
 40
0.175
 40
0.175
 40
0.2
 40
0.2
 40
0.2
 40
0.2
 40
0.225
 40
0.225
 40
0.225
 40
0.225
 40
0.25
 40
0.25
 40
0.25
 40
0.25
 40
0.275
 40
0.275
 40
0.275
 40
0.275
 40
0.3
 40
0.3
 40
0.3
 40
0.3
 40
0.325
 40
0.325
 40
0.325
 40
0.325
 40
0.35
 40
0.35
 40
0.35
 40
0.35
 40
0.3750000000000001
 40
0.3750000000000001
 40
0.3750000000000001
 40
0.3750000000000001
 40
0.4000000000000001
 40
0.4000000000000001
 40
0.4000000000000001
 40
0.4000000000000001
 40
0.4250000000000001
 40
0.4250000000000001
 40
0.4250000000000001
 40
0.4250000000000001
 40
0.4500000000000001
 40
0.4500000000000001
 40
0.4500000000000001
 40
0.4500000000000001
 40
0.4750000000000001
 40
0.4750000000000001
 40
0.4750000000000001
 40
0.4750000000000001
 40
0.5000000000000001
 40
0.5000000000000001
 40
0.5000000000000001
 40
0.5000000000000001
 40
0.5250000000000001
 40
0.5250000000000001
 40
0.5250000000000001
 40
0.5250000000000001
 40
0.5500000000000002
 40
0.5500000000000002
 40
0.5500000000000002
 40
0.5500000000000002
 40
0.5750000000000002
 40
0.5750000000000002
 40
0.5750000000000002
 40
0.5750000000000002
 40
0.6000000000000002
 40
0.6000000000000002
 40
0.6000000000000002
 40
0.6000000000000002
 40
0.6250000000000002
 40
0.6250000000000002
 40
0.6250000000000002
 40
0.6250000000000002
 40
0.6500000000000002
 40
0.6500000000000002
 40
0.6500000000000002
 40
0.6500000000000002
 40
0.6750000000000003
 40
0.6750000000000003
 40
0.6750000000000003
 40
0.6750000000000003
 40
0.7000000000000003
 40
0.7000000000000003
 40
0.7000000000000003
 40
0.7000000000000003
 40
0.7250000000000003
 40
0.7250000000000003
 40
0.7250000000000003
 40
0.7250000000000003
 40
0.7500000000000003
 40
0.7500000000000003
 40
0.7500000000000003
 40
0.7500000000000003
 40
0.7750000000000004
 40
0.7750000000000004
 40
0.7750000000000004
 40
0.7750000000000004
 40
0.8000000000000004
 40
0.8000000000000004
 40
0.8000000000000004
 40
0.8000000000000004
 40
0.8250000000000004
 40
0.8250000000000004
 40
0.8250000000000004
 40
0.8250000000000004
 40
0.8500000000000004
 40
0.8500000000000004
 40
0.8500000000000004
 40
0.8500000000000004
 40
0.8750000000000004
 40
0.8750000000000004
 40
0.8750000000000004
 40
0.8750000000000004
 40
0.9000000000000005
 40
0.9000000000000005
 40
0.9000000000000005
 40
0.9000000000000005
 40
0.9250000000000005
 40
0.9250000000000005
 40
0.9250000000000005
 40
0.9250000000000005
 40
0.9500000000000005
 40
0.9500000000000005
 40
0.9500000000000005
 40
0.9500000000000005
 40
0.9750000000000005
 40
0.9750000000000005
 40
0.9750000000000005
 40
0.9750000000000005
 40
1.0
 40
1.0
 40
1.0
 40
1.0
 10
-50.9698
 20
-0.2834
 30
0.0
 10
-49.569
 20
-1.5765
 30
0.0
 10
-47.6437
 20
-3.3989
 30
0.0
 10
-45.9427
 20
-3.9875
 30
0.0
 10
-45.9427
 20
-3.9875
 30
0.0
 10
-45.6445
 20
-5.4025
 30
0.0
 10
-44.8316
 20
-5.9067
 30
0.0
 10
-44.0907
 20
-7.1625
 30
0.0
 10
-44.0907
 20
-7.1625
 30
0.0
 10
-43.3426
 20
-7.5701
 30
0.0
 10
-44.3117
 20
-7.2144
 30
0.0
 10
-43.2969
 20
-7.4271
 30
0.0
 10
-43.2969
 20
-7.4271
 30
0.0
 10
-41.9329
 20
-6.9551
 30
0.0
 10
-41.1136
 20
-6.592
 30
0.0
 10
-39.8573
 20
-5.8396
 30
0.0
 10
-39.8573
 20
-5.8396
 30
0.0
 10
-39.3076
 20
-5.2899
 30
0.0
 10
-39.5074
 20
-5.3607
 30
0.0
 10
-39.3282
 20
-5.0459
 30
0.0
 10
-39.3282
 20
-5.0459
 30
0.0
 10
-39.3282
 20
-5.0459
 30
0.0
 10
-37.7407
 20
-5.0459
 30
0.0
 10
-37.7407
 20
-5.0459
 30
0.0
 10
-37.7407
 20
-5.0459
 30
0.0
 10
-36.8437
 20
-4.2178
 30
0.0
 10
-36.5172
 20
-4.1633
 30
0.0
 10
-35.624
 20
-3.4584
 30
0.0
 10
-35.624
 20
-3.4584
 30
0.0
 10
-35.6167
 20
-3.4423
 30
0.0
 10
-35.3753
 20
-2.7089
 30
0.0
 10
-35.3594
 20
-2.6646
 30
0.0
 10
-35.3594
 20
-2.6646
 30
0.0
 10
-34.0198
 20
-2.5617
 30
0.0
 10
-34.2589
 20
-2.1913
 30
0.0
 10
-32.9782
 20
-2.1249
 30
0.0
 10
-32.9782
 20
-2.1249
 30
0.0
 10
-32.2505
 20
-2.0872
 30
0.0
 10
-31.3462
 20
-2.1354
 30
0.0
 10
-30.5969
 20
-2.1354
 30
0.0
 10
-30.5969
 20
-2.1354
 30
0.0
 10
-30.5969
 20
-3.0928
 30
0.0
 10
-30.6598
 20
-2.3282
 30
0.0
 10
-30.3323
 20
-2.9292
 30
0.0
 10
-30.3323
 20
-2.9292
 30
0.0
 10
-28.9635
 20
-4.0095
 30
0.0
 10
-27.747
 20
-4.0214
 30
0.0
 10
-26.8927
 20
-5.3104
 30
0.0
 10
-26.8927
 20
-5.3104
 30
0.0
 10
-26.8927
 20
-5.3104
 30
0.0
 10
-25.3052
 20
-5.3104
 30
0.0
 10
-25.3052
 20
-5.3104
 30
0.0
 10
-25.3052
 20
-5.3104
 30
0.0
 10
-25.0966
 20
-4.8519
 30
0.0
 10
-25.3036
 20
-5.0442
 30
0.0
 10
-24.7761
 20
-4.5167
 30
0.0
 10
-24.7761
 20
-4.5167
 30
0.0
 10
-23.7389
 20
-3.8955
 30
0.0
 10
-22.6819
 20
-3.4318
 30
0.0
 10
-21.6011
 20
-2.9292
 30
0.0
 10
-21.6011
 20
-2.9292
 30
0.0
 10
-21.4819
 20
-2.3608
 30
0.0
 10
-21.5365
 20
-2.4741
 30
0.0
 10
-21.3365
 20
-1.8709
 30
0.0
 10
-21.3365
 20
-1.8709
 30
0.0
 10
-21.3365
 20
-1.8709
 30
0.0
 10
-19.4844
 20
-1.8709
 30
0.0
 10
-19.4844
 20
-1.8709
 30
0.0
 10
-19.4844
 20
-1.8709
 30
0.0
 10
-18.9569
 20
-1.3434
 30
0.0
 10
-19.1492
 20
-1.5504
 30
0.0
 10
-18.6907
 20
-1.3417
 30
0.0
 10
-18.6907
 20
-1.3417
 30
0.0
 10
-18.6907
 20
-1.3417
 30
0.0
 10
-9.1657
 20
-1.3417
 30
0.0
 10
-9.1657
 20
-1.3417
 30
0.0
 10
-9.1657
 20
-1.3417
 30
0.0
 10
-8.1293
 20
-1.8134
 30
0.0
 10
-8.9801
 20
-1.3939
 30
0.0
 10
-8.6365
 20
-1.8709
 30
0.0
 10
-8.6365
 20
-1.8709
 30
0.0
 10
-8.6365
 20
-1.8709
 30
0.0
 10
-7.3136
 20
-1.8709
 30
0.0
 10
-7.3136
 20
-1.8709
 30
0.0
 10
-7.3136
 20
-1.8709
 30
0.0
 10
-6.7861
 20
-1.3434
 30
0.0
 10
-6.9784
 20
-1.5504
 30
0.0
 10
-6.5198
 20
-1.3417
 30
0.0
 10
-6.5198
 20
-1.3417
 30
0.0
 10
-6.5198
 20
-1.3417
 30
0.0
 10
3.2697
 20
-1.3417
 30
0.0
 10
3.2697
 20
-1.3417
 30
0.0
 10
3.2697
 20
-1.3417
 30
0.0
 10
4.3061
 20
-1.8134
 30
0.0
 10
3.4553
 20
-1.3939
 30
0.0
 10
3.7989
 20
-1.8709
 30
0.0
 10
3.7989
 20
-1.8709
 30
0.0
 10
3.7989
 20
-1.8709
 30
0.0
 10
4.8572
 20
-1.8709
 30
0.0
 10
4.8572
 20
-1.8709
 30
0.0
 10
4.8572
 20
-1.8709
 30
0.0
 10
5.3847
 20
-1.3434
 30
0.0
 10
5.1924
 20
-1.5504
 30
0.0
 10
5.651
 20
-1.3417
 30
0.0
 10
5.651
 20
-1.3417
 30
0.0
 10
5.651
 20
-1.3417
 30
0.0
 10
15.4406
 20
-1.3417
 30
0.0
 10
15.4406
 20
-1.3417
 30
0.0
 10
15.4406
 20
-1.3417
 30
0.0
 10
16.477
 20
-1.8134
 30
0.0
 10
15.6261
 20
-1.3939
 30
0.0
 10
15.9697
 20
-1.8709
 30
0.0
 10
15.9697
 20
-1.8709
 30
0.0
 10
15.9697
 20
-1.8709
 30
0.0
 10
17.5572
 20
-1.8709
 30
0.0
 10
17.5572
 20
-1.8709
 30
0.0
 10
17.5572
 20
-1.8709
 30
0.0
 10
19.1538
 20
-4.2334
 30
0.0
 10
20.8458
 20
-3.4856
 30
0.0
 10
22.0551
 20
-5.3104
 30
0.0
 10
22.0551
 20
-5.3104
 30
0.0
 10
22.0551
 20
-5.3104
 30
0.0
 10
23.6426
 20
-5.3104
 30
0.0
 10
23.6426
 20
-5.3104
 30
0.0
 10
23.6426
 20
-5.3104
 30
0.0
 10
25.0311
 20
-6.5923
 30
0.0
 10
27.1119
 20
-6.8939
 30
0.0
 10
28.1406
 20
-8.2209
 30
0.0
 10
28.1406
 20
-8.2209
 30
0.0
 10
28.1406
 20
-8.2209
 30
0.0
 10
29.9926
 20
-8.2209
 30
0.0
 10
29.9926
 20
-8.2209
 30
0.0
 10
29.9926
 20
-8.2209
 30
0.0
 10
30.8419
 20
-7.1253
 30
0.0
 10
32.8389
 20
-6.3196
 30
0.0
 10
34.226
 20
-5.8396
 30
0.0
 10
34.226
 20
-5.8396
 30
0.0
 10
34.6336
 20
-5.0916
 30
0.0
 10
34.2778
 20
-6.0606
 30
0.0
 10
34.4906
 20
-5.0459
 30
0.0
 10
34.4906
 20
-5.0459
 30
0.0
 10
34.4906
 20
-5.0459
 30
0.0
 10
36.0781
 20
-5.0459
 30
0.0
 10
36.0781
 20
-5.0459
 30
0.0
 10
36.0781
 20
-5.0459
 30
0.0
 10
36.2868
 20
-5.5044
 30
0.0
 10
36.0797
 20
-5.3121
 30
0.0
 10
36.6072
 20
-5.8396
 30
0.0
 10
36.6072
 20
-5.8396
 30
0.0
 10
37.7477
 20
-6.5227
 30
0.0
 10
38.9662
 20
-6.8983
 30
0.0
 10
40.0468
 20
-7.6917
 30
0.0
 10
40.0468
 20
-7.6917
 30
0.0
 10
41.6101
 20
-6.6353
 30
0.0
 10
42.369
 20
-5.6874
 30
0.0
 10
42.9572
 20
-3.9875
 30
0.0
 10
42.9572
 20
-3.9875
 30
0.0
 10
44.4776
 20
-3.2474
 30
0.0
 10
46.9065
 20
-1.258
 30
0.0
 10
48.2489
 20
-0.0188
 30
0.0
  0
SPLINE
  5
BB
330
1F
100
AcDbEntity
  8
LAYER_1
100
AcDbSpline
210
0.0
220
0.0
230
1.0
 70
     8
 71
     3
 72
    28
 73
    24
 74
     0
 42
0.0000000001
 43
0.0000000001
 40
0.0
 40
0.0
 40
0.0
 40
0.0
 40
0.1666666666666667
 40
0.1666666666666667
 40
0.1666666666666667
 40
0.1666666666666667
 40
0.3333333333333333
 40
0.3333333333333333
 40
0.3333333333333333
 40
0.3333333333333333
 40
0.5
 40
0.5
 40
0.5
 40
0.5
 40
0.6666666666666666
 40
0.6666666666666666
 40
0.6666666666666666
 40
0.6666666666666666
 40
0.8333333333333333
 40
0.8333333333333333
 40
0.8333333333333333
 40
0.8333333333333333
 40
1.0
 40
1.0
 40
1.0
 40
1.0
 10
-99.6531
 20
-11.925
 30
0.0
 10
-100.822
 20
-14.9361
 30
0.0
 10
-97.898
 20
-33.1402
 30
0.0
 10
-97.801
 20
-37.5896
 30
0.0
 10
-97.801
 20
-37.5896
 30
0.0
 10
-96.5456
 20
-37.617
 30
0.0
 10
-96.4503
 20
-37.8976
 30
0.0
 10
-95.4198
 20
-37.8542
 30
0.0
 10
-95.4198
 20
-37.8542
 30
0.0
 10
-95.2187
 20
-37.3361
 30
0.0
 10
-94.8865
 20
-25.9743
 30
0.0
 10
-94.8906
 20
-24.625
 30
0.0
 10
-94.8906
 20
-24.625
 30
0.0
 10
-94.8979
 20
-22.2373
 30
0.0
 10
-94.9374
 20
-12.615
 30
0.0
 10
-94.3615
 20
-11.1313
 30
0.0
 10
-94.3615
 20
-11.1313
 30
0.0
 10
-94.3615
 20
-11.1313
 30
0.0
 10
-84.0427
 20
-11.1313
 30
0.0
 10
-84.0427
 20
-11.1313
 30
0.0
 10
-84.0427
 20
-11.1313
 30
0.0
 10
-84.1622
 20
-5.6477
 30
0.0
 10
-85.2294
 20
-0.2096
 30
0.0
 10
-85.6302
 20
5.0083
 30
0.0
  0
SPLINE
  5
BC
330
1F
100
AcDbEntity
  8
LAYER_1
100
AcDbSpline
210
0.0
220
0.0
230
1.0
 70
     8
 71
     3
 72
    24
 73
    20
 74
     0
 42
0.0000000001
 43
0.0000000001
 40
0.0
 40
0.0
 40
0.0
 40
0.0
 40
0.2
 40
0.2
 40
0.2
 40
0.2
 40
0.4
 40
0.4
 40
0.4
 40
0.4
 40
0.6000000000000001
 40
0.6000000000000001
 40
0.6000000000000001
 40
0.6000000000000001
 40
0.8
 40
0.8
 40
0.8
 40
0.8
 40
1.0
 40
1.0
 40
1.0
 40
1.0
 10
96.6676
 20
-11.925
 30
0.0
 10
96.6676
 20
-20.8035
 30
0.0
 10
95.4616
 20
-28.3866
 30
0.0
 10
94.8155
 20
-36.7959
 30
0.0
 10
94.8155
 20
-36.7959
 30
0.0
 10
93.5143
 20
-37.0701
 30
0.0
 10
93.5493
 20
-37.4836
 30
0.0
 10
92.1697
 20
-37.5896
 30
0.0
 10
92.1697
 20
-37.5896
 30
0.0
 10
91.8032
 20
-36.6455
 30
0.0
 10
91.6405
 20
-14.0834
 30
0.0
 10
91.6405
 20
-11.1313
 30
0.0
 10
91.6405
 20
-11.1313
 30
0.0
 10
92.3307
 20
-11.1843
 30
0.0
 10
96.0982
 20
-11.7404
 30
0.0
 10
96.6676
 20
-11.925
 30
0.0
 10
96.6676
 20
-11.925
 30
0.0
 10
96.6676
 20
-6.6887
 30
0.0
 10
97.0237
 20
1.7125
 30
0.0
 10
93.4926
 20
5.5375
 30
0.0
  0
SPLINE
  5
BD
330
1F
100
AcDbEntity
  8
LAYER_1
100
AcDbSpline
210
0.0
220
0.0
230
1.0
 70
     8
 71
     3
 72
    12
 73
     8
 74
     0
 42
0.0000000001
 43
0.0000000001
 40
0.0
 40
0.0
 40
0.0
 40
0.0
 40
0.5
 40
0.5
 40
0.5
 40
0.5
 40
1.0
 40
1.0
 40
1.0
 40
1.0
 10
82.3801
 20
5.0083
 30
0.0
 10
83.1798
 20
6.3939
 30
0.0
 10
84.082
 20
9.8681
 30
0.0
 10
84.6735
 20
11.6229
 30
0.0
 10
84.6735
 20
11.6229
 30
0.0
 10
85.3582
 20
13.654
 30
0.0
 10
86.3832
 20
16.7277
 30
0.0
 10
87.4072
 20
18.5021
 30
0.0
  0
SPLINE
  5
BE
330
1F
100
AcDbEntity
  8
LAYER_1
100
AcDbSpline
210
0.0
220
0.0
230
1.0
 70
     8
 71
     3
 72
     8
 73
     4
 74
     0
 42
0.0000000001
 43
0.0000000001
 40
0.0
 40
0.0
 40
0.0
 40
0.0
 40
1.0
 40
1.0
 40
1.0
 40
1.0
 10
87.9364
 20
18.7666
 30
0.0
 10
87.6096
 20
18.4399
 30
0.0
 10
87.7969
 20
18.5021
 30
0.0
 10
87.4072
 20
18.5021
 30
0.0
  0
SPLINE
  5
BF
330
1F
100
AcDbEntity
  8
LAYER_1
100
AcDbSpline
210
0.0
220
0.0
230
1.0
 70
     8
 71
     3
 72
    24
 73
    20
 74
     0
 42
0.0000000001
 43
0.0000000001
 40
0.0
 40
0.0
 40
0.0
 40
0.0
 40
0.2
 40
0.2
 40
0.2
 40
0.2
 40
0.4
 40
0.4
 40
0.4
 40
0.4
 40
0.6000000000000001
 40
0.6000000000000001
 40
0.6000000000000001
 40
0.6000000000000001
 40
0.8
 40
0.8
 40
0.8
 40
0.8
 40
1.0
 40
1.0
 40
1.0
 40
1.0
 10
-97.0073
 20
5.2729
 30
0.0
 10
-98.6246
 20
2.4707
 30
0.0
 10
-101.0248
 20
-8.3914
 30
0.0
 10
-99.6531
 20
-11.925
 30
0.0
 10
-99.6531
 20
-11.925
 30
0.0
 10
-99.0317
 20
-11.7235
 30
0.0
 10
-95.3272
 20
-11.1466
 30
0.0
 10
-94.626
 20
-11.1313
 30
0.0
 10
-94.626
 20
-11.1313
 30
0.0
 10
-94.626
 20
-7.3457
 30
0.0
 10
-93.2355
 20
2.3937
 30
0.0
 10
-95.1552
 20
5.0083
 30
0.0
 10
-95.1552
 20
5.0083
 30
0.0
 10
-96.1264
 20
5.3853
 30
0.0
 10
-95.8897
 20
5.2729
 30
0.0
 10
-97.0073
 20
5.2729
 30
0.0
 10
-97.0073
 20
5.2729
 30
0.0
 10
-96.5619
 20
7.6299
 30
0.0
 10
-92.3322
 20
16.8458
 30
0.0
 10
-90.9219
 20
18.7666
 30
0.0
  0
SPLINE
  5
C0
330
1F
100
AcDbEntity
  8
LAYER_1
100
AcDbSpline
210
0.0
220
0.0
230
1.0
 70
     8
 71
     3
 72
    56
 73
    52
 74
     0
 42
0.0000000001
 43
0.0000000001
 40
0.0
 40
0.0
 40
0.0
 40
0.0
 40
0.0769230769230769
 40
0.0769230769230769
 40
0.0769230769230769
 40
0.0769230769230769
 40
0.1538461538461539
 40
0.1538461538461539
 40
0.1538461538461539
 40
0.1538461538461539
 40
0.2307692307692308
 40
0.2307692307692308
 40
0.2307692307692308
 40
0.2307692307692308
 40
0.3076923076923077
 40
0.3076923076923077
 40
0.3076923076923077
 40
0.3076923076923077
 40
0.3846153846153846
 40
0.3846153846153846
 40
0.3846153846153846
 40
0.3846153846153846
 40
0.4615384615384616
 40
0.4615384615384616
 40
0.4615384615384616
 40
0.4615384615384616
 40
0.5384615384615385
 40
0.5384615384615385
 40
0.5384615384615385
 40
0.5384615384615385
 40
0.6153846153846154
 40
0.6153846153846154
 40
0.6153846153846154
 40
0.6153846153846154
 40
0.6923076923076923
 40
0.6923076923076923
 40
0.6923076923076923
 40
0.6923076923076923
 40
0.7692307692307692
 40
0.7692307692307692
 40
0.7692307692307692
 40
0.7692307692307692
 40
0.846153846153846
 40
0.846153846153846
 40
0.846153846153846
 40
0.846153846153846
 40
0.9230769230769229
 40
0.9230769230769229
 40
0.9230769230769229
 40
0.9230769230769229
 40
1.0
 40
1.0
 40
1.0
 40
1.0
 10
48.7781
 20
-0.0188
 30
0.0
 10
49.379
 20
-0.3462
 30
0.0
 10
48.6144
 20
-0.2834
 30
0.0
 10
49.5718
 20
-0.2834
 30
0.0
 10
49.5718
 20
-0.2834
 30
0.0
 10
53.3447
 20
1.9763
 30
0.0
 10
61.3438
 20
3.512
 30
0.0
 10
65.976
 20
4.2131
 30
0.0
 10
65.976
 20
4.2131
 30
0.0
 10
71.6064
 20
5.0653
 30
0.0
 10
76.4143
 20
5.0083
 30
0.0
 10
82.3801
 20
5.0083
 30
0.0
 10
82.3801
 20
5.0083
 30
0.0
 10
81.5226
 20
0.4698
 30
0.0
 10
81.0572
 20
-6.245
 30
0.0
 10
81.0572
 20
-11.1313
 30
0.0
 10
81.0572
 20
-11.1313
 30
0.0
 10
81.0572
 20
-11.1313
 30
0.0
 10
91.376
 20
-11.1313
 30
0.0
 10
91.376
 20
-11.1313
 30
0.0
 10
91.376
 20
-11.1313
 30
0.0
 10
91.376
 20
-6.5737
 30
0.0
 10
91.1114
 20
-2.4686
 30
0.0
 10
91.1114
 20
2.0979
 30
0.0
 10
91.1114
 20
2.0979
 30
0.0
 10
91.1114
 20
2.0979
 30
0.0
 10
91.1114
 20
3.6854
 30
0.0
 10
91.1114
 20
3.6854
 30
0.0
 10
91.1114
 20
3.6854
 30
0.0
 10
91.1114
 20
4.4712
 30
0.0
 10
91.4437
 20
4.6883
 30
0.0
 10
91.9051
 20
5.2729
 30
0.0
 10
91.9051
 20
5.2729
 30
0.0
 10
92.8104
 20
5.6243
 30
0.0
 10
92.405
 20
5.5375
 30
0.0
 10
93.4926
 20
5.5375
 30
0.0
 10
93.4926
 20
5.5375
 30
0.0
 10
93.4926
 20
8.0716
 30
0.0
 10
92.3679
 20
10.036
 30
0.0
 10
91.3048
 20
12.1521
 30
0.0
 10
91.3048
 20
12.1521
 30
0.0
 10
90.4691
 20
13.8154
 30
0.0
 10
88.9067
 20
17.4451
 30
0.0
 10
87.9364
 20
18.7666
 30
0.0
 10
87.9364
 20
18.7666
 30
0.0
 10
87.9364
 20
19.7531
 30
0.0
 10
87.9553
 20
19.2544
 30
0.0
 10
88.201
 20
19.825
 30
0.0
 10
88.201
 20
19.825
 30
0.0
 10
87.1465
 20
19.825
 30
0.0
 10
88.1247
 20
19.7806
 30
0.0
 10
87.4072
 20
20.0896
 30
0.0
  0
SPLINE
  5
C1
330
1F
100
AcDbEntity
  8
LAYER_1
100
AcDbSpline
210
0.0
220
0.0
230
1.0
 70
     8
 71
     3
 72
     8
 73
     4
 74
     0
 42
0.0000000001
 43
0.0000000001
 40
0.0
 40
0.0
 40
0.0
 40
0.0
 40
1.0
 40
1.0
 40
1.0
 40
1.0
 10
89.5239
 20
20.3541
 30
0.0
 10
88.9138
 20
20.0608
 30
0.0
 10
89.4095
 20
20.0896
 30
0.0
 10
88.4655
 20
20.0896
 30
0.0
  0
SPLINE
  5
C2
330
1F
100
AcDbEntity
  8
LAYER_1
100
AcDbSpline
210
0.0
220
0.0
230
1.0
 70
     8
 71
     3
 72
     8
 73
     4
 74
     0
 42
0.0000000001
 43
0.0000000001
 40
0.0
 40
0.0
 40
0.0
 40
0.0
 40
1.0
 40
1.0
 40
1.0
 40
1.0
 10
90.3176
 20
20.6187
 30
0.0
 10
89.769
 20
20.2772
 30
0.0
 10
90.4112
 20
20.3541
 30
0.0
 10
89.5239
 20
20.3541
 30
0.0
  0
SPLINE
  5
C3
330
1F
100
AcDbEntity
  8
LAYER_1
100
AcDbSpline
210
0.0
220
0.0
230
1.0
 70
     8
 71
     3
 72
    40
 73
    36
 74
     0
 42
0.0000000001
 43
0.0000000001
 40
0.0
 40
0.0
 40
0.0
 40
0.0
 40
0.1111111111111111
 40
0.1111111111111111
 40
0.1111111111111111
 40
0.1111111111111111
 40
0.2222222222222222
 40
0.2222222222222222
 40
0.2222222222222222
 40
0.2222222222222222
 40
0.3333333333333333
 40
0.3333333333333333
 40
0.3333333333333333
 40
0.3333333333333333
 40
0.4444444444444444
 40
0.4444444444444444
 40
0.4444444444444444
 40
0.4444444444444444
 40
0.5555555555555556
 40
0.5555555555555556
 40
0.5555555555555556
 40
0.5555555555555556
 40
0.6666666666666667
 40
0.6666666666666667
 40
0.6666666666666667
 40
0.6666666666666667
 40
0.7777777777777779
 40
0.7777777777777779
 40
0.7777777777777779
 40
0.7777777777777779
 40
0.8888888888888891
 40
0.8888888888888891
 40
0.8888888888888891
 40
0.8888888888888891
 40
1.0
 40
1.0
 40
1.0
 40
1.0
 10
-84.5719
 20
20.3541
 30
0.0
 10
-84.3632
 20
19.8956
 30
0.0
 10
-84.5702
 20
20.0879
 30
0.0
 10
-84.0427
 20
19.5604
 30
0.0
 10
-84.0427
 20
19.5604
 30
0.0
 10
-77.7882
 20
17.3961
 30
0.0
 10
-72.9886
 20
15.2368
 30
0.0
 10
-67.1094
 20
12.0889
 30
0.0
 10
-67.1094
 20
12.0889
 30
0.0
 10
-63.4527
 20
10.131
 30
0.0
 10
-52.4421
 20
3.3876
 30
0.0
 10
-50.9698
 20
-0.2834
 30
0.0
 10
-50.9698
 20
-0.2834
 30
0.0
 10
-53.1345
 20
-0.2834
 30
0.0
 10
-57.0545
 20
1.5168
 30
0.0
 10
-59.4365
 20
2.1872
 30
0.0
 10
-59.4365
 20
2.1872
 30
0.0
 10
-62.5834
 20
3.0729
 30
0.0
 10
-64.9112
 20
3.4433
 30
0.0
 10
-68.1677
 20
4.0396
 30
0.0
 10
-68.1677
 20
4.0396
 30
0.0
 10
-74.0023
 20
5.108
 30
0.0
 10
-79.4101
 20
5.0083
 30
0.0
 10
-85.6302
 20
5.0083
 30
0.0
 10
-85.6302
 20
5.0083
 30
0.0
 10
-86.8173
 20
8.0664
 30
0.0
 10
-88.6007
 20
17.0676
 30
0.0
 10
-90.9219
 20
18.7666
 30
0.0
 10
-90.9219
 20
18.7666
 30
0.0
 10
-90.9219
 20
18.7666
 30
0.0
 10
-90.9219
 20
19.825
 30
0.0
 10
-90.9219
 20
19.825
 30
0.0
 10
-90.9219
 20
19.825
 30
0.0
 10
-92.0454
 20
20.1893
 30
0.0
 10
-92.405
 20
20.0781
 30
0.0
 10
-93.5677
 20
20.6187
 30
0.0
  0
SPLINE
  5
C4
330
1F
100
AcDbEntity
  8
LAYER_1
100
AcDbSpline
210
0.0
220
0.0
230
1.0
 70
     8
 71
     3
 72
    12
 73
     8
 74
     0
 42
0.0000000001
 43
0.0000000001
 40
0.0
 40
0.0
 40
0.0
 40
0.0
 40
0.5
 40
0.5
 40
0.5
 40
0.5
 40
1.0
 40
1.0
 40
1.0
 40
1.0
 10
-86.9531
 20
20.3541
 30
0.0
 10
-86.9531
 20
20.3541
 30
0.0
 10
-84.5719
 20
20.3541
 30
0.0
 10
-84.5719
 20
20.3541
 30
0.0
 10
-84.5719
 20
20.3541
 30
0.0
 10
-84.5719
 20
20.3541
 30
0.0
 10
-84.0427
 20
20.8833
 30
0.0
 10
-84.0427
 20
20.8833
 30
0.0
  0
SPLINE
  5
C5
330
1F
100
AcDbEntity
  8
LAYER_1
100
AcDbSpline
210
0.0
220
0.0
230
1.0
 70
     8
 71
     3
 72
     8
 73
     4
 74
     0
 42
0.0000000001
 43
0.0000000001
 40
0.0
 40
0.0
 40
0.0
 40
0.0
 40
1.0
 40
1.0
 40
1.0
 40
1.0
 10
-81.6615
 20
21.1479
 30
0.0
 10
-82.7035
 20
20.7434
 30
0.0
 10
-82.87
 20
20.8833
 30
0.0
 10
-84.0427
 20
20.8833
 30
0.0
  0
SPLINE
  5
C6
330
1F
100
AcDbEntity
  8
LAYER_1
100
AcDbSpline
210
0.0
220
0.0
230
1.0
 70
     8
 71
     3
 72
     8
 73
     4
 74
     0
 42
0.0000000001
 43
0.0000000001
 40
0.0
 40
0.0
 40
0.0
 40
0.0
 40
1.0
 40
1.0
 40
1.0
 40
1.0
 10
-79.0156
 20
21.4125
 30
0.0
 10
-80.0794
 20
20.9995
 30
0.0
 10
-80.4622
 20
21.1479
 30
0.0
 10
-81.6615
 20
21.1479
 30
0.0
  0
SPLINE
  5
C7
330
1F
100
AcDbEntity
  8
LAYER_1
100
AcDbSpline
210
0.0
220
0.0
230
1.0
 70
     8
 71
     3
 72
     8
 73
     4
 74
     0
 42
0.0000000001
 43
0.0000000001
 40
0.0
 40
0.0
 40
0.0
 40
0.0
 40
1.0
 40
1.0
 40
1.0
 40
1.0
 10
-75.8406
 20
21.6771
 30
0.0
 10
-76.9354
 20
21.2521
 30
0.0
 10
-77.7641
 20
21.4125
 30
0.0
 10
-79.0156
 20
21.4125
 30
0.0
  0
SPLINE
  5
C8
330
1F
100
AcDbEntity
  8
LAYER_1
100
AcDbSpline
210
0.0
220
0.0
230
1.0
 70
     8
 71
     3
 72
     8
 73
     4
 74
     0
 42
0.0000000001
 43
0.0000000001
 40
0.0
 40
0.0
 40
0.0
 40
0.0
 40
1.0
 40
1.0
 40
1.0
 40
1.0
 10
-72.6656
 20
21.9416
 30
0.0
 10
-73.7604
 20
21.5167
 30
0.0
 10
-74.5891
 20
21.6771
 30
0.0
 10
-75.8406
 20
21.6771
 30
0.0
  0
SPLINE
  5
C9
330
1F
100
AcDbEntity
  8
LAYER_1
100
AcDbSpline
210
0.0
220
0.0
230
1.0
 70
     8
 71
     3
 72
     8
 73
     4
 74
     0
 42
0.0000000001
 43
0.0000000001
 40
0.0
 40
0.0
 40
0.0
 40
0.0
 40
1.0
 40
1.0
 40
1.0
 40
1.0
 10
-69.2261
 20
22.2062
 30
0.0
 10
-70.3325
 20
21.7767
 30
0.0
 10
-71.3882
 20
21.9416
 30
0.0
 10
-72.6656
 20
21.9416
 30
0.0
  0
SPLINE
  5
CA
330
1F
100
AcDbEntity
  8
LAYER_1
100
AcDbSpline
210
0.0
220
0.0
230
1.0
 70
     8
 71
     3
 72
     8
 73
     4
 74
     0
 42
0.0000000001
 43
0.0000000001
 40
0.0
 40
0.0
 40
0.0
 40
0.0
 40
1.0
 40
1.0
 40
1.0
 40
1.0
 10
-65.2573
 20
22.4708
 30
0.0
 10
-66.3985
 20
22.0278
 30
0.0
 10
-67.9118
 20
22.2062
 30
0.0
 10
-69.2261
 20
22.2062
 30
0.0
  0
SPLINE
  5
CB
330
1F
100
AcDbEntity
  8
LAYER_1
100
AcDbSpline
210
0.0
220
0.0
230
1.0
 70
     8
 71
     3
 72
     8
 73
     4
 74
     0
 42
0.0000000001
 43
0.0000000001
 40
0.0
 40
0.0
 40
0.0
 40
0.0
 40
1.0
 40
1.0
 40
1.0
 40
1.0
 10
-61.024
 20
22.7354
 30
0.0
 10
-62.2307
 20
22.267
 30
0.0
 10
-63.8718
 20
22.4708
 30
0.0
 10
-65.2573
 20
22.4708
 30
0.0
  0
SPLINE
  5
CC
330
1F
100
AcDbEntity
  8
LAYER_1
100
AcDbSpline
210
0.0
220
0.0
230
1.0
 70
     8
 71
     3
 72
     8
 73
     4
 74
     0
 42
0.0000000001
 43
0.0000000001
 40
0.0
 40
0.0
 40
0.0
 40
0.0
 40
1.0
 40
1.0
 40
1.0
 40
1.0
 10
-55.9969
 20
23.0
 30
0.0
 10
-57.4003
 20
22.4552
 30
0.0
 10
-59.4247
 20
22.7354
 30
0.0
 10
-61.024
 20
22.7354
 30
0.0
  0
SPLINE
  5
CD
330
1F
100
AcDbEntity
  8
LAYER_1
100
AcDbSpline
210
0.0
220
0.0
230
1.0
 70
     8
 71
     3
 72
     8
 73
     4
 74
     0
 42
0.0000000001
 43
0.0000000001
 40
0.0
 40
0.0
 40
0.0
 40
0.0
 40
1.0
 40
1.0
 40
1.0
 40
1.0
 10
-50.7052
 20
23.2646
 30
0.0
 10
-52.1742
 20
22.6943
 30
0.0
 10
-54.3264
 20
23.0
 30
0.0
 10
-55.9969
 20
23.0
 30
0.0
  0
SPLINE
  5
CE
330
1F
100
AcDbEntity
  8
LAYER_1
100
AcDbSpline
210
0.0
220
0.0
230
1.0
 70
     8
 71
     3
 72
     8
 73
     4
 74
     0
 42
0.0000000001
 43
0.0000000001
 40
0.0
 40
0.0
 40
0.0
 40
0.0
 40
1.0
 40
1.0
 40
1.0
 40
1.0
 10
-44.3552
 20
23.5291
 30
0.0
 10
-46.0866
 20
22.857
 30
0.0
 10
-48.7497
 20
23.2646
 30
0.0
 10
-50.7052
 20
23.2646
 30
0.0
  0
SPLINE
  5
CF
330
1F
100
AcDbEntity
  8
LAYER_1
100
AcDbSpline
210
0.0
220
0.0
230
1.0
 70
     8
 71
     3
 72
     8
 73
     4
 74
     0
 42
0.0000000001
 43
0.0000000001
 40
0.0
 40
0.0
 40
0.0
 40
0.0
 40
1.0
 40
1.0
 40
1.0
 40
1.0
 10
-36.4177
 20
23.7937
 30
0.0
 10
-38.3151
 20
23.0572
 30
0.0
 10
-42.1361
 20
23.5291
 30
0.0
 10
-44.3552
 20
23.5291
 30
0.0
  0
SPLINE
  5
D0
330
1F
100
AcDbEntity
  8
LAYER_1
100
AcDbSpline
210
0.0
220
0.0
230
1.0
 70
     8
 71
     3
 72
     8
 73
     4
 74
     0
 42
0.0000000001
 43
0.0000000001
 40
0.0
 40
0.0
 40
0.0
 40
0.0
 40
1.0
 40
1.0
 40
1.0
 40
1.0
 10
-25.0407
 20
24.0583
 30
0.0
 10
-26.9794
 20
23.3057
 30
0.0
 10
-33.8621
 20
23.7937
 30
0.0
 10
-36.4177
 20
23.7937
 30
0.0
  0
SPLINE
  5
D1
330
1F
100
AcDbEntity
  8
LAYER_1
100
AcDbSpline
210
0.0
220
0.0
230
1.0
 70
     8
 71
     3
 72
    24
 73
    20
 74
     0
 42
0.0000000001
 43
0.0000000001
 40
0.0
 40
0.0
 40
0.0
 40
0.0
 40
0.2
 40
0.2
 40
0.2
 40
0.2
 40
0.4
 40
0.4
 40
0.4
 40
0.4
 40
0.6000000000000001
 40
0.6000000000000001
 40
0.6000000000000001
 40
0.6000000000000001
 40
0.8
 40
0.8
 40
0.8
 40
0.8
 40
1.0
 40
1.0
 40
1.0
 40
1.0
 10
81.3218
 20
20.3541
 30
0.0
 10
80.7943
 20
20.8816
 30
0.0
 10
80.9866
 20
20.6746
 30
0.0
 10
80.528
 20
20.8833
 30
0.0
 10
80.528
 20
20.8833
 30
0.0
 10
76.4413
 20
20.8833
 30
0.0
 10
71.7628
 20
21.9468
 30
0.0
 10
67.5635
 20
21.9413
 30
0.0
 10
67.5635
 20
21.9413
 30
0.0
 10
63.4334
 20
21.9359
 30
0.0
 10
58.7442
 20
22.6588
 30
0.0
 10
54.3343
 20
22.7328
 30
0.0
 10
54.3343
 20
22.7328
 30
0.0
 10
45.6979
 20
22.8778
 30
0.0
 10
36.7661
 20
23.7937
 30
0.0
 10
27.876
 20
23.7937
 30
0.0
 10
27.876
 20
23.7937
 30
0.0
 10
10.4442
 20
23.7937
 30
0.0
 10
-7.4138
 20
24.0583
 30
0.0
 10
-25.0407
 20
24.0583
 30
0.0
  0
SPLINE
  5
D2
330
1F
100
AcDbEntity
  8
LAYER_1
100
AcDbSpline
210
0.0
220
0.0
230
1.0
 70
     8
 71
     3
 72
    12
 73
     8
 74
     0
 42
0.0000000001
 43
0.0000000001
 40
0.0
 40
0.0
 40
0.0
 40
0.0
 40
0.5
 40
0.5
 40
0.5
 40
0.5
 40
1.0
 40
1.0
 40
1.0
 40
1.0
 10
104.0759
 20
24.0583
 30
0.0
 10
103.5484
 20
24.5858
 30
0.0
 10
103.7407
 20
24.3788
 30
0.0
 10
103.2822
 20
24.5875
 30
0.0
 10
103.2822
 20
24.5875
 30
0.0
 10
100.6482
 20
24.5875
 30
0.0
 10
92.1739
 20
25.0435
 30
0.0
 10
90.3176
 20
24.3229
 30
0.0
  0
SPLINE
  5
D3
330
1F
100
AcDbEntity
  8
LAYER_1
100
AcDbSpline
210
0.0
220
0.0
230
1.0
 70
     8
 71
     3
 72
    12
 73
     8
 74
     0
 42
0.0000000001
 43
0.0000000001
 40
0.0
 40
0.0
 40
0.0
 40
0.0
 40
0.5
 40
0.5
 40
0.5
 40
0.5
 40
1.0
 40
1.0
 40
1.0
 40
1.0
 10
83.703
 20
20.3541
 30
0.0
 10
85.2216
 20
20.3541
 30
0.0
 10
85.9513
 20
20.0896
 30
0.0
 10
87.4072
 20
20.0896
 30
0.0
 10
87.4072
 20
20.0896
 30
0.0
 10
87.4072
 20
24.1251
 30
0.0
 10
84.6794
 20
27.1706
 30
0.0
 10
83.9676
 20
30.9375
 30
0.0
  0
SPLINE
  5
D4
330
1F
100
AcDbEntity
  8
LAYER_1
100
AcDbSpline
210
0.0
220
0.0
230
1.0
 70
     8
 71
     3
 72
    12
 73
     8
 74
     0
 42
0.0000000001
 43
0.0000000001
 40
0.0
 40
0.0
 40
0.0
 40
0.0
 40
0.5
 40
0.5
 40
0.5
 40
0.5
 40
1.0
 40
1.0
 40
1.0
 40
1.0
 10
-93.3031
 20
24.5875
 30
0.0
 10
-92.6374
 20
26.0192
 30
0.0
 10
-92.4894
 20
27.4215
 30
0.0
 10
-91.7156
 20
29.0854
 30
0.0
 10
-91.7156
 20
29.0854
 30
0.0
 10
-90.6094
 20
30.1675
 30
0.0
 10
-89.9346
 20
30.2172
 30
0.0
 10
-89.3344
 20
30.9375
 30
0.0
  0
SPLINE
  5
D5
330
1F
100
AcDbEntity
  8
LAYER_1
100
AcDbSpline
210
0.0
220
0.0
230
1.0
 70
     8
 71
     3
 72
    36
 73
    32
 74
     0
 42
0.0000000001
 43
0.0000000001
 40
0.0
 40
0.0
 40
0.0
 40
0.0
 40
0.125
 40
0.125
 40
0.125
 40
0.125
 40
0.25
 40
0.25
 40
0.25
 40
0.25
 40
0.375
 40
0.375
 40
0.375
 40
0.375
 40
0.5
 40
0.5
 40
0.5
 40
0.5
 40
0.625
 40
0.625
 40
0.625
 40
0.625
 40
0.75
 40
0.75
 40
0.75
 40
0.75
 40
0.875
 40
0.875
 40
0.875
 40
0.875
 40
1.0
 40
1.0
 40
1.0
 40
1.0
 10
48.2489
 20
0.5104
 30
0.0
 10
48.2489
 20
0.5104
 30
0.0
 10
48.2489
 20
-0.0188
 30
0.0
 10
48.2489
 20
-0.0188
 30
0.0
 10
48.2489
 20
-0.0188
 30
0.0
 10
48.2489
 20
-0.0188
 30
0.0
 10
48.7781
 20
-0.0188
 30
0.0
 10
48.7781
 20
-0.0188
 30
0.0
 10
48.7781
 20
-0.0188
 30
0.0
 10
48.5233
 20
0.6559
 30
0.0
 10
48.9236
 20
0.2557
 30
0.0
 10
48.2489
 20
0.5104
 30
0.0
 10
48.2489
 20
0.5104
 30
0.0
 10
50.1455
 20
3.6105
 30
0.0
 10
61.048
 20
10.5649
 30
0.0
 10
64.3885
 20
12.3535
 30
0.0
 10
64.3885
 20
12.3535
 30
0.0
 10
69.8891
 20
15.2987
 30
0.0
 10
74.9433
 20
17.5363
 30
0.0
 10
80.7926
 20
19.5604
 30
0.0
 10
80.7926
 20
19.5604
 30
0.0
 10
81.3423
 20
20.1101
 30
0.0
 10
81.1425
 20
20.0393
 30
0.0
 10
81.3218
 20
20.3541
 30
0.0
 10
81.3218
 20
20.3541
 30
0.0
 10
81.3218
 20
20.3541
 30
0.0
 10
83.703
 20
20.3541
 30
0.0
 10
83.703
 20
20.3541
 30
0.0
 10
83.703
 20
20.3541
 30
0.0
 10
83.703
 20
26.1972
 30
0.0
 10
66.8084
 20
62.7968
 30
0.0
 10
62.2718
 20
65.8625
 30
0.0
  0
SPLINE
  5
D6
330
1F
100
AcDbEntity
  8
LAYER_1
100
AcDbSpline
210
0.0
220
0.0
230
1.0
 70
     8
 71
     3
 72
     8
 73
     4
 74
     0
 42
0.0000000001
 43
0.0000000001
 40
0.0
 40
0.0
 40
0.0
 40
0.0
 40
1.0
 40
1.0
 40
1.0
 40
1.0
 10
-63.1406
 20
66.127
 30
0.0
 10
-64.0139
 20
65.6512
 30
0.0
 10
-63.9219
 20
65.7798
 30
0.0
 10
-64.7281
 20
66.127
 30
0.0
  0
SPLINE
  5
D7
330
1F
100
AcDbEntity
  8
LAYER_1
100
AcDbSpline
210
0.0
220
0.0
230
1.0
 70
     8
 71
     3
 72
    32
 73
    28
 74
     0
 42
0.0000000001
 43
0.0000000001
 40
0.0
 40
0.0
 40
0.0
 40
0.0
 40
0.1428571428571428
 40
0.1428571428571428
 40
0.1428571428571428
 40
0.1428571428571428
 40
0.2857142857142857
 40
0.2857142857142857
 40
0.2857142857142857
 40
0.2857142857142857
 40
0.4285714285714285
 40
0.4285714285714285
 40
0.4285714285714285
 40
0.4285714285714285
 40
0.5714285714285714
 40
0.5714285714285714
 40
0.5714285714285714
 40
0.5714285714285714
 40
0.7142857142857142
 40
0.7142857142857142
 40
0.7142857142857142
 40
0.7142857142857142
 40
0.857142857142857
 40
0.857142857142857
 40
0.857142857142857
 40
0.857142857142857
 40
1.0
 40
1.0
 40
1.0
 40
1.0
 10
-87.2177
 20
30.9375
 30
0.0
 10
-87.2177
 20
27.5665
 30
0.0
 10
-90.4118
 20
23.2854
 30
0.0
 10
-90.6573
 20
20.0896
 30
0.0
 10
-90.6573
 20
20.0896
 30
0.0
 10
-89.2014
 20
20.0896
 30
0.0
 10
-88.4717
 20
20.3541
 30
0.0
 10
-86.9531
 20
20.3541
 30
0.0
 10
-86.9531
 20
20.3541
 30
0.0
 10
-86.907
 20
22.4691
 30
0.0
 10
-79.4213
 20
40.5172
 30
0.0
 10
-78.0306
 20
43.3729
 30
0.0
 10
-78.0306
 20
43.3729
 30
0.0
 10
-76.0922
 20
47.3532
 30
0.0
 10
-74.1895
 20
51.0558
 30
0.0
 10
-72.2072
 20
55.0145
 30
0.0
 10
-72.2072
 20
55.0145
 30
0.0
 10
-71.1861
 20
57.0538
 30
0.0
 10
-70.0133
 20
58.848
 30
0.0
 10
-68.89
 20
60.8354
 30
0.0
 10
-68.89
 20
60.8354
 30
0.0
 10
-68.3443
 20
61.8008
 30
0.0
 10
-67.8455
 20
62.7799
 30
0.0
 10
-67.2847
 20
63.7458
 30
0.0
 10
-67.2847
 20
63.7458
 30
0.0
 10
-66.2781
 20
65.4795
 30
0.0
 10
-66.1162
 20
65.0963
 30
0.0
 10
-65.2573
 20
66.127
 30
0.0
  0
SPLINE
  5
D8
330
1F
100
AcDbEntity
  8
LAYER_1
100
AcDbSpline
210
0.0
220
0.0
230
1.0
 70
     8
 71
     3
 72
    12
 73
     8
 74
     0
 42
0.0000000001
 43
0.0000000001
 40
0.0
 40
0.0
 40
0.0
 40
0.0
 40
0.5
 40
0.5
 40
0.5
 40
0.5
 40
1.0
 40
1.0
 40
1.0
 40
1.0
 10
59.8905
 20
66.127
 30
0.0
 10
60.9326
 20
65.7225
 30
0.0
 10
61.0991
 20
65.8625
 30
0.0
 10
62.2718
 20
65.8625
 30
0.0
 10
62.2718
 20
65.8625
 30
0.0
 10
62.1989
 20
69.2082
 30
0.0
 10
56.6071
 20
73.723
 30
0.0
 10
55.9218
 20
76.975
 30
0.0
  0
SPLINE
  5
D9
330
1F
100
AcDbEntity
  8
LAYER_1
100
AcDbSpline
210
0.0
220
0.0
230
1.0
 70
     8
 71
     3
 72
    20
 73
    16
 74
     0
 42
0.0000000001
 43
0.0000000001
 40
0.0
 40
0.0
 40
0.0
 40
0.0
 40
0.25
 40
0.25
 40
0.25
 40
0.25
 40
0.5
 40
0.5
 40
0.5
 40
0.5
 40
0.75
 40
0.75
 40
0.75
 40
0.75
 40
1.0
 40
1.0
 40
1.0
 40
1.0
 10
-65.2573
 20
66.6562
 30
0.0
 10
-65.2573
 20
66.6562
 30
0.0
 10
-65.2573
 20
66.127
 30
0.0
 10
-65.2573
 20
66.127
 30
0.0
 10
-65.2573
 20
66.127
 30
0.0
 10
-65.2573
 20
66.127
 30
0.0
 10
-64.7281
 20
66.127
 30
0.0
 10
-64.7281
 20
66.127
 30
0.0
 10
-64.7281
 20
66.127
 30
0.0
 10
-64.9829
 20
66.8018
 30
0.0
 10
-64.5826
 20
66.4015
 30
0.0
 10
-65.2573
 20
66.6562
 30
0.0
 10
-65.2573
 20
66.6562
 30
0.0
 10
-64.5594
 20
69.9681
 30
0.0
 10
-59.4094
 20
73.8829
 30
0.0
 10
-59.1719
 20
76.975
 30
0.0
  0
SPLINE
  5
DA
330
1F
100
AcDbEntity
  8
LAYER_1
100
AcDbSpline
210
0.0
220
0.0
230
1.0
 70
     8
 71
     3
 72
    64
 73
    60
 74
     0
 42
0.0000000001
 43
0.0000000001
 40
0.0
 40
0.0
 40
0.0
 40
0.0
 40
0.0666666666666667
 40
0.0666666666666667
 40
0.0666666666666667
 40
0.0666666666666667
 40
0.1333333333333333
 40
0.1333333333333333
 40
0.1333333333333333
 40
0.1333333333333333
 40
0.2
 40
0.2
 40
0.2
 40
0.2
 40
0.2666666666666667
 40
0.2666666666666667
 40
0.2666666666666667
 40
0.2666666666666667
 40
0.3333333333333333
 40
0.3333333333333333
 40
0.3333333333333333
 40
0.3333333333333333
 40
0.4
 40
0.4
 40
0.4
 40
0.4
 40
0.4666666666666666
 40
0.4666666666666666
 40
0.4666666666666666
 40
0.4666666666666666
 40
0.5333333333333333
 40
0.5333333333333333
 40
0.5333333333333333
 40
0.5333333333333333
 40
0.6
 40
0.6
 40
0.6
 40
0.6
 40
0.6666666666666666
 40
0.6666666666666666
 40
0.6666666666666666
 40
0.6666666666666666
 40
0.7333333333333333
 40
0.7333333333333333
 40
0.7333333333333333
 40
0.7333333333333333
 40
0.7999999999999999
 40
0.7999999999999999
 40
0.7999999999999999
 40
0.7999999999999999
 40
0.8666666666666666
 40
0.8666666666666666
 40
0.8666666666666666
 40
0.8666666666666666
 40
0.9333333333333332
 40
0.9333333333333332
 40
0.9333333333333332
 40
0.9333333333333332
 40
1.0
 40
1.0
 40
1.0
 40
1.0
 10
-107.0615
 20
24.3229
 30
0.0
 10
-105.1452
 20
25.0668
 30
0.0
 10
-96.0518
 20
24.5875
 30
0.0
 10
-93.3031
 20
24.5875
 30
0.0
 10
-93.3031
 20
24.5875
 30
0.0
 10
-93.3031
 20
22.9844
 30
0.0
 10
-93.5677
 20
22.1107
 30
0.0
 10
-93.5677
 20
20.6187
 30
0.0
 10
-93.5677
 20
20.6187
 30
0.0
 10
-97.5714
 20
20.6187
 30
0.0
 10
-102.7546
 20
22.6894
 30
0.0
 10
-106.7969
 20
23.0
 30
0.0
 10
-106.7969
 20
23.0
 30
0.0
 10
-107.863
 20
24.7412
 30
0.0
 10
-107.4835
 20
23.874
 30
0.0
 10
-109.1781
 20
24.8521
 30
0.0
 10
-109.1781
 20
24.8521
 30
0.0
 10
-109.2889
 20
25.4383
 30
0.0
 10
-109.4427
 20
25.8049
 30
0.0
 10
-109.4427
 20
26.4396
 30
0.0
 10
-109.4427
 20
26.4396
 30
0.0
 10
-109.4427
 20
28.1793
 30
0.0
 10
-106.8889
 20
32.9587
 30
0.0
 10
-105.7385
 20
34.3771
 30
0.0
 10
-105.7385
 20
34.3771
 30
0.0
 10
-102.5568
 20
35.6531
 30
0.0
 10
-98.0797
 20
35.7
 30
0.0
 10
-94.3615
 20
35.7
 30
0.0
 10
-94.3615
 20
35.7
 30
0.0
 10
-93.2452
 20
35.7
 30
0.0
 10
-92.1665
 20
35.4886
 30
0.0
 10
-91.1865
 20
35.1708
 30
0.0
 10
-91.1865
 20
35.1708
 30
0.0
 10
-91.1865
 20
35.1708
 30
0.0
 10
-89.8636
 20
33.8479
 30
0.0
 10
-89.8636
 20
33.8479
 30
0.0
 10
-89.8636
 20
33.8479
 30
0.0
 10
-89.3908
 20
32.4818
 30
0.0
 10
-89.3344
 20
32.4964
 30
0.0
 10
-89.3344
 20
30.9375
 30
0.0
 10
-89.3344
 20
30.9375
 30
0.0
 10
-89.3344
 20
30.9375
 30
0.0
 10
-87.2177
 20
30.9375
 30
0.0
 10
-87.2177
 20
30.9375
 30
0.0
 10
-87.2177
 20
30.9375
 30
0.0
 10
-86.7592
 20
31.1462
 30
0.0
 10
-86.9515
 20
30.9391
 30
0.0
 10
-86.424
 20
31.4666
 30
0.0
 10
-86.424
 20
31.4666
 30
0.0
 10
-83.6998
 20
39.3392
 30
0.0
 10
-79.7694
 20
47.8917
 30
0.0
 10
-75.8406
 20
55.2791
 30
0.0
 10
-75.8406
 20
55.2791
 30
0.0
 10
-73.1898
 20
60.2636
 30
0.0
 10
-65.4068
 20
76.496
 30
0.0
 10
-59.1719
 20
76.975
 30
0.0
 10
-59.1719
 20
76.975
 30
0.0
 10
-58.6459
 20
77.1735
 30
0.0
 10
-58.893
 20
76.9892
 30
0.0
 10
-58.3781
 20
77.5041
 30
0.0
  0
SPLINE
  5
DB
330
1F
100
AcDbEntity
  8
LAYER_1
100
AcDbSpline
210
0.0
220
0.0
230
1.0
 70
     8
 71
     3
 72
     8
 73
     4
 74
     0
 42
0.0000000001
 43
0.0000000001
 40
0.0
 40
0.0
 40
0.0
 40
0.0
 40
1.0
 40
1.0
 40
1.0
 40
1.0
 10
-57.849
 20
77.7687
 30
0.0
 10
-58.1758
 20
77.4419
 30
0.0
 10
-57.9885
 20
77.5041
 30
0.0
 10
-58.3781
 20
77.5041
 30
0.0
  0
SPLINE
  5
DC
330
1F
100
AcDbEntity
  8
LAYER_1
100
AcDbSpline
210
0.0
220
0.0
230
1.0
 70
     8
 71
     3
 72
     8
 73
     4
 74
     0
 42
0.0000000001
 43
0.0000000001
 40
0.0
 40
0.0
 40
0.0
 40
0.0
 40
1.0
 40
1.0
 40
1.0
 40
1.0
 10
-57.0552
 20
78.0333
 30
0.0
 10
-57.6038
 20
77.6918
 30
0.0
 10
-56.9617
 20
77.7687
 30
0.0
 10
-57.849
 20
77.7687
 30
0.0
  0
SPLINE
  5
DD
330
1F
100
AcDbEntity
  8
LAYER_1
100
AcDbSpline
210
0.0
220
0.0
230
1.0
 70
     8
 71
     3
 72
    52
 73
    48
 74
     0
 42
0.0000000001
 43
0.0000000001
 40
0.0
 40
0.0
 40
0.0
 40
0.0
 40
0.0833333333333333
 40
0.0833333333333333
 40
0.0833333333333333
 40
0.0833333333333333
 40
0.1666666666666667
 40
0.1666666666666667
 40
0.1666666666666667
 40
0.1666666666666667
 40
0.25
 40
0.25
 40
0.25
 40
0.25
 40
0.3333333333333333
 40
0.3333333333333333
 40
0.3333333333333333
 40
0.3333333333333333
 40
0.4166666666666666
 40
0.4166666666666666
 40
0.4166666666666666
 40
0.4166666666666666
 40
0.4999999999999999
 40
0.4999999999999999
 40
0.4999999999999999
 40
0.4999999999999999
 40
0.5833333333333333
 40
0.5833333333333333
 40
0.5833333333333333
 40
0.5833333333333333
 40
0.6666666666666666
 40
0.6666666666666666
 40
0.6666666666666666
 40
0.6666666666666666
 40
0.75
 40
0.75
 40
0.75
 40
0.75
 40
0.8333333333333334
 40
0.8333333333333334
 40
0.8333333333333334
 40
0.8333333333333334
 40
0.9166666666666667
 40
0.9166666666666667
 40
0.9166666666666667
 40
0.9166666666666667
 40
1.0
 40
1.0
 40
1.0
 40
1.0
 10
52.7468
 20
78.0333
 30
0.0
 10
52.7468
 20
78.0333
 30
0.0
 10
52.7468
 20
76.975
 30
0.0
 10
52.7468
 20
76.975
 30
0.0
 10
52.7468
 20
76.975
 30
0.0
 10
54.8065
 20
74.8694
 30
0.0
 10
58.2305
 20
69.7238
 30
0.0
 10
59.8905
 20
67.1854
 30
0.0
 10
59.8905
 20
67.1854
 30
0.0
 10
59.8905
 20
67.1854
 30
0.0
 10
59.8905
 20
66.127
 30
0.0
 10
59.8905
 20
66.127
 30
0.0
 10
59.8905
 20
66.127
 30
0.0
 10
55.8017
 20
66.127
 30
0.0
 10
50.2945
 20
66.7569
 30
0.0
 10
46.1322
 20
67.1767
 30
0.0
 10
46.1322
 20
67.1767
 30
0.0
 10
41.9349
 20
67.6
 30
0.0
 10
36.5945
 20
68.1754
 30
0.0
 10
32.3739
 20
68.2463
 30
0.0
 10
32.3739
 20
68.2463
 30
0.0
 10
23.1861
 20
68.4005
 30
0.0
 10
14.2032
 20
69.0375
 30
0.0
 10
4.8572
 20
69.0375
 30
0.0
 10
4.8572
 20
69.0375
 30
0.0
 10
4.8572
 20
69.0375
 30
0.0
 10
-8.1073
 20
69.0375
 30
0.0
 10
-8.1073
 20
69.0375
 30
0.0
 10
-8.1073
 20
69.0375
 30
0.0
 10
-17.4533
 20
69.0375
 30
0.0
 10
-26.4362
 20
68.4005
 30
0.0
 10
-35.624
 20
68.2463
 30
0.0
 10
-35.624
 20
68.2463
 30
0.0
 10
-39.7952
 20
68.1762
 30
0.0
 10
-45.2199
 20
67.5964
 30
0.0
 10
-49.3823
 20
67.1767
 30
0.0
 10
-49.3823
 20
67.1767
 30
0.0
 10
-53.5804
 20
66.7533
 30
0.0
 10
-59.0054
 20
66.127
 30
0.0
 10
-63.1406
 20
66.127
 30
0.0
 10
-63.1406
 20
66.127
 30
0.0
 10
-62.5991
 20
68.9931
 30
0.0
 10
-57.2507
 20
74.3298
 30
0.0
 10
-55.7323
 20
78.0333
 30
0.0
 10
-55.7323
 20
78.0333
 30
0.0
 10
-55.7323
 20
78.0333
 30
0.0
 10
-57.0552
 20
78.0333
 30
0.0
 10
-57.0552
 20
78.0333
 30
0.0
  0
SPLINE
  5
DE
330
1F
100
AcDbEntity
  8
LAYER_1
100
AcDbSpline
210
0.0
220
0.0
230
1.0
 70
     8
 71
     3
 72
     8
 73
     4
 74
     0
 42
0.0000000001
 43
0.0000000001
 40
0.0
 40
0.0
 40
0.0
 40
0.0
 40
1.0
 40
1.0
 40
1.0
 40
1.0
 10
-54.1448
 20
78.5625
 30
0.0
 10
-54.9457
 20
78.2446
 30
0.0
 10
-54.4113
 20
78.2979
 30
0.0
 10
-55.4677
 20
78.2979
 30
0.0
  0
SPLINE
  5
DF
330
1F
100
AcDbEntity
  8
LAYER_1
100
AcDbSpline
210
0.0
220
0.0
230
1.0
 70
     8
 71
     3
 72
     8
 73
     4
 74
     0
 42
0.0000000001
 43
0.0000000001
 40
0.0
 40
0.0
 40
0.0
 40
0.0
 40
1.0
 40
1.0
 40
1.0
 40
1.0
 10
-50.4407
 20
78.827
 30
0.0
 10
-51.5572
 20
78.3936
 30
0.0
 10
-52.8416
 20
78.5625
 30
0.0
 10
-54.1448
 20
78.5625
 30
0.0
  0
SPLINE
  5
E0
330
1F
100
AcDbEntity
  8
LAYER_1
100
AcDbSpline
210
0.0
220
0.0
230
1.0
 70
     8
 71
     3
 72
     8
 73
     4
 74
     0
 42
0.0000000001
 43
0.0000000001
 40
0.0
 40
0.0
 40
0.0
 40
0.0
 40
1.0
 40
1.0
 40
1.0
 40
1.0
 10
-46.2073
 20
79.0916
 30
0.0
 10
-47.414
 20
78.6232
 30
0.0
 10
-49.0551
 20
78.827
 30
0.0
 10
-50.4407
 20
78.827
 30
0.0
  0
SPLINE
  5
E1
330
1F
100
AcDbEntity
  8
LAYER_1
100
AcDbSpline
210
0.0
220
0.0
230
1.0
 70
     8
 71
     3
 72
     8
 73
     4
 74
     0
 42
0.0000000001
 43
0.0000000001
 40
0.0
 40
0.0
 40
0.0
 40
0.0
 40
1.0
 40
1.0
 40
1.0
 40
1.0
 10
-40.9157
 20
79.3562
 30
0.0
 10
-42.3846
 20
78.786
 30
0.0
 10
-44.5368
 20
79.0916
 30
0.0
 10
-46.2073
 20
79.0916
 30
0.0
  0
SPLINE
  5
E2
330
1F
100
AcDbEntity
  8
LAYER_1
100
AcDbSpline
210
0.0
220
0.0
230
1.0
 70
     8
 71
     3
 72
     8
 73
     4
 74
     0
 42
0.0000000001
 43
0.0000000001
 40
0.0
 40
0.0
 40
0.0
 40
0.0
 40
1.0
 40
1.0
 40
1.0
 40
1.0
 10
-34.8302
 20
79.6208
 30
0.0
 10
-36.496
 20
78.9742
 30
0.0
 10
-39.0314
 20
79.3562
 30
0.0
 10
-40.9157
 20
79.3562
 30
0.0
  0
SPLINE
  5
E3
330
1F
100
AcDbEntity
  8
LAYER_1
100
AcDbSpline
210
0.0
220
0.0
230
1.0
 70
     8
 71
     3
 72
     8
 73
     4
 74
     0
 42
0.0000000001
 43
0.0000000001
 40
0.0
 40
0.0
 40
0.0
 40
0.0
 40
1.0
 40
1.0
 40
1.0
 40
1.0
 10
-27.4219
 20
79.8854
 30
0.0
 10
-29.4157
 20
79.1114
 30
0.0
 10
-32.5897
 20
79.6208
 30
0.0
 10
-34.8302
 20
79.6208
 30
0.0
  0
SPLINE
  5
E4
330
1F
100
AcDbEntity
  8
LAYER_1
100
AcDbSpline
210
0.0
220
0.0
230
1.0
 70
     8
 71
     3
 72
     8
 73
     4
 74
     0
 42
0.0000000001
 43
0.0000000001
 40
0.0
 40
0.0
 40
0.0
 40
0.0
 40
1.0
 40
1.0
 40
1.0
 40
1.0
 10
-17.6323
 20
80.15
 30
0.0
 10
-19.6126
 20
79.3812
 30
0.0
 10
-24.9764
 20
79.8854
 30
0.0
 10
-27.4219
 20
79.8854
 30
0.0
  0
SPLINE
  5
E5
330
1F
100
AcDbEntity
  8
LAYER_1
100
AcDbSpline
210
0.0
220
0.0
230
1.0
 70
     8
 71
     3
 72
    80
 73
    76
 74
     0
 42
0.0000000001
 43
0.0000000001
 40
0.0
 40
0.0
 40
0.0
 40
0.0
 40
0.0526315789473684
 40
0.0526315789473684
 40
0.0526315789473684
 40
0.0526315789473684
 40
0.1052631578947368
 40
0.1052631578947368
 40
0.1052631578947368
 40
0.1052631578947368
 40
0.1578947368421053
 40
0.1578947368421053
 40
0.1578947368421053
 40
0.1578947368421053
 40
0.2105263157894737
 40
0.2105263157894737
 40
0.2105263157894737
 40
0.2105263157894737
 40
0.2631578947368421
 40
0.2631578947368421
 40
0.2631578947368421
 40
0.2631578947368421
 40
0.3157894736842105
 40
0.3157894736842105
 40
0.3157894736842105
 40
0.3157894736842105
 40
0.3684210526315789
 40
0.3684210526315789
 40
0.3684210526315789
 40
0.3684210526315789
 40
0.4210526315789473
 40
0.4210526315789473
 40
0.4210526315789473
 40
0.4210526315789473
 40
0.4736842105263158
 40
0.4736842105263158
 40
0.4736842105263158
 40
0.4736842105263158
 40
0.5263157894736842
 40
0.5263157894736842
 40
0.5263157894736842
 40
0.5263157894736842
 40
0.5789473684210527
 40
0.5789473684210527
 40
0.5789473684210527
 40
0.5789473684210527
 40
0.631578947368421
 40
0.631578947368421
 40
0.631578947368421
 40
0.631578947368421
 40
0.6842105263157894
 40
0.6842105263157894
 40
0.6842105263157894
 40
0.6842105263157894
 40
0.7368421052631577
 40
0.7368421052631577
 40
0.7368421052631577
 40
0.7368421052631577
 40
0.7894736842105261
 40
0.7894736842105261
 40
0.7894736842105261
 40
0.7894736842105261
 40
0.8421052631578945
 40
0.8421052631578945
 40
0.8421052631578945
 40
0.8421052631578945
 40
0.8947368421052628
 40
0.8947368421052628
 40
0.8947368421052628
 40
0.8947368421052628
 40
0.9473684210526312
 40
0.9473684210526312
 40
0.9473684210526312
 40
0.9473684210526312
 40
1.0
 40
1.0
 40
1.0
 40
1.0
 10
86.0843
 20
30.9375
 30
0.0
 10
91.1232
 20
26.9605
 30
0.0
 10
88.2867
 20
29.2765
 30
0.0
 10
90.3176
 20
24.3229
 30
0.0
 10
90.3176
 20
24.3229
 30
0.0
 10
90.3176
 20
24.3229
 30
0.0
 10
90.3176
 20
20.6187
 30
0.0
 10
90.3176
 20
20.6187
 30
0.0
 10
90.3176
 20
20.6187
 30
0.0
 10
93.4639
 20
20.6187
 30
0.0
 10
99.9192
 20
22.3645
 30
0.0
 10
103.2822
 20
23.0
 30
0.0
 10
103.2822
 20
23.0
 30
0.0
 10
103.9024
 20
23.6202
 30
0.0
 10
103.7069
 20
23.4465
 30
0.0
 10
104.0759
 20
24.0583
 30
0.0
 10
104.0759
 20
24.0583
 30
0.0
 10
104.869
 20
24.3327
 30
0.0
 10
105.4206
 20
24.4931
 30
0.0
 10
106.1926
 20
24.8521
 30
0.0
 10
106.1926
 20
24.8521
 30
0.0
 10
106.1926
 20
27.5428
 30
0.0
 10
106.5115
 20
27.5218
 30
0.0
 10
105.3277
 20
29.8791
 30
0.0
 10
105.3277
 20
29.8791
 30
0.0
 10
104.3899
 20
31.7466
 30
0.0
 10
103.8437
 20
33.7498
 30
0.0
 10
101.6947
 20
34.7164
 30
0.0
 10
101.6947
 20
34.7164
 30
0.0
 10
99.991
 20
35.4827
 30
0.0
 10
93.4272
 20
35.7
 30
0.0
 10
91.1114
 20
35.7
 30
0.0
 10
91.1114
 20
35.7
 30
0.0
 10
91.1114
 20
35.7
 30
0.0
 10
90.8468
 20
35.7
 30
0.0
 10
90.8468
 20
35.7
 30
0.0
 10
90.8468
 20
35.7
 30
0.0
 10
89.6524
 20
35.7
 30
0.0
 10
88.6699
 20
35.3703
 30
0.0
 10
87.6718
 20
34.9062
 30
0.0
 10
87.6718
 20
34.9062
 30
0.0
 10
87.0109
 20
33.8028
 30
0.0
 10
86.1853
 20
32.2529
 30
0.0
 10
86.0843
 20
30.9375
 30
0.0
 10
86.0843
 20
30.9375
 30
0.0
 10
86.0843
 20
30.9375
 30
0.0
 10
83.9676
 20
30.9375
 30
0.0
 10
83.9676
 20
30.9375
 30
0.0
 10
83.9676
 20
30.9375
 30
0.0
 10
82.2364
 20
33.828
 30
0.0
 10
80.3484
 20
39.4411
 30
0.0
 10
78.869
 20
42.8437
 30
0.0
 10
78.869
 20
42.8437
 30
0.0
 10
77.0402
 20
47.0502
 30
0.0
 10
75.2407
 20
50.945
 30
0.0
 10
73.0566
 20
55.0145
 30
0.0
 10
73.0566
 20
55.0145
 30
0.0
 10
70.2323
 20
60.2767
 30
0.0
 10
62.4701
 20
76.4719
 30
0.0
 10
55.9218
 20
76.975
 30
0.0
 10
55.9218
 20
76.975
 30
0.0
 10
54.9016
 20
77.724
 30
0.0
 10
54.063
 20
78.0046
 30
0.0
 10
52.7468
 20
78.0333
 30
0.0
 10
52.7468
 20
78.0333
 30
0.0
 10
50.3433
 20
78.8126
 30
0.0
 10
38.4948
 20
79.3567
 30
0.0
 10
35.2843
 20
79.3562
 30
0.0
 10
35.2843
 20
79.3562
 30
0.0
 10
29.4086
 20
79.3554
 30
0.0
 10
23.5753
 20
79.8855
 30
0.0
 10
17.5572
 20
79.8854
 30
0.0
 10
17.5572
 20
79.8854
 30
0.0
 10
6.0631
 20
79.8852
 30
0.0
 10
-5.9268
 20
80.15
 30
0.0
 10
-17.6323
 20
80.15
 30
0.0
  0
SPLINE
  5
E6
330
1F
100
AcDbEntity
  8
LAYER_1
100
AcDbSpline
210
0.0
220
0.0
230
1.0
 70
    24
 71
     3
 72
     8
 73
     4
 74
     0
 42
0.0000000001
 43
0.0000000001
 40
0.0
 40
0.0
 40
0.0
 40
0.0
 40
1.0
 40
1.0
 40
1.0
 40
1.0
 10
47.4551
 20
-41.0292
 30
0.0
 10
47.4551
 20
-41.0292
 30
0.0
 10
47.4551
 20
-36.7959
 30
0.0
 10
47.4551
 20
-36.7959
 30
0.0
  0
SPLINE
  5
E7
330
1F
100
AcDbEntity
  8
LAYER_1
100
AcDbSpline
210
0.0
220
0.0
230
1.0
 70
    24
 71
     3
 72
     8
 73
     4
 74
     0
 42
0.0000000001
 43
0.0000000001
 40
0.0
 40
0.0
 40
0.0
 40
0.0
 40
1.0
 40
1.0
 40
1.0
 40
1.0
 10
23.1135
 20
-41.0292
 30
0.0
 10
23.1135
 20
-41.0292
 30
0.0
 10
23.1135
 20
-36.7959
 30
0.0
 10
23.1135
 20
-36.7959
 30
0.0
  0
SPLINE
  5
E8
330
1F
100
AcDbEntity
  8
LAYER_1
100
AcDbSpline
210
0.0
220
0.0
230
1.0
 70
    24
 71
     3
 72
     8
 73
     4
 74
     0
 42
0.0000000001
 43
0.0000000001
 40
0.0
 40
0.0
 40
0.0
 40
0.0
 40
1.0
 40
1.0
 40
1.0
 40
1.0
 10
-1.7573
 20
-41.0292
 30
0.0
 10
-1.7573
 20
-41.0292
 30
0.0
 10
-1.7573
 20
-36.7959
 30
0.0
 10
-1.7573
 20
-36.7959
 30
0.0
  0
SPLINE
  5
E9
330
1F
100
AcDbEntity
  8
LAYER_1
100
AcDbSpline
210
0.0
220
0.0
230
1.0
 70
    24
 71
     3
 72
     8
 73
     4
 74
     0
 42
0.0000000001
 43
0.0000000001
 40
0.0
 40
0.0
 40
0.0
 40
0.0
 40
1.0
 40
1.0
 40
1.0
 40
1.0
 10
-26.099
 20
-41.0292
 30
0.0
 10
-26.099
 20
-41.0292
 30
0.0
 10
-26.099
 20
-36.7959
 30
0.0
 10
-26.099
 20
-36.7959
 30
0.0
  0
SPLINE
  5
EA
330
1F
100
AcDbEntity
  8
LAYER_1
100
AcDbSpline
210
0.0
220
0.0
230
1.0
 70
    24
 71
     3
 72
     8
 73
     4
 74
     0
 42
0.0000000001
 43
0.0000000001
 40
0.0
 40
0.0
 40
0.0
 40
0.0
 40
1.0
 40
1.0
 40
1.0
 40
1.0
 10
-50.7052
 20
-41.0292
 30
0.0
 10
-50.7052
 20
-41.0292
 30
0.0
 10
-50.7052
 20
-36.7959
 30
0.0
 10
-50.7052
 20
-36.7959
 30
0.0
  0
SPLINE
  5
EB
330
1F
100
AcDbEntity
  8
LAYER_1
100
AcDbSpline
210
0.0
220
0.0
230
1.0
 70
     8
 71
     3
 72
    40
 73
    36
 74
     0
 42
0.0000000001
 43
0.0000000001
 40
0.0
 40
0.0
 40
0.0
 40
0.0
 40
0.1111111111111111
 40
0.1111111111111111
 40
0.1111111111111111
 40
0.1111111111111111
 40
0.2222222222222222
 40
0.2222222222222222
 40
0.2222222222222222
 40
0.2222222222222222
 40
0.3333333333333333
 40
0.3333333333333333
 40
0.3333333333333333
 40
0.3333333333333333
 40
0.4444444444444444
 40
0.4444444444444444
 40
0.4444444444444444
 40
0.4444444444444444
 40
0.5555555555555556
 40
0.5555555555555556
 40
0.5555555555555556
 40
0.5555555555555556
 40
0.6666666666666667
 40
0.6666666666666667
 40
0.6666666666666667
 40
0.6666666666666667
 40
0.7777777777777779
 40
0.7777777777777779
 40
0.7777777777777779
 40
0.7777777777777779
 40
0.8888888888888891
 40
0.8888888888888891
 40
0.8888888888888891
 40
0.8888888888888891
 40
1.0
 40
1.0
 40
1.0
 40
1.0
 10
-59.1719
 20
-40.7646
 30
0.0
 10
-57.1746
 20
-41.54
 30
0.0
 10
-53.0446
 20
-41.0292
 30
0.0
 10
-50.7052
 20
-41.0292
 30
0.0
 10
-50.7052
 20
-41.0292
 30
0.0
 10
-50.7052
 20
-41.0292
 30
0.0
 10
-26.099
 20
-41.0292
 30
0.0
 10
-26.099
 20
-41.0292
 30
0.0
 10
-26.099
 20
-41.0292
 30
0.0
 10
-26.099
 20
-41.0292
 30
0.0
 10
-1.7573
 20
-41.0292
 30
0.0
 10
-1.7573
 20
-41.0292
 30
0.0
 10
-1.7573
 20
-41.0292
 30
0.0
 10
-1.7573
 20
-41.0292
 30
0.0
 10
23.1135
 20
-41.0292
 30
0.0
 10
23.1135
 20
-41.0292
 30
0.0
 10
23.1135
 20
-41.0292
 30
0.0
 10
23.1135
 20
-41.0292
 30
0.0
 10
47.4551
 20
-41.0292
 30
0.0
 10
47.4551
 20
-41.0292
 30
0.0
 10
47.4551
 20
-41.0292
 30
0.0
 10
49.7832
 20
-41.0292
 30
0.0
 10
53.6451
 20
-41.417
 30
0.0
 10
55.6572
 20
-40.7646
 30
0.0
 10
55.6572
 20
-40.7646
 30
0.0
 10
55.4591
 20
-40.2138
 30
0.0
 10
55.441
 20
-40.1951
 30
0.0
 10
55.1281
 20
-39.7063
 30
0.0
 10
55.1281
 20
-39.7063
 30
0.0
 10
52.8913
 20
-37.6414
 30
0.0
 10
50.5564
 20
-36.7959
 30
0.0
 10
47.4551
 20
-36.7959
 30
0.0
 10
47.4551
 20
-36.7959
 30
0.0
 10
47.4551
 20
-36.7959
 30
0.0
 10
28.6697
 20
-36.7959
 30
0.0
 10
28.6697
 20
-36.7959
 30
0.0
  0
SPLINE
  5
EC
330
1F
100
AcDbEntity
  8
LAYER_1
100
AcDbSpline
210
0.0
220
0.0
230
1.0
 70
     8
 71
     3
 72
    16
 73
    12
 74
     0
 42
0.0000000001
 43
0.0000000001
 40
0.0
 40
0.0
 40
0.0
 40
0.0
 40
0.3333333333333333
 40
0.3333333333333333
 40
0.3333333333333333
 40
0.3333333333333333
 40
0.6666666666666666
 40
0.6666666666666666
 40
0.6666666666666666
 40
0.6666666666666666
 40
1.0
 40
1.0
 40
1.0
 40
1.0
 10
-31.6552
 20
-36.7959
 30
0.0
 10
-31.8872
 20
-36.2176
 30
0.0
 10
-32.7136
 20
-34.3988
 30
0.0
 10
-32.7136
 20
-33.8854
 30
0.0
 10
-32.7136
 20
-33.8854
 30
0.0
 10
-32.7136
 20
-33.8854
 30
0.0
 10
-32.7136
 20
-24.8896
 30
0.0
 10
-32.7136
 20
-24.8896
 30
0.0
 10
-32.7136
 20
-24.8896
 30
0.0
 10
-32.7136
 20
-24.0352
 30
0.0
 10
-32.1668
 20
-23.4211
 30
0.0
 10
-31.6552
 20
-22.7729
 30
0.0
  0
SPLINE
  5
ED
330
1F
100
AcDbEntity
  8
LAYER_1
100
AcDbSpline
210
0.0
220
0.0
230
1.0
 70
     8
 71
     3
 72
     8
 73
     4
 74
     0
 42
0.0000000001
 43
0.0000000001
 40
0.0
 40
0.0
 40
0.0
 40
0.0
 40
1.0
 40
1.0
 40
1.0
 40
1.0
 10
-31.1261
 20
-22.5084
 30
0.0
 10
-31.4529
 20
-22.8351
 30
0.0
 10
-31.2656
 20
-22.7729
 30
0.0
 10
-31.6552
 20
-22.7729
 30
0.0
  0
SPLINE
  5
EE
330
1F
100
AcDbEntity
  8
LAYER_1
100
AcDbSpline
210
0.0
220
0.0
230
1.0
 70
     8
 71
     3
 72
     8
 73
     4
 74
     0
 42
0.0000000001
 43
0.0000000001
 40
0.0
 40
0.0
 40
0.0
 40
0.0
 40
1.0
 40
1.0
 40
1.0
 40
1.0
 10
-30.5969
 20
-22.2438
 30
0.0
 10
-30.9237
 20
-22.5705
 30
0.0
 10
-30.7364
 20
-22.5084
 30
0.0
 10
-31.1261
 20
-22.5084
 30
0.0
  0
SPLINE
  5
EF
330
1F
100
AcDbEntity
  8
LAYER_1
100
AcDbSpline
210
0.0
220
0.0
230
1.0
 70
     8
 71
     3
 72
    76
 73
    72
 74
     0
 42
0.0000000001
 43
0.0000000001
 40
0.0
 40
0.0
 40
0.0
 40
0.0
 40
0.0555555555555556
 40
0.0555555555555556
 40
0.0555555555555556
 40
0.0555555555555556
 40
0.1111111111111111
 40
0.1111111111111111
 40
0.1111111111111111
 40
0.1111111111111111
 40
0.1666666666666667
 40
0.1666666666666667
 40
0.1666666666666667
 40
0.1666666666666667
 40
0.2222222222222222
 40
0.2222222222222222
 40
0.2222222222222222
 40
0.2222222222222222
 40
0.2777777777777778
 40
0.2777777777777778
 40
0.2777777777777778
 40
0.2777777777777778
 40
0.3333333333333334
 40
0.3333333333333334
 40
0.3333333333333334
 40
0.3333333333333334
 40
0.388888888888889
 40
0.388888888888889
 40
0.388888888888889
 40
0.388888888888889
 40
0.4444444444444445
 40
0.4444444444444445
 40
0.4444444444444445
 40
0.4444444444444445
 40
0.5000000000000001
 40
0.5000000000000001
 40
0.5000000000000001
 40
0.5000000000000001
 40
0.5555555555555557
 40
0.5555555555555557
 40
0.5555555555555557
 40
0.5555555555555557
 40
0.6111111111111113
 40
0.6111111111111113
 40
0.6111111111111113
 40
0.6111111111111113
 40
0.6666666666666669
 40
0.6666666666666669
 40
0.6666666666666669
 40
0.6666666666666669
 40
0.7222222222222224
 40
0.7222222222222224
 40
0.7222222222222224
 40
0.7222222222222224
 40
0.777777777777778
 40
0.777777777777778
 40
0.777777777777778
 40
0.777777777777778
 40
0.8333333333333336
 40
0.8333333333333336
 40
0.8333333333333336
 40
0.8333333333333336
 40
0.8888888888888892
 40
0.8888888888888892
 40
0.8888888888888892
 40
0.8888888888888892
 40
0.9444444444444448
 40
0.9444444444444448
 40
0.9444444444444448
 40
0.9444444444444448
 40
1.0
 40
1.0
 40
1.0
 40
1.0
 10
-62.8761
 20
-44.9979
 30
0.0
 10
-60.855
 20
-45.7825
 30
0.0
 10
-53.3921
 20
-45.2625
 30
0.0
 10
-50.7052
 20
-45.2625
 30
0.0
 10
-50.7052
 20
-45.2625
 30
0.0
 10
-50.7052
 20
-45.2625
 30
0.0
 10
-50.7052
 20
-49.7604
 30
0.0
 10
-50.7052
 20
-49.7604
 30
0.0
 10
-50.7052
 20
-49.7604
 30
0.0
 10
-53.6066
 20
-49.7604
 30
0.0
 10
-63.5259
 20
-50.2707
 30
0.0
 10
-65.5219
 20
-49.4958
 30
0.0
 10
-65.5219
 20
-49.4958
 30
0.0
 10
-64.9427
 20
-47.8221
 30
0.0
 10
-64.5259
 20
-46.0073
 30
0.0
 10
-62.8761
 20
-44.9979
 30
0.0
 10
-62.8761
 20
-44.9979
 30
0.0
 10
-62.5432
 20
-43.4182
 30
0.0
 10
-61.3832
 20
-42.2781
 30
0.0
 10
-60.2302
 20
-41.0292
 30
0.0
 10
-60.2302
 20
-41.0292
 30
0.0
 10
-59.5799
 20
-40.7953
 30
0.0
 10
-59.7766
 20
-40.8814
 30
0.0
 10
-59.1719
 20
-40.7646
 30
0.0
 10
-59.1719
 20
-40.7646
 30
0.0
 10
-59.1719
 20
-39.8072
 30
0.0
 10
-59.2348
 20
-40.5718
 30
0.0
 10
-58.9073
 20
-39.9709
 30
0.0
 10
-58.9073
 20
-39.9709
 30
0.0
 10
-56.471
 20
-37.5876
 30
0.0
 10
-54.1192
 20
-36.7959
 30
0.0
 10
-50.7052
 20
-36.7959
 30
0.0
 10
-50.7052
 20
-36.7959
 30
0.0
 10
-50.7052
 20
-36.7959
 30
0.0
 10
-31.6552
 20
-36.7959
 30
0.0
 10
-31.6552
 20
-36.7959
 30
0.0
 10
-31.6552
 20
-36.7959
 30
0.0
 10
-31.6552
 20
-36.7959
 30
0.0
 10
-26.099
 20
-36.7959
 30
0.0
 10
-26.099
 20
-36.7959
 30
0.0
 10
-26.099
 20
-36.7959
 30
0.0
 10
-26.099
 20
-36.7959
 30
0.0
 10
-1.7573
 20
-36.7959
 30
0.0
 10
-1.7573
 20
-36.7959
 30
0.0
 10
-1.7573
 20
-36.7959
 30
0.0
 10
-1.7573
 20
-36.7959
 30
0.0
 10
23.1135
 20
-36.7959
 30
0.0
 10
23.1135
 20
-36.7959
 30
0.0
 10
23.1135
 20
-36.7959
 30
0.0
 10
23.1135
 20
-36.7959
 30
0.0
 10
28.6697
 20
-36.7959
 30
0.0
 10
28.6697
 20
-36.7959
 30
0.0
 10
28.6697
 20
-36.7959
 30
0.0
 10
28.9549
 20
-35.4428
 30
0.0
 10
29.7281
 20
-34.7792
 30
0.0
 10
29.7281
 20
-33.3563
 30
0.0
 10
29.7281
 20
-33.3563
 30
0.0
 10
29.7281
 20
-33.3563
 30
0.0
 10
29.7281
 20
-25.9479
 30
0.0
 10
29.7281
 20
-25.9479
 30
0.0
 10
29.7281
 20
-25.9479
 30
0.0
 10
29.7281
 20
-24.8903
 30
0.0
 10
29.5656
 20
-24.4612
 30
0.0
 10
29.1989
 20
-23.5667
 30
0.0
 10
29.1989
 20
-23.5667
 30
0.0
 10
28.5267
 20
-22.8945
 30
0.0
 10
28.6064
 20
-22.9552
 30
0.0
 10
27.876
 20
-22.5084
 30
0.0
 10
27.876
 20
-22.5084
 30
0.0
 10
25.9431
 20
-21.758
 30
0.0
 10
-23.9264
 20
-22.2438
 30
0.0
 10
-30.5969
 20
-22.2438
 30
0.0
  0
ENDSEC
  0
SECTION
  2
OBJECTS
  0
DICTIONARY
  5
C
330
0
100
AcDbDictionary
  3
ACAD_GROUP
350
D
  3
ACAD_LAYOUT
350
1A
  3
ACAD_MLEADERSTYLE
350
113
  3
ACAD_MLINESTYLE
350
17
  3
ACAD_PLOTSETTINGS
350
19
  3
ACAD_SCALELIST
350
3B
  3
ACAD_TABLESTYLE
350
112
  3
ACAD_VISUALSTYLE
350
2A
  3
ACDBHEADERROUNDTRIPXREC
350
F0
  3
ACDBVARIABLEDICTIONARY
350
110
  0
DICTIONARY
  5
D
102
{ACAD_REACTORS
330
C
102
}
330
C
100
AcDbDictionary
  0
DICTIONARY
  5
1A
102
{ACAD_REACTORS
330
C
102
}
330
C
100
AcDbDictionary
  0
DICTIONARY
  5
113
102
{ACAD_REACTORS
330
C
102
}
330
C
100
AcDbDictionary
  0
DICTIONARY
  5
17
102
{ACAD_REACTORS
330
C
102
}
330
C
100
AcDbDictionary
  3
STANDARD
350
18
  0
DICTIONARY
  5
19
102
{ACAD_REACTORS
330
C
102
}
330
C
100
AcDbDictionary
  0
DICTIONARY
  5
3B
102
{ACAD_REACTORS
330
C
102
}
330
C
100
AcDbDictionary
  3
A0
350
3C
  3
A1
350
3D
  3
A2
350
3E
  3
A3
350
3F
  3
A4
350
40
  3
A5
350
41
  3
A6
350
42
  3
A7
350
43
  3
A8
350
44
  3
A9
350
45
  3
B0
350
46
  3
B1
350
47
  3
B2
350
48
  3
B3
350
49
  3
B4
350
4A
  3
B5
350
4B
  3
B6
350
4C
  3
B7
350
4D
  3
B8
350
4E
  3
B9
350
4F
  3
C0
350
50
  3
C1
350
51
  3
C2
350
52
  3
C3
350
53
  3
C4
350
54
  3
C5
350
55
  3
C6
350
56
  3
C7
350
57
  3
C8
350
58
  3
C9
350
59
  3
D0
350
5A
  3
D1
350
5B
  3
D2
350
5C
  0
DICTIONARY
  5
112
102
{ACAD_REACTORS
330
C
102
}
330
C
100
AcDbDictionary
  0
DICTIONARY
  5
2A
102
{ACAD_REACTORS
330
C
102
}
330
C
100
AcDbDictionary
  3
2DWIREFRAME
350
2F
  3
3D_HIDDEN
350
31
  3
3DWIREFRAME
350
30
  3
BASIC
350
32
  3
BRIGHTEN
350
36
  3
COLORCHANGE
350
3A
  3
CONCEPTUAL
350
34
  3
DIM
350
35
  3
FACEPATTERN
350
39
  3
FLAT
350
2B
  3
FLATWITHEDGES
350
2C
  3
GOURAUD
350
2D
  3
GOURAUDWITHEDGES
350
2E
  3
LINEPATTERN
350
38
  3
REALISTIC
350
33
  3
THICKEN
350
37
  0
DICTIONARY
  5
F0
102
{ACAD_REACTORS
330
C
102
}
330
C
100
AcDbDictionary
  3
CEPSNTYPE
350
F9
  3
DIMSTYLEDATA
350
10F
  3
FINGERPRINTGUID
350
FA
  3
HYPERLINKBASE
350
F3
  3
INSUNITS
350
F8
  3
LAYOUTDICT
350
F5
  3
LWETCUNION
350
F7
  3
PLOTSETDICT
350
F6
  3
PSVPSCALE
350
FC
  3
PUCSBASE
350
FF
  3
PUCSORGBACK
350
105
  3
PUCSORGBOTTOM
350
101
  3
PUCSORGFRONT
350
104
  3
PUCSORGLEFT
350
102
  3
PUCSORGRIGHT
350
103
  3
PUCSORGTOP
350
100
  3
PUCSORTHOREF
350
FD
  3
PUCSORTHOVIEW
350
FE
  3
STYLESHEET
350
F4
  3
TSTACKALIGN
350
F1
  3
TSTACKSIZE
350
F2
  3
UCSBASE
350
108
  3
UCSORGBACK
350
10E
  3
UCSORGBOTTOM
350
10A
  3
UCSORGFRONT
350
10D
  3
UCSORGLEFT
350
10B
  3
UCSORGRIGHT
350
10C
  3
UCSORGTOP
350
109
  3
UCSORTHOREF
350
106
  3
UCSORTHOVIEW
350
107
  3
VERSIONGUID
350
FB
  0
DICTIONARY
  5
110
102
{ACAD_REACTORS
330
C
102
}
330
C
100
AcDbDictionary
  3
CANNOSCALE
350
111
  0
MLINESTYLE
  5
18
102
{ACAD_REACTORS
330
17
102
}
330
17
100
AcDbMlineStyle
  2
Standard
 70
     0
  3

 62
   256
 51
90.0
 52
90.0
 71
     2
 49
0.5
 62
   256
  6
BYLAYER
 49
-0.5
 62
   256
  6
BYLAYER
  0
SCALE
  5
3C
102
{ACAD_REACTORS
330
3B
102
}
330
3B
100
AcDbScale
 70
     0
300
1:1
140
1.0
141
1.0
290
     1
  0
SCALE
  5
3D
102
{ACAD_REACTORS
330
3B
102
}
330
3B
100
AcDbScale
 70
     0
300
1:2
140
1.0
141
2.0
290
     0
  0
SCALE
  5
3E
102
{ACAD_REACTORS
330
3B
102
}
330
3B
100
AcDbScale
 70
     0
300
1:4
140
1.0
141
4.0
290
     0
  0
SCALE
  5
3F
102
{ACAD_REACTORS
330
3B
102
}
330
3B
100
AcDbScale
 70
     0
300
1:5
140
1.0
141
5.0
290
     0
  0
SCALE
  5
40
102
{ACAD_REACTORS
330
3B
102
}
330
3B
100
AcDbScale
 70
     0
300
1:8
140
1.0
141
8.0
290
     0
  0
SCALE
  5
41
102
{ACAD_REACTORS
330
3B
102
}
330
3B
100
AcDbScale
 70
     0
300
1:10
140
1.0
141
10.0
290
     0
  0
SCALE
  5
42
102
{ACAD_REACTORS
330
3B
102
}
330
3B
100
AcDbScale
 70
     0
300
1:16
140
1.0
141
16.0
290
     0
  0
SCALE
  5
43
102
{ACAD_REACTORS
330
3B
102
}
330
3B
100
AcDbScale
 70
     0
300
1:20
140
1.0
141
20.0
290
     0
  0
SCALE
  5
44
102
{ACAD_REACTORS
330
3B
102
}
330
3B
100
AcDbScale
 70
     0
300
1:30
140
1.0
141
30.0
290
     0
  0
SCALE
  5
45
102
{ACAD_REACTORS
330
3B
102
}
330
3B
100
AcDbScale
 70
     0
300
1:40
140
1.0
141
40.0
290
     0
  0
SCALE
  5
46
102
{ACAD_REACTORS
330
3B
102
}
330
3B
100
AcDbScale
 70
     0
300
1:50
140
1.0
141
50.0
290
     0
  0
SCALE
  5
47
102
{ACAD_REACTORS
330
3B
102
}
330
3B
100
AcDbScale
 70
     0
300
1:100
140
1.0
141
100.0
290
     0
  0
SCALE
  5
48
102
{ACAD_REACTORS
330
3B
102
}
330
3B
100
AcDbScale
 70
     0
300
2:1
140
2.0
141
1.0
290
     0
  0
SCALE
  5
49
102
{ACAD_REACTORS
330
3B
102
}
330
3B
100
AcDbScale
 70
     0
300
4:1
140
4.0
141
1.0
290
     0
  0
SCALE
  5
4A
102
{ACAD_REACTORS
330
3B
102
}
330
3B
100
AcDbScale
 70
     0
300
8:1
140
8.0
141
1.0
290
     0
  0
SCALE
  5
4B
102
{ACAD_REACTORS
330
3B
102
}
330
3B
100
AcDbScale
 70
     0
300
10:1
140
10.0
141
1.0
290
     0
  0
SCALE
  5
4C
102
{ACAD_REACTORS
330
3B
102
}
330
3B
100
AcDbScale
 70
     0
300
100:1
140
100.0
141
1.0
290
     0
  0
SCALE
  5
4D
102
{ACAD_REACTORS
330
3B
102
}
330
3B
100
AcDbScale
 70
     0
300
1/128" = 1'-0"
140
0.0078125
141
12.0
290
     0
  0
SCALE
  5
4E
102
{ACAD_REACTORS
330
3B
102
}
330
3B
100
AcDbScale
 70
     0
300
1/64" = 1'-0"
140
0.015625
141
12.0
290
     0
  0
SCALE
  5
4F
102
{ACAD_REACTORS
330
3B
102
}
330
3B
100
AcDbScale
 70
     0
300
1/32" = 1'-0"
140
0.03125
141
12.0
290
     0
  0
SCALE
  5
50
102
{ACAD_REACTORS
330
3B
102
}
330
3B
100
AcDbScale
 70
     0
300
1/16" = 1'-0"
140
0.0625
141
12.0
290
     0
  0
SCALE
  5
51
102
{ACAD_REACTORS
330
3B
102
}
330
3B
100
AcDbScale
 70
     0
300
3/32" = 1'-0"
140
0.09375
141
12.0
290
     0
  0
SCALE
  5
52
102
{ACAD_REACTORS
330
3B
102
}
330
3B
100
AcDbScale
 70
     0
300
1/8" = 1'-0"
140
0.125
141
12.0
290
     0
  0
SCALE
  5
53
102
{ACAD_REACTORS
330
3B
102
}
330
3B
100
AcDbScale
 70
     0
300
3/16" = 1'-0"
140
0.1875
141
12.0
290
     0
  0
SCALE
  5
54
102
{ACAD_REACTORS
330
3B
102
}
330
3B
100
AcDbScale
 70
     0
300
1/4" = 1'-0"
140
0.25
141
12.0
290
     0
  0
SCALE
  5
55
102
{ACAD_REACTORS
330
3B
102
}
330
3B
100
AcDbScale
 70
     0
300
3/8" = 1'-0"
140
0.375
141
12.0
290
     0
  0
SCALE
  5
56
102
{ACAD_REACTORS
330
3B
102
}
330
3B
100
AcDbScale
 70
     0
300
1/2" = 1'-0"
140
0.5
141
12.0
290
     0
  0
SCALE
  5
57
102
{ACAD_REACTORS
330
3B
102
}
330
3B
100
AcDbScale
 70
     0
300
3/4" = 1'-0"
140
0.75
141
12.0
290
     0
  0
SCALE
  5
58
102
{ACAD_REACTORS
330
3B
102
}
330
3B
100
AcDbScale
 70
     0
300
1" = 1'-0"
140
1.0
141
12.0
290
     0
  0
SCALE
  5
59
102
{ACAD_REACTORS
330
3B
102
}
330
3B
100
AcDbScale
 70
     0
300
1-1/2" = 1'-0"
140
1.5
141
12.0
290
     0
  0
SCALE
  5
5A
102
{ACAD_REACTORS
330
3B
102
}
330
3B
100
AcDbScale
 70
     0
300
3" = 1'-0"
140
3.0
141
12.0
290
     0
  0
SCALE
  5
5B
102
{ACAD_REACTORS
330
3B
102
}
330
3B
100
AcDbScale
 70
     0
300
6" = 1'-0"
140
6.0
141
12.0
290
     0
  0
SCALE
  5
5C
102
{ACAD_REACTORS
330
3B
102
}
330
3B
100
AcDbScale
 70
     0
300
1'-0" = 1'-0"
140
12.0
141
12.0
290
     0
  0
VISUALSTYLE
  5
2F
102
{ACAD_REACTORS
330
2A
102
}
330
2A
100
AcDbVisualStyle
  2
2dWireframe
 70
     4
 71
     0
 72
     2
 73
     0
 90
        0
 40
-0.6
 41
-30.0
 62
     5
 63
     7
 74
     1
 91
        4
 64
     7
 65
   257
 75
     1
175
     1
 42
1.0
 92
        0
 66
   257
 43
1.0
 76
     1
 77
     6
 78
     2
 67
     7
 79
     5
170
     0
171
     0
290
     0
174
     0
 93
        1
 44
0.0
173
     0
291
     0
 45
0.0
1001
ACAD
1000
AcDbSavedByObjectVersion
1070
     0
  0
VISUALSTYLE
  5
31
102
{ACAD_REACTORS
330
2A
102
}
330
2A
100
AcDbVisualStyle
  2
3D Hidden
 70
     6
 71
     1
 72
     2
 73
     2
 90
        0
 40
-0.6
 41
-30.0
 62
     5
 63
     7
 74
     2
 91
        2
 64
     7
 65
   257
 75
     2
175
     1
 42
40.0
 92
        0
 66
   257
 43
1.0
 76
     1
 77
     6
 78
     2
 67
     7
 79
     3
170
     0
171
     0
290
     0
174
     0
 93
        1
 44
0.0
173
     0
291
     0
 45
0.0
1001
ACAD
1000
AcDbSavedByObjectVersion
1070
     0
  0
VISUALSTYLE
  5
30
102
{ACAD_REACTORS
330
2A
102
}
330
2A
100
AcDbVisualStyle
  2
3dWireframe
 70
     5
 71
     0
 72
     2
 73
     0
 90
        0
 40
-0.6
 41
-30.0
 62
     5
 63
     7
 74
     1
 91
        4
 64
     7
 65
   257
 75
     1
175
     1
 42
1.0
 92
        0
 66
   257
 43
1.0
 76
     1
 77
     6
 78
     2
 67
     7
 79
     5
170
     0
171
     0
290
     0
174
     0
 93
        1
 44
0.0
173
     0
291
     0
 45
0.0
1001
ACAD
1000
AcDbSavedByObjectVersion
1070
     0
  0
VISUALSTYLE
  5
32
102
{ACAD_REACTORS
330
2A
102
}
330
2A
100
AcDbVisualStyle
  2
Basic
 70
     7
 71
     1
 72
     0
 73
     1
 90
        0
 40
-0.6
 41
-30.0
 62
     5
 63
     7
 74
     0
 91
        4
 64
     7
 65
   257
 75
     1
175
     1
 42
1.0
 92
        8
 66
     7
 43
1.0
 76
     1
 77
     6
 78
     2
 67
     7
 79
     5
170
     0
171
     0
290
     0
174
     0
 93
        1
 44
0.0
173
     0
291
     1
 45
0.0
1001
ACAD
1000
AcDbSavedByObjectVersion
1070
     0
  0
VISUALSTYLE
  5
36
102
{ACAD_REACTORS
330
2A
102
}
330
2A
100
AcDbVisualStyle
  2
Brighten
 70
    12
 71
     2
 72
     2
 73
     0
 90
        0
 40
-0.6
 41
-30.0
 62
     5
 63
     7
 74
     1
 91
        4
 64
     7
 65
   257
 75
     1
175
     1
 42
1.0
 92
        8
 66
     7
 43
1.0
 76
     1
 77
     6
 78
     2
 67
     7
 79
     5
170
     0
171
     0
290
     0
174
     0
 93
        1
 44
50.0
173
     0
291
     1
 45
0.0
1001
ACAD
1000
AcDbSavedByObjectVersion
1070
     0
  0
VISUALSTYLE
  5
3A
102
{ACAD_REACTORS
330
2A
102
}
330
2A
100
AcDbVisualStyle
  2
ColorChange
 70
    16
 71
     2
 72
     2
 73
     3
 90
        0
 40
-0.6
 41
-30.0
 62
     5
 63
     8
 74
     1
 91
        4
 64
     7
 65
   257
 75
     1
175
     1
 42
1.0
 92
        8
 66
     8
 43
1.0
 76
     1
 77
     6
 78
     2
 67
     7
 79
     5
170
     0
171
     0
290
     0
174
     0
 93
        1
 44
0.0
173
     0
291
     1
 45
0.0
1001
ACAD
1000
AcDbSavedByObjectVersion
1070
     0
  0
VISUALSTYLE
  5
34
102
{ACAD_REACTORS
330
2A
102
}
330
2A
100
AcDbVisualStyle
  2
Conceptual
 70
     9
 71
     3
 72
     2
 73
     0
 90
        0
 40
-0.6
 41
-30.0
 62
     5
 63
     7
 74
     2
 91
        2
 64
     7
 65
   257
 75
     1
175
     1
 42
40.0
 92
        8
 66
     7
 43
1.0
 76
     1
 77
     6
 78
     2
 67
     7
 79
     3
170
     0
171
     0
290
     0
174
     0
 93
        1
 44
0.0
173
     0
291
     0
 45
0.0
1001
ACAD
1000
AcDbSavedByObjectVersion
1070
     0
  0
VISUALSTYLE
  5
35
102
{ACAD_REACTORS
330
2A
102
}
330
2A
100
AcDbVisualStyle
  2
Dim
 70
    11
 71
     2
 72
     2
 73
     0
 90
        0
 40
-0.6
 41
-30.0
 62
     5
 63
     7
 74
     1
 91
        4
 64
     7
 65
   257
 75
     1
175
     1
 42
1.0
 92
        8
 66
     7
 43
1.0
 76
     1
 77
     6
 78
     2
 67
     7
 79
     5
170
     0
171
     0
290
     0
174
     0
 93
        1
 44
-50.0
173
     0
291
     1
 45
0.0
1001
ACAD
1000
AcDbSavedByObjectVersion
1070
     0
  0
VISUALSTYLE
  5
39
102
{ACAD_REACTORS
330
2A
102
}
330
2A
100
AcDbVisualStyle
  2
Facepattern
 70
    15
 71
     2
 72
     2
 73
     0
 90
        0
 40
-0.6
 41
-30.0
 62
     5
 63
     7
 74
     1
 91
        4
 64
     7
 65
   257
 75
     1
175
     1
 42
1.0
 92
        8
 66
     7
 43
1.0
 76
     1
 77
     6
 78
     2
 67
     7
 79
     5
170
     0
171
     0
290
     0
174
     0
 93
        1
 44
0.0
173
     0
291
     1
 45
0.0
1001
ACAD
1000
AcDbSavedByObjectVersion
1070
     0
  0
VISUALSTYLE
  5
2B
102
{ACAD_REACTORS
330
2A
102
}
330
2A
100
AcDbVisualStyle
  2
Flat
 70
     0
 71
     2
 72
     1
 73
     1
 90
        2
 40
-0.6
 41
30.0
 62
     5
 63
     7
 74
     0
 91
        4
 64
     7
 65
   257
 75
     1
175
     1
 42
1.0
 92
        8
 66
     7
 43
1.0
 76
     1
 77
     6
 78
     2
 67
     7
 79
     5
170
     0
171
     0
290
     0
174
     0
 93
       13
 44
0.0
173
     0
291
     1
 45
0.0
1001
ACAD
1000
AcDbSavedByObjectVersion
1070
     0
  0
VISUALSTYLE
  5
2C
102
{ACAD_REACTORS
330
2A
102
}
330
2A
100
AcDbVisualStyle
  2
FlatWithEdges
 70
     1
 71
     2
 72
     1
 73
     1
 90
        2
 40
-0.6
 41
30.0
 62
     5
 63
     7
 74
     1
 91
        4
 64
     7
 65
   257
 75
     1
175
     1
 42
1.0
 92
        0
 66
   257
 43
1.0
 76
     1
 77
     6
 78
     2
 67
     7
 79
     5
170
     0
171
     0
290
     0
174
     0
 93
       13
 44
0.0
173
     0
291
     1
 45
0.0
1001
ACAD
1000
AcDbSavedByObjectVersion
1070
     0
  0
VISUALSTYLE
  5
2D
102
{ACAD_REACTORS
330
2A
102
}
330
2A
100
AcDbVisualStyle
  2
Gouraud
 70
     2
 71
     2
 72
     2
 73
     1
 90
        2
 40
-0.6
 41
30.0
 62
     5
 63
     7
 74
     0
 91
        4
 64
     7
 65
   257
 75
     1
175
     1
 42
1.0
 92
        0
 66
     7
 43
1.0
 76
     1
 77
     6
 78
     2
 67
     7
 79
     5
170
     0
171
     0
290
     0
174
     0
 93
       13
 44
0.0
173
     0
291
     1
 45
0.0
1001
ACAD
1000
AcDbSavedByObjectVersion
1070
     0
  0
VISUALSTYLE
  5
2E
102
{ACAD_REACTORS
330
2A
102
}
330
2A
100
AcDbVisualStyle
  2
GouraudWithEdges
 70
     3
 71
     2
 72
     2
 73
     1
 90
        2
 40
-0.6
 41
30.0
 62
     5
 63
     7
 74
     1
 91
        4
 64
     7
 65
   257
 75
     1
175
     1
 42
1.0
 92
        0
 66
   257
 43
1.0
 76
     1
 77
     6
 78
     2
 67
     7
 79
     5
170
     0
171
     0
290
     0
174
     0
 93
       13
 44
0.0
173
     0
291
     1
 45
0.0
1001
ACAD
1000
AcDbSavedByObjectVersion
1070
     0
  0
VISUALSTYLE
  5
38
102
{ACAD_REACTORS
330
2A
102
}
330
2A
100
AcDbVisualStyle
  2
Linepattern
 70
    14
 71
     2
 72
     2
 73
     0
 90
        0
 40
-0.6
 41
-30.0
 62
     5
 63
     7
 74
     1
 91
        4
 64
     7
 65
   257
 75
     7
175
     7
 42
1.0
 92
        8
 66
     7
 43
1.0
 76
     1
 77
     6
 78
     2
 67
     7
 79
     5
170
     0
171
     0
290
     0
174
     0
 93
        1
 44
0.0
173
     0
291
     1
 45
0.0
1001
ACAD
1000
AcDbSavedByObjectVersion
1070
     0
  0
VISUALSTYLE
  5
33
102
{ACAD_REACTORS
330
2A
102
}
330
2A
100
AcDbVisualStyle
  2
Realistic
 70
     8
 71
     2
 72
     2
 73
     0
 90
        0
 40
-0.6
 41
-30.0
 62
     5
 63
     7
 74
     1
 91
        0
 64
     7
 65
   257
 75
     1
175
     1
 42
1.0
 92
        8
 66
     8
 43
1.0
 76
     1
 77
     6
 78
     2
 67
     7
 79
     5
170
     0
171
     0
290
     0
174
     0
 93
       13
 44
0.0
173
     0
291
     0
 45
0.0
1001
ACAD
1000
AcDbSavedByObjectVersion
1070
     0
  0
VISUALSTYLE
  5
37
102
{ACAD_REACTORS
330
2A
102
}
330
2A
100
AcDbVisualStyle
  2
Thicken
 70
    13
 71
     2
 72
     2
 73
     0
 90
        0
 40
-0.6
 41
-30.0
 62
     5
 63
     7
 74
     1
 91
        4
 64
     7
 65
   257
 75
     1
175
     1
 42
1.0
 92
       12
 66
     7
 43
1.0
 76
     1
 77
     6
 78
     2
 67
     7
 79
     5
170
     0
171
     0
290
     0
174
     0
 93
        1
 44
0.0
173
     0
291
     1
 45
0.0
1001
ACAD
1000
AcDbSavedByObjectVersion
1070
     0
  0
XRECORD
  5
F9
102
{ACAD_REACTORS
330
F0
102
}
330
F0
100
AcDbXrecord
 90
        0
  0
XRECORD
  5
10F
102
{ACAD_REACTORS
330
F0
102
}
330
F0
100
AcDbXrecord
1000
DSTYLE
1002
{
1070
   340
340
11
1002
}
  0
XRECORD
  5
FA
102
{ACAD_REACTORS
330
F0
102
}
330
F0
100
AcDbXrecord
  1
{87EAFF32-BF5A-4C3A-911E-8E57DA683B1B}
  0
XRECORD
  5
F3
102
{ACAD_REACTORS
330
F0
102
}
330
F0
100
AcDbXrecord
  1

  0
XRECORD
  5
F8
102
{ACAD_REACTORS
330
F0
102
}
330
F0
100
AcDbXrecord
 90
        4
  0
XRECORD
  5
F5
102
{ACAD_REACTORS
330
F0
102
}
330
F0
100
AcDbXrecord
340
1A
  0
XRECORD
  5
F7
102
{ACAD_REACTORS
330
F0
102
}
330
F0
100
AcDbXrecord
 90
    10781
  0
XRECORD
  5
F6
102
{ACAD_REACTORS
330
F0
102
}
330
F0
100
AcDbXrecord
340
19
  0
XRECORD
  5
FC
102
{ACAD_REACTORS
330
F0
102
}
330
F0
100
AcDbXrecord
 40
0.0
  0
XRECORD
  5
FF
102
{ACAD_REACTORS
330
F0
102
}
330
F0
100
AcDbXrecord
340
0
  0
XRECORD
  5
105
102
{ACAD_REACTORS
330
F0
102
}
330
F0
100
AcDbXrecord
 10
0.0
 20
0.0
 30
0.0
  0
XRECORD
  5
101
102
{ACAD_REACTORS
330
F0
102
}
330
F0
100
AcDbXrecord
 10
0.0
 20
0.0
 30
0.0
  0
XRECORD
  5
104
102
{ACAD_REACTORS
330
F0
102
}
330
F0
100
AcDbXrecord
 10
0.0
 20
0.0
 30
0.0
  0
XRECORD
  5
102
102
{ACAD_REACTORS
330
F0
102
}
330
F0
100
AcDbXrecord
 10
0.0
 20
0.0
 30
0.0
  0
XRECORD
  5
103
102
{ACAD_REACTORS
330
F0
102
}
330
F0
100
AcDbXrecord
 10
0.0
 20
0.0
 30
0.0
  0
XRECORD
  5
100
102
{ACAD_REACTORS
330
F0
102
}
330
F0
100
AcDbXrecord
 10
0.0
 20
0.0
 30
0.0
  0
XRECORD
  5
FD
102
{ACAD_REACTORS
330
F0
102
}
330
F0
100
AcDbXrecord
340
0
  0
XRECORD
  5
FE
102
{ACAD_REACTORS
330
F0
102
}
330
F0
100
AcDbXrecord
 70
     0
  0
XRECORD
  5
F4
102
{ACAD_REACTORS
330
F0
102
}
330
F0
100
AcDbXrecord
  1

  0
XRECORD
  5
F1
102
{ACAD_REACTORS
330
F0
102
}
330
F0
100
AcDbXrecord
 90
        1
  0
XRECORD
  5
F2
102
{ACAD_REACTORS
330
F0
102
}
330
F0
100
AcDbXrecord
 90
       70
  0
XRECORD
  5
108
102
{ACAD_REACTORS
330
F0
102
}
330
F0
100
AcDbXrecord
340
0
  0
XRECORD
  5
10E
102
{ACAD_REACTORS
330
F0
102
}
330
F0
100
AcDbXrecord
 10
0.0
 20
0.0
 30
0.0
  0
XRECORD
  5
10A
102
{ACAD_REACTORS
330
F0
102
}
330
F0
100
AcDbXrecord
 10
0.0
 20
0.0
 30
0.0
  0
XRECORD
  5
10D
102
{ACAD_REACTORS
330
F0
102
}
330
F0
100
AcDbXrecord
 10
0.0
 20
0.0
 30
0.0
  0
XRECORD
  5
10B
102
{ACAD_REACTORS
330
F0
102
}
330
F0
100
AcDbXrecord
 10
0.0
 20
0.0
 30
0.0
  0
XRECORD
  5
10C
102
{ACAD_REACTORS
330
F0
102
}
330
F0
100
AcDbXrecord
 10
0.0
 20
0.0
 30
0.0
  0
XRECORD
  5
109
102
{ACAD_REACTORS
330
F0
102
}
330
F0
100
AcDbXrecord
 10
0.0
 20
0.0
 30
0.0
  0
XRECORD
  5
106
102
{ACAD_REACTORS
330
F0
102
}
330
F0
100
AcDbXrecord
340
0
  0
XRECORD
  5
107
102
{ACAD_REACTORS
330
F0
102
}
330
F0
100
AcDbXrecord
 70
     0
  0
XRECORD
  5
FB
102
{ACAD_REACTORS
330
F0
102
}
330
F0
100
AcDbXrecord
  1
{FAEB1C32-E019-11D5-929B-00C0DF256EC4}
  0
DICTIONARYVAR
  5
111
102
{ACAD_REACTORS
330
110
102
}
330
110
100
DictionaryVariables
280
     0
  1
1:1
  0
ENDSEC
  0
EOF
