  0
SECTION
  2
HEADER
  9
$ACADVER
  1
AC1006
  0
ENDSEC
  0
SECTION
  2
TABLES
  0
TABLE
  2
LTYPE
 70
    25
  0
LTYPE
  2
CONTINUOUS
 70
    64
  3
Solid line
 72
    64
 73
     0
 40
0.000000
  0
LTYPE
  2
DASHDOT
 70
    64
  3
__ . __ . __ . __ . __ . __ . __ . __ . __ . __
 72
    65
 73
     4
 40
1.000000
 49
0.500000
 49
-0.250000
 49
0.000000
 49
-0.250000
  0
LTYPE
  2
DASHED
 70
    64
  3
__ __ __ __ __ __ __ __ __ __ __ __ __ __ __ __
 72
    65
 73
     2
 40
0.750000
 49
0.500000
 49
-0.250000
  0
LTYPE
  2
DIVIDE
 70
    64
  3
____ . . ____ . . ____ . . ____ . . ____ . . __
 72
    65
 73
     6
 40
1.250000
 49
0.500000
 49
-0.250000
 49
0.000000
 49
-0.250000
 49
0.000000
 49
-0.250000
  0
LTYPE
  2
DOT
 70
    64
  3
. . . . . . . . . . . . . . . . . . . . . . . . 
 72
    65
 73
     2
 40
0.250000
 49
0.000000
 49
-0.250000
  0
ENDTAB
  0
ENDSEC
  0
SECTION
  2
BLOCKS
  0
BLOCK
  8
0
  2
Object_0
 70
    64
 10
0.000000
 20
0.000000
 30
0.000000
  0
ENDBLK
  0
ENDSEC
  0
SECTION
  2
ENTITIES
  0
ARC
  8
0
 62
     7
  6
CONTINUOUS
 10
3.712157
 20
14.809386
 30
0.000000
 40
4.421540
 50
320.608552
 51
385.971774
  0
ARC
  8
0
 62
     7
  6
CONTINUOUS
 10
7.804175
 20
16.818527
 30
-0.000000
 40
0.137821
 50
31.896862
 51
211.896862
  0
ARC
  8
0
 62
     7
  6
CONTINUOUS
 10
4.037162
 20
14.642596
 30
0.000000
 40
4.488043
 50
306.175814
 51
390.069788
  0
ARC
  8
0
 62
     7
  6
CONTINUOUS
 10
5.575549
 20
16.064276
 30
-0.000000
 40
5.165313
 50
282.417864
 51
318.215696
  0
ARC
  8
0
 62
     7
  6
CONTINUOUS
 10
6.460711
 20
12.889710
 30
0.000000
 40
2.978409
 50
354.852424
 51
404.482098
  0
ARC
  8
0
 62
     7
  6
CONTINUOUS
 10
8.659208
 20
15.046060
 30
-0.000000
 40
0.101095
 50
43.367414
 51
223.367414
  0
ARC
  8
0
 62
     7
  6
CONTINUOUS
 10
4.449944
 20
11.272180
 30
0.000000
 40
5.754385
 50
13.571367
 51
41.904461
  0
ARC
  8
0
 62
     7
  6
CONTINUOUS
 10
9.740992
 20
12.549420
 30
-0.000000
 40
0.311359
 50
308.130553
 51
373.571367
  0
ARC
  8
0
 62
     7
  6
CONTINUOUS
 10
5.341797
 20
17.052624
 30
0.000000
 40
6.605000
 50
282.410280
 51
314.038931
  0
ARC
  8
0
 62
     7
  6
CONTINUOUS
 10
3.831413
 20
1.346278
 30
0.000000
 40
9.708333
 50
52.265113
 51
72.434917
  0
ARC
  8
0
 62
     7
  6
CONTINUOUS
 10
9.521470
 20
8.699094
 30
-0.000000
 40
0.410986
 50
304.597816
 51
412.265113
  0
ARC
  8
0
 62
     7
  6
CONTINUOUS
 10
5.175244
 20
9.875733
 30
0.000000
 40
4.823661
 50
310.734232
 51
341.695597
  0
ARC
  8
0
 62
     7
  6
CONTINUOUS
 10
8.287411
 20
6.324940
 30
0.000000
 40
0.110192
 50
108.804220
 51
288.804220
  0
ARC
  8
0
 62
     7
  6
CONTINUOUS
 10
6.062286
 20
8.914866
 30
0.000000
 40
3.312500
 50
311.377183
 51
353.855804
  0
ARC
  8
0
 62
     7
  6
CONTINUOUS
 10
5.764275
 20
5.723977
 30
-0.000000
 40
4.576420
 50
38.299670
 51
78.226987
  0
ARC
  8
0
 62
     7
  6
CONTINUOUS
 10
-0.788639
 20
5.276218
 30
-0.000000
 40
8.962946
 50
10.672472
 51
33.353902
  0
ARC
  8
0
 62
     7
  6
CONTINUOUS
 10
7.548222
 20
6.847336
 30
-0.000000
 40
0.479334
 50
314.175097
 51
370.672472
  0
ARC
  8
0
 62
     7
  6
CONTINUOUS
 10
3.959006
 20
7.009045
 30
-0.000000
 40
3.955673
 50
313.822606
 51
352.658119
  0
ARC
  8
0
 62
     7
  6
CONTINUOUS
 10
6.842657
 20
4.260370
 30
-0.000000
 40
0.178899
 50
143.945455
 51
216.054545
  0
ARC
  8
0
 62
     7
  6
CONTINUOUS
 10
3.521989
 20
6.677810
 30
0.000000
 40
3.928516
 50
323.945455
 51
360.667623
  0
ARC
  8
0
 62
     7
  6
CONTINUOUS
 10
2.149269
 20
6.661814
 30
-0.000000
 40
5.301329
 50
0.667623
 51
37.789903
  0
ARC
  8
0
 62
     7
  6
CONTINUOUS
 10
5.714782
 20
9.873754
 30
-0.000000
 40
0.625000
 50
330.831578
 51
363.351988
  0
ARC
  8
0
 62
     7
  6
CONTINUOUS
 10
6.208366
 20
9.749241
 30
0.000000
 40
0.187500
 50
179.891844
 51
286.152048
  0
ARC
  8
0
 62
     7
  6
CONTINUOUS
 10
6.012130
 20
9.900905
 30
0.000000
 40
0.151563
 50
273.304534
 51
369.154490
  0
ARC
  8
0
 62
     7
  6
CONTINUOUS
 10
5.964908
 20
10.018979
 30
0.000000
 40
0.218128
 50
205.031696
 51
334.484419
  0
ARC
  8
0
 62
     7
  6
CONTINUOUS
 10
5.916900
 20
9.902571
 30
0.000000
 40
0.151563
 50
170.845510
 51
266.695466
  0
ARC
  8
0
 62
     7
  6
CONTINUOUS
 10
5.720664
 20
9.750907
 30
0.000000
 40
0.187500
 50
253.847952
 51
360.108156
  0
ARC
  8
0
 62
     7
  6
CONTINUOUS
 10
6.214248
 20
9.875420
 30
0.000000
 40
0.625000
 50
176.648012
 51
209.168422
  0
ARC
  8
0
 62
     7
  6
CONTINUOUS
 10
9.779762
 20
6.663480
 30
0.000000
 40
5.301329
 50
142.210097
 51
179.332377
  0
ARC
  8
0
 62
     7
  6
CONTINUOUS
 10
8.407042
 20
6.679476
 30
0.000000
 40
3.928516
 50
179.332377
 51
216.054545
  0
ARC
  8
0
 62
     7
  6
CONTINUOUS
 10
5.086373
 20
4.262036
 30
0.000000
 40
0.178899
 50
323.945455
 51
396.054545
  0
ARC
  8
0
 62
     7
  6
CONTINUOUS
 10
7.970024
 20
7.010711
 30
0.000000
 40
3.955673
 50
187.341881
 51
226.177394
  0
ARC
  8
0
 62
     7
  6
CONTINUOUS
 10
4.380808
 20
6.849002
 30
0.000000
 40
0.479334
 50
169.327528
 51
225.824903
  0
ARC
  8
0
 62
     7
  6
CONTINUOUS
 10
12.717669
 20
5.277884
 30
0.000000
 40
8.962946
 50
146.646098
 51
169.327528
  0
ARC
  8
0
 62
     7
  6
CONTINUOUS
 10
6.164755
 20
5.725642
 30
0.000000
 40
4.576420
 50
101.773013
 51
141.700330
  0
ARC
  8
0
 62
     7
  6
CONTINUOUS
 10
5.866744
 20
8.916531
 30
-0.000000
 40
3.312500
 50
186.144196
 51
228.622817
  0
ARC
  8
0
 62
     7
  6
CONTINUOUS
 10
3.641620
 20
6.326606
 30
-0.000000
 40
0.110192
 50
251.195780
 51
431.195780
  0
ARC
  8
0
 62
     7
  6
CONTINUOUS
 10
6.753787
 20
9.877398
 30
-0.000000
 40
4.823661
 50
198.304403
 51
229.265768
  0
ARC
  8
0
 62
     7
  6
CONTINUOUS
 10
2.407560
 20
8.700760
 30
0.000000
 40
0.410986
 50
127.734887
 51
235.402184
  0
ARC
  8
0
 62
     7
  6
CONTINUOUS
 10
8.097617
 20
1.347944
 30
0.000000
 40
9.708333
 50
107.565083
 51
127.734887
  0
ARC
  8
0
 62
     7
  6
CONTINUOUS
 10
6.587234
 20
17.054290
 30
0.000000
 40
6.605000
 50
225.961069
 51
257.589720
  0
ARC
  8
0
 62
     7
  6
CONTINUOUS
 10
2.188038
 20
12.551086
 30
0.000000
 40
0.311359
 50
166.428633
 51
231.869447
  0
ARC
  8
0
 62
     7
  6
CONTINUOUS
 10
7.479086
 20
11.273845
 30
0.000000
 40
5.754385
 50
138.095539
 51
166.428633
  0
ARC
  8
0
 62
     7
  6
CONTINUOUS
 10
3.269823
 20
15.047725
 30
0.000000
 40
0.101095
 50
316.632586
 51
496.632586
  0
ARC
  8
0
 62
     7
  6
CONTINUOUS
 10
5.468319
 20
12.891375
 30
0.000000
 40
2.978409
 50
135.517902
 51
185.147576
  0
ARC
  8
0
 62
     7
  6
CONTINUOUS
 10
6.353482
 20
16.065942
 30
0.000000
 40
5.165312
 50
221.784304
 51
257.582136
  0
ARC
  8
0
 62
     7
  6
CONTINUOUS
 10
7.891869
 20
14.644262
 30
0.000000
 40
4.488043
 50
149.930212
 51
233.824186
  0
ARC
  8
0
 62
     7
  6
CONTINUOUS
 10
4.124855
 20
16.820193
 30
0.000000
 40
0.137821
 50
328.103138
 51
508.103138
  0
ARC
  8
0
 62
     7
  6
CONTINUOUS
 10
8.216874
 20
14.811052
 30
0.000000
 40
4.421540
 50
154.028226
 51
219.391448
  0
ARC
  8
0
 62
     7
  6
CONTINUOUS
 10
5.965200
 20
12.962069
 30
0.000000
 40
1.507991
 50
320.526606
 51
579.391448
  0
ARC
  8
0
 62
     7
  6
CONTINUOUS
 10
5.988752
 20
13.239209
 30
0.000000
 40
0.796994
 50
241.929645
 51
298.070355
  0
ARC
  8
0
 62
     7
  6
CONTINUOUS
 10
5.132333
 20
12.992021
 30
0.000000
 40
0.663116
 50
316.547901
 51
404.893099
  0
ARC
  8
0
 62
     7
  6
CONTINUOUS
 10
5.977131
 20
13.055412
 30
0.000000
 40
0.551698
 50
47.174068
 51
132.825932
  0
ARC
  8
0
 62
     7
  6
CONTINUOUS
 10
6.833549
 20
13.003983
 30
0.000000
 40
0.663116
 50
136.547901
 51
224.893099
  0
INSERT
  8
Default
 62
     7
  2
Object_0
 10
-10.160000
 20
-10.160000
 30
0.000000
  0
ENDSEC
  0
EOF
