  0
SECTION
  2
HEADER
  9
$ACADVER
  1
AC1006
  0
ENDSEC
  0
SECTION
  2
TABLES
  0
TABLE
  2
LTYPE
 70
    25
  0
LTYPE
  2
CONTINUOUS
 70
    64
  3
Solid line
 72
    64
 73
     0
 40
0.000000
  0
LTYPE
  2
DASHDOT
 70
    64
  3
__ . __ . __ . __ . __ . __ . __ . __ . __ . __
 72
    65
 73
     4
 40
1.000000
 49
0.500000
 49
-0.250000
 49
0.000000
 49
-0.250000
  0
LTYPE
  2
DASHED
 70
    64
  3
__ __ __ __ __ __ __ __ __ __ __ __ __ __ __ __
 72
    65
 73
     2
 40
0.750000
 49
0.500000
 49
-0.250000
  0
LTYPE
  2
DIVIDE
 70
    64
  3
____ . . ____ . . ____ . . ____ . . ____ . . __
 72
    65
 73
     6
 40
1.250000
 49
0.500000
 49
-0.250000
 49
0.000000
 49
-0.250000
 49
0.000000
 49
-0.250000
  0
LTYPE
  2
DOT
 70
    64
  3
. . . . . . . . . . . . . . . . . . . . . . . . 
 72
    65
 73
     2
 40
0.250000
 49
0.000000
 49
-0.250000
  0
ENDTAB
  0
ENDSEC
  0
SECTION
  2
BLOCKS
  0
BLOCK
  8
0
  2
Object_0
 70
    64
 10
0.000000
 20
0.000000
 30
0.000000
  0
ENDBLK
  0
ENDSEC
  0
SECTION
  2
ENTITIES
  0
LINE
  8
0
 62
     7
  6
CONTINUOUS
 10
1.783020
 20
1.517649
 30
-0.000000
 11
19.783020
 21
1.517649
 31
-0.000000
  0
ARC
  8
0
 62
     7
  6
CONTINUOUS
 10
19.763813
 20
1.927414
 30
-0.000000
 40
0.410215
 50
272.683700
 51
450.000000
  0
LINE
  8
0
 62
     7
  6
CONTINUOUS
 10
18.998929
 20
2.337629
 30
-0.000000
 11
19.763813
 21
2.337629
 31
-0.000000
  0
ARC
  8
0
 62
     7
  6
CONTINUOUS
 10
17.170363
 20
0.777385
 30
-0.000000
 40
2.403750
 50
40.472827
 51
76.833935
  0
ARC
  8
0
 62
     7
  6
CONTINUOUS
 10
18.196958
 20
3.247346
 30
-0.000000
 40
0.496250
 50
125.012171
 51
195.114444
  0
ARC
  8
0
 62
     7
  6
CONTINUOUS
 10
18.142267
 20
2.581946
 30
-0.000000
 40
1.096250
 50
55.320272
 51
102.112755
  0
ARC
  8
0
 62
     7
  6
CONTINUOUS
 10
18.833878
 20
3.581514
 30
-0.000000
 40
0.119258
 50
235.320272
 51
405.323630
  0
ARC
  8
0
 62
     7
  6
CONTINUOUS
 10
17.091862
 20
1.819707
 30
-0.000000
 40
2.596875
 50
45.323630
 51
70.430502
  0
ARC
  8
0
 62
     7
  6
CONTINUOUS
 10
18.002010
 20
4.380012
 30
-0.000000
 40
0.120391
 50
79.663340
 51
250.430502
  0
ARC
  8
0
 62
     7
  6
CONTINUOUS
 10
18.394541
 20
6.532142
 30
-0.000000
 40
2.067244
 50
259.663340
 51
280.336660
  0
ARC
  8
0
 62
     7
  6
CONTINUOUS
 10
18.729166
 20
4.697491
 30
-0.000000
 40
0.202327
 50
280.336660
 51
439.663340
  0
LINE
  8
0
 62
     7
  6
CONTINUOUS
 10
19.783020
 20
4.896534
 30
-0.000000
 11
18.765470
 21
4.896534
 31
-0.000000
  0
ARC
  8
0
 62
     7
  6
CONTINUOUS
 10
19.492242
 20
5.170625
 30
-0.000000
 40
0.399597
 50
316.692075
 51
407.886664
  0
ARC
  8
0
 62
     7
  6
CONTINUOUS
 10
18.600646
 20
11.596732
 30
-0.000000
 40
6.238393
 50
244.024839
 51
280.712193
  0
ARC
  8
0
 62
     7
  6
CONTINUOUS
 10
13.715326
 20
1.569311
 30
-0.000000
 40
4.915777
 50
64.024839
 51
85.559827
  0
ARC
  8
0
 62
     7
  6
CONTINUOUS
 10
13.077377
 20
6.387585
 30
-0.000000
 40
1.021875
 50
4.644826
 51
44.108054
  0
ARC
  8
0
 62
     7
  6
CONTINUOUS
 10
14.387182
 20
7.405255
 30
-0.000000
 40
0.652500
 50
120.804370
 51
208.010008
  0
ARC
  8
0
 62
     7
  6
CONTINUOUS
 10
16.607210
 20
6.479700
 30
-0.000000
 40
2.955000
 50
133.467035
 51
149.809502
  0
ARC
  8
0
 62
     7
  6
CONTINUOUS
 10
13.516320
 20
8.018987
 30
-0.000000
 40
1.218977
 50
0.000000
 51
29.776416
  0
ARC
  8
0
 62
     7
  6
CONTINUOUS
 10
15.710297
 20
8.018987
 30
-0.000000
 40
0.975000
 50
180.000000
 51
360.000000
  0
ARC
  8
0
 62
     7
  6
CONTINUOUS
 10
17.090297
 20
8.304523
 30
-0.000000
 40
0.495536
 50
215.184849
 51
324.815151
  0
ARC
  8
0
 62
     7
  6
CONTINUOUS
 10
8.923299
 20
11.547207
 30
-0.000000
 40
9.269709
 50
337.628016
 51
356.086449
  0
ARC
  8
0
 62
     7
  6
CONTINUOUS
 10
17.343713
 20
11.235124
 30
-0.000000
 40
0.887596
 50
338.827058
 51
422.679965
  0
ARC
  8
0
 62
     7
  6
CONTINUOUS
 10
16.938572
 20
10.450850
 30
-0.000000
 40
1.770333
 50
62.679965
 51
103.335752
  0
ARC
  8
0
 62
     7
  6
CONTINUOUS
 10
12.960403
 20
11.021150
 30
-0.000000
 40
3.751195
 50
17.889426
 51
57.728823
  0
ARC
  8
0
 62
     7
  6
CONTINUOUS
 10
12.578268
 20
10.415999
 30
-0.000000
 40
4.466902
 50
57.728823
 51
122.271177
  0
ARC
  8
0
 62
     7
  6
CONTINUOUS
 10
6.585060
 20
19.906883
 30
-0.000000
 40
6.757866
 50
275.168984
 51
302.271177
  0
ARC
  8
0
 62
     7
  6
CONTINUOUS
 10
6.788900
 20
12.553061
 30
-0.000000
 40
0.743438
 50
56.991277
 51
123.008723
  0
ARC
  8
0
 62
     7
  6
CONTINUOUS
 10
4.269970
 20
14.768681
 30
-0.000000
 40
2.646458
 50
268.354814
 51
323.013441
  0
ARC
  8
0
 62
     7
  6
CONTINUOUS
 10
7.514643
 20
9.245820
 30
-0.000000
 40
4.393939
 50
139.089614
 51
198.879840
  0
ARC
  8
0
 62
     7
  6
CONTINUOUS
 10
3.640144
 20
8.655740
 30
-0.000000
 40
0.878571
 50
251.206270
 51
332.105708
  0
ARC
  8
0
 62
     7
  6
CONTINUOUS
 10
1.858466
 20
6.917110
 30
-0.000000
 40
2.882143
 50
343.413514
 51
387.427677
  0
ARC
  8
0
 62
     7
  6
CONTINUOUS
 10
4.741379
 20
6.005303
 30
-0.000000
 40
0.150000
 50
143.575959
 51
308.575959
  0
ARC
  8
0
 62
     7
  6
CONTINUOUS
 10
4.867846
 20
5.558741
 30
-0.000000
 40
0.330937
 50
354.906890
 51
455.711385
  0
ARC
  8
0
 62
     7
  6
CONTINUOUS
 10
4.236687
 20
8.104728
 30
-0.000000
 40
2.748750
 50
273.513429
 51
290.459008
  0
ARC
  8
0
 62
     7
  6
CONTINUOUS
 10
3.416554
 20
-4.218325
 30
-0.000000
 40
9.630344
 50
84.108042
 51
100.309721
  0
ARC
  8
0
 62
     7
  6
CONTINUOUS
 10
1.768020
 20
5.076534
 30
-0.000000
 40
0.195000
 50
112.619865
 51
247.380135
  0
LINE
  8
0
 62
     7
  6
CONTINUOUS
 10
2.192821
 20
4.896534
 30
-0.000000
 11
1.693020
 21
4.896534
 31
-0.000000
  0
ARC
  8
0
 62
     7
  6
CONTINUOUS
 10
2.943176
 20
5.071578
 30
-0.000000
 40
0.770501
 50
193.131159
 51
216.433467
  0
ARC
  8
0
 62
     7
  6
CONTINUOUS
 10
13.662344
 20
6.111266
 30
0.000000
 40
11.437500
 50
187.522166
 51
199.264859
  0
LINE
  8
0
 62
     7
  6
CONTINUOUS
 10
1.643813
 20
2.337629
 30
-0.000000
 11
2.865304
 21
2.337629
 31
-0.000000
  0
ARC
  8
0
 62
     7
  6
CONTINUOUS
 10
1.942829
 20
1.966586
 30
-0.000000
 40
0.476533
 50
128.864747
 51
250.405627
  0
LINE
  8
0
 62
     7
  6
CONTINUOUS
 10
3.232155
 20
2.337629
 30
-0.000000
 11
4.001018
 21
2.337629
 31
-0.000000
  0
ARC
  8
0
 62
     7
  6
CONTINUOUS
 10
1.899443
 20
2.505163
 30
-0.000000
 40
2.108242
 50
355.442111
 51
388.511666
  0
ARC
  8
0
 62
     7
  6
CONTINUOUS
 10
5.007071
 20
2.253663
 30
-0.000000
 40
1.776902
 50
134.936855
 51
177.291545
  0
ARC
  8
0
 62
     7
  6
CONTINUOUS
 10
-1.073070
 20
2.932506
 30
-0.000000
 40
4.106250
 50
4.538549
 51
28.574573
  0
LINE
  8
0
 62
     7
  6
CONTINUOUS
 10
3.674848
 20
4.896534
 30
-0.000000
 11
2.533020
 21
4.896534
 31
-0.000000
  0
ARC
  8
0
 62
     7
  6
CONTINUOUS
 10
0.389811
 20
5.258110
 30
-0.000000
 40
3.304876
 50
322.744435
 51
353.718886
  0
LINE
  8
0
 62
     7
  6
CONTINUOUS
 10
4.202994
 20
2.337629
 30
-0.000000
 11
5.634237
 21
2.337629
 31
-0.000000
  0
ARC
  8
0
 62
     7
  6
CONTINUOUS
 10
-3.325415
 20
4.844972
 30
-0.000000
 40
9.303877
 50
344.365815
 51
360.317539
  0
LINE
  8
0
 62
     7
  6
CONTINUOUS
 10
5.978319
 20
4.896534
 30
-0.000000
 11
5.658888
 21
4.896534
 31
-0.000000
  0
ARC
  8
0
 62
     7
  6
CONTINUOUS
 10
10.084405
 20
0.685008
 30
-0.000000
 40
6.109186
 50
136.419262
 51
164.305141
  0
ARC
  8
0
 62
     7
  6
CONTINUOUS
 10
5.341907
 20
4.742785
 30
-0.000000
 40
1.402873
 50
173.707965
 51
221.449302
  0
LINE
  8
0
 62
     7
  6
CONTINUOUS
 10
5.156936
 20
4.896534
 30
-0.000000
 11
3.947485
 21
4.896534
 31
-0.000000
  0
ARC
  8
0
 62
     7
  6
CONTINUOUS
 10
6.772935
 20
2.714735
 30
-0.000000
 40
2.715088
 50
126.526326
 51
156.113532
  0
ARC
  8
0
 62
     7
  6
CONTINUOUS
 10
5.687599
 20
0.893992
 30
-0.000000
 40
2.146250
 50
42.270556
 51
75.573157
  0
ARC
  8
0
 62
     7
  6
CONTINUOUS
 10
5.443827
 20
4.220281
 30
-0.000000
 40
2.626864
 50
314.217964
 51
374.918077
  0
LINE
  8
0
 62
     7
  6
CONTINUOUS
 10
7.982152
 20
4.896534
 30
-0.000000
 11
6.744936
 21
4.896534
 31
-0.000000
  0
ARC
  8
0
 62
     7
  6
CONTINUOUS
 10
8.515871
 20
6.798778
 30
-0.000000
 40
2.598988
 50
227.047329
 51
247.380135
  0
ARC
  8
0
 62
     7
  6
CONTINUOUS
 10
7.478760
 20
4.309712
 30
-0.000000
 40
0.097500
 50
292.619865
 51
427.380135
  0
ARC
  8
0
 62
     7
  6
CONTINUOUS
 10
7.830893
 20
9.084548
 30
-0.000000
 40
4.875000
 50
253.580240
 51
266.299561
  0
ARC
  8
0
 62
     7
  6
CONTINUOUS
 10
7.047826
 20
4.149721
 30
-0.000000
 40
0.648750
 50
156.504033
 51
191.488682
  0
ARC
  8
0
 62
     7
  6
CONTINUOUS
 10
5.364834
 20
0.310478
 30
-0.000000
 40
3.855000
 50
59.931733
 51
74.237070
  0
ARC
  8
0
 62
     7
  6
CONTINUOUS
 10
7.249561
 20
3.599678
 30
-0.000000
 40
0.066311
 50
275.571960
 51
405.170513
  0
ARC
  8
0
 62
     7
  6
CONTINUOUS
 10
6.969082
 20
6.474718
 30
-0.000000
 40
2.955000
 50
259.229493
 51
275.571960
  0
ARC
  8
0
 62
     7
  6
CONTINUOUS
 10
6.785645
 20
3.120860
 30
-0.000000
 40
0.582514
 50
129.278091
 51
194.748770
  0
LINE
  8
0
 62
     7
  6
CONTINUOUS
 10
7.853615
 20
2.337629
 30
-0.000000
 11
9.173615
 21
2.337629
 31
-0.000000
  0
ARC
  8
0
 62
     7
  6
CONTINUOUS
 10
8.513615
 20
1.217629
 30
-0.000000
 40
1.300000
 50
59.489763
 51
120.510237
  0
ARC
  8
0
 62
     7
  6
CONTINUOUS
 10
4.704394
 20
3.526003
 30
-0.000000
 40
3.900000
 50
352.074020
 51
380.574085
  0
LINE
  8
0
 62
     7
  6
CONTINUOUS
 10
10.314901
 20
4.896534
 30
-0.000000
 11
8.355646
 21
4.896534
 31
-0.000000
  0
ARC
  8
0
 62
     7
  6
CONTINUOUS
 10
11.091707
 20
3.617082
 30
-0.000000
 40
1.496805
 50
121.263557
 51
238.736443
  0
LINE
  8
0
 62
     7
  6
CONTINUOUS
 10
9.534862
 20
2.337629
 30
-0.000000
 11
10.314901
 21
2.337629
 31
-0.000000
  0
ARC
  8
0
 62
     7
  6
CONTINUOUS
 10
8.722824
 20
2.174775
 30
-0.000000
 40
0.828208
 50
11.340183
 51
100.834939
  0
ARC
  8
0
 62
     7
  6
CONTINUOUS
 10
10.617953
 20
3.847016
 30
-0.000000
 40
0.699885
 50
25.780916
 51
161.022319
  0
ARC
  8
0
 62
     7
  6
CONTINUOUS
 10
10.584757
 20
4.354313
 30
-0.000000
 40
0.693750
 50
342.994565
 51
411.405481
  0
LINE
  8
0
 62
     7
  6
CONTINUOUS
 10
12.685001
 20
4.896534
 30
-0.000000
 11
11.017521
 21
4.896534
 31
-0.000000
  0
ARC
  8
0
 62
     7
  6
CONTINUOUS
 10
13.821372
 20
3.502693
 30
-0.000000
 40
1.798370
 50
129.189657
 51
220.379277
  0
LINE
  8
0
 62
     7
  6
CONTINUOUS
 10
12.451423
 20
2.337629
 30
-0.000000
 11
11.159741
 21
2.337629
 31
-0.000000
  0
ARC
  8
0
 62
     7
  6
CONTINUOUS
 10
11.159741
 20
3.043169
 30
-0.000000
 40
0.705541
 50
270.000000
 51
330.484045
  0
ARC
  8
0
 62
     7
  6
CONTINUOUS
 10
11.561600
 20
2.815661
 30
-0.000000
 40
0.243750
 50
330.484045
 51
448.702505
  0
ARC
  8
0
 62
     7
  6
CONTINUOUS
 10
10.881070
 20
3.756532
 30
-0.000000
 40
0.978125
 50
161.022319
 51
314.538801
  0
ARC
  8
0
 62
     7
  6
CONTINUOUS
 10
8.047333
 20
4.800644
 30
-0.000000
 40
1.343438
 50
38.363916
 51
87.165791
  0
ARC
  8
0
 62
     7
  6
CONTINUOUS
 10
8.272884
 20
6.516228
 30
-0.000000
 40
0.406250
 50
169.180315
 51
246.940454
  0
ARC
  8
0
 62
     7
  6
CONTINUOUS
 10
10.628900
 20
7.661020
 30
-0.000000
 40
2.955000
 50
184.856076
 51
201.198543
  0
ARC
  8
0
 62
     7
  6
CONTINUOUS
 10
8.959277
 20
7.519172
 30
-0.000000
 40
1.279362
 50
142.230091
 51
184.856076
  0
ARC
  8
0
 62
     7
  6
CONTINUOUS
 10
11.525589
 20
5.530694
 30
-0.000000
 40
4.525898
 50
128.525142
 51
142.230091
  0
ARC
  8
0
 62
     7
  6
CONTINUOUS
 10
8.904693
 20
8.822645
 30
-0.000000
 40
0.318045
 50
30.542373
 51
128.525142
  0
ARC
  8
0
 62
     7
  6
CONTINUOUS
 10
9.959943
 20
9.912970
 30
-0.000000
 40
1.213659
 50
229.925569
 51
278.456908
  0
ARC
  8
0
 62
     7
  6
CONTINUOUS
 10
10.310497
 20
7.555229
 30
-0.000000
 40
1.170000
 50
56.935019
 51
98.456908
  0
ARC
  8
0
 62
     7
  6
CONTINUOUS
 10
12.347917
 20
8.393927
 30
-0.000000
 40
1.406250
 50
174.211767
 51
215.431153
  0
ARC
  8
0
 62
     7
  6
CONTINUOUS
 10
10.532039
 20
7.101963
 30
-0.000000
 40
0.822334
 50
354.875268
 51
395.431153
  0
ARC
  8
0
 62
     7
  6
CONTINUOUS
 10
11.630493
 20
6.752850
 30
-0.000000
 40
0.392500
 50
135.386963
 51
249.828801
  0
ARC
  8
0
 62
     7
  6
CONTINUOUS
 10
11.332807
 20
5.942506
 30
-0.000000
 40
0.470793
 50
350.658729
 51
429.828801
  0
ARC
  8
0
 62
     7
  6
CONTINUOUS
 10
10.965060
 20
-0.257273
 30
-0.000000
 40
6.179667
 50
82.259707
 51
107.559276
  0
ARC
  8
0
 62
     7
  6
CONTINUOUS
 10
8.578224
 20
6.665280
 30
-0.000000
 40
1.393946
 50
205.057615
 51
233.716732
  0
ARC
  8
0
 62
     7
  6
CONTINUOUS
 10
7.604223
 20
6.209903
 30
-0.000000
 40
0.318750
 50
154.942385
 51
205.057615
  0
ARC
  8
0
 62
     7
  6
CONTINUOUS
 10
9.339789
 20
8.927295
 30
-0.000000
 40
3.281250
 50
190.688007
 51
231.907393
  0
ARC
  8
0
 62
     7
  6
CONTINUOUS
 10
12.386601
 20
4.803197
 30
-0.000000
 40
7.189318
 50
150.725330
 51
165.540339
  0
ARC
  8
0
 62
     7
  6
CONTINUOUS
 10
5.287968
 20
5.845734
 30
-0.000000
 40
0.765000
 50
23.535020
 51
79.679994
  0
ARC
  8
0
 62
     7
  6
CONTINUOUS
 10
5.791225
 20
5.721771
 30
-0.000000
 40
0.472927
 50
359.977471
 51
425.235171
  0
ARC
  8
0
 62
     7
  6
CONTINUOUS
 10
6.639205
 20
2.573850
 30
-0.000000
 40
3.170000
 50
69.423657
 51
96.794751
  0
ARC
  8
0
 62
     7
  6
CONTINUOUS
 10
3.803187
 20
9.992929
 30
-0.000000
 40
1.590625
 50
300.176325
 51
355.219465
  0
ARC
  8
0
 62
     7
  6
CONTINUOUS
 10
6.972700
 20
10.921877
 30
-0.000000
 40
1.907143
 50
159.539017
 51
213.820755
  0
ARC
  8
0
 62
     7
  6
CONTINUOUS
 10
4.856419
 20
11.016669
 30
-0.000000
 40
0.659999
 50
60.054163
 51
142.552530
  0
ARC
  8
0
 62
     7
  6
CONTINUOUS
 10
-0.590635
 20
15.188411
 30
-0.000000
 40
6.201038
 50
315.063036
 51
322.552530
  0
ARC
  8
0
 62
     7
  6
CONTINUOUS
 10
4.039512
 20
10.568442
 30
-0.000000
 40
0.339785
 50
135.063036
 51
224.936964
  0
ARC
  8
0
 62
     7
  6
CONTINUOUS
 10
1.821225
 20
8.355031
 30
-0.000000
 40
2.793900
 50
5.397976
 51
44.936964
  0
ARC
  8
0
 62
     7
  6
CONTINUOUS
 10
14.442176
 20
6.974815
 30
-0.000000
 40
2.326875
 50
179.426121
 51
205.505328
  0
ARC
  8
0
 62
     7
  6
CONTINUOUS
 10
12.367757
 20
7.090578
 30
-0.000000
 40
1.118000
 50
268.683269
 51
328.727627
  0
ARC
  8
0
 62
     7
  6
CONTINUOUS
 10
13.387624
 20
7.062423
 30
-0.000000
 40
0.555937
 50
186.641984
 51
263.358016
  0
ARC
  8
0
 62
     7
  6
CONTINUOUS
 10
12.475418
 20
6.323121
 30
-0.000000
 40
0.765000
 50
61.927513
 51
118.072487
  0
LINE
  8
0
 62
     7
  6
CONTINUOUS
 10
14.505864
 20
4.896534
 30
-0.000000
 11
13.338599
 21
4.896534
 31
-0.000000
  0
ARC
  8
0
 62
     7
  6
CONTINUOUS
 10
10.216179
 20
4.695020
 30
-0.000000
 40
4.294416
 50
326.705446
 51
362.689584
  0
LINE
  8
0
 62
     7
  6
CONTINUOUS
 10
13.338599
 20
2.337629
 30
-0.000000
 11
13.805707
 21
2.337629
 31
-0.000000
  0
ARC
  8
0
 62
     7
  6
CONTINUOUS
 10
11.434881
 20
3.617082
 30
-0.000000
 40
2.293718
 50
326.095692
 51
393.904308
  0
ARC
  8
0
 62
     7
  6
CONTINUOUS
 10
12.962818
 20
4.178819
 30
-0.000000
 40
0.224966
 50
354.798555
 51
527.256192
  0
ARC
  8
0
 62
     7
  6
CONTINUOUS
 10
13.701604
 20
3.380661
 30
-0.000000
 40
1.279416
 50
138.498989
 51
194.545006
  0
ARC
  8
0
 62
     7
  6
CONTINUOUS
 10
12.655801
 20
3.166244
 30
-0.000000
 40
0.220283
 50
209.029837
 51
330.970163
  0
ARC
  8
0
 62
     7
  6
CONTINUOUS
 10
10.413088
 20
4.410928
 30
-0.000000
 40
2.785239
 50
330.970163
 51
354.798555
  0
ARC
  8
0
 62
     7
  6
CONTINUOUS
 10
17.842074
 20
1.508379
 30
-0.000000
 40
3.744323
 50
147.831979
 51
167.204697
  0
LINE
  8
0
 62
     7
  6
CONTINUOUS
 10
14.190732
 20
2.337629
 30
-0.000000
 11
15.977440
 21
2.337629
 31
-0.000000
  0
ARC
  8
0
 62
     7
  6
CONTINUOUS
 10
13.489194
 20
2.288646
 30
-0.000000
 40
2.488727
 50
1.127768
 51
32.039103
  0
ARC
  8
0
 62
     7
  6
CONTINUOUS
 10
13.797181
 20
4.354881
 30
-0.000000
 40
1.950000
 50
309.008268
 51
337.508333
  0
ARC
  8
0
 62
     7
  6
CONTINUOUS
 10
16.012846
 20
3.789653
 30
-0.000000
 40
1.370853
 50
192.118213
 51
223.869731
  0
ARC
  8
0
 62
     7
  6
CONTINUOUS
 10
13.402252
 20
3.682323
 30
-0.000000
 40
1.831875
 50
12.106130
 51
41.515648
  0
LINE
  8
0
 62
     7
  6
CONTINUOUS
 10
15.801324
 20
4.896534
 30
-0.000000
 11
14.773914
 21
4.896534
 31
-0.000000
  0
ARC
  8
0
 62
     7
  6
CONTINUOUS
 10
16.647122
 20
3.639397
 30
-0.000000
 40
1.515179
 50
123.932514
 51
163.627024
  0
LINE
  8
0
 62
     7
  6
CONTINUOUS
 10
17.411325
 20
4.896534
 30
-0.000000
 11
16.210005
 21
4.896534
 31
-0.000000
  0
ARC
  8
0
 62
     7
  6
CONTINUOUS
 10
11.144442
 20
4.691256
 30
-0.000000
 40
6.270245
 50
337.953155
 51
361.876112
  0
LINE
  8
0
 62
     7
  6
CONTINUOUS
 10
16.595578
 20
2.337629
 30
-0.000000
 11
16.956189
 21
2.337629
 31
-0.000000
  0
ARC
  8
0
 62
     7
  6
CONTINUOUS
 10
19.733045
 20
4.118880
 30
-0.000000
 40
3.607847
 50
167.552483
 51
209.585119
  0
INSERT
  8
Default
 62
     7
  2
Object_0
 10
-10.160000
 20
-10.160000
 30
0.000000
  0
ENDSEC
  0
EOF
