  0
SECTION
  2
HEADER
  9
$ACADVER
  1
AC1006
  0
ENDSEC
  0
SECTION
  2
TABLES
  0
TABLE
  2
LTYPE
 70
    25
  0
LTYPE
  2
CONTINUOUS
 70
    64
  3
Solid line
 72
    64
 73
     0
 40
0.000000
  0
LTYPE
  2
DASHDOT
 70
    64
  3
__ . __ . __ . __ . __ . __ . __ . __ . __ . __
 72
    65
 73
     4
 40
1.000000
 49
0.500000
 49
-0.250000
 49
0.000000
 49
-0.250000
  0
LTYPE
  2
DASHED
 70
    64
  3
__ __ __ __ __ __ __ __ __ __ __ __ __ __ __ __
 72
    65
 73
     2
 40
0.750000
 49
0.500000
 49
-0.250000
  0
LTYPE
  2
DIVIDE
 70
    64
  3
____ . . ____ . . ____ . . ____ . . ____ . . __
 72
    65
 73
     6
 40
1.250000
 49
0.500000
 49
-0.250000
 49
0.000000
 49
-0.250000
 49
0.000000
 49
-0.250000
  0
LTYPE
  2
DOT
 70
    64
  3
. . . . . . . . . . . . . . . . . . . . . . . . 
 72
    65
 73
     2
 40
0.250000
 49
0.000000
 49
-0.250000
  0
ENDTAB
  0
ENDSEC
  0
SECTION
  2
BLOCKS
  0
BLOCK
  8
0
  2
Object_0
 70
    64
 10
0.000000
 20
0.000000
 30
0.000000
  0
ENDBLK
  0
ENDSEC
  0
SECTION
  2
ENTITIES
  0
LINE
  8
CK_LEVEL_1
 62
     2
  6
CONTINUOUS
 10
0.058496
 20
1.710197
 30
0.000000
 11
0.101064
 21
1.731244
 31
0.000000
  0
LINE
  8
CK_LEVEL_1
 62
     2
  6
CONTINUOUS
 10
0.101064
 20
1.731244
 30
0.000000
 11
0.093648
 21
1.840814
 31
0.000000
  0
LINE
  8
CK_LEVEL_1
 62
     2
  6
CONTINUOUS
 10
0.093648
 20
1.840814
 30
0.000000
 11
0.062031
 21
1.851471
 31
0.000000
  0
LINE
  8
CK_LEVEL_1
 62
     2
  6
CONTINUOUS
 10
0.000558
 20
1.947914
 30
0.000000
 11
0.024351
 21
2.161880
 31
0.000000
  0
LINE
  8
CK_LEVEL_1
 62
     2
  6
CONTINUOUS
 10
9.956752
 20
3.031371
 30
0.000000
 11
9.955107
 21
2.602877
 31
0.000000
  0
LINE
  8
CK_LEVEL_1
 62
     2
  6
CONTINUOUS
 10
10.228251
 20
2.180271
 30
0.000000
 11
10.202684
 21
2.135995
 31
0.000000
  0
LINE
  8
CK_LEVEL_1
 62
     2
  6
CONTINUOUS
 10
10.196157
 20
2.111828
 30
0.000000
 11
10.195837
 21
2.028466
 31
0.000000
  0
LINE
  8
CK_LEVEL_1
 62
     2
  6
CONTINUOUS
 10
10.208106
 20
2.004419
 30
0.000000
 11
10.234529
 21
1.985422
 31
0.000000
  0
LINE
  8
CK_LEVEL_1
 62
     2
  6
CONTINUOUS
 10
7.152439
 20
1.391193
 30
0.000000
 11
3.015060
 21
1.407079
 31
0.000000
  0
LINE
  8
CK_LEVEL_1
 62
     2
  6
CONTINUOUS
 10
8.594646
 20
2.395002
 30
0.000000
 11
9.289043
 21
2.400589
 31
0.000000
  0
LINE
  8
CK_LEVEL_1
 62
     2
  6
CONTINUOUS
 10
6.281203
 20
2.748157
 30
0.000000
 11
5.978318
 21
2.749320
 31
0.000000
  0
ARC
  8
CK_LEVEL_1
 62
     2
  6
CONTINUOUS
 10
8.030189
 20
1.618514
 30
0.000000
 40
0.950867
 50
349.662838
 51
449.002225
  0
ARC
  8
CK_LEVEL_1
 62
     2
  6
CONTINUOUS
 10
2.083078
 20
1.682838
 30
0.000000
 40
0.886751
 50
90.423543
 51
188.751733
  0
LINE
  8
CK_LEVEL_1
 62
     2
  6
CONTINUOUS
 10
7.152919
 20
1.516192
 30
0.000000
 11
3.015540
 21
1.532078
 31
0.000000
  0
ARC
  8
CK_LEVEL_1
 62
     2
  6
CONTINUOUS
 10
3.011537
 20
1.439020
 30
0.000000
 40
0.032142
 50
166.626991
 51
276.294521
  0
ARC
  8
CK_LEVEL_1
 62
     2
  6
CONTINUOUS
 10
7.152678
 20
1.453692
 30
0.000000
 40
0.062501
 50
269.779982
 51
378.797319
  0
ARC
  8
CK_LEVEL_1
 62
     2
  6
CONTINUOUS
 10
7.152678
 20
1.453692
 30
0.000000
 40
0.062500
 50
32.850235
 51
89.779985
  0
ARC
  8
CK_LEVEL_1
 62
     2
  6
CONTINUOUS
 10
7.314748
 20
1.588803
 30
0.000000
 40
0.142277
 50
187.230860
 51
205.261224
  0
ARC
  8
CK_LEVEL_1
 62
     2
  6
CONTINUOUS
 10
8.053301
 20
1.682509
 30
0.000000
 40
0.886750
 50
90.423543
 51
187.230917
  0
CIRCLE
  8
CK_LEVEL_1
 62
     2
  6
CONTINUOUS
 10
8.053301
 20
1.682509
 30
0.000000
 40
0.437500
  0
CIRCLE
  8
CK_LEVEL_1
 62
     2
  6
CONTINUOUS
 10
8.053301
 20
1.682509
 30
0.000000
 40
0.500000
  0
LINE
  8
CK_LEVEL_1
 62
     2
  6
CONTINUOUS
 10
7.978773
 20
1.954126
 30
0.000000
 11
7.997129
 21
2.081200
 31
0.000000
  0
LINE
  8
CK_LEVEL_1
 62
     2
  6
CONTINUOUS
 10
8.114494
 20
1.964839
 30
0.000000
 11
8.098650
 21
2.080810
 31
0.000000
  0
ARC
  8
CK_LEVEL_1
 62
     2
  6
CONTINUOUS
 10
8.047861
 20
2.073871
 30
0.000000
 40
0.051259
 50
7.780118
 51
63.273488
  0
LINE
  8
CK_LEVEL_1
 62
     2
  6
CONTINUOUS
 10
7.771948
 20
1.695562
 30
0.000000
 11
7.656765
 21
1.752287
 31
0.000000
  0
LINE
  8
CK_LEVEL_1
 62
     2
  6
CONTINUOUS
 10
7.803699
 20
1.827951
 30
0.000000
 11
7.688508
 21
1.848719
 31
0.000000
  0
ARC
  8
CK_LEVEL_1
 62
     2
  6
CONTINUOUS
 10
8.047861
 20
2.073871
 30
0.000000
 40
0.051260
 50
118.318395
 51
171.779795
  0
ARC
  8
CK_LEVEL_1
 62
     2
  6
CONTINUOUS
 10
7.679413
 20
1.798273
 30
0.000000
 40
0.051259
 50
79.779635
 51
135.274261
  0
LINE
  8
CK_LEVEL_1
 62
     2
  6
CONTINUOUS
 10
7.953945
 20
1.418960
 30
0.000000
 11
7.864402
 21
1.326944
 31
0.000000
  0
LINE
  8
CK_LEVEL_1
 62
     2
  6
CONTINUOUS
 10
7.837846
 20
1.490067
 30
0.000000
 11
7.782499
 21
1.386931
 31
0.000000
  0
ARC
  8
CK_LEVEL_1
 62
     2
  6
CONTINUOUS
 10
7.679413
 20
1.798273
 30
0.000000
 40
0.051260
 50
190.318843
 51
243.780862
  0
ARC
  8
CK_LEVEL_1
 62
     2
  6
CONTINUOUS
 10
7.827666
 20
1.362693
 30
0.000000
 40
0.051259
 50
151.780098
 51
207.273907
  0
LINE
  8
CK_LEVEL_1
 62
     2
  6
CONTINUOUS
 10
8.273250
 20
1.506574
 30
0.000000
 11
8.333091
 21
1.392980
 31
0.000000
  0
LINE
  8
CK_LEVEL_1
 62
     2
  6
CONTINUOUS
 10
8.169746
 20
1.418132
 30
0.000000
 11
8.250731
 21
1.333623
 31
0.000000
  0
ARC
  8
CK_LEVEL_1
 62
     2
  6
CONTINUOUS
 10
7.827666
 20
1.362693
 30
0.000000
 40
0.051260
 50
262.319157
 51
315.780906
  0
ARC
  8
CK_LEVEL_1
 62
     2
  6
CONTINUOUS
 10
8.287740
 20
1.369088
 30
0.000000
 40
0.051259
 50
223.779544
 51
279.273232
  0
LINE
  8
CK_LEVEL_1
 62
     2
  6
CONTINUOUS
 10
8.288593
 20
1.837325
 30
0.000000
 11
8.415119
 21
1.859135
 31
0.000000
  0
LINE
  8
CK_LEVEL_1
 62
     2
  6
CONTINUOUS
 10
8.340723
 20
1.711557
 30
0.000000
 11
8.446121
 21
1.762463
 31
0.000000
  0
ARC
  8
CK_LEVEL_1
 62
     2
  6
CONTINUOUS
 10
8.287740
 20
1.369088
 30
0.000000
 40
0.051260
 50
334.318767
 51
387.781343
  0
ARC
  8
CK_LEVEL_1
 62
     2
  6
CONTINUOUS
 10
8.423827
 20
1.808621
 30
0.000000
 40
0.051259
 50
295.780227
 51
351.273469
  0
ARC
  8
CK_LEVEL_1
 62
     2
  6
CONTINUOUS
 10
8.423827
 20
1.808621
 30
0.000000
 40
0.051259
 50
46.318475
 51
99.779862
  0
ARC
  8
CK_LEVEL_1
 62
     2
  6
CONTINUOUS
 10
8.263113
 20
1.985145
 30
0.000000
 40
0.150000
 50
187.780219
 51
279.780447
  0
ARC
  8
CK_LEVEL_1
 62
     2
  6
CONTINUOUS
 10
8.405961
 20
1.576487
 30
0.000000
 40
0.150000
 50
115.780264
 51
207.780547
  0
ARC
  8
CK_LEVEL_1
 62
     2
  6
CONTINUOUS
 10
8.061447
 20
1.314348
 30
0.000000
 40
0.150000
 50
43.780160
 51
135.780326
  0
ARC
  8
CK_LEVEL_1
 62
     2
  6
CONTINUOUS
 10
7.705676
 20
1.560996
 30
0.000000
 40
0.150000
 50
331.779960
 51
423.780355
  0
ARC
  8
CK_LEVEL_1
 62
     2
  6
CONTINUOUS
 10
7.830313
 20
1.975571
 30
0.000000
 40
0.150000
 50
259.780087
 51
351.780442
  0
CIRCLE
  8
CK_LEVEL_1
 62
     2
  6
CONTINUOUS
 10
2.083078
 20
1.682838
 30
0.000000
 40
0.437500
  0
CIRCLE
  8
CK_LEVEL_1
 62
     2
  6
CONTINUOUS
 10
2.083078
 20
1.682838
 30
0.000000
 40
0.500000
  0
LINE
  8
CK_LEVEL_1
 62
     2
  6
CONTINUOUS
 10
2.008548
 20
1.954455
 30
0.000000
 11
2.026905
 21
2.081529
 31
0.000000
  0
LINE
  8
CK_LEVEL_1
 62
     2
  6
CONTINUOUS
 10
2.144269
 20
1.965169
 30
0.000000
 11
2.128425
 21
2.081139
 31
0.000000
  0
ARC
  8
CK_LEVEL_1
 62
     2
  6
CONTINUOUS
 10
2.077637
 20
2.074200
 30
0.000000
 40
0.051259
 50
7.779966
 51
63.273488
  0
LINE
  8
CK_LEVEL_1
 62
     2
  6
CONTINUOUS
 10
1.801724
 20
1.695891
 30
0.000000
 11
1.686542
 21
1.752617
 31
0.000000
  0
LINE
  8
CK_LEVEL_1
 62
     2
  6
CONTINUOUS
 10
1.833475
 20
1.828280
 30
0.000000
 11
1.718284
 21
1.849048
 31
0.000000
  0
ARC
  8
CK_LEVEL_1
 62
     2
  6
CONTINUOUS
 10
2.077637
 20
2.074200
 30
0.000000
 40
0.051260
 50
118.318395
 51
171.779795
  0
ARC
  8
CK_LEVEL_1
 62
     2
  6
CONTINUOUS
 10
1.709189
 20
1.798602
 30
0.000000
 40
0.051259
 50
79.779833
 51
135.273475
  0
LINE
  8
CK_LEVEL_1
 62
     2
  6
CONTINUOUS
 10
1.983721
 20
1.419289
 30
0.000000
 11
1.894178
 21
1.327273
 31
0.000000
  0
LINE
  8
CK_LEVEL_1
 62
     2
  6
CONTINUOUS
 10
1.867622
 20
1.490396
 30
0.000000
 11
1.812275
 21
1.387261
 31
0.000000
  0
ARC
  8
CK_LEVEL_1
 62
     2
  6
CONTINUOUS
 10
1.709189
 20
1.798602
 30
0.000000
 40
0.051259
 50
190.319043
 51
243.780368
  0
ARC
  8
CK_LEVEL_1
 62
     2
  6
CONTINUOUS
 10
1.857442
 20
1.363022
 30
0.000000
 40
0.051259
 50
151.779113
 51
207.273907
  0
LINE
  8
CK_LEVEL_1
 62
     2
  6
CONTINUOUS
 10
2.303026
 20
1.506903
 30
0.000000
 11
2.362867
 21
1.393309
 31
0.000000
  0
LINE
  8
CK_LEVEL_1
 62
     2
  6
CONTINUOUS
 10
2.199522
 20
1.418461
 30
0.000000
 11
2.280506
 21
1.333952
 31
0.000000
  0
ARC
  8
CK_LEVEL_1
 62
     2
  6
CONTINUOUS
 10
1.857442
 20
1.363022
 30
0.000000
 40
0.051260
 50
262.319157
 51
315.780906
  0
ARC
  8
CK_LEVEL_1
 62
     2
  6
CONTINUOUS
 10
2.317515
 20
1.369418
 30
0.000000
 40
0.051259
 50
223.780351
 51
279.274335
  0
LINE
  8
CK_LEVEL_1
 62
     2
  6
CONTINUOUS
 10
2.318370
 20
1.837654
 30
0.000000
 11
2.444896
 21
1.859464
 31
0.000000
  0
LINE
  8
CK_LEVEL_1
 62
     2
  6
CONTINUOUS
 10
2.370499
 20
1.711886
 30
0.000000
 11
2.475897
 21
1.762793
 31
0.000000
  0
ARC
  8
CK_LEVEL_1
 62
     2
  6
CONTINUOUS
 10
2.317515
 20
1.369418
 30
0.000000
 40
0.051260
 50
334.318767
 51
387.779833
  0
ARC
  8
CK_LEVEL_1
 62
     2
  6
CONTINUOUS
 10
2.453604
 20
1.808950
 30
0.000000
 40
0.051258
 50
295.779706
 51
351.273299
  0
ARC
  8
CK_LEVEL_1
 62
     2
  6
CONTINUOUS
 10
2.453604
 20
1.808950
 30
0.000000
 40
0.051260
 50
46.319247
 51
99.780774
  0
ARC
  8
CK_LEVEL_1
 62
     2
  6
CONTINUOUS
 10
2.292889
 20
1.985474
 30
0.000000
 40
0.150000
 50
187.779840
 51
279.780447
  0
ARC
  8
CK_LEVEL_1
 62
     2
  6
CONTINUOUS
 10
2.435737
 20
1.576816
 30
0.000000
 40
0.150000
 50
115.780264
 51
207.780547
  0
ARC
  8
CK_LEVEL_1
 62
     2
  6
CONTINUOUS
 10
2.091222
 20
1.314678
 30
0.000000
 40
0.150000
 50
43.779884
 51
135.780600
  0
ARC
  8
CK_LEVEL_1
 62
     2
  6
CONTINUOUS
 10
1.735452
 20
1.561325
 30
0.000000
 40
0.150000
 50
331.779960
 51
423.780355
  0
ARC
  8
CK_LEVEL_1
 62
     2
  6
CONTINUOUS
 10
1.860089
 20
1.975900
 30
0.000000
 40
0.150000
 50
259.780087
 51
351.780442
  0
LINE
  8
CK_LEVEL_1
 62
     2
  6
CONTINUOUS
 10
3.700439
 20
2.955237
 30
0.000000
 11
4.548024
 21
3.482079
 31
0.000000
  0
ARC
  8
CK_LEVEL_1
 62
     2
  6
CONTINUOUS
 10
5.562084
 20
1.850654
 30
0.000000
 40
1.920901
 50
101.396279
 51
121.864228
  0
LINE
  8
CK_LEVEL_1
 62
     2
  6
CONTINUOUS
 10
6.530079
 20
3.098789
 30
0.000000
 11
6.532651
 21
3.768666
 31
0.000000
  0
LINE
  8
CK_LEVEL_1
 62
     2
  6
CONTINUOUS
 10
6.605093
 20
3.102595
 30
0.000000
 11
6.607613
 21
3.758757
 31
0.000000
  0
ARC
  8
CK_LEVEL_1
 62
     2
  6
CONTINUOUS
 10
5.963176
 20
-0.139206
 30
0.000000
 40
3.950783
 50
68.538506
 51
101.396298
  0
ARC
  8
CK_LEVEL_1
 62
     2
  6
CONTINUOUS
 10
5.963176
 20
-0.139206
 30
0.000000
 40
4.216200
 50
81.708921
 51
105.572591
  0
LINE
  8
CK_LEVEL_1
 62
     2
  6
CONTINUOUS
 10
7.408672
 20
3.537644
 30
0.000000
 11
7.529714
 21
3.481218
 31
0.000000
  0
LINE
  8
CK_LEVEL_1
 62
     2
  6
CONTINUOUS
 10
7.598516
 20
3.264244
 30
0.000000
 11
7.530352
 21
3.145312
 31
0.000000
  0
ARC
  8
CK_LEVEL_1
 62
     2
  6
CONTINUOUS
 10
5.828871
 20
-1.843653
 30
0.000000
 40
5.923276
 50
60.295108
 51
82.800910
  0
ARC
  8
CK_LEVEL_1
 62
     2
  6
CONTINUOUS
 10
5.891531
 20
-2.126606
 30
0.000000
 40
6.029612
 50
63.083823
 51
89.143593
  0
LINE
  8
CK_LEVEL_1
 62
     2
  6
CONTINUOUS
 10
8.621055
 20
3.249816
 30
0.000000
 11
8.764048
 21
3.301241
 31
0.000000
  0
LINE
  8
CK_LEVEL_1
 62
     2
  6
CONTINUOUS
 10
6.797865
 20
3.999851
 30
0.000000
 11
6.740963
 21
3.841295
 31
0.000000
  0
ARC
  8
CK_LEVEL_1
 62
     2
  6
CONTINUOUS
 10
5.963176
 20
-0.139206
 30
0.000000
 40
4.041581
 50
89.738058
 51
105.408610
  0
LINE
  8
CK_LEVEL_1
 62
     2
  6
CONTINUOUS
 10
4.831299
 20
3.922222
 30
0.000000
 11
4.889325
 21
3.757102
 31
0.000000
  0
ARC
  8
CK_LEVEL_1
 62
     2
  6
CONTINUOUS
 10
5.414349
 20
2.165096
 30
0.000000
 40
1.676345
 50
108.251920
 51
123.249444
  0
ARC
  8
CK_LEVEL_1
 62
     2
  6
CONTINUOUS
 10
11.503878
 20
-12.041379
 30
0.000000
 40
17.302019
 50
112.684297
 51
118.318820
  0
LINE
  8
CK_LEVEL_1
 62
     2
  6
CONTINUOUS
 10
4.495233
 20
3.567008
 30
0.000000
 11
3.614621
 21
3.013774
 31
0.000000
  0
ARC
  8
CK_LEVEL_1
 62
     2
  6
CONTINUOUS
 10
3.577009
 20
3.431386
 30
0.000000
 40
0.491888
 50
208.902967
 51
284.532505
  0
LINE
  8
CK_LEVEL_1
 62
     2
  6
CONTINUOUS
 10
3.700439
 20
2.955236
 30
0.000000
 11
3.614622
 21
3.013774
 31
0.000000
  0
LINE
  8
CK_LEVEL_1
 62
     2
  6
CONTINUOUS
 10
8.965622
 20
1.447890
 30
0.000000
 11
9.083365
 21
1.438349
 31
0.000000
  0
ARC
  8
CK_LEVEL_1
 62
     2
  6
CONTINUOUS
 10
3.595686
 20
3.355401
 30
0.000000
 40
0.342151
 50
208.916108
 51
273.172594
  0
LINE
  8
CK_LEVEL_1
 62
     2
  6
CONTINUOUS
 10
10.250410
 20
1.954300
 30
0.000000
 11
10.250292
 21
1.923493
 31
0.000000
  0
ARC
  8
CK_LEVEL_1
 62
     2
  6
CONTINUOUS
 10
9.100759
 20
1.652998
 30
0.000000
 40
0.215352
 50
265.367446
 51
291.473207
  0
ARC
  8
CK_LEVEL_1
 62
     2
  6
CONTINUOUS
 10
10.176899
 20
1.923775
 30
0.000000
 40
0.073393
 50
291.473349
 51
359.779852
  0
ARC
  8
CK_LEVEL_1
 62
     2
  6
CONTINUOUS
 10
10.212259
 20
1.954447
 30
0.000000
 40
0.038150
 50
359.779228
 51
414.283895
  0
ARC
  8
CK_LEVEL_1
 62
     2
  6
CONTINUOUS
 10
10.225315
 20
2.028353
 30
0.000000
 40
0.029478
 50
179.780365
 51
234.284727
  0
LINE
  8
CK_LEVEL_1
 62
     2
  6
CONTINUOUS
 10
9.975932
 20
2.553771
 30
0.000000
 11
10.206624
 21
2.332415
 31
0.000000
  0
ARC
  8
CK_LEVEL_1
 62
     2
  6
CONTINUOUS
 10
10.244859
 20
2.111641
 30
0.000000
 40
0.048702
 50
149.996256
 51
179.780004
  0
ARC
  8
CK_LEVEL_1
 62
     2
  6
CONTINUOUS
 10
9.924997
 20
2.736782
 30
0.000000
 40
0.274778
 50
98.958231
 51
141.684306
  0
LINE
  8
CK_LEVEL_1
 62
     2
  6
CONTINUOUS
 10
9.882211
 20
3.008209
 30
0.000000
 11
9.956662
 21
3.007923
 31
0.000000
  0
ARC
  8
CK_LEVEL_1
 62
     2
  6
CONTINUOUS
 10
11.583641
 20
1.713819
 30
0.000000
 40
2.221889
 50
147.515143
 51
154.204187
  0
ARC
  8
CK_LEVEL_1
 62
     2
  6
CONTINUOUS
 10
9.287874
 20
2.545812
 30
0.000000
 40
0.145228
 50
270.461200
 51
314.735256
  0
LINE
  8
CK_LEVEL_1
 62
     2
  6
CONTINUOUS
 10
9.955107
 20
2.602877
 30
0.000000
 11
9.533809
 21
2.604495
 31
0.000000
  0
ARC
  8
CK_LEVEL_1
 62
     2
  6
CONTINUOUS
 10
10.022801
 20
2.602617
 30
0.000000
 40
0.067695
 50
179.779942
 51
226.183280
  0
ARC
  8
CK_LEVEL_1
 62
     2
  6
CONTINUOUS
 10
8.674416
 20
3.220388
 30
0.000000
 40
1.056917
 50
312.620098
 51
329.295054
  0
LINE
  8
CK_LEVEL_1
 62
     2
  6
CONTINUOUS
 10
1.150231
 20
1.484659
 30
0.000000
 11
0.076777
 21
1.605823
 31
0.000000
  0
ARC
  8
CK_LEVEL_1
 62
     2
  6
CONTINUOUS
 10
1.154478
 20
1.537704
 30
0.000000
 40
0.053123
 50
268.794087
 51
368.883923
  0
ARC
  8
CK_LEVEL_1
 62
     2
  6
CONTINUOUS
 10
0.082971
 20
1.660696
 30
0.000000
 40
0.055221
 50
116.309378
 51
263.559780
  0
ARC
  8
CK_LEVEL_1
 62
     2
  6
CONTINUOUS
 10
0.091144
 20
1.937841
 30
0.000000
 40
0.091145
 50
173.654879
 51
251.372425
  0
LINE
  8
CK_LEVEL_1
 62
     2
  6
CONTINUOUS
 10
0.712415
 20
2.275609
 30
0.000000
 11
0.049969
 21
2.278153
 31
0.000000
  0
LINE
  8
CK_LEVEL_1
 62
     2
  6
CONTINUOUS
 10
0.767241
 20
2.317317
 30
0.000000
 11
0.797851
 21
2.429532
 31
0.000000
  0
LINE
  8
CK_LEVEL_1
 62
     2
  6
CONTINUOUS
 10
0.745461
 20
2.510904
 30
0.000000
 11
0.245202
 21
2.591862
 31
0.000000
  0
LINE
  8
CK_LEVEL_1
 62
     2
  6
CONTINUOUS
 10
0.531048
 20
2.545603
 30
0.000000
 11
0.402894
 21
2.276798
 31
0.000000
  0
ARC
  8
CK_LEVEL_1
 62
     2
  6
CONTINUOUS
 10
0.822227
 20
2.024418
 30
0.000000
 40
0.809631
 50
104.287280
 51
170.224764
  0
ARC
  8
CK_LEVEL_1
 62
     2
  6
CONTINUOUS
 10
0.735064
 20
2.446659
 30
0.000000
 40
0.065081
 50
344.742102
 51
440.807317
  0
LINE
  8
CK_LEVEL_1
 62
     2
  6
CONTINUOUS
 10
3.146391
 20
3.193643
 30
0.000000
 11
3.296191
 21
3.189961
 31
0.000000
  0
LINE
  8
CK_LEVEL_1
 62
     2
  6
CONTINUOUS
 10
2.654032
 20
3.040027
 30
0.000000
 11
2.534292
 21
3.032116
 31
0.000000
  0
LINE
  8
CK_LEVEL_1
 62
     2
  6
CONTINUOUS
 10
2.657987
 20
2.980158
 30
0.000000
 11
2.538248
 21
2.972246
 31
0.000000
  0
ARC
  8
CK_LEVEL_1
 62
     2
  6
CONTINUOUS
 10
0.712632
 20
2.332213
 30
0.000000
 40
0.056604
 50
269.780349
 51
344.742307
  0
ARC
  8
CK_LEVEL_1
 62
     2
  6
CONTINUOUS
 10
2.656009
 20
3.010092
 30
0.000000
 40
0.030000
 50
273.780535
 51
453.780409
  0
ARC
  8
CK_LEVEL_1
 62
     2
  6
CONTINUOUS
 10
2.536270
 20
3.002181
 30
0.000000
 40
0.030000
 50
93.780409
 51
273.780409
  0
ARC
  8
CK_LEVEL_1
 62
     2
  6
CONTINUOUS
 10
4.041835
 20
-18.542723
 30
0.000000
 40
21.534483
 50
91.762697
 51
99.923468
  0
ARC
  8
CK_LEVEL_1
 62
     2
  6
CONTINUOUS
 10
4.698416
 20
-21.701752
 30
0.000000
 40
24.847355
 50
93.425547
 51
99.441550
  0
LINE
  8
CK_LEVEL_1
 62
     2
  6
CONTINUOUS
 10
6.892110
 20
2.041000
 30
0.000000
 11
7.125828
 21
2.338475
 31
0.000000
  0
ARC
  8
CK_LEVEL_1
 62
     2
  6
CONTINUOUS
 10
6.760712
 20
2.173619
 30
0.000000
 40
0.186690
 50
271.873674
 51
314.735026
  0
LINE
  8
CK_LEVEL_1
 62
     2
  6
CONTINUOUS
 10
6.310915
 20
2.673043
 30
0.000000
 11
5.948030
 21
2.674436
 31
0.000000
  0
LINE
  8
CK_LEVEL_1
 62
     2
  6
CONTINUOUS
 10
5.928108
 20
2.694512
 30
0.000000
 11
5.928127
 21
2.699512
 31
0.000000
  0
ARC
  8
CK_LEVEL_1
 62
     2
  6
CONTINUOUS
 10
7.096288
 20
2.361684
 30
0.000000
 40
0.037568
 50
321.843716
 51
452.338643
  0
ARC
  8
CK_LEVEL_1
 62
     2
  6
CONTINUOUS
 10
6.281011
 20
2.698158
 30
0.000000
 40
0.049999
 50
359.779981
 51
449.779981
  0
LINE
  8
CK_LEVEL_1
 62
     2
  6
CONTINUOUS
 10
6.331010
 20
2.697966
 30
0.000000
 11
6.330991
 21
2.692966
 31
0.000000
  0
ARC
  8
CK_LEVEL_1
 62
     2
  6
CONTINUOUS
 10
5.978126
 20
2.699321
 30
0.000000
 40
0.050000
 50
89.779981
 51
179.779985
  0
ARC
  8
CK_LEVEL_1
 62
     2
  6
CONTINUOUS
 10
6.310992
 20
2.693042
 30
0.000000
 40
0.020000
 50
269.779412
 51
359.779412
  0
ARC
  8
CK_LEVEL_1
 62
     2
  6
CONTINUOUS
 10
5.948108
 20
2.694436
 30
0.000000
 40
0.020000
 50
179.782277
 51
269.779412
  0
ARC
  8
CK_LEVEL_1
 62
     2
  6
CONTINUOUS
 10
9.860514
 20
3.191696
 30
0.000000
 40
0.059518
 50
21.612280
 51
87.391318
  0
ARC
  8
CK_LEVEL_1
 62
     2
  6
CONTINUOUS
 10
9.576813
 20
3.041819
 30
0.000000
 40
0.380094
 50
358.424857
 51
386.872863
  0
ARC
  8
CK_LEVEL_1
 62
     2
  6
CONTINUOUS
 10
9.358090
 20
3.207012
 30
0.000000
 40
0.020215
 50
172.324445
 51
258.289863
  0
ARC
  8
CK_LEVEL_1
 62
     2
  6
CONTINUOUS
 10
9.386324
 20
3.206104
 30
0.000000
 40
0.048154
 50
114.354641
 51
165.784839
  0
LINE
  8
CK_LEVEL_1
 62
     2
  6
CONTINUOUS
 10
9.338057
 20
3.209712
 30
0.000000
 11
9.339644
 21
3.217929
 31
0.000000
  0
LINE
  8
CK_LEVEL_1
 62
     2
  6
CONTINUOUS
 10
9.495774
 20
3.370317
 30
0.000000
 11
9.810731
 21
3.382339
 31
0.000000
  0
ARC
  8
CK_LEVEL_1
 62
     2
  6
CONTINUOUS
 10
9.497097
 20
3.335683
 30
0.000000
 40
0.034658
 50
92.185952
 51
156.110023
  0
ARC
  8
CK_LEVEL_1
 62
     2
  6
CONTINUOUS
 10
9.807710
 20
3.461541
 30
0.000000
 40
0.079260
 50
272.185817
 51
292.399441
  0
LINE
  8
CK_LEVEL_1
 62
     2
  6
CONTINUOUS
 10
9.837912
 20
3.388261
 30
0.000000
 11
9.895506
 21
3.412000
 31
0.000000
  0
ARC
  8
CK_LEVEL_1
 62
     2
  6
CONTINUOUS
 10
9.907170
 20
3.383699
 30
0.000000
 40
0.030611
 50
34.619864
 51
112.400293
  0
ARC
  8
CK_LEVEL_1
 62
     2
  6
CONTINUOUS
 10
9.895991
 20
3.356864
 30
0.000000
 40
0.044681
 50
305.200338
 51
336.461963
  0
LINE
  8
CK_LEVEL_1
 62
     2
  6
CONTINUOUS
 10
8.764050
 20
3.301240
 30
0.000000
 11
9.403538
 21
3.272134
 31
0.000000
  0
LINE
  8
CK_LEVEL_1
 62
     2
  6
CONTINUOUS
 10
9.863271
 20
3.251144
 30
0.000000
 11
9.779353
 21
3.254972
 31
0.000000
  0
ARC
  8
CK_LEVEL_1
 62
     2
  6
CONTINUOUS
 10
9.863350
 20
3.364812
 30
0.000000
 40
0.078027
 50
340.688676
 51
387.729607
  0
LINE
  8
CK_LEVEL_1
 62
     2
  6
CONTINUOUS
 10
8.771546
 20
1.466578
 30
0.000000
 11
8.965623
 21
1.447890
 31
0.000000
  0
ARC
  8
CK_LEVEL_1
 62
     2
  6
CONTINUOUS
 10
8.053301
 20
1.682509
 30
0.000000
 40
0.750000
 50
343.267257
 51
554.045322
  0
LINE
  8
CK_LEVEL_1
 62
     2
  6
CONTINUOUS
 10
2.802523
 20
1.470947
 30
0.000000
 11
2.980267
 21
1.446454
 31
0.000000
  0
LINE
  8
CK_LEVEL_1
 62
     2
  6
CONTINUOUS
 10
1.206964
 20
1.545907
 30
0.000000
 11
1.341930
 21
1.567951
 31
0.000000
  0
ARC
  8
CK_LEVEL_1
 62
     2
  6
CONTINUOUS
 10
2.083078
 20
1.682838
 30
0.000000
 40
0.749999
 50
343.589240
 51
548.811405
  0
ARC
  8
CK_LEVEL_1
 62
     2
  6
CONTINUOUS
 10
10.120397
 20
2.242549
 30
0.000000
 40
0.124543
 50
329.996628
 51
406.183197
  0
LINE
  8
CK_LEVEL_1
 62
     2
  6
CONTINUOUS
 10
6.567821
 20
3.098418
 30
0.000000
 11
6.561754
 21
1.518462
 31
0.000000
  0
LINE
  8
CK_LEVEL_1
 62
     2
  6
CONTINUOUS
 10
9.956209
 20
2.889924
 30
0.000000
 11
9.799667
 21
2.890525
 31
0.000000
  0
ARC
  8
CK_LEVEL_1
 62
     2
  6
CONTINUOUS
 10
2.032926
 20
1.609316
 30
0.000000
 40
0.961238
 50
350.245357
 51
447.400456
  0
ARC
  8
CK_LEVEL_1
 62
     2
  6
CONTINUOUS
 10
9.799300
 20
2.904169
 30
0.000000
 40
0.013642
 50
126.969859
 51
269.781603
  0
ARC
  8
CK_LEVEL_1
 62
     2
  6
CONTINUOUS
 10
9.975102
 20
2.603695
 30
0.000000
 40
0.361663
 50
92.949081
 51
120.581155
  0
ARC
  8
CK_LEVEL_1
 62
     2
  6
CONTINUOUS
 10
9.636079
 20
2.660744
 30
0.000000
 40
0.013642
 50
126.969859
 51
269.777404
  0
ARC
  8
CK_LEVEL_1
 62
     2
  6
CONTINUOUS
 10
9.811881
 20
2.360270
 30
0.000000
 40
0.361664
 50
92.949231
 51
120.581074
  0
ARC
  8
CK_LEVEL_1
 62
     2
  6
CONTINUOUS
 10
9.711381
 20
2.786505
 30
0.000000
 40
0.013642
 50
126.969859
 51
269.781603
  0
LINE
  8
CK_LEVEL_1
 62
     2
  6
CONTINUOUS
 10
9.636026
 20
2.647103
 30
0.000000
 11
9.955273
 21
2.645877
 31
0.000000
  0
LINE
  8
CK_LEVEL_1
 62
     2
  6
CONTINUOUS
 10
9.793273
 20
2.721455
 30
0.000000
 11
9.955560
 21
2.720832
 31
0.000000
  0
LINE
  8
CK_LEVEL_1
 62
     2
  6
CONTINUOUS
 10
9.711329
 20
2.772863
 30
0.000000
 11
9.955756
 21
2.771925
 31
0.000000
  0
LINE
  8
CK_LEVEL_1
 62
     2
  6
CONTINUOUS
 10
9.868576
 20
2.847216
 30
0.000000
 11
9.956043
 21
2.846880
 31
0.000000
  0
ARC
  8
CK_LEVEL_1
 62
     2
  6
CONTINUOUS
 10
9.887184
 20
2.486031
 30
0.000000
 40
0.361664
 50
92.949073
 51
120.581074
  0
ARC
  8
CK_LEVEL_1
 62
     2
  6
CONTINUOUS
 10
9.479280
 20
4.095807
 30
0.000000
 40
0.892781
 50
289.640204
 51
299.705017
  0
ARC
  8
CK_LEVEL_1
 62
     2
  6
CONTINUOUS
 10
9.393572
 20
4.308377
 30
0.000000
 40
1.121826
 50
267.980435
 51
290.113899
  0
ARC
  8
CK_LEVEL_1
 62
     2
  6
CONTINUOUS
 10
9.288391
 20
3.427431
 30
0.000000
 40
0.193336
 50
306.554812
 51
336.298605
  0
LINE
  8
CK_LEVEL_1
 62
     2
  6
CONTINUOUS
 10
7.325724
 20
1.500491
 30
0.000000
 11
7.205185
 21
1.487595
 31
0.000000
  0
LINE
  8
CK_LEVEL_1
 62
     2
  6
CONTINUOUS
 10
7.205184
 20
1.487595
 30
0.000000
 11
7.186078
 21
1.528087
 31
0.000000
  0
LINE
  8
CK_LEVEL_1
 62
     2
  6
CONTINUOUS
 10
7.205184
 20
1.487595
 30
0.000000
 11
7.211845
 21
1.473831
 31
0.000000
  0
LINE
  8
CK_LEVEL_1
 62
     2
  6
CONTINUOUS
 10
9.379685
 20
1.531305
 30
0.000000
 11
9.757512
 21
1.679932
 31
0.000000
  0
LINE
  8
CK_LEVEL_1
 62
     2
  6
CONTINUOUS
 10
9.757513
 20
1.679932
 30
0.000000
 11
10.203766
 21
1.855476
 31
0.000000
  0
LINE
  8
CK_LEVEL_1
 62
     2
  6
CONTINUOUS
 10
9.379685
 20
1.531305
 30
0.000000
 11
9.179592
 21
1.452594
 31
0.000000
  0
LINE
  8
CK_LEVEL_1
 62
     2
  6
CONTINUOUS
 10
6.631416
 20
3.103931
 30
0.000000
 11
7.480452
 21
3.143015
 31
0.000000
  0
ARC
  8
CK_LEVEL_1
 62
     2
  6
CONTINUOUS
 10
9.291154
 20
3.418078
 30
0.000000
 40
0.184204
 50
294.132525
 51
307.597513
  0
LINE
  8
CK_LEVEL_1
 62
     2
  6
CONTINUOUS
 10
6.631416
 20
3.103931
 30
0.000000
 11
3.700439
 21
2.955236
 31
0.000000
  0
LINE
  8
CK_LEVEL_1
 62
     2
  6
CONTINUOUS
 10
7.480451
 20
3.143015
 30
0.000000
 11
8.001313
 21
3.166993
 31
0.000000
  0
ARC
  8
CK_LEVEL_1
 62
     2
  6
CONTINUOUS
 10
8.047223
 20
5.183510
 30
0.000000
 40
2.017040
 50
268.695802
 51
286.528490
  0
ARC
  8
CK_LEVEL_1
 62
     2
  6
CONTINUOUS
 10
2.083078
 20
1.682838
 30
0.000000
 40
0.749999
 50
276.616399
 51
343.589240
  0
ARC
  8
CK_LEVEL_1
 62
     2
  6
CONTINUOUS
 10
2.083078
 20
1.682838
 30
0.000000
 40
0.750001
 50
188.811405
 51
263.377223
  0
ARC
  8
CK_LEVEL_1
 62
     2
  6
CONTINUOUS
 10
8.053301
 20
1.682509
 30
0.000000
 40
0.750000
 50
194.045396
 51
263.376995
  0
LINE
  8
CK_LEVEL_1
 62
     2
  6
CONTINUOUS
 10
0.298035
 20
0.000348
 30
0.000000
 11
9.838271
 21
0.000000
 31
0.000000
  0
LINE
  8
CK_LEVEL_1
 62
     2
  6
CONTINUOUS
 10
7.966799
 20
0.937514
 30
0.000000
 11
2.169494
 21
0.937834
 31
0.000000
  0
LINE
  8
CK_LEVEL_1
 62
     2
  6
CONTINUOUS
 10
8.139721
 20
0.937505
 30
0.000000
 11
8.639721
 21
0.937505
 31
0.000000
  0
LINE
  8
CK_LEVEL_1
 62
     2
  6
CONTINUOUS
 10
1.496579
 20
0.937843
 30
0.000000
 11
1.996579
 21
0.937843
 31
0.000000
  0
LINE
  8
CK_LEVEL_1
 62
     2
  6
CONTINUOUS
 10
8.639721
 20
0.937505
 30
0.000000
 11
9.914350
 21
0.343135
 31
0.000000
  0
LINE
  8
CK_LEVEL_1
 62
     2
  6
CONTINUOUS
 10
1.496579
 20
0.937843
 30
0.000000
 11
0.221970
 21
0.343483
 31
0.000000
  0
ARC
  8
CK_LEVEL_1
 62
     2
  6
CONTINUOUS
 10
8.053301
 20
1.682509
 30
0.000000
 40
0.750000
 50
276.616703
 51
343.267257
  0
ARC
  8
CK_LEVEL_1
 62
     2
  6
CONTINUOUS
 10
9.838278
 20
0.180000
 30
0.000000
 40
0.180000
 50
269.997772
 51
425.000029
  0
ARC
  8
CK_LEVEL_1
 62
     2
  6
CONTINUOUS
 10
0.298042
 20
0.180348
 30
0.000000
 40
0.180000
 50
115.000260
 51
269.997772
  0
ARC
  8
CK_LEVEL_1
 62
     2
  6
CONTINUOUS
 10
5.211056
 20
0.762045
 30
0.000000
 40
0.015240
 50
280.002535
 51
459.998832
  0
LINE
  8
CK_LEVEL_1
 62
     2
  6
CONTINUOUS
 10
3.031807
 20
2.476338
 30
0.000000
 11
2.933003
 21
2.476338
 31
0.000000
  0
LINE
  8
CK_LEVEL_1
 62
     2
  6
CONTINUOUS
 10
2.933003
 20
2.476338
 30
0.000000
 11
2.933003
 21
2.440890
 31
0.000000
  0
LINE
  8
CK_LEVEL_1
 62
     2
  6
CONTINUOUS
 10
2.958679
 20
2.449924
 30
0.000000
 11
3.017983
 21
2.449924
 31
0.000000
  0
LINE
  8
CK_LEVEL_1
 62
     2
  6
CONTINUOUS
 10
3.017983
 20
2.405534
 30
0.000000
 11
2.947072
 21
2.405534
 31
0.000000
  0
LINE
  8
CK_LEVEL_1
 62
     2
  6
CONTINUOUS
 10
2.933248
 20
2.419358
 30
0.000000
 11
2.933248
 21
2.423453
 31
0.000000
  0
LINE
  8
CK_LEVEL_1
 62
     2
  6
CONTINUOUS
 10
3.031807
 20
2.436100
 30
0.000000
 11
3.031807
 21
2.419358
 31
0.000000
  0
ARC
  8
CK_LEVEL_1
 62
     2
  6
CONTINUOUS
 10
3.017983
 20
2.436100
 30
0.000000
 40
0.013824
 50
0.000000
 51
90.000000
  0
ARC
  8
CK_LEVEL_1
 62
     2
  6
CONTINUOUS
 10
3.017983
 20
2.419358
 30
0.000000
 40
0.013824
 50
270.000000
 51
360.000000
  0
LINE
  8
CK_LEVEL_1
 62
     2
  6
CONTINUOUS
 10
3.120066
 20
2.476338
 30
0.000000
 11
3.174084
 21
2.476338
 31
0.000000
  0
LINE
  8
CK_LEVEL_1
 62
     2
  6
CONTINUOUS
 10
3.120066
 20
2.405534
 30
0.000000
 11
3.174084
 21
2.405534
 31
0.000000
  0
LINE
  8
CK_LEVEL_1
 62
     2
  6
CONTINUOUS
 10
3.096066
 20
2.452338
 30
0.000000
 11
3.096066
 21
2.429533
 31
0.000000
  0
LINE
  8
CK_LEVEL_1
 62
     2
  6
CONTINUOUS
 10
3.198084
 20
2.452338
 30
0.000000
 11
3.198084
 21
2.429533
 31
0.000000
  0
ARC
  8
CK_LEVEL_1
 62
     2
  6
CONTINUOUS
 10
2.947072
 20
2.419358
 30
0.000000
 40
0.013824
 50
180.000000
 51
270.000000
  0
ARC
  8
CK_LEVEL_1
 62
     2
  6
CONTINUOUS
 10
3.174084
 20
2.452338
 30
0.000000
 40
0.024000
 50
0.000000
 51
90.000000
  0
ARC
  8
CK_LEVEL_1
 62
     2
  6
CONTINUOUS
 10
3.120066
 20
2.452338
 30
0.000000
 40
0.024000
 50
90.000000
 51
180.000000
  0
ARC
  8
CK_LEVEL_1
 62
     2
  6
CONTINUOUS
 10
3.120066
 20
2.429534
 30
0.000000
 40
0.024000
 50
180.000000
 51
270.000000
  0
LINE
  8
CK_LEVEL_1
 62
     2
  6
CONTINUOUS
 10
3.050241
 20
2.409456
 30
0.000000
 11
3.079041
 21
2.409456
 31
0.000000
  0
LINE
  8
CK_LEVEL_1
 62
     2
  6
CONTINUOUS
 10
2.958679
 20
2.449924
 30
0.000000
 11
2.933003
 21
2.440890
 31
0.000000
  0
ARC
  8
CK_LEVEL_1
 62
     2
  6
CONTINUOUS
 10
3.174084
 20
2.429534
 30
0.000000
 40
0.024000
 50
270.000000
 51
360.000000
  0
LINE
  8
CK_LEVEL_1
 62
     2
  6
CONTINUOUS
 10
6.805883
 20
3.209203
 30
0.000000
 11
7.329892
 21
3.228044
 31
0.000000
  0
LINE
  8
CK_LEVEL_1
 62
     2
  6
CONTINUOUS
 10
6.701392
 20
3.481438
 30
0.000000
 11
6.700737
 21
3.311027
 31
0.000000
  0
ARC
  8
CK_LEVEL_1
 62
     2
  6
CONTINUOUS
 10
7.464400
 20
3.341111
 30
0.000000
 40
0.154582
 50
330.181331
 51
425.006371
  0
LINE
  8
CK_LEVEL_1
 62
     2
  6
CONTINUOUS
 10
7.354355
 20
3.429292
 30
0.000000
 11
6.830733
 21
3.578655
 31
0.000000
  0
ARC
  8
CK_LEVEL_1
 62
     2
  6
CONTINUOUS
 10
6.802236
 20
3.310637
 30
0.000000
 40
0.101500
 50
179.779848
 51
272.059149
  0
ARC
  8
CK_LEVEL_1
 62
     2
  6
CONTINUOUS
 10
7.326204
 20
3.330603
 30
0.000000
 40
0.102625
 50
272.059457
 51
434.079221
  0
ARC
  8
CK_LEVEL_1
 62
     2
  6
CONTINUOUS
 10
6.802891
 20
3.481049
 30
0.000000
 40
0.101500
 50
74.079262
 51
179.780412
  0
LINE
  8
CK_LEVEL_1
 62
     2
  6
CONTINUOUS
 10
9.379685
 20
1.531305
 30
0.000000
 11
10.094977
 21
1.531305
 31
0.000000
  0
LINE
  8
CK_LEVEL_1
 62
     2
  6
CONTINUOUS
 10
9.757513
 20
1.679932
 30
0.000000
 11
10.197449
 21
1.679932
 31
0.000000
  0
LINE
  8
CK_LEVEL_1
 62
     2
  6
CONTINUOUS
 10
10.094977
 20
1.531305
 30
0.000000
 11
10.197449
 21
1.679932
 31
0.000000
  0
LINE
  8
CK_LEVEL_1
 62
     2
  6
CONTINUOUS
 10
1.338283
 20
2.164166
 30
0.000000
 11
0.020061
 21
2.110339
 31
0.000000
  0
LINE
  8
CK_LEVEL_1
 62
     2
  6
CONTINUOUS
 10
7.094755
 20
2.399221
 30
0.000000
 11
2.773018
 21
2.222750
 31
0.000000
  0
ARC
  8
CK_LEVEL_1
 62
     2
  6
CONTINUOUS
 10
3.658038
 20
-8.637207
 30
0.000000
 40
11.841909
 50
92.476319
 51
104.853307
  0
LINE
  8
CK_LEVEL_1
 62
     2
  6
CONTINUOUS
 10
1.204789
 20
1.805244
 30
0.000000
 11
0.550641
 21
1.784659
 31
0.000000
  0
LINE
  8
CK_LEVEL_1
 62
     2
  6
CONTINUOUS
 10
6.766816
 20
1.987029
 30
0.000000
 11
2.960695
 21
1.862633
 31
0.000000
  0
ARC
  8
CK_LEVEL_1
 62
     2
  6
CONTINUOUS
 10
7.630885
 20
1.887971
 30
0.000000
 40
0.754458
 50
137.472516
 51
168.297245
  0
INSERT
  8
Default
 62
     7
  2
Object_0
 10
-10.160000
 20
-10.160000
 30
0.000000
  0
ENDSEC
  0
EOF
