  0
SECTION
  2
HEADER
  9
$ACADVER
  1
AC1009
  9
$LIMMIN
 10
1E+10
 20
1E+10
  9
$LIMMAX
 10
-1E+10
 20
-1E+10
  0
ENDSEC
  0
SECTION
  2
TABLES
  0
TABLE
  2
LTYPE
 70
     4
  0
LTYPE
  2
CONTINUOUS
 70
     0
  3
Solid line
 72
    65
 73
     0
 40
0.000000
  0
LTYPE
  2
HIDDEN
 70
     0
  3
 _ _ _ _ _ _ _ _ _ _ _
 72
    65
 73
     2
 40
0.375000
 49
0.250000
 49
-0.125000
  0
LTYPE
  2
DASHED
 70
     0
  3
 ___ ___ ___ ___ ___ ___ ___ 
 72
    65
 73
     2
 40
0.750000
 49
0.500000
 49
-0.250000
  0
LTYPE
  2
CENTER
 70
     0
  3
___ _ ___ _ ___ _ ___
 72
    65
 73
     4
 40
2.000000
 49
1.250000
 49
-0.250000
 49
0.250000
 49
-0.250000
  0
LTYPE
  2
BORDER
 70
     0
  3
___ ___ . ___ ___ . ___ ___
 72
    65
 73
     6
 40
1.750000
 49
0.500000
 49
-0.250000
 49
0.500000
 49
-0.250000
 49
0.000000
 49
-0.250000
  0
LTYPE
  2
DOT
 70
     0
  3
.................
 72
    65
 73
     2
 40
0.250000
 49
0.000000
 49
-0.250000
  0
LTYPE
  2
DASHDOT
 70
     0
  3
__ . __ . __ . __
 72
    65
 73
     4
 40
1.000000
 49
0.500000
 49
-0.250000
 49
0.000000
 49
-0.250000
  0
LTYPE
  2
DIVIDE
 70
     0
  3
___ .. ___ .. ___ .. ___
 72
    65
 73
     6
 40
1.250000
 49
0.500000
 49
-0.250000
 49
0.000000
 49
-0.250000
 49
0.000000
 49
-0.250000
  0
ENDTAB
  0
TABLE
  2
LAYER
 70
     8
  0
LAYER
  2
BLACK
 70
     0
 62
     8
  6
CONTINUOUS
  0
LAYER
  2
WHITE
 70
     0
 62
     7
  6
CONTINUOUS
  0
LAYER
  2
RED
 70
     0
 62
     1
  6
CONTINUOUS
  0
LAYER
  2
YELLOW
 70
     0
 62
     2
  6
CONTINUOUS
  0
LAYER
  2
GREEN
 70
     0
 62
     3
  6
CONTINUOUS
  0
LAYER
  2
CYAN
 70
     0
 62
     4
  6
CONTINUOUS
  0
LAYER
  2
BLUE
 70
     0
 62
     5
  6
CONTINUOUS
  0
LAYER
  2
MAGENTA
 70
     0
 62
     6
  6
CONTINUOUS
  0
ENDTAB
  0
ENDSEC
  0
SECTION
  2
BLOCKS
  0
ENDSEC
  0
SECTION
  2
ENTITIES
 0
LINE
 8
WHITE
 10
10.17705
 20
8.034516
 30
0.0000
 11
10.17705
 21
0
 31
0.0000
 6
CONTINUOUS
 0
LINE
 8
WHITE
 10
10.17705
 20
0
 30
0.0000
 11
0
 21
0
 31
0.0000
 6
CONTINUOUS
 0
LINE
 8
WHITE
 10
0
 20
0
 30
0.0000
 11
0
 21
8.034516
 31
0.0000
 6
CONTINUOUS
 0
LINE
 8
WHITE
 10
0
 20
8.034516
 30
0.0000
 11
10.17705
 21
8.034516
 31
0.0000
 6
CONTINUOUS
 0
ARC
 8
WHITE
 10
8.056461
 20
2.802434
 30
 0
 40
.2448177
 50
159.0044
 51
172.0559
 6
CONTINUOUS
 0
ARC
 8
WHITE
 10
8.056892
 20
2.80568
 30
 0
 40
.2448219
 50
172.8221
 51
186.0043
 6
CONTINUOUS
 0
LINE
 8
WHITE
 10
7.813413
 20
2.78007
 30
0.0000
 11
7.823263
 21
2.679837
 31
0.0000
 6
CONTINUOUS
 0
LINE
 8
WHITE
 10
7.823263
 20
2.679837
 30
0.0000
 11
7.832528
 21
2.599883
 31
0.0000
 6
CONTINUOUS
 0
ARC
 8
WHITE
 10
7.727608
 20
2.579954
 30
 0
 40
.1067964
 50
341.7912
 51
10.75509
 6
CONTINUOUS
 0
LINE
 8
WHITE
 10
7.829056
 20
2.546582
 30
0.0000
 11
7.797191
 21
2.453302
 31
0.0000
 6
CONTINUOUS
 0
LINE
 8
WHITE
 10
7.797191
 20
2.453302
 30
0.0000
 11
7.771111
 21
2.346699
 31
0.0000
 6
CONTINUOUS
 0
ARC
 8
WHITE
 10
7.907331
 20
2.313384
 30
 0
 40
.1402339
 50
166.2567
 51
194.7195
 6
CONTINUOUS
 0
LINE
 8
WHITE
 10
7.771698
 20
2.277752
 30
0.0000
 11
7.823263
 21
2.08366
 31
0.0000
 6
CONTINUOUS
 0
LINE
 8
WHITE
 10
7.823263
 20
2.08366
 30
0.0000
 11
7.827318
 21
2.072073
 31
0.0000
 6
CONTINUOUS
 0
LINE
 8
WHITE
 10
7.827318
 20
2.072073
 30
0.0000
 11
7.842364
 21
1.986322
 31
0.0000
 6
CONTINUOUS
 0
ARC
 8
WHITE
 10
7.811907
 20
1.980533
 30
 0
 40
3.100253E-02
 50
328.4478
 51
10.76414
 6
CONTINUOUS
 0
LINE
 8
WHITE
 10
7.838326
 20
1.964309
 30
0.0000
 11
7.796611
 21
1.898261
 31
0.0000
 6
CONTINUOUS
 0
ARC
 8
WHITE
 10
7.776566
 20
1.911007
 30
 0
 40
2.375477E-02
 50
269.441
 51
327.5502
 6
CONTINUOUS
 0
LINE
 8
WHITE
 10
7.776333
 20
1.887252
 30
0.0000
 11
7.761849
 21
1.887251
 31
0.0000
 6
CONTINUOUS
 0
ARC
 8
WHITE
 10
7.762023
 20
1.921147
 30
 0
 40
3.389582E-02
 50
212.5774
 51
269.7066
 6
CONTINUOUS
 0
LINE
 8
WHITE
 10
7.733459
 20
1.902895
 30
0.0000
 11
7.683633
 21
1.978215
 31
0.0000
 6
CONTINUOUS
 0
LINE
 8
WHITE
 10
7.683633
 20
1.978215
 30
0.0000
 11
7.40843
 21
2.412166
 31
0.0000
 6
CONTINUOUS
 0
LINE
 8
WHITE
 10
7.40843
 20
2.412166
 30
0.0000
 11
7.365556
 21
2.422012
 31
0.0000
 6
CONTINUOUS
 0
ARC
 8
WHITE
 10
7.357503
 20
2.385574
 30
 0
 40
3.731815E-02
 50
77.53822
 51
97.22445
 6
CONTINUOUS
 0
LINE
 8
WHITE
 10
7.35281
 20
2.422595
 30
0.0000
 11
7.305304
 21
2.417363
 31
0.0000
 6
CONTINUOUS
 0
ARC
 8
WHITE
 10
7.302347
 20
2.442353
 30
 0
 40
2.516322E-02
 50
231.731
 51
276.7483
 6
CONTINUOUS
 0
LINE
 8
WHITE
 10
7.286761
 20
2.422595
 30
0.0000
 11
7.261839
 21
2.443441
 31
0.0000
 6
CONTINUOUS
 0
ARC
 8
WHITE
 10
7.270076
 20
2.453477
 30
 0
 40
1.298268E-02
 50
154.3507
 51
230.6234
 6
CONTINUOUS
 0
LINE
 8
WHITE
 10
7.258372
 20
2.459096
 30
0.0000
 11
7.274589
 21
2.492123
 31
0.0000
 6
CONTINUOUS
 0
ARC
 8
WHITE
 10
7.323842
 20
2.467208
 30
 0
 40
5.519603E-02
 50
129.0357
 51
153.1662
 6
CONTINUOUS
 0
LINE
 8
WHITE
 10
7.289079
 20
2.510081
 30
0.0000
 11
7.316871
 21
2.533278
 31
0.0000
 6
CONTINUOUS
 0
ARC
 8
WHITE
 10
7.31098
 20
2.540788
 30
 0
 40
9.545105E-03
 50
308.1162
 51
10.48866
 6
CONTINUOUS
 0
LINE
 8
WHITE
 10
7.320365
 20
2.542526
 30
0.0000
 11
7.312254
 21
2.567439
 31
0.0000
 6
CONTINUOUS
 0
LINE
 8
WHITE
 10
7.312254
 20
2.567439
 30
0.0000
 11
7.265325
 21
2.697798
 31
0.0000
 6
CONTINUOUS
 0
ARC
 8
WHITE
 10
7.560226
 20
2.80242
 30
 0
 40
.3129097
 50
179.0002
 51
199.533
 6
CONTINUOUS
 0
LINE
 8
WHITE
 10
7.247364
 20
2.807879
 30
0.0000
 11
7.249681
 21
2.985748
 31
0.0000
 6
CONTINUOUS
 0
LINE
 8
WHITE
 10
7.249681
 20
2.985748
 30
0.0000
 11
7.231698
 21
3.931287
 31
0.0000
 6
CONTINUOUS
 0
ARC
 8
WHITE
 10
7.262834
 20
3.932505
 30
 0
 40
3.115936E-02
 50
100.391
 51
182.2395
 6
CONTINUOUS
 0
LINE
 8
WHITE
 10
7.257213
 20
3.963153
 30
0.0000
 11
7.563123
 21
4.014718
 31
0.0000
 6
CONTINUOUS
 0
LINE
 8
WHITE
 10
7.563123
 20
4.014718
 30
0.0000
 11
7.551536
 21
4.064544
 31
0.0000
 6
CONTINUOUS
 0
LINE
 8
WHITE
 10
7.551536
 20
4.064544
 30
0.0000
 11
7.240993
 21
4.01818
 31
0.0000
 6
CONTINUOUS
 0
ARC
 8
WHITE
 10
7.238094
 20
4.037082
 30
 0
 40
.0191224
 50
181.0416
 51
278.7203
 6
CONTINUOUS
 0
LINE
 8
WHITE
 10
7.218975
 20
4.036734
 30
0.0000
 11
7.216078
 21
4.238356
 31
0.0000
 6
CONTINUOUS
 0
ARC
 8
WHITE
 10
7.265851
 20
4.238873
 30
 0
 40
4.977541E-02
 50
140.0988
 51
180.5939
 6
CONTINUOUS
 0
LINE
 8
WHITE
 10
7.227665
 20
4.270802
 30
0.0000
 11
7.251421
 21
4.299189
 31
0.0000
 6
CONTINUOUS
 0
ARC
 8
WHITE
 10
7.317932
 20
4.244441
 30
 0
 40
8.614558E-02
 50
123.8397
 51
140.5399
 6
CONTINUOUS
 0
LINE
 8
WHITE
 10
7.269959
 20
4.315993
 30
0.0000
 11
7.296031
 21
4.332795
 31
0.0000
 6
CONTINUOUS
 0
ARC
 8
WHITE
 10
7.282706
 20
4.351798
 30
 0
 40
2.320958E-02
 50
305.0399
 51
3.148031
 6
CONTINUOUS
 0
LINE
 8
WHITE
 10
7.305881
 20
4.353072
 30
0.0000
 11
7.280961
 21
5.071497
 31
0.0000
 6
CONTINUOUS
 0
ARC
 8
WHITE
 10
7.343193
 20
5.07341
 30
 0
 40
6.226137E-02
 50
128.8431
 51
181.7595
 6
CONTINUOUS
 0
LINE
 8
WHITE
 10
7.304142
 20
5.121903
 30
0.0000
 11
7.34354
 21
5.153189
 31
0.0000
 6
CONTINUOUS
 0
ARC
 8
WHITE
 10
7.398987
 20
5.084128
 30
 0
 40
8.856487E-02
 50
77.41823
 51
128.7594
 6
CONTINUOUS
 0
LINE
 8
WHITE
 10
7.41828
 20
5.17057
 30
0.0000
 11
7.487804
 21
5.155507
 31
0.0000
 6
CONTINUOUS
 0
ARC
 8
WHITE
 10
7.469292
 20
5.072021
 30
 0
 40
8.551402E-02
 50
25.73875
 51
77.49718
 6
CONTINUOUS
 0
LINE
 8
WHITE
 10
7.546321
 20
5.109157
 30
0.0000
 11
7.615846
 21
4.963154
 31
0.0000
 6
CONTINUOUS
 0
LINE
 8
WHITE
 10
7.615846
 20
4.963154
 30
0.0000
 11
7.716658
 21
4.75458
 31
0.0000
 6
CONTINUOUS
 0
ARC
 8
WHITE
 10
7.939008
 20
4.859304
 30
 0
 40
.2457771
 50
205.2198
 51
215.4026
 6
CONTINUOUS
 0
LINE
 8
WHITE
 10
7.738674
 20
4.71692
 30
0.0000
 11
7.791395
 21
4.6416
 31
0.0000
 6
CONTINUOUS
 0
ARC
 8
WHITE
 10
8.174364
 20
4.913908
 30
 0
 40
.4699114
 50
215.4145
 51
224.6503
 6
CONTINUOUS
 0
LINE
 8
WHITE
 10
7.840065
 20
4.583664
 30
0.0000
 11
8.001707
 21
4.418539
 31
0.0000
 6
CONTINUOUS
 0
ARC
 8
WHITE
 10
7.82645
 20
4.243282
 30
 0
 40
.2478515
 50
35.67785
 51
45.00008
 6
CONTINUOUS
 0
LINE
 8
WHITE
 10
8.027782
 20
4.387835
 30
0.0000
 11
8.174364
 21
4.178102
 31
0.0000
 6
CONTINUOUS
 0
LINE
 8
WHITE
 10
8.174364
 20
4.178102
 30
0.0000
 11
8.229405
 21
4.04948
 31
0.0000
 6
CONTINUOUS
 0
ARC
 8
WHITE
 10
8.051711
 20
3.971323
 30
 0
 40
.1941234
 50
9.256982
 51
23.74197
 6
CONTINUOUS
 0
LINE
 8
WHITE
 10
8.243309
 20
4.002551
 30
0.0000
 11
8.263009
 21
3.878565
 31
0.0000
 6
CONTINUOUS
 0
ARC
 8
WHITE
 10
8.162137
 20
3.862553
 30
 0
 40
.1021351
 50
353.367
 51
9.020006
 6
CONTINUOUS
 0
LINE
 8
WHITE
 10
8.263587
 20
3.850755
 30
0.0000
 11
8.243887
 21
3.691426
 31
0.0000
 6
CONTINUOUS
 0
ARC
 8
WHITE
 10
8.075581
 20
3.709387
 30
 0
 40
.1692629
 50
339.9834
 51
353.9088
 6
CONTINUOUS
 0
LINE
 8
WHITE
 10
8.234619
 20
3.651449
 30
0.0000
 11
8.162196
 21
3.461415
 31
0.0000
 6
CONTINUOUS
 0
ARC
 8
WHITE
 10
7.951479
 20
3.543165
 30
 0
 40
.2260192
 50
327.4138
 51
338.7959
 6
CONTINUOUS
 0
LINE
 8
WHITE
 10
8.141919
 20
3.421437
 30
0.0000
 11
8.017354
 21
3.222712
 31
0.0000
 6
CONTINUOUS
 0
LINE
 8
WHITE
 10
8.017354
 20
3.222712
 30
0.0000
 11
7.962892
 21
3.136385
 31
0.0000
 6
CONTINUOUS
 0
LINE
 8
WHITE
 10
7.962892
 20
3.136385
 30
0.0000
 11
7.861501
 21
2.971842
 31
0.0000
 6
CONTINUOUS
 0
ARC
 8
WHITE
 10
7.9884
 20
2.893652
 30
 0
 40
.1490536
 50
148.3599
 51
159.5331
 6
CONTINUOUS
 0
LINE
 8
WHITE
 10
7.848755
 20
2.94577
 30
0.0000
 11
7.827897
 21
2.890151
 31
0.0000
 6
CONTINUOUS
 0
LINE
 8
WHITE
 10
7.701014
 20
3.602202
 30
0.0000
 11
7.574131
 21
3.14044
 31
0.0000
 6
CONTINUOUS
 0
LINE
 8
WHITE
 10
7.574131
 20
3.14044
 30
0.0000
 11
7.527202
 21
3.161298
 31
0.0000
 6
CONTINUOUS
 0
LINE
 8
WHITE
 10
7.527202
 20
3.161298
 30
0.0000
 11
7.654085
 21
3.620742
 31
0.0000
 6
CONTINUOUS
 0
LINE
 8
WHITE
 10
7.654085
 20
3.620742
 30
0.0000
 11
7.701014
 21
3.602202
 31
0.0000
 6
CONTINUOUS
 0
LINE
 8
WHITE
 10
8.858013
 20
2.598727
 30
0.0000
 11
8.867297
 21
2.678678
 31
0.0000
 6
CONTINUOUS
 0
LINE
 8
WHITE
 10
8.867297
 20
2.678678
 30
0.0000
 11
8.877145
 21
2.77891
 31
0.0000
 6
CONTINUOUS
 0
ARC
 8
WHITE
 10
8.633171
 20
2.802781
 30
 0
 40
.2451396
 50
354.412
 51
20.58931
 6
CONTINUOUS
 0
LINE
 8
WHITE
 10
8.862652
 20
2.888988
 30
0.0000
 11
8.842383
 21
2.944612
 31
0.0000
 6
CONTINUOUS
 0
ARC
 8
WHITE
 10
8.703334
 20
2.89102
 30
 0
 40
.14902
 50
21.07774
 51
32.0528
 6
CONTINUOUS
 0
LINE
 8
WHITE
 10
8.829636
 20
2.970104
 30
0.0000
 11
8.727667
 21
3.135227
 31
0.0000
 6
CONTINUOUS
 0
LINE
 8
WHITE
 10
8.727667
 20
3.135227
 30
0.0000
 11
8.54864
 21
3.420279
 31
0.0000
 6
CONTINUOUS
 0
ARC
 8
WHITE
 10
8.73974
 20
3.540454
 30
 0
 40
.2257459
 50
200.9668
 51
212.164
 6
CONTINUOUS
 0
LINE
 8
WHITE
 10
8.528942
 20
3.459676
 30
0.0000
 11
8.45652
 21
3.65029
 31
0.0000
 6
CONTINUOUS
 0
ARC
 8
WHITE
 10
8.614515
 20
3.71043
 30
 0
 40
.1690539
 50
186.8497
 51
200.8388
 6
CONTINUOUS
 0
LINE
 8
WHITE
 10
8.446667
 20
3.690267
 30
0.0000
 11
8.427551
 21
3.849596
 31
0.0000
 6
CONTINUOUS
 0
ARC
 8
WHITE
 10
8.528999
 20
3.861415
 30
 0
 40
.1021342
 50
170.9917
 51
186.6452
 6
CONTINUOUS
 0
LINE
 8
WHITE
 10
8.428125
 20
3.877407
 30
0.0000
 11
8.44725
 21
4.000813
 31
0.0000
 6
CONTINUOUS
 0
ARC
 8
WHITE
 10
8.638907
 20
3.970512
 30
 0
 40
.1940376
 50
156.359
 51
171.0159
 6
CONTINUOUS
 0
LINE
 8
WHITE
 10
8.461153
 20
4.048322
 30
0.0000
 11
8.516195
 21
4.176942
 31
0.0000
 6
CONTINUOUS
 0
LINE
 8
WHITE
 10
8.516195
 20
4.176942
 30
0.0000
 11
8.663356
 21
4.386097
 31
0.0000
 6
CONTINUOUS
 0
ARC
 8
WHITE
 10
8.866717
 20
4.243572
 30
 0
 40
.2483326
 50
135.5674
 51
144.9752
 6
CONTINUOUS
 0
LINE
 8
WHITE
 10
8.689389
 20
4.417422
 30
0.0000
 11
8.851074
 21
4.582505
 31
0.0000
 6
CONTINUOUS
 0
ARC
 8
WHITE
 10
8.514978
 20
4.910374
 30
 0
 40
.4695297
 50
315.7099
 51
324.9078
 6
CONTINUOUS
 0
LINE
 8
WHITE
 10
8.89916
 20
4.640444
 30
0.0000
 11
8.951885
 21
4.715182
 31
0.0000
 6
CONTINUOUS
 0
ARC
 8
WHITE
 10
8.7509
 20
4.856376
 30
 0
 40
.2456227
 50
324.9117
 51
335.2184
 6
CONTINUOUS
 0
LINE
 8
WHITE
 10
8.973903
 20
4.75342
 30
0.0000
 11
9.074712
 21
4.961417
 31
0.0000
 6
CONTINUOUS
 0
LINE
 8
WHITE
 10
9.074712
 20
4.961417
 30
0.0000
 11
9.144238
 21
5.107419
 31
0.0000
 6
CONTINUOUS
 0
ARC
 8
WHITE
 10
9.221353
 20
5.071034
 30
 0
 40
8.526698E-02
 50
102.2031
 51
154.7405
 6
CONTINUOUS
 0
LINE
 8
WHITE
 10
9.203329
 20
5.154374
 30
0.0000
 11
9.272859
 21
5.169412
 31
0.0000
 6
CONTINUOUS
 0
ARC
 8
WHITE
 10
9.291733
 20
5.083039
 30
 0
 40
8.841126E-02
 50
51.29328
 51
102.3258
 6
CONTINUOUS
 0
LINE
 8
WHITE
 10
9.347019
 20
5.15203
 30
0.0000
 11
9.386416
 21
5.120745
 31
0.0000
 6
CONTINUOUS
 0
ARC
 8
WHITE
 10
9.347367
 20
5.072261
 30
 0
 40
6.225404E-02
 50
358.2316
 51
51.15212
 6
CONTINUOUS
 0
LINE
 8
WHITE
 10
9.409591
 20
5.070339
 30
0.0000
 11
9.385257
 21
4.351913
 31
0.0000
 6
CONTINUOUS
 0
ARC
 8
WHITE
 10
9.408433
 20
4.350639
 30
 0
 40
2.321026E-02
 50
176.852
 51
234.9601
 6
CONTINUOUS
 0
LINE
 8
WHITE
 10
9.395107
 20
4.331636
 30
0.0000
 11
9.420599
 21
4.314834
 31
0.0000
 6
CONTINUOUS
 0
ARC
 8
WHITE
 10
9.372448
 20
4.243069
 30
 0
 40
8.642233E-02
 50
39.49318
 51
56.13966
 6
CONTINUOUS
 0
LINE
 8
WHITE
 10
9.43914
 20
4.298032
 30
0.0000
 11
9.462894
 21
4.269643
 31
0.0000
 6
CONTINUOUS
 0
ARC
 8
WHITE
 10
9.424713
 20
4.23772
 30
 0
 40
4.976855E-02
 50
358.7324
 51
39.89891
 6
CONTINUOUS
 0
LINE
 8
WHITE
 10
9.474469
 20
4.236618
 30
0.0000
 11
9.471585
 21
4.035575
 31
0.0000
 6
CONTINUOUS
 0
ARC
 8
WHITE
 10
9.452466
 20
4.035923
 30
 0
 40
1.912242E-02
 50
261.2797
 51
358.9584
 6
CONTINUOUS
 0
LINE
 8
WHITE
 10
9.449566
 20
4.017021
 30
0.0000
 11
9.139023
 21
4.063385
 31
0.0000
 6
CONTINUOUS
 0
LINE
 8
WHITE
 10
9.139023
 20
4.063385
 30
0.0000
 11
9.127436
 21
4.013558
 31
0.0000
 6
CONTINUOUS
 0
LINE
 8
WHITE
 10
9.127436
 20
4.013558
 30
0.0000
 11
9.433345
 21
3.961416
 31
0.0000
 6
CONTINUOUS
 0
ARC
 8
WHITE
 10
9.427727
 20
3.930809
 30
 0
 40
3.111897E-02
 50
358.7488
 51
79.59723
 6
CONTINUOUS
 0
LINE
 8
WHITE
 10
9.458838
 20
3.930129
 30
0.0000
 11
9.440877
 21
2.984589
 31
0.0000
 6
CONTINUOUS
 0
LINE
 8
WHITE
 10
9.440877
 20
2.984589
 30
0.0000
 11
9.443775
 21
2.806721
 31
0.0000
 6
CONTINUOUS
 0
ARC
 8
WHITE
 10
9.130962
 20
2.802804
 30
 0
 40
.3128373
 50
340.1622
 51
.717496
 6
CONTINUOUS
 0
LINE
 8
WHITE
 10
9.425234
 20
2.69664
 30
0.0000
 11
9.378305
 21
2.56628
 31
0.0000
 6
CONTINUOUS
 0
LINE
 8
WHITE
 10
9.378305
 20
2.56628
 30
0.0000
 11
9.370773
 21
2.540788
 31
0.0000
 6
CONTINUOUS
 0
ARC
 8
WHITE
 10
9.380101
 20
2.538587
 30
 0
 40
9.584173E-03
 50
166.7201
 51
227.7041
 6
CONTINUOUS
 0
LINE
 8
WHITE
 10
9.373651
 20
2.531497
 30
0.0000
 11
9.40148
 21
2.508922
 31
0.0000
 6
CONTINUOUS
 0
ARC
 8
WHITE
 10
9.366712
 20
2.466062
 30
 0
 40
5.518977E-02
 50
26.81876
 51
50.95054
 6
CONTINUOUS
 0
LINE
 8
WHITE
 10
9.415965
 20
2.490962
 30
0.0000
 11
9.432187
 21
2.457937
 31
0.0000
 6
CONTINUOUS
 0
ARC
 8
WHITE
 10
9.420716
 20
2.451912
 30
 0
 40
1.295688E-02
 50
308.098
 51
27.71086
 6
CONTINUOUS
 0
LINE
 8
WHITE
 10
9.42871
 20
2.441715
 30
0.0000
 11
9.403798
 21
2.421437
 31
0.0000
 6
CONTINUOUS
 0
ARC
 8
WHITE
 10
9.387484
 20
2.44108
 30
 0
 40
2.553455E-02
 50
264.9992
 51
309.7112
 6
CONTINUOUS
 0
LINE
 8
WHITE
 10
9.385257
 20
2.415642
 30
0.0000
 11
9.338328
 21
2.421437
 31
0.0000
 6
CONTINUOUS
 0
ARC
 8
WHITE
 10
9.333635
 20
2.384415
 30
 0
 40
3.731838E-02
 50
82.77555
 51
102.4618
 6
CONTINUOUS
 0
LINE
 8
WHITE
 10
9.325582
 20
2.420854
 30
0.0000
 11
9.282129
 21
2.411008
 31
0.0000
 6
CONTINUOUS
 0
LINE
 8
WHITE
 10
9.282129
 20
2.411008
 30
0.0000
 11
9.006926
 21
1.977055
 31
0.0000
 6
CONTINUOUS
 0
LINE
 8
WHITE
 10
9.006926
 20
1.977055
 30
0.0000
 11
8.956521
 21
1.901157
 31
0.0000
 6
CONTINUOUS
 0
ARC
 8
WHITE
 10
8.928305
 20
1.919988
 30
 0
 40
3.392228E-02
 50
270.6878
 51
326.2835
 6
CONTINUOUS
 0
LINE
 8
WHITE
 10
8.928711
 20
1.886068
 30
0.0000
 11
8.914226
 21
1.886094
 31
0.0000
 6
CONTINUOUS
 0
ARC
 8
WHITE
 10
8.914574
 20
1.909848
 30
 0
 40
.0237569
 50
212.4503
 51
269.1628
 6
CONTINUOUS
 0
LINE
 8
WHITE
 10
8.894526
 20
1.897101
 30
0.0000
 11
8.852232
 21
1.962572
 31
0.0000
 6
CONTINUOUS
 0
ARC
 8
WHITE
 10
8.878078
 20
1.978873
 30
 0
 40
3.055563E-02
 50
168.1114
 51
212.2401
 6
CONTINUOUS
 0
LINE
 8
WHITE
 10
8.848177
 20
1.985167
 30
0.0000
 11
8.863821
 21
2.070914
 31
0.0000
 6
CONTINUOUS
 0
LINE
 8
WHITE
 10
8.863821
 20
2.070914
 30
0.0000
 11
8.867297
 21
2.082502
 31
0.0000
 6
CONTINUOUS
 0
LINE
 8
WHITE
 10
8.867297
 20
2.082502
 30
0.0000
 11
8.91944
 21
2.276013
 31
0.0000
 6
CONTINUOUS
 0
ARC
 8
WHITE
 10
8.783804
 20
2.311629
 30
 0
 40
.1402343
 50
345.2875
 51
13.74943
 6
CONTINUOUS
 0
LINE
 8
WHITE
 10
8.92002
 20
2.344959
 30
0.0000
 11
8.893947
 21
2.452143
 31
0.0000
 6
CONTINUOUS
 0
LINE
 8
WHITE
 10
8.893947
 20
2.452143
 30
0.0000
 11
8.861502
 21
2.545422
 31
0.0000
 6
CONTINUOUS
 0
ARC
 8
WHITE
 10
8.962372
 20
2.578795
 30
 0
 40
.1062463
 50
169.1864
 51
198.3065
 6
CONTINUOUS
 0
LINE
 8
WHITE
 10
8.988386
 20
3.603362
 30
0.0000
 11
9.116428
 21
3.139282
 31
0.0000
 6
CONTINUOUS
 0
LINE
 8
WHITE
 10
9.116428
 20
3.139282
 30
0.0000
 11
9.163357
 21
3.160139
 31
0.0000
 6
CONTINUOUS
 0
LINE
 8
WHITE
 10
9.163357
 20
3.160139
 30
0.0000
 11
9.036474
 21
3.619584
 31
0.0000
 6
CONTINUOUS
 0
LINE
 8
WHITE
 10
9.036474
 20
3.619584
 30
0.0000
 11
8.988386
 21
3.603362
 31
0.0000
 6
CONTINUOUS
 0
LINE
 8
WHITE
 10
1.868429
 20
2.405783
 30
0.0000
 11
1.86439
 21
2.400578
 31
0.0000
 6
CONTINUOUS
 0
LINE
 8
WHITE
 10
1.86439
 20
2.400578
 30
0.0000
 11
1.689999
 21
2.420277
 31
0.0000
 6
CONTINUOUS
 0
ARC
 8
WHITE
 10
1.696372
 20
2.472132
 30
 0
 40
5.224424E-02
 50
183.4973
 51
262.9938
 6
CONTINUOUS
 0
LINE
 8
WHITE
 10
1.644228
 20
2.468945
 30
0.0000
 11
1.624521
 21
2.789339
 31
0.0000
 6
CONTINUOUS
 0
ARC
 8
WHITE
 10
1.555295
 20
2.784183
 30
 0
 40
6.941897E-02
 50
4.259522
 51
27.27077
 6
CONTINUOUS
 0
LINE
 8
WHITE
 10
1.616998
 20
2.81599
 30
0.0000
 11
1.297183
 21
3.455621
 31
0.0000
 6
CONTINUOUS
 0
ARC
 8
WHITE
 10
1.302714
 20
3.458449
 30
 0
 40
6.212378E-03
 50
109.3247
 51
207.0779
 6
CONTINUOUS
 0
LINE
 8
WHITE
 10
1.300658
 20
3.464311
 30
0.0000
 11
1.705063
 21
3.622481
 31
0.0000
 6
CONTINUOUS
 0
LINE
 8
WHITE
 10
1.705063
 20
3.622481
 30
0.0000
 11
1.68884
 21
3.671149
 31
0.0000
 6
CONTINUOUS
 0
LINE
 8
WHITE
 10
1.68884
 20
3.671149
 30
0.0000
 11
1.295444
 21
3.520511
 31
0.0000
 6
CONTINUOUS
 0
ARC
 8
WHITE
 10
1.290926
 20
3.531751
 30
 0
 40
1.211419E-02
 50
194.9695
 51
291.9028
 6
CONTINUOUS
 0
LINE
 8
WHITE
 10
1.279222
 20
3.528622
 30
0.0000
 11
1.218962
 21
3.744728
 31
0.0000
 6
CONTINUOUS
 0
ARC
 8
WHITE
 10
1.574124
 20
3.840732
 30
 0
 40
.3679078
 50
179.7023
 51
195.1261
 6
CONTINUOUS
 0
LINE
 8
WHITE
 10
1.20622
 20
3.842643
 30
0.0000
 11
1.206219
 21
3.942296
 31
0.0000
 6
CONTINUOUS
 0
ARC
 8
WHITE
 10
1.743012
 20
3.944324
 30
 0
 40
.5367968
 50
169.3329
 51
180.2164
 6
CONTINUOUS
 0
LINE
 8
WHITE
 10
1.215491
 20
4.043686
 30
0.0000
 11
1.276325
 21
4.360025
 31
0.0000
 6
CONTINUOUS
 0
LINE
 8
WHITE
 10
1.276325
 20
4.360025
 30
0.0000
 11
1.30819
 21
4.549481
 31
0.0000
 6
CONTINUOUS
 0
LINE
 8
WHITE
 10
1.30819
 20
4.549481
 30
0.0000
 11
1.319197
 21
4.616109
 31
0.0000
 6
CONTINUOUS
 0
ARC
 8
WHITE
 10
.6755131
 20
4.722251
 30
 0
 40
.6523769
 50
350.6364
 51
9.163073E-02
 6
CONTINUOUS
 0
LINE
 8
WHITE
 10
1.327889
 20
4.723294
 30
0.0000
 11
1.327882
 21
4.815414
 31
0.0000
 6
CONTINUOUS
 0
ARC
 8
WHITE
 10
1.044344
 20
4.815241
 30
 0
 40
.2835391
 50
3.507367E-02
 51
27.67503
 6
CONTINUOUS
 0
LINE
 8
WHITE
 10
1.295444
 20
4.946932
 30
0.0000
 11
1.187101
 21
5.147396
 31
0.0000
 6
CONTINUOUS
 0
LINE
 8
WHITE
 10
1.187101
 20
5.147396
 30
0.0000
 11
1.154075
 21
5.19838
 31
0.0000
 6
CONTINUOUS
 0
ARC
 8
WHITE
 10
1.252513
 20
5.261997
 30
 0
 40
.1172047
 50
164.4593
 51
212.873
 6
CONTINUOUS
 0
LINE
 8
WHITE
 10
1.139592
 20
5.293398
 30
0.0000
 11
1.15118
 21
5.336272
 31
0.0000
 6
CONTINUOUS
 0
ARC
 8
WHITE
 10
1.242469
 20
5.310888
 30
 0
 40
9.475203E-02
 50
109.8619
 51
164.4607
 6
CONTINUOUS
 0
LINE
 8
WHITE
 10
1.210276
 20
5.400003
 30
0.0000
 11
1.231713
 21
5.408115
 31
0.0000
 6
CONTINUOUS
 0
ARC
 8
WHITE
 10
1.271029
 20
5.297935
 30
 0
 40
.1169853
 50
54.88679
 51
109.6379
 6
CONTINUOUS
 0
LINE
 8
WHITE
 10
1.338318
 20
5.39363
 30
0.0000
 11
1.381771
 21
5.363503
 31
0.0000
 6
CONTINUOUS
 0
ARC
 8
WHITE
 10
1.320184
 20
5.274975
 30
 0
 40
.1078449
 50
39.65984
 51
55.17428
 6
CONTINUOUS
 0
LINE
 8
WHITE
 10
1.403208
 20
5.343804
 30
0.0000
 11
1.426963
 21
5.315414
 31
0.0000
 6
CONTINUOUS
 0
LINE
 8
WHITE
 10
1.426963
 20
5.315414
 30
0.0000
 11
1.450683
 21
5.286418
 31
0.0000
 6
CONTINUOUS
 0
ARC
 8
WHITE
 10
1.488956
 20
5.318312
 30
 0
 40
4.981922E-02
 50
219.8052
 51
278.6955
 6
CONTINUOUS
 0
LINE
 8
WHITE
 10
1.496487
 20
5.269064
 30
0.0000
 11
1.530672
 21
5.274271
 31
0.0000
 6
CONTINUOUS
 0
ARC
 8
WHITE
 10
1.546894
 20
5.164893
 30
 0
 40
.1105747
 50
79.73847
 51
98.43579
 6
CONTINUOUS
 0
LINE
 8
WHITE
 10
1.566591
 20
5.2737
 30
0.0000
 11
1.667977
 21
5.256291
 31
0.0000
 6
CONTINUOUS
 0
ARC
 8
WHITE
 10
1.656974
 20
5.196643
 30
 0
 40
6.065488E-02
 50
46.54819
 51
79.54836
 6
CONTINUOUS
 0
LINE
 8
WHITE
 10
1.698689
 20
5.240675
 30
0.0000
 11
1.755468
 21
5.186793
 31
0.0000
 6
CONTINUOUS
 0
ARC
 8
WHITE
 10
1.705063
 20
5.133123
 30
 0
 40
7.362857E-02
 50
2.090275
 51
46.79714
 6
CONTINUOUS
 0
LINE
 8
WHITE
 10
1.778643
 20
5.135808
 30
0.0000
 11
1.777484
 21
5.015878
 31
0.0000
 6
CONTINUOUS
 0
LINE
 8
WHITE
 10
1.777484
 20
5.015878
 30
0.0000
 11
1.767053
 21
4.864081
 31
0.0000
 6
CONTINUOUS
 0
ARC
 8
WHITE
 10
2.044055
 20
4.84363
 30
 0
 40
.2777557
 50
175.7773
 51
198.6994
 6
CONTINUOUS
 0
LINE
 8
WHITE
 10
1.780961
 20
4.75458
 30
0.0000
 11
1.838898
 21
4.585402
 31
0.0000
 6
CONTINUOUS
 0
LINE
 8
WHITE
 10
1.838898
 20
4.585402
 30
0.0000
 11
1.956505
 21
4.382038
 31
0.0000
 6
CONTINUOUS
 0
ARC
 8
WHITE
 10
2.302456
 20
4.584186
 30
 0
 40
.4006809
 50
210.2988
 51
224.5196
 6
CONTINUOUS
 0
LINE
 8
WHITE
 10
2.016766
 20
4.303246
 30
0.0000
 11
2.176095
 21
4.140442
 31
0.0000
 6
CONTINUOUS
 0
ARC
 8
WHITE
 10
1.955961
 20
3.924252
 30
 0
 40
.3085409
 50
18.85962
 51
44.48226
 6
CONTINUOUS
 0
LINE
 8
WHITE
 10
2.247937
 20
4.023987
 30
0.0000
 11
2.276906
 21
3.939399
 31
0.0000
 6
CONTINUOUS
 0
ARC
 8
WHITE
 10
2.121612
 20
3.886027
 30
 0
 40
.1642098
 50
342.9969
 51
18.96722
 6
CONTINUOUS
 0
LINE
 8
WHITE
 10
2.278644
 20
3.838008
 30
0.0000
 11
2.253706
 21
3.756903
 31
0.0000
 6
CONTINUOUS
 0
ARC
 8
WHITE
 10
2.729977
 20
3.610315
 30
 0
 40
.4983194
 50
162.8924
 51
179.134
 6
CONTINUOUS
 0
LINE
 8
WHITE
 10
2.231714
 20
3.617846
 30
0.0000
 11
2.223024
 21
3.352492
 31
0.0000
 6
CONTINUOUS
 0
LINE
 8
WHITE
 10
2.223024
 20
3.352492
 30
0.0000
 11
2.20271
 21
3.188533
 31
0.0000
 6
CONTINUOUS
 0
ARC
 8
WHITE
 10
2.019664
 20
3.210546
 30
 0
 40
.1843656
 50
335.6901
 51
353.1429
 6
CONTINUOUS
 0
LINE
 8
WHITE
 10
2.187682
 20
3.134647
 30
0.0000
 11
2.054425
 21
2.838007
 31
0.0000
 6
CONTINUOUS
 0
ARC
 8
WHITE
 10
2.192964
 20
2.775745
 30
 0
 40
.151886
 50
155.7996
 51
197.432
 6
CONTINUOUS
 0
LINE
 8
WHITE
 10
2.048053
 20
2.730243
 30
0.0000
 11
2.059061
 21
2.692005
 31
0.0000
 6
CONTINUOUS
 0
LINE
 8
WHITE
 10
2.059061
 20
2.692005
 30
0.0000
 11
2.089188
 21
2.549478
 31
0.0000
 6
CONTINUOUS
 0
ARC
 8
WHITE
 10
2.070127
 20
2.545481
 30
 0
 40
1.947591E-02
 50
306.289
 51
11.84311
 6
CONTINUOUS
 0
LINE
 8
WHITE
 10
2.081656
 20
2.529779
 30
0.0000
 11
1.939709
 21
2.419119
 31
0.0000
 6
CONTINUOUS
 0
ARC
 8
WHITE
 10
1.931358
 20
2.430267
 30
 0
 40
1.392906E-02
 50
200.0441
 51
306.8391
 6
CONTINUOUS
 0
LINE
 8
WHITE
 10
1.918273
 20
2.425492
 30
0.0000
 11
1.768214
 21
2.883778
 31
0.0000
 6
CONTINUOUS
 0
LINE
 8
WHITE
 10
1.768214
 20
2.883778
 30
0.0000
 11
1.718967
 21
2.871611
 31
0.0000
 6
CONTINUOUS
 0
LINE
 8
WHITE
 10
1.718967
 20
2.871611
 30
0.0000
 11
1.868429
 21
2.405783
 31
0.0000
 6
CONTINUOUS
 0
LINE
 8
WHITE
 10
3.595563
 20
1.734877
 30
0.0000
 11
3.591507
 21
1.729662
 31
0.0000
 6
CONTINUOUS
 0
LINE
 8
WHITE
 10
3.591507
 20
1.729662
 30
0.0000
 11
3.417116
 21
1.748782
 31
0.0000
 6
CONTINUOUS
 0
ARC
 8
WHITE
 10
3.42291
 20
1.800671
 30
 0
 40
5.221181E-02
 50
182.9009
 51
263.6284
 6
CONTINUOUS
 0
LINE
 8
WHITE
 10
3.370765
 20
1.798029
 30
0.0000
 11
3.351639
 21
2.118423
 31
0.0000
 6
CONTINUOUS
 0
ARC
 8
WHITE
 10
3.282296
 20
2.115237
 30
 0
 40
6.941721E-02
 50
2.630781
 51
25.98764
 6
CONTINUOUS
 0
LINE
 8
WHITE
 10
3.344694
 20
2.145654
 30
0.0000
 11
3.024878
 21
2.785284
 31
0.0000
 6
CONTINUOUS
 0
ARC
 8
WHITE
 10
3.030325
 20
2.788297
 30
 0
 40
6.223824E-03
 50
114.1811
 51
208.9529
 6
CONTINUOUS
 0
LINE
 8
WHITE
 10
3.027775
 20
2.793974
 30
0.0000
 11
3.432179
 21
2.952144
 31
0.0000
 6
CONTINUOUS
 0
LINE
 8
WHITE
 10
3.432179
 20
2.952144
 30
0.0000
 11
3.415956
 21
3.000812
 31
0.0000
 6
CONTINUOUS
 0
LINE
 8
WHITE
 10
3.415956
 20
3.000812
 30
0.0000
 11
3.022557
 21
2.849605
 31
0.0000
 6
CONTINUOUS
 0
ARC
 8
WHITE
 10
3.018042
 20
2.860661
 30
 0
 40
1.194164E-02
 50
191.4737
 51
292.215
 6
CONTINUOUS
 0
LINE
 8
WHITE
 10
3.006339
 20
2.858285
 30
0.0000
 11
2.946079
 21
3.074391
 31
0.0000
 6
CONTINUOUS
 0
ARC
 8
WHITE
 10
3.301241
 20
3.170395
 30
 0
 40
.3679078
 50
179.7021
 51
195.1261
 6
CONTINUOUS
 0
LINE
 8
WHITE
 10
2.933338
 20
3.172307
 30
0.0000
 11
2.933334
 21
3.271959
 31
0.0000
 6
CONTINUOUS
 0
ARC
 8
WHITE
 10
3.470129
 20
3.273407
 30
 0
 40
.5367966
 50
169.3329
 51
180.1546
 6
CONTINUOUS
 0
LINE
 8
WHITE
 10
2.942607
 20
3.37277
 30
0.0000
 11
3.003441
 21
3.689109
 31
0.0000
 6
CONTINUOUS
 0
LINE
 8
WHITE
 10
3.003441
 20
3.689109
 30
0.0000
 11
3.046314
 21
3.945773
 31
0.0000
 6
CONTINUOUS
 0
ARC
 8
WHITE
 10
2.402631
 20
4.051914
 30
 0
 40
.6523764
 50
350.6364
 51
4.070622E-02
 6
CONTINUOUS
 0
LINE
 8
WHITE
 10
3.055006
 20
4.052377
 30
0.0000
 11
3.055006
 21
4.145077
 31
0.0000
 6
CONTINUOUS
 0
ARC
 8
WHITE
 10
2.77175
 20
4.144961
 30
 0
 40
.2832558
 50
2.343798E-02
 51
27.69196
 6
CONTINUOUS
 0
LINE
 8
WHITE
 10
3.022561
 20
4.276595
 30
0.0000
 11
2.914218
 21
4.47648
 31
0.0000
 6
CONTINUOUS
 0
LINE
 8
WHITE
 10
2.914218
 20
4.47648
 30
0.0000
 11
2.881773
 21
4.527464
 31
0.0000
 6
CONTINUOUS
 0
ARC
 8
WHITE
 10
2.979801
 20
4.591709
 30
 0
 40
.1172037
 50
164.7776
 51
213.2394
 6
CONTINUOUS
 0
LINE
 8
WHITE
 10
2.866709
 20
4.622482
 30
0.0000
 11
2.878299
 21
4.665935
 31
0.0000
 6
CONTINUOUS
 0
ARC
 8
WHITE
 10
2.969085
 20
4.640732
 30
 0
 40
9.421905E-02
 50
109.2817
 51
164.485
 6
CONTINUOUS
 0
LINE
 8
WHITE
 10
2.937973
 20
4.729666
 30
0.0000
 11
2.958831
 21
4.737195
 31
0.0000
 6
CONTINUOUS
 0
ARC
 8
WHITE
 10
2.998691
 20
4.627175
 30
 0
 40
.1170186
 50
55.22434
 51
109.9152
 6
CONTINUOUS
 0
LINE
 8
WHITE
 10
3.065434
 20
4.723294
 30
0.0000
 11
3.108888
 21
4.693166
 31
0.0000
 6
CONTINUOUS
 0
ARC
 8
WHITE
 10
3.047526
 20
4.604458
 30
 0
 40
.1078634
 50
39.37617
 51
55.32722
 6
CONTINUOUS
 0
LINE
 8
WHITE
 10
3.130904
 20
4.672887
 30
0.0000
 11
3.177248
 21
4.615525
 31
0.0000
 6
CONTINUOUS
 0
ARC
 8
WHITE
 10
3.215667
 20
4.647222
 30
 0
 40
4.980633E-02
 50
219.524
 51
279.8458
 6
CONTINUOUS
 0
LINE
 8
WHITE
 10
3.224184
 20
4.598148
 30
0.0000
 11
3.257208
 21
4.603362
 31
0.0000
 6
CONTINUOUS
 0
ARC
 8
WHITE
 10
3.275459
 20
4.494267
 30
 0
 40
.110612
 50
80.50345
 51
99.49683
 6
CONTINUOUS
 0
LINE
 8
WHITE
 10
3.293708
 20
4.603363
 30
0.0000
 11
3.395099
 21
4.585402
 31
0.0000
 6
CONTINUOUS
 0
ARC
 8
WHITE
 10
3.385714
 20
4.5259
 30
 0
 40
6.023736E-02
 50
47.53349
 51
81.036
 6
CONTINUOUS
 0
LINE
 8
WHITE
 10
3.426386
 20
4.570338
 30
0.0000
 11
3.482585
 21
4.515877
 31
0.0000
 6
CONTINUOUS
 0
ARC
 8
WHITE
 10
3.432181
 20
4.462206
 30
 0
 40
7.362901E-02
 50
2.091013
 51
46.79733
 6
CONTINUOUS
 0
LINE
 8
WHITE
 10
3.50576
 20
4.464892
 30
0.0000
 11
3.505181
 21
4.345541
 31
0.0000
 6
CONTINUOUS
 0
LINE
 8
WHITE
 10
3.505181
 20
4.345541
 30
0.0000
 11
3.494162
 21
4.193166
 31
0.0000
 6
CONTINUOUS
 0
ARC
 8
WHITE
 10
3.771404
 20
4.173235
 30
 0
 40
.277957
 50
175.8881
 51
198.6729
 6
CONTINUOUS
 0
LINE
 8
WHITE
 10
3.508077
 20
4.084243
 30
0.0000
 11
3.566015
 21
3.914485
 31
0.0000
 6
CONTINUOUS
 0
LINE
 8
WHITE
 10
3.566015
 20
3.914485
 30
0.0000
 11
3.683623
 21
3.711122
 31
0.0000
 6
CONTINUOUS
 0
ARC
 8
WHITE
 10
4.029573
 20
3.913269
 30
 0
 40
.4006807
 50
210.2988
 51
224.5196
 6
CONTINUOUS
 0
LINE
 8
WHITE
 10
3.743883
 20
3.63233
 30
0.0000
 11
3.903789
 21
3.469524
 31
0.0000
 6
CONTINUOUS
 0
ARC
 8
WHITE
 10
3.68276
 20
3.254231
 30
 0
 40
.3085542
 50
18.68319
 51
44.24687
 6
CONTINUOUS
 0
LINE
 8
WHITE
 10
3.975054
 20
3.353071
 30
0.0000
 11
4.004017
 21
3.268481
 31
0.0000
 6
CONTINUOUS
 0
ARC
 8
WHITE
 10
3.848229
 20
3.215992
 30
 0
 40
.1643937
 50
342.6951
 51
18.62018
 6
CONTINUOUS
 0
LINE
 8
WHITE
 10
4.005181
 20
3.167092
 30
0.0000
 11
3.980845
 21
3.08598
 31
0.0000
 6
CONTINUOUS
 0
ARC
 8
WHITE
 10
4.457094
 20
2.939282
 30
 0
 40
.4983301
 50
162.8796
 51
179.054
 6
CONTINUOUS
 0
LINE
 8
WHITE
 10
3.958831
 20
2.947509
 30
0.0000
 11
3.95014
 21
2.681576
 31
0.0000
 6
CONTINUOUS
 0
LINE
 8
WHITE
 10
3.95014
 20
2.681576
 30
0.0000
 11
3.929862
 21
2.517613
 31
0.0000
 6
CONTINUOUS
 0
ARC
 8
WHITE
 10
3.746941
 20
2.540529
 30
 0
 40
.1843509
 50
335.5789
 51
352.8595
 6
CONTINUOUS
 0
LINE
 8
WHITE
 10
3.914798
 20
2.46431
 30
0.0000
 11
3.824996
 21
2.263267
 31
0.0000
 6
CONTINUOUS
 0
LINE
 8
WHITE
 10
3.824996
 20
2.263267
 30
0.0000
 11
3.781535
 21
2.167673
 31
0.0000
 6
CONTINUOUS
 0
ARC
 8
WHITE
 10
3.919724
 20
2.105967
 30
 0
 40
.1513404
 50
155.9373
 51
197.9494
 6
CONTINUOUS
 0
LINE
 8
WHITE
 10
3.775749
 20
2.059327
 30
0.0000
 11
3.786177
 21
2.021088
 31
0.0000
 6
CONTINUOUS
 0
LINE
 8
WHITE
 10
3.786177
 20
2.021088
 30
0.0000
 11
3.816304
 21
1.878562
 31
0.0000
 6
CONTINUOUS
 0
ARC
 8
WHITE
 10
3.796939
 20
1.874321
 30
 0
 40
.0198248
 50
308.7667
 51
12.35343
 6
CONTINUOUS
 0
LINE
 8
WHITE
 10
3.809352
 20
1.858863
 30
0.0000
 11
3.667405
 21
1.748202
 31
0.0000
 6
CONTINUOUS
 0
ARC
 8
WHITE
 10
3.658757
 20
1.75915
 30
 0
 40
1.395123E-02
 50
196.6344
 51
308.3115
 6
CONTINUOUS
 0
LINE
 8
WHITE
 10
3.645389
 20
1.755155
 30
0.0000
 11
3.495331
 21
2.21344
 31
0.0000
 6
CONTINUOUS
 0
LINE
 8
WHITE
 10
3.495331
 20
2.21344
 30
0.0000
 11
3.445505
 21
2.200695
 31
0.0000
 6
CONTINUOUS
 0
LINE
 8
WHITE
 10
3.445505
 20
2.200695
 30
0.0000
 11
3.595563
 21
1.734877
 31
0.0000
 6
CONTINUOUS
 0
LINE
 8
WHITE
 10
5.84122
 20
4.953305
 30
0.0000
 11
5.843538
 21
4.913329
 31
0.0000
 6
CONTINUOUS
 0
LINE
 8
WHITE
 10
5.843538
 20
4.913329
 30
0.0000
 11
5.844697
 21
4.895368
 31
0.0000
 6
CONTINUOUS
 0
ARC
 8
WHITE
 10
5.788526
 20
4.890836
 30
 0
 40
5.635445E-02
 50
344.9981
 51
4.613027
 6
CONTINUOUS
 0
LINE
 8
WHITE
 10
5.842959
 20
4.876248
 30
0.0000
 11
5.83253
 21
4.836271
 31
0.0000
 6
CONTINUOUS
 0
ARC
 8
WHITE
 10
5.816887
 20
4.839748
 30
 0
 40
1.602516E-02
 50
282.5305
 51
347.4719
 6
CONTINUOUS
 0
LINE
 8
WHITE
 10
5.820363
 20
4.824105
 30
0.0000
 11
5.787339
 21
4.817732
 31
0.0000
 6
CONTINUOUS
 0
ARC
 8
WHITE
 10
5.783457
 20
4.836909
 30
 0
 40
1.956592E-02
 50
218.7394
 51
281.4436
 6
CONTINUOUS
 0
LINE
 8
WHITE
 10
5.768196
 20
4.824665
 30
0.0000
 11
5.745623
 21
4.852494
 31
0.0000
 6
CONTINUOUS
 0
ARC
 8
WHITE
 10
5.796898
 20
4.892645
 30
 0
 40
6.512432E-02
 50
205.4479
 51
218.0627
 6
CONTINUOUS
 0
LINE
 8
WHITE
 10
5.738092
 20
4.864661
 30
0.0000
 11
5.708543
 21
4.927234
 31
0.0000
 6
CONTINUOUS
 0
ARC
 8
WHITE
 10
5.657857
 20
4.902826
 30
 0
 40
5.625764E-02
 50
25.71323
 51
60.04339
 6
CONTINUOUS
 0
LINE
 8
WHITE
 10
5.685948
 20
4.951567
 30
0.0000
 11
5.663352
 21
4.964313
 31
0.0000
 6
CONTINUOUS
 0
ARC
 8
WHITE
 10
5.623607
 20
4.895599
 30
 0
 40
7.938088E-02
 50
59.95424
 51
85.5626
 6
CONTINUOUS
 0
LINE
 8
WHITE
 10
5.629748
 20
4.974741
 30
0.0000
 11
5.574129
 21
4.978798
 31
0.0000
 6
CONTINUOUS
 0
ARC
 8
WHITE
 10
5.573376
 20
4.968312
 30
 0
 40
.0105136
 50
85.89328
 51
192.4276
 6
CONTINUOUS
 0
LINE
 8
WHITE
 10
5.563108
 20
4.966049
 30
0.0000
 11
5.607732
 21
4.793977
 31
0.0000
 6
CONTINUOUS
 0
ARC
 8
WHITE
 10
5.597883
 20
4.79166
 30
 0
 40
1.011793E-02
 50
293.6294
 51
13.23789
 6
CONTINUOUS
 0
LINE
 8
WHITE
 10
5.601938
 20
4.78239
 30
0.0000
 11
5.569493
 21
4.769644
 31
0.0000
 6
CONTINUOUS
 0
ARC
 8
WHITE
 10
5.566423
 20
4.77509
 30
 0
 40
6.251842E-03
 50
187.4589
 51
299.4137
 6
CONTINUOUS
 0
LINE
 8
WHITE
 10
5.560224
 20
4.774278
 30
0.0000
 11
5.512135
 21
4.952146
 31
0.0000
 6
CONTINUOUS
 0
ARC
 8
WHITE
 10
5.503445
 20
4.950408
 30
 0
 40
8.86246E-03
 50
11.30993
 51
113.1966
 6
CONTINUOUS
 0
LINE
 8
WHITE
 10
5.499954
 20
4.958554
 30
0.0000
 11
5.439713
 21
4.933607
 31
0.0000
 6
CONTINUOUS
 0
ARC
 8
WHITE
 10
5.457369
 20
4.888873
 30
 0
 40
4.809185E-02
 50
111.5374
 51
149.4343
 6
CONTINUOUS
 0
LINE
 8
WHITE
 10
5.415959
 20
4.913329
 30
0.0000
 11
5.388728
 21
4.86466
 31
0.0000
 6
CONTINUOUS
 0
ARC
 8
WHITE
 10
5.422866
 20
4.844883
 30
 0
 40
3.945283E-02
 50
149.9146
 51
184.0954
 6
CONTINUOUS
 0
LINE
 8
WHITE
 10
5.383514
 20
4.842065
 30
0.0000
 11
5.389308
 21
4.771382
 31
0.0000
 6
CONTINUOUS
 0
LINE
 8
WHITE
 10
5.389308
 20
4.771382
 30
0.0000
 11
5.389888
 21
4.749944
 31
0.0000
 6
CONTINUOUS
 0
LINE
 8
WHITE
 10
5.389888
 20
4.749944
 30
0.0000
 11
5.40611
 21
4.663618
 31
0.0000
 6
CONTINUOUS
 0
ARC
 8
WHITE
 10
5.311093
 20
4.646236
 30
 0
 40
9.659473E-02
 50
339.2831
 51
10.3668
 6
CONTINUOUS
 0
LINE
 8
WHITE
 10
5.401441
 20
4.612066
 30
0.0000
 11
5.382935
 21
4.562227
 31
0.0000
 6
CONTINUOUS
 0
ARC
 8
WHITE
 10
5.333689
 20
4.580767
 30
 0
 40
5.262104E-02
 50
330.333
 51
339.3702
 6
CONTINUOUS
 0
LINE
 8
WHITE
 10
5.379412
 20
4.554721
 30
0.0000
 11
5.342378
 21
4.489805
 31
0.0000
 6
CONTINUOUS
 0
ARC
 8
WHITE
 10
5.418248
 20
4.446303
 30
 0
 40
8.745652E-02
 50
150.1708
 51
179.9672
 6
CONTINUOUS
 0
LINE
 8
WHITE
 10
5.330791
 20
4.446352
 30
0.0000
 11
5.330791
 21
4.396526
 31
0.0000
 6
CONTINUOUS
 0
ARC
 8
WHITE
 10
5.416539
 20
4.395947
 30
 0
 40
8.574872E-02
 50
179.6129
 51
222.5343
 6
CONTINUOUS
 0
LINE
 8
WHITE
 10
5.353352
 20
4.337977
 30
0.0000
 11
5.401474
 21
4.287024
 31
0.0000
 6
CONTINUOUS
 0
ARC
 8
WHITE
 10
5.457211
 20
4.337198
 30
 0
 40
7.499277E-02
 50
221.9936
 51
231.7132
 6
CONTINUOUS
 0
LINE
 8
WHITE
 10
5.410745
 20
4.278334
 30
0.0000
 11
5.437975
 21
4.258055
 31
0.0000
 6
CONTINUOUS
 0
ARC
 8
WHITE
 10
5.380733
 20
4.183085
 30
 0
 40
9.432521E-02
 50
25.62059
 51
52.63741
 6
CONTINUOUS
 0
LINE
 8
WHITE
 10
5.465784
 20
4.223872
 30
0.0000
 11
5.471
 21
4.213444
 31
0.0000
 6
CONTINUOUS
 0
ARC
 8
WHITE
 10
5.369438
 20
4.164572
 30
 0
 40
.1127094
 50
357.1574
 51
25.69691
 6
CONTINUOUS
 0
LINE
 8
WHITE
 10
5.482007
 20
4.158982
 30
0.0000
 11
5.479691
 21
4.106839
 31
0.0000
 6
CONTINUOUS
 0
ARC
 8
WHITE
 10
5.286817
 20
4.12451
 30
 0
 40
.1936817
 50
351.8312
 51
354.7653
 6
CONTINUOUS
 0
LINE
 8
WHITE
 10
5.478533
 20
4.096989
 30
0.0000
 11
5.455936
 21
3.859445
 31
0.0000
 6
CONTINUOUS
 0
LINE
 8
WHITE
 10
5.455936
 20
3.859445
 30
0.0000
 11
5.427547
 21
3.532677
 31
0.0000
 6
CONTINUOUS
 0
LINE
 8
WHITE
 10
5.427547
 20
3.532677
 30
0.0000
 11
5.409586
 21
3.29861
 31
0.0000
 6
CONTINUOUS
 0
LINE
 8
WHITE
 10
5.409586
 20
3.29861
 30
0.0000
 11
5.395102
 21
3.246466
 31
0.0000
 6
CONTINUOUS
 0
LINE
 8
WHITE
 10
5.395102
 20
3.246466
 30
0.0000
 11
5.3783
 21
3.219815
 31
0.0000
 6
CONTINUOUS
 0
ARC
 8
WHITE
 10
5.33114
 20
3.250754
 30
 0
 40
5.640322E-02
 50
303.2654
 51
326.7341
 6
CONTINUOUS
 0
LINE
 8
WHITE
 10
5.362077
 20
3.203593
 30
0.0000
 11
5.343537
 21
3.192005
 31
0.0000
 6
CONTINUOUS
 0
ARC
 8
WHITE
 10
5.318277
 20
3.230592
 30
 0
 40
.046119
 50
261.0349
 51
303.211
 6
CONTINUOUS
 0
LINE
 8
WHITE
 10
5.311089
 20
3.185035
 30
0.0000
 11
5.288497
 21
3.188529
 31
0.0000
 6
CONTINUOUS
 0
ARC
 8
WHITE
 10
5.308254
 20
3.305447
 30
 0
 40
.1185746
 50
239.7514
 51
260.4089
 6
CONTINUOUS
 0
LINE
 8
WHITE
 10
5.248521
 20
3.203016
 30
0.0000
 11
5.183051
 21
3.237776
 31
0.0000
 6
CONTINUOUS
 0
LINE
 8
WHITE
 10
5.183051
 20
3.237776
 30
0.0000
 11
5.121057
 21
3.265585
 31
0.0000
 6
CONTINUOUS
 0
ARC
 8
WHITE
 10
5.037295
 20
3.077179
 30
 0
 40
.206187
 50
66.03092
 51
78.06882
 6
CONTINUOUS
 0
LINE
 8
WHITE
 10
5.079921
 20
3.278912
 30
0.0000
 11
5.053271
 21
3.284705
 31
0.0000
 6
CONTINUOUS
 0
ARC
 8
WHITE
 10
5.034383
 20
3.196003
 30
 0
 40
9.069122E-02
 50
77.97887
 51
106.4778
 6
CONTINUOUS
 0
ARC
 8
WHITE
 10
5.022738
 20
3.233026
 30
 0
 40
5.188997E-02
 50
105.7432
 51
149.684
 6
CONTINUOUS
 0
LINE
 8
WHITE
 10
4.977945
 20
3.259217
 30
0.0000
 11
4.950721
 21
3.211704
 31
0.0000
 6
CONTINUOUS
 0
ARC
 8
WHITE
 10
5.075461
 20
3.137602
 30
 0
 40
.1450898
 50
149.2871
 51
160.6679
 6
CONTINUOUS
 0
LINE
 8
WHITE
 10
4.938551
 20
3.185633
 30
0.0000
 11
4.918276
 21
3.123639
 31
0.0000
 6
CONTINUOUS
 0
ARC
 8
WHITE
 10
4.923491
 20
3.122481
 30
 0
 40
5.341409E-03
 50
167.4712
 51
257.4756
 6
CONTINUOUS
 0
LINE
 8
WHITE
 10
4.922332
 20
3.117266
 30
0.0000
 11
5.212019
 21
3.053535
 31
0.0000
 6
CONTINUOUS
 0
ARC
 8
WHITE
 10
5.21144
 20
3.048321
 30
 0
 40
5.246355E-03
 50
353.6572
 51
83.65463
 6
CONTINUOUS
 0
LINE
 8
WHITE
 10
5.216654
 20
3.047741
 30
0.0000
 11
5.209702
 21
3.006026
 31
0.0000
 6
CONTINUOUS
 0
ARC
 8
WHITE
 10
5.203966
 20
3.007069
 30
 0
 40
5.829989E-03
 50
257.9084
 51
349.6909
 6
CONTINUOUS
 0
LINE
 8
WHITE
 10
5.202744
 20
3.001368
 30
0.0000
 11
4.926966
 21
3.059907
 31
0.0000
 6
CONTINUOUS
 0
ARC
 8
WHITE
 10
4.922738
 20
3.038934
 30
 0
 40
2.139557E-02
 50
78.59979
 51
175.0168
 6
CONTINUOUS
 0
LINE
 8
WHITE
 10
4.901422
 20
3.040792
 30
0.0000
 11
4.898577
 21
3.004867
 31
0.0000
 6
CONTINUOUS
 0
ARC
 8
WHITE
 10
5.015669
 20
2.996466
 30
 0
 40
.1173927
 50
175.8959
 51
192.1086
 6
CONTINUOUS
 0
LINE
 8
WHITE
 10
4.900888
 20
2.971841
 30
0.0000
 11
4.902054
 21
2.966049
 31
0.0000
 6
CONTINUOUS
 0
ARC
 8
WHITE
 10
5.003505
 20
2.986607
 30
 0
 40
.1035127
 50
191.4548
 51
226.4466
 6
CONTINUOUS
 0
LINE
 8
WHITE
 10
4.932181
 20
2.911587
 30
0.0000
 11
4.950141
 21
2.894786
 31
0.0000
 6
CONTINUOUS
 0
ARC
 8
WHITE
 10
5.01545
 20
2.963315
 30
 0
 40
9.466427E-02
 50
226.3785
 51
258.8051
 6
CONTINUOUS
 0
LINE
 8
WHITE
 10
4.997071
 20
2.870452
 30
0.0000
 11
5.030674
 21
2.864079
 31
0.0000
 6
CONTINUOUS
 0
LINE
 8
WHITE
 10
5.030674
 20
2.864079
 30
0.0000
 11
5.16509
 21
2.857705
 31
0.0000
 6
CONTINUOUS
 0
LINE
 8
WHITE
 10
5.16509
 20
2.857705
 30
0.0000
 11
5.249678
 21
2.855389
 31
0.0000
 6
CONTINUOUS
 0
ARC
 8
WHITE
 10
5.247014
 20
2.766745
 30
 0
 40
8.868454E-02
 50
69.10226
 51
88.27827
 6
CONTINUOUS
 0
LINE
 8
WHITE
 10
5.278647
 20
2.849595
 30
0.0000
 11
5.295449
 21
2.843801
 31
0.0000
 6
CONTINUOUS
 0
ARC
 8
WHITE
 10
5.267466
 20
2.769699
 30
 0
 40
7.920995E-02
 50
42.80651
 51
69.31165
 6
CONTINUOUS
 0
LINE
 8
WHITE
 10
5.325578
 20
2.823523
 30
0.0000
 11
5.33137
 21
2.817149
 31
0.0000
 6
CONTINUOUS
 0
ARC
 8
WHITE
 10
5.291973
 20
2.779548
 30
 0
 40
5.446146E-02
 50
359.9398
 51
43.66364
 6
CONTINUOUS
 0
LINE
 8
WHITE
 10
5.346434
 20
2.77949
 30
0.0000
 11
5.346434
 21
2.766164
 31
0.0000
 6
CONTINUOUS
 0
ARC
 8
WHITE
 10
5.288506
 20
2.76693
 30
 0
 40
5.793361E-02
 50
322.1762
 51
359.2436
 6
CONTINUOUS
 0
LINE
 8
WHITE
 10
5.334267
 20
2.731402
 30
0.0000
 11
5.31341
 21
2.703592
 31
0.0000
 6
CONTINUOUS
 0
ARC
 8
WHITE
 10
5.260861
 20
2.745134
 30
 0
 40
6.698581E-02
 50
308.3271
 51
321.6731
 6
CONTINUOUS
 0
LINE
 8
WHITE
 10
5.302402
 20
2.692584
 30
0.0000
 11
5.254893
 21
2.653766
 31
0.0000
 6
CONTINUOUS
 0
LINE
 8
WHITE
 10
5.254893
 20
2.653766
 30
0.0000
 11
5.21144
 21
2.614947
 31
0.0000
 6
CONTINUOUS
 0
ARC
 8
WHITE
 10
5.249795
 20
2.57051
 30
 0
 40
.0587013
 50
130.7977
 51
161.7613
 6
CONTINUOUS
 0
LINE
 8
WHITE
 10
5.194043
 20
2.588881
 30
0.0000
 11
5.183051
 21
2.554693
 31
0.0000
 6
CONTINUOUS
 0
ARC
 8
WHITE
 10
5.221406
 20
2.542816
 30
 0
 40
4.015194E-02
 50
162.7932
 51
207.9702
 6
CONTINUOUS
 0
LINE
 8
WHITE
 10
5.185944
 20
2.523984
 30
0.0000
 11
5.200431
 21
2.495596
 31
0.0000
 6
CONTINUOUS
 0
ARC
 8
WHITE
 10
5.320363
 20
2.556431
 30
 0
 40
.1344775
 50
206.8962
 51
223.2538
 6
CONTINUOUS
 0
LINE
 8
WHITE
 10
5.222419
 20
2.464282
 30
0.0000
 11
5.253734
 21
2.431285
 31
0.0000
 6
CONTINUOUS
 0
ARC
 8
WHITE
 10
5.260448
 20
2.43732
 30
 0
 40
9.026296E-03
 50
221.9519
 51
322.8202
 6
CONTINUOUS
 0
LINE
 8
WHITE
 10
5.267639
 20
2.431865
 30
0.0000
 11
5.388728
 21
2.588876
 31
0.0000
 6
CONTINUOUS
 0
ARC
 8
WHITE
 10
5.400026
 20
2.579838
 30
 0
 40
1.446845E-02
 50
51.65987
 51
141.3386
 6
CONTINUOUS
 0
LINE
 8
WHITE
 10
5.409001
 20
2.591185
 30
0.0000
 11
5.471
 21
2.543105
 31
0.0000
 6
CONTINUOUS
 0
ARC
 8
WHITE
 10
5.465922
 20
2.534559
 30
 0
 40
9.941876E-03
 50
323.3324
 51
59.28603
 6
CONTINUOUS
 0
LINE
 8
WHITE
 10
5.473896
 20
2.528621
 30
0.0000
 11
5.341799
 21
2.354228
 31
0.0000
 6
CONTINUOUS
 0
LINE
 8
WHITE
 10
5.341799
 20
2.354228
 30
0.0000
 11
5.404952
 21
2.313093
 31
0.0000
 6
CONTINUOUS
 0
ARC
 8
WHITE
 10
5.431835
 20
2.353476
 30
 0
 40
.048512
 50
236.3482
 51
271.7792
 6
CONTINUOUS
 0
LINE
 8
WHITE
 10
5.433341
 20
2.304982
 30
0.0000
 11
5.457674
 21
2.306141
 31
0.0000
 6
CONTINUOUS
 0
ARC
 8
WHITE
 10
5.457733
 20
2.338007
 30
 0
 40
3.186565E-02
 50
269.8963
 51
299.2665
 6
CONTINUOUS
 0
LINE
 8
WHITE
 10
5.47331
 20
2.310209
 30
0.0000
 11
5.500548
 21
2.326419
 31
0.0000
 6
CONTINUOUS
 0
ARC
 8
WHITE
 10
5.47782
 20
2.36517
 30
 0
 40
4.492412E-02
 50
300.3931
 51
324.6302
 6
CONTINUOUS
 0
LINE
 8
WHITE
 10
5.514452
 20
2.339165
 30
0.0000
 11
5.536469
 21
2.370452
 31
0.0000
 6
CONTINUOUS
 0
ARC
 8
WHITE
 10
5.495624
 20
2.399247
 30
 0
 40
4.997537E-02
 50
324.8174
 51
345.4323
 6
CONTINUOUS
 0
LINE
 8
WHITE
 10
5.543992
 20
2.386677
 30
0.0000
 11
5.550954
 21
2.417381
 31
0.0000
 6
CONTINUOUS
 0
LINE
 8
WHITE
 10
5.550954
 20
2.417381
 30
0.0000
 11
5.579343
 21
2.479374
 31
0.0000
 6
CONTINUOUS
 0
LINE
 8
WHITE
 10
5.579343
 20
2.479374
 30
0.0000
 11
5.619899
 21
2.558748
 31
0.0000
 6
CONTINUOUS
 0
LINE
 8
WHITE
 10
5.619899
 20
2.558748
 30
0.0000
 11
5.649447
 21
2.587717
 31
0.0000
 6
CONTINUOUS
 0
ARC
 8
WHITE
 10
5.760456
 20
2.474565
 30
 0
 40
.1585124
 50
120.68
 51
134.452
 6
CONTINUOUS
 0
LINE
 8
WHITE
 10
5.679576
 20
2.61089
 30
0.0000
 11
5.71202
 21
2.630011
 31
0.0000
 6
CONTINUOUS
 0
ARC
 8
WHITE
 10
5.671232
 20
2.69861
 30
 0
 40
.0798083
 50
300.7356
 51
314.9998
 6
CONTINUOUS
 0
LINE
 8
WHITE
 10
5.727664
 20
2.642176
 30
0.0000
 11
5.764743
 21
2.679837
 31
0.0000
 6
CONTINUOUS
 0
ARC
 8
WHITE
 10
5.73413
 20
2.710639
 30
 0
 40
.0434268
 50
314.8241
 51
356.8169
 6
CONTINUOUS
 0
LINE
 8
WHITE
 10
5.77749
 20
2.708227
 30
0.0000
 11
5.778647
 21
2.73256
 31
0.0000
 6
CONTINUOUS
 0
ARC
 8
WHITE
 10
5.685421
 20
2.738782
 30
 0
 40
9.343475E-02
 50
356.182
 51
23.48335
 6
CONTINUOUS
 0
ARC
 8
WHITE
 10
5.744002
 20
2.764137
 30
 0
 40
2.960232E-02
 50
23.65601
 51
54.31903
 6
CONTINUOUS
 0
LINE
 8
WHITE
 10
5.761267
 20
2.788181
 30
0.0000
 11
5.738671
 21
2.804982
 31
0.0000
 6
CONTINUOUS
 0
LINE
 8
WHITE
 10
5.738671
 20
2.804982
 30
0.0000
 11
5.706806
 21
2.820626
 31
0.0000
 6
CONTINUOUS
 0
ARC
 8
WHITE
 10
5.720073
 20
2.847798
 30
 0
 40
3.023779E-02
 50
206.0244
 51
243.9754
 6
CONTINUOUS
 0
ARC
 8
WHITE
 10
5.721637
 20
2.855697
 30
 0
 40
3.569002E-02
 50
180.4945
 51
216.3745
 6
CONTINUOUS
 0
LINE
 8
WHITE
 10
5.685948
 20
2.855389
 30
0.0000
 11
5.686527
 21
2.923754
 31
0.0000
 6
CONTINUOUS
 0
LINE
 8
WHITE
 10
5.686527
 20
2.923754
 30
0.0000
 11
5.713179
 21
3.238355
 31
0.0000
 6
CONTINUOUS
 0
LINE
 8
WHITE
 10
5.713179
 20
3.238355
 30
0.0000
 11
5.714917
 21
3.282388
 31
0.0000
 6
CONTINUOUS
 0
LINE
 8
WHITE
 10
5.714917
 20
3.282388
 30
0.0000
 11
5.743306
 21
3.709387
 31
0.0000
 6
CONTINUOUS
 0
LINE
 8
WHITE
 10
5.743306
 20
3.709387
 30
0.0000
 11
5.775751
 21
4.05006
 31
0.0000
 6
CONTINUOUS
 0
LINE
 8
WHITE
 10
5.775751
 20
4.05006
 30
0.0000
 11
5.784442
 21
4.257475
 31
0.0000
 6
CONTINUOUS
 0
ARC
 8
WHITE
 10
5.800665
 20
4.256896
 30
 0
 40
1.623282E-02
 50
85.91499
 51
177.9547
 6
CONTINUOUS
 0
LINE
 8
WHITE
 10
5.801821
 20
4.273087
 30
0.0000
 11
5.88815
 21
4.266746
 31
0.0000
 6
CONTINUOUS
 0
ARC
 8
WHITE
 10
5.888151
 20
4.255159
 30
 0
 40
1.158762E-02
 50
357.1386
 51
90
 6
CONTINUOUS
 0
LINE
 8
WHITE
 10
5.899723
 20
4.25458
 30
0.0000
 11
5.899737
 21
4.220396
 31
0.0000
 6
CONTINUOUS
 0
ARC
 8
WHITE
 10
5.942032
 20
4.221714
 30
 0
 40
4.231551E-02
 50
181.7849
 51
205.3548
 6
CONTINUOUS
 0
LINE
 8
WHITE
 10
5.903793
 20
4.203594
 30
0.0000
 11
5.92465
 21
4.157823
 31
0.0000
 6
CONTINUOUS
 0
LINE
 8
WHITE
 10
5.92465
 20
4.157823
 30
0.0000
 11
5.966945
 21
4.127696
 31
0.0000
 6
CONTINUOUS
 0
ARC
 8
WHITE
 10
5.980386
 20
4.145019
 30
 0
 40
.021926
 50
232.1918
 51
296.3628
 6
CONTINUOUS
 0
LINE
 8
WHITE
 10
5.990122
 20
4.125372
 30
0.0000
 11
6.006922
 21
4.13349
 31
0.0000
 6
CONTINUOUS
 0
LINE
 8
WHITE
 10
6.006922
 20
4.13349
 30
0.0000
 11
6.031256
 21
4.147394
 31
0.0000
 6
CONTINUOUS
 0
ARC
 8
WHITE
 10
5.986064
 20
4.215181
 30
 0
 40
8.146982E-02
 50
303.6904
 51
330.1543
 6
CONTINUOUS
 0
LINE
 8
WHITE
 10
6.056728
 20
4.174636
 30
0.0000
 11
6.072971
 21
4.201856
 31
0.0000
 6
CONTINUOUS
 0
ARC
 8
WHITE
 10
5.987687
 20
4.249307
 30
 0
 40
9.759587E-02
 50
330.9093
 51
343.1248
 6
CONTINUOUS
 0
LINE
 8
WHITE
 10
6.08108
 20
4.220976
 30
0.0000
 11
6.097304
 21
4.270802
 31
0.0000
 6
CONTINUOUS
 0
LINE
 8
WHITE
 10
6.097304
 20
4.270802
 30
0.0000
 11
6.111789
 21
4.314834
 31
0.0000
 6
CONTINUOUS
 0
LINE
 8
WHITE
 10
6.111789
 20
4.314834
 30
0.0000
 11
6.131487
 21
4.353652
 31
0.0000
 6
CONTINUOUS
 0
LINE
 8
WHITE
 10
6.131487
 20
4.353652
 30
0.0000
 11
6.173202
 21
4.402899
 31
0.0000
 6
CONTINUOUS
 0
LINE
 8
WHITE
 10
6.173202
 20
4.402899
 30
0.0000
 11
6.256053
 21
4.464892
 31
0.0000
 6
CONTINUOUS
 0
LINE
 8
WHITE
 10
6.256053
 20
4.464892
 30
0.0000
 11
6.302403
 21
4.497337
 31
0.0000
 6
CONTINUOUS
 0
ARC
 8
WHITE
 10
6.260041
 20
4.556965
 30
 0
 40
7.314397E-02
 50
305.3921
 51
326.3708
 6
CONTINUOUS
 0
LINE
 8
WHITE
 10
6.320943
 20
4.516456
 30
0.0000
 11
6.347594
 21
4.556434
 31
0.0000
 6
CONTINUOUS
 0
ARC
 8
WHITE
 10
6.299043
 20
4.58911
 30
 0
 40
5.852341E-02
 50
326.0586
 51
356.3667
 6
CONTINUOUS
 0
LINE
 8
WHITE
 10
6.357444
 20
4.585402
 30
0.0000
 11
6.361499
 21
4.645657
 31
0.0000
 6
CONTINUOUS
 0
ARC
 8
WHITE
 10
6.321521
 20
4.648707
 30
 0
 40
4.009467E-02
 50
355.6375
 51
26.36941
 6
CONTINUOUS
 0
LINE
 8
WHITE
 10
6.357444
 20
4.666515
 30
0.0000
 11
6.334848
 21
4.710546
 31
0.0000
 6
CONTINUOUS
 0
LINE
 8
WHITE
 10
6.334848
 20
4.710546
 30
0.0000
 11
6.280387
 21
4.802088
 31
0.0000
 6
CONTINUOUS
 0
LINE
 8
WHITE
 10
6.280387
 20
4.802088
 30
0.0000
 11
6.261847
 21
4.847279
 31
0.0000
 6
CONTINUOUS
 0
LINE
 8
WHITE
 10
6.261847
 20
4.847279
 30
0.0000
 11
6.248521
 21
4.979957
 31
0.0000
 6
CONTINUOUS
 0
ARC
 8
WHITE
 10
6.07187
 20
4.961765
 30
 0
 40
.1775858
 50
5.879826
 51
19.5167
 6
CONTINUOUS
 0
LINE
 8
WHITE
 10
6.239252
 20
5.021092
 30
0.0000
 11
6.21318
 21
5.095831
 31
0.0000
 6
CONTINUOUS
 0
ARC
 8
WHITE
 10
6.163933
 20
5.07903
 30
 0
 40
.0520341
 50
18.83842
 51
55.42639
 6
CONTINUOUS
 0
LINE
 8
WHITE
 10
6.19346
 20
5.121873
 30
0.0000
 11
6.16625
 21
5.140443
 31
0.0000
 6
CONTINUOUS
 0
ARC
 8
WHITE
 10
6.136321
 20
5.095874
 30
 0
 40
5.368673E-02
 50
56.11784
 51
82.77242
 6
CONTINUOUS
 0
LINE
 8
WHITE
 10
6.143075
 20
5.149134
 30
0.0000
 11
6.108313
 21
5.154348
 31
0.0000
 6
CONTINUOUS
 0
ARC
 8
WHITE
 10
6.106053
 20
5.14224
 30
 0
 40
1.231785E-02
 50
79.42912
 51
185.6832
 6
CONTINUOUS
 0
LINE
 8
WHITE
 10
6.093796
 20
5.141019
 30
0.0000
 11
6.115844
 21
4.946932
 31
0.0000
 6
CONTINUOUS
 0
ARC
 8
WHITE
 10
6.101361
 20
4.945774
 30
 0
 40
1.453017E-02
 50
274.5721
 51
4.572047
 6
CONTINUOUS
 0
LINE
 8
WHITE
 10
6.102519
 20
4.93129
 30
0.0000
 11
6.024302
 21
4.923178
 31
0.0000
 6
CONTINUOUS
 0
ARC
 8
WHITE
 10
6.023144
 20
4.934766
 30
 0
 40
1.164541E-02
 50
185.7132
 51
275.7104
 6
CONTINUOUS
 0
LINE
 8
WHITE
 10
6.011557
 20
4.933606
 30
0.0000
 11
5.993016
 21
5.127117
 31
0.0000
 6
CONTINUOUS
 0
ARC
 8
WHITE
 10
5.975056
 20
5.125495
 30
 0
 40
1.803366E-02
 50
5.160962
 51
106.8044
 6
CONTINUOUS
 0
LINE
 8
WHITE
 10
5.969842
 20
5.142759
 30
0.0000
 11
5.918857
 21
5.128276
 31
0.0000
 6
CONTINUOUS
 0
ARC
 8
WHITE
 10
5.933805
 20
5.079725
 30
 0
 40
5.080039E-02
 50
107.1119
 51
139.6244
 6
CONTINUOUS
 0
LINE
 8
WHITE
 10
5.895104
 20
5.112632
 30
0.0000
 11
5.869031
 21
5.083664
 31
0.0000
 6
CONTINUOUS
 0
ARC
 8
WHITE
 10
5.925346
 20
5.035809
 30
 0
 40
7.390234E-02
 50
139.6425
 51
163.3266
 6
CONTINUOUS
 0
LINE
 8
WHITE
 10
5.854547
 20
5.057013
 30
0.0000
 11
5.8418
 21
5.017615
 31
0.0000
 6
CONTINUOUS
 0
ARC
 8
WHITE
 10
5.905119
 20
4.99784
 30
 0
 40
6.633496E-02
 50
162.6556
 51
183.4382
 6
CONTINUOUS
 0
LINE
 8
WHITE
 10
5.838903
 20
4.993862
 30
0.0000
 11
5.84122
 21
4.953305
 31
0.0000
 6
CONTINUOUS
 0
LINE
 8
WHITE
 10
5.824419
 20
3.383199
 30
0.0000
 11
5.819204
 21
3.379143
 31
0.0000
 6
CONTINUOUS
 0
LINE
 8
WHITE
 10
5.819204
 20
3.379143
 30
0.0000
 11
5.809355
 21
3.220973
 31
0.0000
 6
CONTINUOUS
 0
ARC
 8
WHITE
 10
5.840409
 20
3.219352
 30
 0
 40
3.109585E-02
 50
177.011
 51
243.914
 6
CONTINUOUS
 0
LINE
 8
WHITE
 10
5.826736
 20
3.191426
 30
0.0000
 11
6.205647
 21
3.000812
 31
0.0000
 6
CONTINUOUS
 0
LINE
 8
WHITE
 10
6.205647
 20
3.000812
 30
0.0000
 11
6.139019
 21
2.873928
 31
0.0000
 6
CONTINUOUS
 0
ARC
 8
WHITE
 10
6.124536
 20
2.880881
 30
 0
 40
1.606607E-02
 50
244.3594
 51
334.359
 6
CONTINUOUS
 0
LINE
 8
WHITE
 10
6.117583
 20
2.866396
 30
0.0000
 11
5.805299
 21
3.022827
 31
0.0000
 6
CONTINUOUS
 0
ARC
 8
WHITE
 10
5.799489
 20
3.010205
 30
 0
 40
1.389586E-02
 50
65.28349
 51
178.1201
 6
CONTINUOUS
 0
LINE
 8
WHITE
 10
5.785601
 20
3.01066
 30
0.0000
 11
5.782115
 21
2.936501
 31
0.0000
 6
CONTINUOUS
 0
ARC
 8
WHITE
 10
5.99956
 20
2.925479
 30
 0
 40
.2177236
 50
177.0982
 51
197.0189
 6
CONTINUOUS
 0
ARC
 8
WHITE
 10
5.817466
 20
2.869873
 30
 0
 40
2.732861E-02
 50
197.2814
 51
237.9946
 6
CONTINUOUS
 0
LINE
 8
WHITE
 10
5.802981
 20
2.846697
 30
0.0000
 11
5.856284
 21
2.811935
 31
0.0000
 6
CONTINUOUS
 0
LINE
 8
WHITE
 10
5.856284
 20
2.811935
 30
0.0000
 11
5.966945
 21
2.78007
 31
0.0000
 6
CONTINUOUS
 0
LINE
 8
WHITE
 10
5.966945
 20
2.78007
 30
0.0000
 11
6.071205
 21
2.719766
 31
0.0000
 6
CONTINUOUS
 0
ARC
 8
WHITE
 10
5.998811
 20
2.594091
 30
 0
 40
.1450355
 50
45.6473
 51
60.0565
 6
CONTINUOUS
 0
LINE
 8
WHITE
 10
6.100201
 20
2.697798
 30
0.0000
 11
6.169147
 21
2.623059
 31
0.0000
 6
CONTINUOUS
 0
LINE
 8
WHITE
 10
6.169147
 20
2.623059
 30
0.0000
 11
6.234034
 21
2.547737
 31
0.0000
 6
CONTINUOUS
 0
ARC
 8
WHITE
 10
6.349681
 20
2.646929
 30
 0
 40
.152359
 50
220.6202
 51
243.9219
 6
CONTINUOUS
 0
LINE
 8
WHITE
 10
6.282704
 20
2.510081
 30
0.0000
 11
6.318626
 21
2.49212
 31
0.0000
 6
CONTINUOUS
 0
ARC
 8
WHITE
 10
6.354642
 20
2.563973
 30
 0
 40
.0803743
 50
243.3779
 51
284.9705
 6
CONTINUOUS
 0
LINE
 8
WHITE
 10
6.375404
 20
2.486327
 30
0.0000
 11
6.454199
 21
2.505446
 31
0.0000
 6
CONTINUOUS
 0
LINE
 8
WHITE
 10
6.454199
 20
2.505446
 30
0.0000
 11
6.554431
 21
2.537311
 31
0.0000
 6
CONTINUOUS
 0
LINE
 8
WHITE
 10
6.554431
 20
2.537311
 30
0.0000
 11
6.687108
 21
2.604519
 31
0.0000
 6
CONTINUOUS
 0
LINE
 8
WHITE
 10
6.687108
 20
2.604519
 30
0.0000
 11
6.793134
 21
2.694901
 31
0.0000
 6
CONTINUOUS
 0
LINE
 8
WHITE
 10
6.793134
 20
2.694901
 30
0.0000
 11
6.859182
 21
2.755735
 31
0.0000
 6
CONTINUOUS
 0
ARC
 8
WHITE
 10
6.743563
 20
2.89046
 30
 0
 40
.1775349
 50
310.636
 51
322.0284
 6
CONTINUOUS
 0
LINE
 8
WHITE
 10
6.883516
 20
2.781228
 30
0.0000
 11
6.929864
 21
2.841485
 31
0.0000
 6
CONTINUOUS
 0
ARC
 8
WHITE
 10
6.813818
 20
2.933257
 30
 0
 40
.1479489
 50
321.6626
 51
333.3847
 6
CONTINUOUS
 0
LINE
 8
WHITE
 10
6.946089
 20
2.866976
 30
0.0000
 11
6.978494
 21
2.933044
 31
0.0000
 6
CONTINUOUS
 0
ARC
 8
WHITE
 10
6.96909
 20
2.93766
 30
 0
 40
1.047535E-02
 50
333.8572
 51
95.39348
 6
CONTINUOUS
 0
LINE
 8
WHITE
 10
6.968105
 20
2.948089
 30
0.0000
 11
6.633228
 21
2.923163
 31
0.0000
 6
CONTINUOUS
 0
ARC
 8
WHITE
 10
6.63201
 20
2.939456
 30
 0
 40
1.633782E-02
 50
188.3582
 51
274.2766
 6
CONTINUOUS
 0
LINE
 8
WHITE
 10
6.615845
 20
2.93708
 30
0.0000
 11
6.606575
 21
3.008343
 31
0.0000
 6
CONTINUOUS
 0
ARC
 8
WHITE
 10
6.62621
 20
3.01066
 30
 0
 40
1.977042E-02
 50
94.85631
 51
186.7287
 6
CONTINUOUS
 0
LINE
 8
WHITE
 10
6.624536
 20
3.030359
 30
0.0000
 11
7.004026
 21
3.063963
 31
0.0000
 6
CONTINUOUS
 0
ARC
 8
WHITE
 10
7.002202
 20
3.081052
 30
 0
 40
1.718581E-02
 50
276.0954
 51
349.3262
 6
CONTINUOUS
 0
LINE
 8
WHITE
 10
7.01909
 20
3.077868
 30
0.0000
 11
7.05269
 21
3.23546
 31
0.0000
 6
CONTINUOUS
 0
ARC
 8
WHITE
 10
6.70449
 20
3.308344
 30
 0
 40
.3557465
 50
348.1777
 51
359.5521
 6
CONTINUOUS
 0
LINE
 8
WHITE
 10
7.060225
 20
3.305563
 30
0.0000
 11
7.061385
 21
3.427232
 31
0.0000
 6
CONTINUOUS
 0
ARC
 8
WHITE
 10
7.041049
 20
3.427262
 30
 0
 40
2.033617E-02
 50
359.916
 51
69.83463
 6
CONTINUOUS
 0
LINE
 8
WHITE
 10
7.048059
 20
3.446351
 30
0.0000
 11
6.687105
 21
3.575542
 31
0.0000
 6
CONTINUOUS
 0
ARC
 8
WHITE
 10
6.69128
 20
3.588645
 30
 0
 40
1.375221E-02
 50
159.2742
 51
252.3281
 6
CONTINUOUS
 0
LINE
 8
WHITE
 10
6.678418
 20
3.593512
 30
0.0000
 11
6.707966
 21
3.668252
 31
0.0000
 6
CONTINUOUS
 0
ARC
 8
WHITE
 10
6.72406
 20
3.662173
 30
 0
 40
1.720354E-02
 50
67.79487
 51
159.3073
 6
CONTINUOUS
 0
LINE
 8
WHITE
 10
6.730561
 20
3.678101
 30
0.0000
 11
7.050376
 21
3.562805
 31
0.0000
 6
CONTINUOUS
 0
ARC
 8
WHITE
 10
7.051941
 20
3.568078
 30
 0
 40
5.499249E-03
 50
253.4766
 51
11.54619
 6
CONTINUOUS
 0
LINE
 8
WHITE
 10
7.057329
 20
3.569178
 30
0.0000
 11
7.032418
 21
3.678681
 31
0.0000
 6
CONTINUOUS
 0
ARC
 8
WHITE
 10
6.918627
 20
3.653073
 30
 0
 40
.116638
 50
12.68306
 51
25.03747
 6
CONTINUOUS
 0
LINE
 8
WHITE
 10
7.024304
 20
3.702435
 30
0.0000
 11
6.967527
 21
3.823525
 31
0.0000
 6
CONTINUOUS
 0
ARC
 8
WHITE
 10
6.706054
 20
3.700117
 30
 0
 40
.2891332
 50
25.26597
 51
36.66553
 6
CONTINUOUS
 0
LINE
 8
WHITE
 10
6.937978
 20
3.872771
 30
0.0000
 11
6.859182
 21
3.979375
 31
0.0000
 6
CONTINUOUS
 0
ARC
 8
WHITE
 10
6.642595
 20
3.818276
 30
 0
 40
.2699324
 50
36.64213
 51
48.15193
 6
CONTINUOUS
 0
LINE
 8
WHITE
 10
6.822682
 20
4.019353
 30
0.0000
 11
6.728823
 21
4.10452
 31
0.0000
 6
CONTINUOUS
 0
ARC
 8
WHITE
 10
6.623353
 20
3.98577
 30
 0
 40
.1588259
 50
48.38962
 51
63.79767
 6
CONTINUOUS
 0
LINE
 8
WHITE
 10
6.693481
 20
4.128275
 30
0.0000
 11
6.601939
 21
4.174622
 31
0.0000
 6
CONTINUOUS
 0
ARC
 8
WHITE
 10
6.543076
 20
4.058229
 30
 0
 40
.1304309
 50
63.17303
 51
101.1153
 6
CONTINUOUS
 0
LINE
 8
WHITE
 10
6.51793
 20
4.186213
 30
0.0000
 11
6.484327
 21
4.17926
 31
0.0000
 6
CONTINUOUS
 0
ARC
 8
WHITE
 10
6.520249
 20
3.991543
 30
 0
 40
.1911234
 50
100.833
 51
132.2971
 6
CONTINUOUS
 0
LINE
 8
WHITE
 10
6.391627
 20
4.13291
 30
0.0000
 11
6.321523
 21
4.073234
 31
0.0000
 6
CONTINUOUS
 0
LINE
 8
WHITE
 10
6.321523
 20
4.073234
 30
0.0000
 11
6.246783
 21
4.029201
 31
0.0000
 6
CONTINUOUS
 0
ARC
 8
WHITE
 10
6.184365
 20
4.137659
 30
 0
 40
.1251358
 50
277.3778
 51
299.9213
 6
CONTINUOUS
 0
LINE
 8
WHITE
 10
6.200433
 20
4.013558
 30
0.0000
 11
6.103098
 21
3.999654
 31
0.0000
 6
CONTINUOUS
 0
LINE
 8
WHITE
 10
6.103098
 20
3.999654
 30
0.0000
 11
6.007501
 21
3.988067
 31
0.0000
 6
CONTINUOUS
 0
ARC
 8
WHITE
 10
6.032859
 20
3.772827
 30
 0
 40
.2167287
 50
96.71899
 51
112.9341
 6
CONTINUOUS
 0
LINE
 8
WHITE
 10
5.948405
 20
3.972424
 30
0.0000
 11
5.937976
 21
3.968366
 31
0.0000
 6
CONTINUOUS
 0
ARC
 8
WHITE
 10
5.963991
 20
3.907997
 30
 0
 40
6.573603E-02
 50
113.3116
 51
165.6081
 6
CONTINUOUS
 0
LINE
 8
WHITE
 10
5.900316
 20
3.924335
 30
0.0000
 11
5.872488
 21
3.818894
 31
0.0000
 6
CONTINUOUS
 0
ARC
 8
WHITE
 10
5.8918
 20
3.813617
 30
 0
 40
.02002
 50
164.7159
 51
281.1792
 6
CONTINUOUS
 0
LINE
 8
WHITE
 10
5.895681
 20
3.793976
 30
0.0000
 11
6.23114
 21
3.858866
 31
0.0000
 6
CONTINUOUS
 0
ARC
 8
WHITE
 10
6.236938
 20
3.827452
 30
 0
 40
3.194488E-02
 50
16.02546
 51
100.4552
 6
CONTINUOUS
 0
LINE
 8
WHITE
 10
6.267641
 20
3.83627
 30
0.0000
 11
6.295984
 21
3.737763
 31
0.0000
 6
CONTINUOUS
 0
ARC
 8
WHITE
 10
6.275578
 20
3.731925
 30
 0
 40
2.122503E-02
 50
281.494
 51
15.96626
 6
CONTINUOUS
 0
LINE
 8
WHITE
 10
6.279808
 20
3.711125
 30
0.0000
 11
5.902058
 21
3.638687
 31
0.0000
 6
CONTINUOUS
 0
ARC
 8
WHITE
 10
5.913701
 20
3.578159
 30
 0
 40
6.163804E-02
 50
100.8877
 51
171.0778
 6
CONTINUOUS
 0
LINE
 8
WHITE
 10
5.852808
 20
3.587718
 30
0.0000
 11
5.829029
 21
3.444616
 31
0.0000
 6
CONTINUOUS
 0
LINE
 8
WHITE
 10
5.829029
 20
3.444616
 30
0.0000
 11
6.315728
 21
3.372181
 31
0.0000
 6
CONTINUOUS
 0
ARC
 8
WHITE
 10
6.31457
 20
3.3624
 30
 0
 40
9.849404E-03
 50
359.663
 51
83.24949
 6
CONTINUOUS
 0
LINE
 8
WHITE
 10
6.324419
 20
3.362342
 30
0.0000
 11
6.322102
 21
3.324102
 31
0.0000
 6
CONTINUOUS
 0
ARC
 8
WHITE
 10
6.315092
 20
3.324683
 30
 0
 40
7.034398E-03
 50
261.0013
 51
355.2719
 6
CONTINUOUS
 0
LINE
 8
WHITE
 10
6.313991
 20
3.31773
 30
0.0000
 11
5.824419
 21
3.383199
 31
0.0000
 6
CONTINUOUS
 0
LINE
 8
WHITE
 10
4.666248
 20
.342059
 30
0.0000
 11
4.666248
 21
.332789
 31
0.0000
 6
CONTINUOUS
 0
LINE
 8
WHITE
 10
4.666248
 20
.332789
 30
0.0000
 11
4.728241
 21
.298027
 31
0.0000
 6
CONTINUOUS
 0
ARC
 8
WHITE
 10
4.785939
 20
.4000028
 30
 0
 40
.1171663
 50
240.4992
 51
272.6683
 6
CONTINUOUS
 0
LINE
 8
WHITE
 10
4.791393
 20
.282963
 30
0.0000
 11
4.847592
 21
.285278
 31
0.0000
 6
CONTINUOUS
 0
ARC
 8
WHITE
 10
4.842088
 20
.3859184
 30
 0
 40
.1007904
 50
273.1307
 51
304.887
 6
CONTINUOUS
 0
LINE
 8
WHITE
 10
4.899736
 20
.303241
 30
0.0000
 11
4.957094
 21
.342639
 31
0.0000
 6
CONTINUOUS
 0
LINE
 8
WHITE
 10
4.957094
 20
.342639
 30
0.0000
 11
5.035883
 21
.416226
 31
0.0000
 6
CONTINUOUS
 0
ARC
 8
WHITE
 10
5.063294
 20
.3851652
 30
 0
 40
4.142658E-02
 50
109.0179
 51
131.427
 6
CONTINUOUS
 0
LINE
 8
WHITE
 10
5.049794
 20
.424331
 30
0.0000
 11
5.088027
 21
.439409
 31
0.0000
 6
CONTINUOUS
 0
ARC
 8
WHITE
 10
5.112946
 20
.3739253
 30
 0
 40
7.006555E-02
 50
82.87449
 51
110.8335
 6
CONTINUOUS
 0
LINE
 8
WHITE
 10
5.121637
 20
.44345
 30
0.0000
 11
5.226503
 21
.430125
 31
0.0000
 6
CONTINUOUS
 0
ARC
 8
WHITE
 10
5.241721
 20
.5539977
 30
 0
 40
.1248036
 50
262.9967
 51
285.2712
 6
CONTINUOUS
 0
LINE
 8
WHITE
 10
5.274592
 20
.4336
 30
0.0000
 11
5.386991
 21
.463729
 31
0.0000
 6
CONTINUOUS
 0
ARC
 8
WHITE
 10
5.360149
 20
.560885
 30
 0
 40
.1007956
 50
285.4441
 51
315.614
 6
CONTINUOUS
 0
LINE
 8
WHITE
 10
5.432182
 20
.490379
 30
0.0000
 11
5.497072
 21
.55527
 31
0.0000
 6
CONTINUOUS
 0
ARC
 8
WHITE
 10
5.585196
 20
.4663942
 30
 0
 40
.1251585
 50
112.624
 51
134.7564
 6
CONTINUOUS
 0
LINE
 8
WHITE
 10
5.537049
 20
.581921
 30
0.0000
 11
5.572391
 21
.596984
 31
0.0000
 6
CONTINUOUS
 0
LINE
 8
WHITE
 10
5.572391
 20
.596984
 30
0.0000
 11
5.727663
 21
.650866
 31
0.0000
 6
CONTINUOUS
 0
ARC
 8
WHITE
 10
5.713229
 20
.6949153
 30
 0
 40
4.635343E-02
 50
288.1435
 51
344.0183
 6
CONTINUOUS
 0
LINE
 8
WHITE
 10
5.75779
 20
.682152
 30
0.0000
 11
5.779781
 21
.758637
 31
0.0000
 6
CONTINUOUS
 0
ARC
 8
WHITE
 10
5.748405
 20
.7674368
 30
 0
 40
3.258735E-02
 50
344.3343
 51
56.30935
 6
CONTINUOUS
 0
LINE
 8
WHITE
 10
5.766481
 20
.794551
 30
0.0000
 11
5.717814
 21
.826996
 31
0.0000
 6
CONTINUOUS
 0
ARC
 8
WHITE
 10
5.681467
 20
.7731285
 30
 0
 40
6.498384E-02
 50
55.99055
 51
98.33826
 6
CONTINUOUS
 0
LINE
 8
WHITE
 10
5.672043
 20
.837425
 30
0.0000
 11
5.61874
 21
.829894
 31
0.0000
 6
CONTINUOUS
 0
ARC
 8
WHITE
 10
5.61156
 20
.8794251
 30
 0
 40
5.004883E-02
 50
217.4193
 51
278.2484
 6
CONTINUOUS
 0
LINE
 8
WHITE
 10
5.571811
 20
.849013
 30
0.0000
 11
5.553264
 21
.8745
 31
0.0000
 6
CONTINUOUS
 0
ARC
 8
WHITE
 10
5.491105
 20
.8282138
 30
 0
 40
7.749948E-02
 50
36.67294
 51
71.56508
 6
CONTINUOUS
 0
LINE
 8
WHITE
 10
5.515612
 20
.901736
 30
0.0000
 11
5.391625
 21
.946927
 31
0.0000
 6
CONTINUOUS
 0
LINE
 8
WHITE
 10
5.391625
 20
.946927
 30
0.0000
 11
4.415958
 21
1.158399
 31
0.0000
 6
CONTINUOUS
 0
ARC
 8
WHITE
 10
4.418276
 20
1.170566
 30
 0
 40
1.238536E-02
 50
169.2161
 51
259.2158
 6
CONTINUOUS
 0
LINE
 8
WHITE
 10
4.406108
 20
1.172883
 30
0.0000
 11
4.419435
 21
1.252837
 31
0.0000
 6
CONTINUOUS
 0
ARC
 8
WHITE
 10
4.428793
 20
1.251801
 30
 0
 40
9.415107E-03
 50
76.30105
 51
173.6823
 6
CONTINUOUS
 0
LINE
 8
WHITE
 10
4.431022
 20
1.260948
 30
0.0000
 11
5.009818
 21
1.136962
 31
0.0000
 6
CONTINUOUS
 0
ARC
 8
WHITE
 10
5.012043
 20
1.149078
 30
 0
 40
1.231781E-02
 50
259.5915
 51
5.639309
 6
CONTINUOUS
 0
LINE
 8
WHITE
 10
5.024302
 20
1.150288
 30
0.0000
 11
5.015033
 21
1.220972
 31
0.0000
 6
CONTINUOUS
 0
ARC
 8
WHITE
 10
4.985252
 20
1.216511
 30
 0
 40
3.011317E-02
 50
8.519774
 51
38.98577
 6
CONTINUOUS
 0
LINE
 8
WHITE
 10
5.008659
 20
1.235455
 30
0.0000
 11
4.983746
 21
1.266742
 31
0.0000
 6
CONTINUOUS
 0
ARC
 8
WHITE
 10
4.951816
 20
1.242591
 30
 0
 40
4.003525E-02
 50
37.10356
 51
74.80598
 6
CONTINUOUS
 0
LINE
 8
WHITE
 10
4.962308
 20
1.281226
 30
0.0000
 11
4.878299
 21
1.302084
 31
0.0000
 6
CONTINUOUS
 0
LINE
 8
WHITE
 10
4.878299
 20
1.302084
 30
0.0000
 11
4.703328
 21
1.330474
 31
0.0000
 6
CONTINUOUS
 0
LINE
 8
WHITE
 10
4.703328
 20
1.330474
 30
0.0000
 11
4.545158
 21
1.386672
 31
0.0000
 6
CONTINUOUS
 0
LINE
 8
WHITE
 10
4.545158
 20
1.386672
 30
0.0000
 11
4.522563
 21
1.39826
 31
0.0000
 6
CONTINUOUS
 0
LINE
 8
WHITE
 10
4.522563
 20
1.39826
 30
0.0000
 11
4.387568
 21
1.435338
 31
0.0000
 6
CONTINUOUS
 0
ARC
 8
WHITE
 10
4.303212
 20
1.13366
 30
 0
 40
.3132507
 50
74.37778
 51
83.991
 6
CONTINUOUS
 0
LINE
 8
WHITE
 10
4.336004
 20
1.445189
 30
0.0000
 11
4.134961
 21
1.464888
 31
0.0000
 6
CONTINUOUS
 0
ARC
 8
WHITE
 10
4.09774
 20
1.09861
 30
 0
 40
.3681646
 50
84.19741
 51
98.66682
 6
CONTINUOUS
 0
LINE
 8
WHITE
 10
4.042261
 20
1.46257
 30
0.0000
 11
4.036468
 21
1.461411
 31
0.0000
 6
CONTINUOUS
 0
ARC
 8
WHITE
 10
4.269136
 20
.3931905
 30
 0
 40
1.093266
 50
102.2876
 51
104.755
 6
CONTINUOUS
 0
ARC
 8
WHITE
 10
4.250315
 20
.3886999
 30
 0
 40
1.092986
 50
103.7409
 51
105.6563
 6
CONTINUOUS
 0
ARC
 8
WHITE
 10
4.262771
 20
.3919439
 30
 0
 40
1.0933
 50
106.3307
 51
108.2707
 6
CONTINUOUS
 0
LINE
 8
WHITE
 10
3.920013
 20
1.430125
 30
0.0000
 11
3.767057
 21
1.380881
 31
0.0000
 6
CONTINUOUS
 0
ARC
 8
WHITE
 10
3.88641
 20
.9984336
 30
 0
 40
.4006389
 50
107.3318
 51
117.006
 6
CONTINUOUS
 0
LINE
 8
WHITE
 10
3.704486
 20
1.355387
 30
0.0000
 11
3.624517
 21
1.313118
 31
0.0000
 6
CONTINUOUS
 0
ARC
 8
WHITE
 10
3.714914
 20
1.141018
 30
 0
 40
.1943971
 50
117.7108
 51
132.3426
 6
CONTINUOUS
 0
ARC
 8
WHITE
 10
3.651846
 20
1.214275
 30
 0
 40
9.780827E-02
 50
133.9408
 51
193.511
 6
CONTINUOUS
 0
LINE
 8
WHITE
 10
3.556745
 20
1.191424
 30
0.0000
 11
3.559642
 21
1.176939
 31
0.0000
 6
CONTINUOUS
 0
ARC
 8
WHITE
 10
3.707788
 20
1.212687
 30
 0
 40
.1523974
 50
193.5661
 51
242.6849
 6
CONTINUOUS
 0
LINE
 8
WHITE
 10
3.637857
 20
1.077286
 30
0.0000
 11
3.675515
 21
1.057585
 31
0.0000
 6
CONTINUOUS
 0
ARC
 8
WHITE
 10
3.718404
 20
1.139279
 30
 0
 40
9.226727E-02
 50
242.3008
 51
266.7518
 6
CONTINUOUS
 0
LINE
 8
WHITE
 10
3.713176
 20
1.047159
 30
0.0000
 11
3.75605
 21
1.044264
 31
0.0000
 6
CONTINUOUS
 0
ARC
 8
WHITE
 10
3.750488
 20
.9514463
 30
 0
 40
9.298513E-02
 50
59.44036
 51
86.57056
 6
CONTINUOUS
 0
LINE
 8
WHITE
 10
3.797765
 20
1.031515
 30
0.0000
 11
3.909584
 21
.966047
 31
0.0000
 6
CONTINUOUS
 0
ARC
 8
WHITE
 10
3.798634
 20
.7775185
 30
 0
 40
.218754
 50
50.03901
 51
59.5229
 6
CONTINUOUS
 0
LINE
 8
WHITE
 10
3.939132
 20
.945189
 30
0.0000
 11
4.037046
 21
.862339
 31
0.0000
 6
CONTINUOUS
 0
ARC
 8
WHITE
 10
4.245837
 20
1.1116
 30
 0
 40
.3251532
 50
230.0492
 51
249.082
 6
CONTINUOUS
 0
LINE
 8
WHITE
 10
4.129747
 20
.807877
 30
0.0000
 11
4.297186
 21
.742987
 31
0.0000
 6
CONTINUOUS
 0
LINE
 8
WHITE
 10
4.297186
 20
.742987
 30
0.0000
 11
4.435656
 21
.708799
 31
0.0000
 6
CONTINUOUS
 0
ARC
 8
WHITE
 10
4.472448
 20
.8566026
 30
 0
 40
.1523137
 50
256.0218
 51
279.7452
 6
CONTINUOUS
 0
LINE
 8
WHITE
 10
4.498229
 20
.706486
 30
0.0000
 11
4.612945
 21
.726764
 31
0.0000
 6
CONTINUOUS
 0
LINE
 8
WHITE
 10
4.612945
 20
.726764
 30
0.0000
 11
4.766479
 21
.726755
 31
0.0000
 6
CONTINUOUS
 0
ARC
 8
WHITE
 10
4.766132
 20
.6632658
 30
 0
 40
6.349021E-02
 50
57.67325
 51
89.6863
 6
CONTINUOUS
 0
LINE
 8
WHITE
 10
4.800083
 20
.716915
 30
0.0000
 11
4.830211
 21
.697796
 31
0.0000
 6
CONTINUOUS
 0
ARC
 8
WHITE
 10
4.820243
 20
.6819742
 30
 0
 40
1.870063E-02
 50
330.9122
 51
57.78856
 6
CONTINUOUS
 0
LINE
 8
WHITE
 10
4.836585
 20
.672882
 30
0.0000
 11
4.819761
 21
.642769
 31
0.0000
 6
CONTINUOUS
 0
ARC
 8
WHITE
 10
4.804082
 20
.6521997
 30
 0
 40
1.829692E-02
 50
253.6297
 51
328.9747
 6
CONTINUOUS
 0
LINE
 8
WHITE
 10
4.798924
 20
.634644
 30
0.0000
 11
4.778063
 21
.640421
 31
0.0000
 6
CONTINUOUS
 0
ARC
 8
WHITE
 10
4.756226
 20
.5700437
 30
 0
 40
7.368842E-02
 50
72.76138
 51
126.3025
 6
CONTINUOUS
 0
LINE
 8
WHITE
 10
4.712598
 20
.629429
 30
0.0000
 11
4.673779
 21
.599881
 31
0.0000
 6
CONTINUOUS
 0
ARC
 8
WHITE
 10
4.724844
 20
.5325167
 30
 0
 40
8.453175E-02
 50
127.1631
 51
168.827
 6
CONTINUOUS
 0
LINE
 8
WHITE
 10
4.641914
 20
.548896
 30
0.0000
 11
4.626845
 21
.475317
 31
0.0000
 6
CONTINUOUS
 0
ARC
 8
WHITE
 10
4.791799
 20
.4435668
 30
 0
 40
.1679817
 50
169.1048
 51
188.5689
 6
CONTINUOUS
 0
LINE
 8
WHITE
 10
4.625692
 20
.418537
 30
0.0000
 11
4.629703
 21
.390724
 31
0.0000
 6
CONTINUOUS
 0
ARC
 8
WHITE
 10
4.636468
 20
.3911907
 30
 0
 40
6.78096E-03
 50
183.9455
 51
303.1488
 6
CONTINUOUS
 0
LINE
 8
WHITE
 10
4.640176
 20
.385513
 30
0.0000
 11
4.928705
 21
.557007
 31
0.0000
 6
CONTINUOUS
 0
LINE
 8
WHITE
 10
4.928705
 20
.557007
 30
0.0000
 11
4.957674
 21
.514714
 31
0.0000
 6
CONTINUOUS
 0
LINE
 8
WHITE
 10
4.957674
 20
.514714
 30
0.0000
 11
4.666248
 21
.342059
 31
0.0000
 6
CONTINUOUS
 0
LINE
 8
WHITE
 10
5.380038
 20
1.088295
 30
0.0000
 11
5.380038
 21
1.079025
 31
0.0000
 6
CONTINUOUS
 0
LINE
 8
WHITE
 10
5.380038
 20
1.079025
 30
0.0000
 11
5.442031
 21
1.044262
 31
0.0000
 6
CONTINUOUS
 0
ARC
 8
WHITE
 10
5.499679
 20
1.146058
 30
 0
 40
.1169861
 50
240.4769
 51
272.6967
 6
CONTINUOUS
 0
LINE
 8
WHITE
 10
5.505183
 20
1.029199
 30
0.0000
 11
5.561382
 21
1.032095
 31
0.0000
 6
CONTINUOUS
 0
ARC
 8
WHITE
 10
5.555821
 20
1.132907
 30
 0
 40
.1009645
 50
273.1576
 51
304.8573
 6
CONTINUOUS
 0
LINE
 8
WHITE
 10
5.613525
 20
1.050058
 30
0.0000
 11
5.670885
 21
1.089454
 31
0.0000
 6
CONTINUOUS
 0
LINE
 8
WHITE
 10
5.670885
 20
1.089454
 30
0.0000
 11
5.749679
 21
1.163034
 31
0.0000
 6
CONTINUOUS
 0
ARC
 8
WHITE
 10
5.777472
 20
1.132379
 30
 0
 40
4.137815E-02
 50
110.4649
 51
132.1961
 6
CONTINUOUS
 0
LINE
 8
WHITE
 10
5.763004
 20
1.171145
 30
0.0000
 11
5.801244
 21
1.18563
 31
0.0000
 6
CONTINUOUS
 0
ARC
 8
WHITE
 10
5.826363
 20
1.11999
 30
 0
 40
.0702819
 50
82.59035
 51
110.9407
 6
CONTINUOUS
 0
LINE
 8
WHITE
 10
5.835426
 20
1.189685
 30
0.0000
 11
5.939714
 21
1.176939
 31
0.0000
 6
CONTINUOUS
 0
ARC
 8
WHITE
 10
5.954919
 20
1.300981
 30
 0
 40
.1249696
 50
263.0118
 51
285.2563
 6
CONTINUOUS
 0
LINE
 8
WHITE
 10
5.987802
 20
1.180415
 30
0.0000
 11
6.100201
 21
1.210543
 31
0.0000
 6
CONTINUOUS
 0
ARC
 8
WHITE
 10
6.073868
 20
1.308392
 30
 0
 40
.1013298
 50
285.0628
 51
314.8991
 6
CONTINUOUS
 0
LINE
 8
WHITE
 10
6.145392
 20
1.236614
 30
0.0000
 11
6.210283
 21
1.301505
 31
0.0000
 6
CONTINUOUS
 0
ARC
 8
WHITE
 10
6.298927
 20
1.21344
 30
 0
 40
.1249528
 50
112.6404
 51
135.1877
 6
CONTINUOUS
 0
LINE
 8
WHITE
 10
6.250827
 20
1.328763
 30
0.0000
 11
6.285601
 21
1.34322
 31
0.0000
 6
CONTINUOUS
 0
LINE
 8
WHITE
 10
6.285601
 20
1.34322
 30
0.0000
 11
6.440874
 21
1.397102
 31
0.0000
 6
CONTINUOUS
 0
ARC
 8
WHITE
 10
6.427027
 20
1.441135
 30
 0
 40
4.615846E-02
 50
287.4567
 51
344.7261
 6
CONTINUOUS
 0
LINE
 8
WHITE
 10
6.471555
 20
1.428974
 30
0.0000
 11
6.493018
 21
1.504865
 31
0.0000
 6
CONTINUOUS
 0
ARC
 8
WHITE
 10
6.461729
 20
1.514125
 30
 0
 40
3.263064E-02
 50
343.5136
 51
56.59823
 6
CONTINUOUS
 0
LINE
 8
WHITE
 10
6.479692
 20
1.541366
 30
0.0000
 11
6.431025
 21
1.573811
 31
0.0000
 6
CONTINUOUS
 0
ARC
 8
WHITE
 10
6.395452
 20
1.519119
 30
 0
 40
6.524412E-02
 50
56.95917
 51
98.47534
 6
CONTINUOUS
 0
LINE
 8
WHITE
 10
6.385835
 20
1.583649
 30
0.0000
 11
6.33253
 21
1.576129
 31
0.0000
 6
CONTINUOUS
 0
ARC
 8
WHITE
 10
6.325115
 20
1.625376
 30
 0
 40
4.980201E-02
 50
216.3898
 51
278.5635
 6
CONTINUOUS
 0
LINE
 8
WHITE
 10
6.285024
 20
1.595829
 30
0.0000
 11
6.266482
 21
1.62074
 31
0.0000
 6
CONTINUOUS
 0
ARC
 8
WHITE
 10
6.204373
 20
1.574507
 30
 0
 40
7.742782E-02
 50
36.66376
 51
71.59197
 6
CONTINUOUS
 0
LINE
 8
WHITE
 10
6.228823
 20
1.647972
 30
0.0000
 11
6.105416
 21
1.693162
 31
0.0000
 6
CONTINUOUS
 0
LINE
 8
WHITE
 10
6.105416
 20
1.693162
 30
0.0000
 11
5.129168
 21
1.905213
 31
0.0000
 6
CONTINUOUS
 0
ARC
 8
WHITE
 10
5.13171
 20
1.916452
 30
 0
 40
1.152214E-02
 50
211.0291
 51
257.257
 6
CONTINUOUS
 0
ARC
 8
WHITE
 10
5.129314
 20
1.916735
 30
 0
 40
9.727521E-03
 50
165.7982
 51
219.7651
 6
CONTINUOUS
 0
LINE
 8
WHITE
 10
5.119883
 20
1.919121
 30
0.0000
 11
5.133224
 21
1.999651
 31
0.0000
 6
CONTINUOUS
 0
ARC
 8
WHITE
 10
5.142494
 20
1.997913
 30
 0
 40
9.431251E-03
 50
79.3771
 51
169.3803
 6
CONTINUOUS
 0
LINE
 8
WHITE
 10
5.144232
 20
2.007182
 30
0.0000
 11
5.723607
 21
1.883197
 31
0.0000
 6
CONTINUOUS
 0
ARC
 8
WHITE
 10
5.726273
 20
1.895423
 30
 0
 40
1.251192E-02
 50
257.7018
 51
7.716829
 6
CONTINUOUS
 0
LINE
 8
WHITE
 10
5.73867
 20
1.897102
 30
0.0000
 11
5.728242
 21
1.967785
 31
0.0000
 6
CONTINUOUS
 0
ARC
 8
WHITE
 10
5.698708
 20
1.963639
 30
 0
 40
2.982503E-02
 50
7.99288
 51
37.24913
 6
CONTINUOUS
 0
LINE
 8
WHITE
 10
5.722448
 20
1.981691
 30
0.0000
 11
5.697535
 21
2.013556
 31
0.0000
 6
CONTINUOUS
 0
ARC
 8
WHITE
 10
5.666539
 20
1.988876
 30
 0
 40
.0396221
 50
38.52846
 51
76.89804
 6
CONTINUOUS
 0
LINE
 8
WHITE
 10
5.675519
 20
2.027462
 30
0.0000
 11
5.59151
 21
2.048898
 31
0.0000
 6
CONTINUOUS
 0
LINE
 8
WHITE
 10
5.59151
 20
2.048898
 30
0.0000
 11
5.416538
 21
2.076708
 31
0.0000
 6
CONTINUOUS
 0
LINE
 8
WHITE
 10
5.416538
 20
2.076708
 30
0.0000
 11
5.258369
 21
2.133487
 31
0.0000
 6
CONTINUOUS
 0
LINE
 8
WHITE
 10
5.258369
 20
2.133487
 30
0.0000
 11
5.235773
 21
2.144495
 31
0.0000
 6
CONTINUOUS
 0
LINE
 8
WHITE
 10
5.235773
 20
2.144495
 30
0.0000
 11
5.101359
 21
2.181575
 31
0.0000
 6
CONTINUOUS
 0
ARC
 8
WHITE
 10
5.017292
 20
1.879315
 30
 0
 40
.313733
 50
74.45719
 51
84.15996
 6
CONTINUOUS
 0
LINE
 8
WHITE
 10
5.049214
 20
2.191419
 30
0.0000
 11
4.848751
 21
2.211702
 31
0.0000
 6
CONTINUOUS
 0
ARC
 8
WHITE
 10
4.813816
 20
1.844785
 30
 0
 40
.3685776
 50
84.56108
 51
99.01665
 6
CONTINUOUS
 0
LINE
 8
WHITE
 10
4.756051
 20
2.208807
 30
0.0000
 11
4.749678
 21
2.207647
 31
0.0000
 6
CONTINUOUS
 0
ARC
 8
WHITE
 10
4.969667
 20
1.137136
 30
 0
 40
1.092881
 50
101.6126
 51
107.9297
 6
CONTINUOUS
 0
LINE
 8
WHITE
 10
4.633223
 20
2.176941
 30
0.0000
 11
4.480268
 21
2.127693
 31
0.0000
 6
CONTINUOUS
 0
ARC
 8
WHITE
 10
4.604023
 20
1.746754
 30
 0
 40
.4005368
 50
107.9973
 51
117.6289
 6
CONTINUOUS
 0
LINE
 8
WHITE
 10
4.418277
 20
2.101617
 30
0.0000
 11
4.337742
 21
2.059907
 31
0.0000
 6
CONTINUOUS
 0
ARC
 8
WHITE
 10
4.428451
 20
1.887416
 30
 0
 40
.1948881
 50
117.7385
 51
132.5715
 6
CONTINUOUS
 0
ARC
 8
WHITE
 10
4.365611
 20
1.960891
 30
 0
 40
9.832589E-02
 50
134.5704
 51
193.3236
 6
CONTINUOUS
 0
LINE
 8
WHITE
 10
4.269931
 20
1.938232
 30
0.0000
 11
4.273431
 21
1.923753
 31
0.0000
 6
CONTINUOUS
 0
ARC
 8
WHITE
 10
4.421752
 20
1.959211
 30
 0
 40
.1524996
 50
193.4449
 51
242.3833
 6
CONTINUOUS
 0
LINE
 8
WHITE
 10
4.35106
 20
1.824086
 30
0.0000
 11
4.388727
 21
1.803822
 31
0.0000
 6
CONTINUOUS
 0
ARC
 8
WHITE
 10
4.431706
 20
1.885789
 30
 0
 40
9.255077E-02
 50
242.3299
 51
266.705
 6
CONTINUOUS
 0
LINE
 8
WHITE
 10
4.426386
 20
1.793391
 30
0.0000
 11
4.469261
 21
1.791077
 31
0.0000
 6
CONTINUOUS
 0
ARC
 8
WHITE
 10
4.463744
 20
1.698385
 30
 0
 40
9.285597E-02
 50
59.42503
 51
86.59349
 6
CONTINUOUS
 0
LINE
 8
WHITE
 10
4.510976
 20
1.77833
 30
0.0000
 11
4.622795
 21
1.712281
 31
0.0000
 6
CONTINUOUS
 0
ARC
 8
WHITE
 10
4.511903
 20
1.523811
 30
 0
 40
.218674
 50
50.0409
 51
59.52832
 6
CONTINUOUS
 0
LINE
 8
WHITE
 10
4.652344
 20
1.691424
 30
0.0000
 11
4.750836
 21
1.609152
 31
0.0000
 6
CONTINUOUS
 0
ARC
 8
WHITE
 10
4.960165
 20
1.85811
 30
 0
 40
.3252662
 50
229.9422
 51
248.879
 6
CONTINUOUS
 0
LINE
 8
WHITE
 10
4.842957
 20
1.554692
 30
0.0000
 11
5.010396
 21
1.490381
 31
0.0000
 6
CONTINUOUS
 0
LINE
 8
WHITE
 10
5.010396
 20
1.490381
 30
0.0000
 11
5.148868
 21
1.455618
 31
0.0000
 6
CONTINUOUS
 0
ARC
 8
WHITE
 10
5.185948
 20
1.603359
 30
 0
 40
.1523222
 50
255.9109
 51
279.8566
 6
CONTINUOUS
 0
LINE
 8
WHITE
 10
5.212022
 20
1.453285
 30
0.0000
 11
5.326156
 21
1.473
 31
0.0000
 6
CONTINUOUS
 0
LINE
 8
WHITE
 10
5.326156
 20
1.473
 30
0.0000
 11
5.480269
 21
1.473
 31
0.0000
 6
CONTINUOUS
 0
ARC
 8
WHITE
 10
5.479401
 20
1.409848
 30
 0
 40
6.315781E-02
 50
57.54909
 51
89.21181
 6
CONTINUOUS
 0
LINE
 8
WHITE
 10
5.513289
 20
1.463143
 30
0.0000
 11
5.543421
 21
1.444031
 31
0.0000
 6
CONTINUOUS
 0
ARC
 8
WHITE
 10
5.533689
 20
1.428098
 30
 0
 40
1.867065E-02
 50
333.2762
 51
58.57981
 6
CONTINUOUS
 0
LINE
 8
WHITE
 10
5.550364
 20
1.419702
 30
0.0000
 11
5.533572
 21
1.38899
 31
0.0000
 6
CONTINUOUS
 0
ARC
 8
WHITE
 10
5.517853
 20
1.398151
 30
 0
 40
1.819423E-02
 50
251.6851
 51
329.7692
 6
CONTINUOUS
 0
LINE
 8
WHITE
 10
5.512135
 20
1.380879
 30
0.0000
 11
5.491858
 21
1.387252
 31
0.0000
 6
CONTINUOUS
 0
ARC
 8
WHITE
 10
5.470131
 20
1.317032
 30
 0
 40
7.350531E-02
 50
72.80737
 51
127.0865
 6
CONTINUOUS
 0
LINE
 8
WHITE
 10
5.425806
 20
1.375668
 30
0.0000
 11
5.387569
 21
1.346695
 31
0.0000
 6
CONTINUOUS
 0
ARC
 8
WHITE
 10
5.437911
 20
1.278846
 30
 0
 40
8.448552E-02
 50
126.5732
 51
168.4849
 6
CONTINUOUS
 0
LINE
 8
WHITE
 10
5.355125
 20
1.295711
 30
0.0000
 11
5.340641
 21
1.221551
 31
0.0000
 6
CONTINUOUS
 0
ARC
 8
WHITE
 10
5.505123
 20
1.188338
 30
 0
 40
.1678015
 50
168.5838
 51
187.8733
 6
CONTINUOUS
 0
LINE
 8
WHITE
 10
5.338902
 20
1.165352
 30
0.0000
 11
5.342958
 21
1.136962
 31
0.0000
 6
CONTINUOUS
 0
ARC
 8
WHITE
 10
5.349905
 20
1.13782
 30
 0
 40
6.999301E-03
 50
187.0379
 51
299.8257
 6
CONTINUOUS
 0
LINE
 8
WHITE
 10
5.353386
 20
1.131747
 30
0.0000
 11
5.642495
 21
1.303822
 31
0.0000
 6
CONTINUOUS
 0
LINE
 8
WHITE
 10
5.642495
 20
1.303822
 30
0.0000
 11
5.670885
 21
1.260948
 31
0.0000
 6
CONTINUOUS
 0
LINE
 8
WHITE
 10
5.670885
 20
1.260948
 30
0.0000
 11
5.380038
 21
1.088295
 31
0.0000
 6
CONTINUOUS
 0
ARC
 8
WHITE
 10
.3286709
 20
2.642381
 30
 0
 40
4.750792E-02
 50
341.2567
 51
30.52156
 6
CONTINUOUS
 0
LINE
 8
WHITE
 10
.369595
 20
2.666508
 30
0.0000
 11
.330785
 21
2.731981
 31
0.0000
 6
CONTINUOUS
 0
ARC
 8
WHITE
 10
.4024543
 20
2.774624
 30
 0
 40
8.339515E-02
 50
164.5249
 51
210.7522
 6
CONTINUOUS
 0
LINE
 8
WHITE
 10
.322082
 20
2.796875
 30
0.0000
 11
.364968
 21
2.94693
 31
0.0000
 6
CONTINUOUS
 0
ARC
 8
WHITE
 10
.3754902
 20
2.94439
 30
 0
 40
1.082383E-02
 50
68.52306
 51
166.4261
 6
CONTINUOUS
 0
LINE
 8
WHITE
 10
.379453
 20
2.954462
 30
0.0000
 11
.605988
 21
2.871032
 31
0.0000
 6
CONTINUOUS
 0
ARC
 8
WHITE
 10
.6077842
 20
2.877579
 30
 0
 40
6.788622E-03
 50
254.6591
 51
338.4708
 6
CONTINUOUS
 0
LINE
 8
WHITE
 10
.614099
 20
2.875087
 30
0.0000
 11
.626845
 21
2.908691
 31
0.0000
 6
CONTINUOUS
 0
ARC
 8
WHITE
 10
.6187344
 20
2.911588
 30
 0
 40
8.613068E-03
 50
340.3452
 51
70.34559
 6
CONTINUOUS
 0
LINE
 8
WHITE
 10
.621631
 20
2.919699
 30
0.0000
 11
.399731
 21
3.001391
 31
0.0000
 6
CONTINUOUS
 0
ARC
 8
WHITE
 10
.4032075
 20
3.010082
 30
 0
 40
9.359624E-03
 50
158.1986
 51
248.1974
 6
CONTINUOUS
 0
LINE
 8
WHITE
 10
.394517
 20
3.013557
 30
0.0000
 11
.479684
 21
3.258633
 31
0.0000
 6
CONTINUOUS
 0
LINE
 8
WHITE
 10
.479684
 20
3.258633
 30
0.0000
 11
.572384
 21
3.532677
 31
0.0000
 6
CONTINUOUS
 0
LINE
 8
WHITE
 10
.572384
 20
3.532677
 30
0.0000
 11
.601353
 21
3.619584
 31
0.0000
 6
CONTINUOUS
 0
LINE
 8
WHITE
 10
.601353
 20
3.619584
 30
0.0000
 11
.654076
 21
3.882041
 31
0.0000
 6
CONTINUOUS
 0
ARC
 8
WHITE
 10
.4890123
 20
3.915298
 30
 0
 40
.1683808
 50
348.6088
 51
4.064521
 6
CONTINUOUS
 0
LINE
 8
WHITE
 10
.656969
 20
3.927232
 30
0.0000
 11
.644806
 21
4.097568
 31
0.0000
 6
CONTINUOUS
 0
ARC
 8
WHITE
 10
.8117248
 20
4.107882
 30
 0
 40
.1672363
 50
163.0402
 51
183.5355
 6
CONTINUOUS
 0
LINE
 8
WHITE
 10
.651758
 20
4.156665
 30
0.0000
 11
.661029
 21
4.18853
 31
0.0000
 6
CONTINUOUS
 0
ARC
 8
WHITE
 10
.7639356
 20
4.157542
 30
 0
 40
.1074708
 50
132.6253
 51
163.2413
 6
CONTINUOUS
 0
LINE
 8
WHITE
 10
.691156
 20
4.236618
 30
0.0000
 11
.698688
 21
4.244151
 31
0.0000
 6
CONTINUOUS
 0
ARC
 8
WHITE
 10
.7493261
 20
4.189342
 30
 0
 40
7.462058E-02
 50
77.1721
 51
132.7342
 6
CONTINUOUS
 0
LINE
 8
WHITE
 10
.765893
 20
4.262099
 30
0.0000
 11
.823833
 21
4.248785
 31
0.0000
 6
CONTINUOUS
 0
ARC
 8
WHITE
 10
.8368117
 20
4.304348
 30
 0
 40
5.705804E-02
 50
256.8528
 51
301.5921
 6
CONTINUOUS
 0
LINE
 8
WHITE
 10
.866702
 20
4.255746
 30
0.0000
 11
.918271
 21
4.287603
 31
0.0000
 6
CONTINUOUS
 0
ARC
 8
WHITE
 10
1.000311
 20
4.150582
 30
 0
 40
.1597041
 50
106.3508
 51
120.9104
 6
CONTINUOUS
 0
LINE
 8
WHITE
 10
.955351
 20
4.303826
 30
0.0000
 11
1.015026
 21
4.322365
 31
0.0000
 6
CONTINUOUS
 0
ARC
 8
WHITE
 10
1.029222
 20
4.275552
 30
 0
 40
4.891819E-02
 50
36.96498
 51
106.8682
 6
CONTINUOUS
 0
ARC
 8
WHITE
 10
.9988283
 20
4.246816
 30
 0
 40
9.060309E-02
 50
342.2784
 51
39.92837
 6
CONTINUOUS
 0
LINE
 8
WHITE
 10
1.085131
 20
4.219237
 30
0.0000
 11
1.051528
 21
4.120743
 31
0.0000
 6
CONTINUOUS
 0
LINE
 8
WHITE
 10
1.051528
 20
4.120743
 30
0.0000
 11
1.027773
 21
4.030941
 31
0.0000
 6
CONTINUOUS
 0
ARC
 8
WHITE
 10
1.390052
 20
3.937701
 30
 0
 40
.3740848
 50
165.567
 51
181.9588
 6
CONTINUOUS
 0
LINE
 8
WHITE
 10
1.016186
 20
3.924914
 30
0.0000
 11
1.018503
 21
3.849596
 31
0.0000
 6
CONTINUOUS
 0
LINE
 8
WHITE
 10
1.018503
 20
3.849596
 30
0.0000
 11
1.162188
 21
3.336849
 31
0.0000
 6
CONTINUOUS
 0
ARC
 8
WHITE
 10
1.098052
 20
3.31831
 30
 0
 40
6.676271E-02
 50
5.478133
 51
16.12311
 6
CONTINUOUS
 0
LINE
 8
WHITE
 10
1.164505
 20
3.324682
 30
0.0000
 11
1.181887
 21
3.133488
 31
0.0000
 6
CONTINUOUS
 0
ARC
 8
WHITE
 10
.9548304
 20
3.112747
 30
 0
 40
.2280024
 50
351.2007
 51
5.219495
 6
CONTINUOUS
 0
LINE
 8
WHITE
 10
1.180148
 20
3.077868
 30
0.0000
 11
1.168561
 21
3.000812
 31
0.0000
 6
CONTINUOUS
 0
LINE
 8
WHITE
 10
1.168561
 20
3.000812
 30
0.0000
 11
1.102512
 21
2.818309
 31
0.0000
 6
CONTINUOUS
 0
ARC
 8
WHITE
 10
.925919
 20
2.882329
 30
 0
 40
.18784
 50
324.4521
 51
340.0729
 6
CONTINUOUS
 0
LINE
 8
WHITE
 10
1.07875
 20
2.773122
 30
0.0000
 11
.979685
 21
2.634647
 31
0.0000
 6
CONTINUOUS
 0
ARC
 8
WHITE
 10
.8225285
 20
2.746833
 30
 0
 40
.1930903
 50
304.8101
 51
324.4789
 6
CONTINUOUS
 0
LINE
 8
WHITE
 10
.932755
 20
2.588296
 30
0.0000
 11
.756046
 21
2.462572
 31
0.0000
 6
CONTINUOUS
 0
LINE
 8
WHITE
 10
.756046
 20
2.462572
 30
0.0000
 11
.517344
 21
2.26964
 31
0.0000
 6
CONTINUOUS
 0
LINE
 8
WHITE
 10
.517344
 20
2.26964
 30
0.0000
 11
.376555
 21
2.150868
 31
0.0000
 6
CONTINUOUS
 0
ARC
 8
WHITE
 10
.353902
 20
2.178157
 30
 0
 40
3.546627E-02
 50
272.9045
 51
309.6976
 6
CONTINUOUS
 0
LINE
 8
WHITE
 10
.355699
 20
2.142736
 30
0.0000
 11
.292546
 21
2.139281
 31
0.0000
 6
CONTINUOUS
 0
ARC
 8
WHITE
 10
.2909825
 20
2.176419
 30
 0
 40
3.717068E-02
 50
229.9314
 51
272.412
 6
CONTINUOUS
 0
LINE
 8
WHITE
 10
.267055
 20
2.147973
 30
0.0000
 11
.247934
 21
2.163614
 31
0.0000
 6
CONTINUOUS
 0
ARC
 8
WHITE
 10
.2740068
 20
2.19606
 30
 0
 40
4.162231E-02
 50
161.3127
 51
231.2156
 6
CONTINUOUS
 0
LINE
 8
WHITE
 10
.234578
 20
2.209395
 30
0.0000
 11
.373659
 21
2.627115
 31
0.0000
 6
CONTINUOUS
 0
ARC
 8
WHITE
 10
.8028035
 20
3.281304
 30
 0
 40
1.431241E-02
 50
180.3006
 51
282.3846
 6
CONTINUOUS
 0
LINE
 8
WHITE
 10
.805873
 20
3.267324
 30
0.0000
 11
.82673
 21
3.273117
 31
0.0000
 6
CONTINUOUS
 0
ARC
 8
WHITE
 10
.8228482
 20
3.287486
 30
 0
 40
.0148838
 50
285.1201
 51
2.673651
 6
CONTINUOUS
 0
LINE
 8
WHITE
 10
.837715
 20
3.28818
 30
0.0000
 11
.822095
 21
3.72503
 31
0.0000
 6
CONTINUOUS
 0
ARC
 8
WHITE
 10
.815143
 20
3.725031
 30
 0
 40
6.952524E-03
 50
0
 51
90
 6
CONTINUOUS
 0
LINE
 8
WHITE
 10
.815143
 20
3.731983
 30
0.0000
 11
.776903
 21
3.731982
 31
0.0000
 6
CONTINUOUS
 0
ARC
 8
WHITE
 10
.7768753
 20
3.726189
 30
 0
 40
5.793641E-03
 50
89.71883
 51
185.7343
 6
CONTINUOUS
 0
LINE
 8
WHITE
 10
.77111
 20
3.72561
 30
0.0000
 11
.788491
 21
3.281229
 31
0.0000
 6
CONTINUOUS
 0
LINE
 8
WHITE
 10
2.483163
 20
1.791656
 30
0.0000
 11
2.244461
 21
1.599304
 31
0.0000
 6
CONTINUOUS
 0
LINE
 8
WHITE
 10
2.244461
 20
1.599304
 30
0.0000
 11
2.103672
 21
1.479952
 31
0.0000
 6
CONTINUOUS
 0
ARC
 8
WHITE
 10
2.081772
 20
1.507878
 30
 0
 40
3.548947E-02
 50
271.685
 51
308.1054
 6
CONTINUOUS
 0
LINE
 8
WHITE
 10
2.082815
 20
1.472404
 30
0.0000
 11
2.019663
 21
1.468944
 31
0.0000
 6
CONTINUOUS
 0
ARC
 8
WHITE
 10
2.018099
 20
1.506083
 30
 0
 40
3.717082E-02
 50
229.9314
 51
272.413
 6
CONTINUOUS
 0
LINE
 8
WHITE
 10
1.994172
 20
1.477637
 30
0.0000
 11
1.975051
 21
1.493277
 31
0.0000
 6
CONTINUOUS
 0
ARC
 8
WHITE
 10
2.001297
 20
1.525607
 30
 0
 40
.0416415
 50
161.994
 51
230.9294
 6
CONTINUOUS
 0
LINE
 8
WHITE
 10
1.961694
 20
1.538479
 30
0.0000
 11
2.100775
 21
1.956198
 31
0.0000
 6
CONTINUOUS
 0
ARC
 8
WHITE
 10
2.055642
 20
1.971436
 30
 0
 40
4.763615E-02
 50
341.3447
 51
30.46214
 6
CONTINUOUS
 0
LINE
 8
WHITE
 10
2.096702
 20
1.995585
 30
0.0000
 11
2.057902
 21
2.061065
 31
0.0000
 6
CONTINUOUS
 0
ARC
 8
WHITE
 10
2.129455
 20
2.103881
 30
 0
 40
8.338473E-02
 50
164.2351
 51
210.8953
 6
CONTINUOUS
 0
LINE
 8
WHITE
 10
2.049207
 20
2.126535
 30
0.0000
 11
2.092664
 21
2.276013
 31
0.0000
 6
CONTINUOUS
 0
ARC
 8
WHITE
 10
2.103176
 20
2.274231
 30
 0
 40
1.066141E-02
 50
68.11817
 51
170.3772
 6
CONTINUOUS
 0
LINE
 8
WHITE
 10
2.107149
 20
2.284124
 30
0.0000
 11
2.333105
 21
2.200115
 31
0.0000
 6
CONTINUOUS
 0
ARC
 8
WHITE
 10
2.335423
 20
2.206488
 30
 0
 40
6.781426E-03
 50
250.0176
 51
340.0181
 6
CONTINUOUS
 0
LINE
 8
WHITE
 10
2.341795
 20
2.204171
 30
0.0000
 11
2.353962
 21
2.237775
 31
0.0000
 6
CONTINUOUS
 0
ARC
 8
WHITE
 10
2.345852
 20
2.240672
 30
 0
 40
8.612314E-03
 50
340.3451
 51
70.34671
 6
CONTINUOUS
 0
LINE
 8
WHITE
 10
2.348748
 20
2.248783
 30
0.0000
 11
2.126847
 21
2.330475
 31
0.0000
 6
CONTINUOUS
 0
ARC
 8
WHITE
 10
2.130097
 20
2.339642
 30
 0
 40
9.725603E-03
 50
158.4086
 51
250.4817
 6
CONTINUOUS
 0
LINE
 8
WHITE
 10
2.121053
 20
2.34322
 30
0.0000
 11
2.206801
 21
2.587717
 31
0.0000
 6
CONTINUOUS
 0
LINE
 8
WHITE
 10
2.206801
 20
2.587717
 30
0.0000
 11
2.308191
 21
2.886675
 31
0.0000
 6
CONTINUOUS
 0
LINE
 8
WHITE
 10
2.308191
 20
2.886675
 30
0.0000
 11
2.329049
 21
2.949247
 31
0.0000
 6
CONTINUOUS
 0
LINE
 8
WHITE
 10
2.329049
 20
2.949247
 30
0.0000
 11
2.381193
 21
3.211125
 31
0.0000
 6
CONTINUOUS
 0
ARC
 8
WHITE
 10
2.21613
 20
3.244381
 30
 0
 40
.1683806
 50
348.6089
 51
4.064519
 6
CONTINUOUS
 0
LINE
 8
WHITE
 10
2.384086
 20
3.256316
 30
0.0000
 11
2.372503
 21
3.426652
 31
0.0000
 6
CONTINUOUS
 0
ARC
 8
WHITE
 10
2.539368
 20
3.439011
 30
 0
 40
.167322
 50
163.5733
 51
184.236
 6
CONTINUOUS
 0
LINE
 8
WHITE
 10
2.378875
 20
3.486327
 30
0.0000
 11
2.387566
 21
3.517614
 31
0.0000
 6
CONTINUOUS
 0
ARC
 8
WHITE
 10
2.490695
 20
3.487487
 30
 0
 40
.1074392
 50
132.8141
 51
163.7151
 6
CONTINUOUS
 0
LINE
 8
WHITE
 10
2.417677
 20
3.566299
 30
0.0000
 11
2.425805
 21
3.573234
 31
0.0000
 6
CONTINUOUS
 0
ARC
 8
WHITE
 10
2.476442
 20
3.518425
 30
 0
 40
7.462001E-02
 50
77.17202
 51
132.7339
 6
CONTINUOUS
 0
LINE
 8
WHITE
 10
2.493009
 20
3.591182
 30
0.0000
 11
2.55095
 21
3.578448
 31
0.0000
 6
CONTINUOUS
 0
ARC
 8
WHITE
 10
2.563928
 20
3.634011
 30
 0
 40
5.705753E-02
 50
256.8529
 51
301.5925
 6
CONTINUOUS
 0
LINE
 8
WHITE
 10
2.593818
 20
3.585409
 30
0.0000
 11
2.645388
 21
3.616687
 31
0.0000
 6
CONTINUOUS
 0
ARC
 8
WHITE
 10
2.729282
 20
3.480824
 30
 0
 40
.1596781
 50
107.0477
 51
121.6948
 6
CONTINUOUS
 0
LINE
 8
WHITE
 10
2.682469
 20
3.633485
 30
0.0000
 11
2.742143
 21
3.652029
 31
0.0000
 6
CONTINUOUS
 0
ARC
 8
WHITE
 10
2.756021
 20
3.605139
 30
 0
 40
4.890155E-02
 50
36.27131
 51
106.4858
 6
CONTINUOUS
 0
ARC
 8
WHITE
 10
2.725753
 20
3.576664
 30
 0
 40
9.029079E-02
 50
342.0918
 51
39.47779
 6
CONTINUOUS
 0
LINE
 8
WHITE
 10
2.811669
 20
3.5489
 30
0.0000
 11
2.778644
 21
3.450407
 31
0.0000
 6
CONTINUOUS
 0
LINE
 8
WHITE
 10
2.778644
 20
3.450407
 30
0.0000
 11
2.75489
 21
3.360024
 31
0.0000
 6
CONTINUOUS
 0
ARC
 8
WHITE
 10
3.117869
 20
3.266687
 30
 0
 40
.3747866
 50
165.5792
 51
181.9402
 6
CONTINUOUS
 0
LINE
 8
WHITE
 10
2.743297
 20
3.253998
 30
0.0000
 11
2.74562
 21
3.178679
 31
0.0000
 6
CONTINUOUS
 0
LINE
 8
WHITE
 10
2.74562
 20
3.178679
 30
0.0000
 11
2.889884
 21
2.665933
 31
0.0000
 6
CONTINUOUS
 0
ARC
 8
WHITE
 10
2.824936
 20
2.650464
 30
 0
 40
6.676491E-02
 50
2.835155
 51
13.39708
 6
CONTINUOUS
 0
LINE
 8
WHITE
 10
2.891618
 20
2.653766
 30
0.0000
 11
2.909003
 21
2.462572
 31
0.0000
 6
CONTINUOUS
 0
ARC
 8
WHITE
 10
2.681831
 20
2.442178
 30
 0
 40
.2280859
 50
351.2627
 51
5.129838
 6
CONTINUOUS
 0
LINE
 8
WHITE
 10
2.907266
 20
2.407531
 30
0.0000
 11
2.895678
 21
2.330475
 31
0.0000
 6
CONTINUOUS
 0
LINE
 8
WHITE
 10
2.895678
 20
2.330475
 30
0.0000
 11
2.829629
 21
2.147392
 31
0.0000
 6
CONTINUOUS
 0
ARC
 8
WHITE
 10
2.653268
 20
2.212688
 30
 0
 40
.1880612
 50
324.2386
 51
339.6836
 6
CONTINUOUS
 0
LINE
 8
WHITE
 10
2.805871
 20
2.102783
 30
0.0000
 11
2.706801
 21
1.964309
 31
0.0000
 6
CONTINUOUS
 0
ARC
 8
WHITE
 10
2.54992
 20
2.076218
 30
 0
 40
.1927055
 50
304.7903
 51
324.4986
 6
CONTINUOUS
 0
LINE
 8
WHITE
 10
2.659873
 20
1.917959
 30
0.0000
 11
2.483163
 21
1.791656
 31
0.0000
 6
CONTINUOUS
 0
LINE
 8
WHITE
 10
2.564848
 20
2.617265
 30
0.0000
 11
2.548632
 21
3.054114
 31
0.0000
 6
CONTINUOUS
 0
ARC
 8
WHITE
 10
2.541678
 20
3.05467
 30
 0
 40
6.976564E-03
 50
355.4349
 51
89.97846
 6
CONTINUOUS
 0
LINE
 8
WHITE
 10
2.54168
 20
3.061646
 30
0.0000
 11
2.504021
 21
3.061646
 31
0.0000
 6
CONTINUOUS
 0
ARC
 8
WHITE
 10
2.503993
 20
3.055852
 30
 0
 40
5.794356E-03
 50
89.71945
 51
185.7336
 6
CONTINUOUS
 0
LINE
 8
WHITE
 10
2.498227
 20
3.055273
 30
0.0000
 11
2.515608
 21
2.610312
 31
0.0000
 6
CONTINUOUS
 0
ARC
 8
WHITE
 10
2.530092
 20
2.611207
 30
 0
 40
1.451101E-02
 50
183.5315
 51
281.5189
 6
CONTINUOUS
 0
LINE
 8
WHITE
 10
2.532989
 20
2.596987
 30
0.0000
 11
2.553846
 21
2.602781
 31
0.0000
 6
CONTINUOUS
 0
ARC
 8
WHITE
 10
2.549965
 20
2.617149
 30
 0
 40
.0148834
 50
285.118
 51
.4469832
 6
CONTINUOUS
 0
LINE
 8
WHITE
 10
.736926
 20
1.56512
 30
0.0000
 11
.773428
 21
1.380879
 31
0.0000
 6
CONTINUOUS
 0
ARC
 8
WHITE
 10
.4263825
 20
1.314251
 30
 0
 40
.3533836
 50
356.7108
 51
10.86778
 6
CONTINUOUS
 0
LINE
 8
WHITE
 10
.779183
 20
1.293975
 30
0.0000
 11
.771689
 21
1.15782
 31
0.0000
 6
CONTINUOUS
 0
ARC
 8
WHITE
 10
.7096968
 20
1.16176
 30
 0
 40
6.211759E-02
 50
326.1024
 51
356.3636
 6
CONTINUOUS
 0
LINE
 8
WHITE
 10
.761256
 20
1.127116
 30
0.0000
 11
.717807
 21
1.061644
 31
0.0000
 6
CONTINUOUS
 0
ARC
 8
WHITE
 10
.9368113
 20
.9156415
 30
 0
 40
.2632098
 50
146.3099
 51
157.613
 6
CONTINUOUS
 0
LINE
 8
WHITE
 10
.693439
 20
1.015887
 30
0.0000
 11
.678409
 21
.980531
 31
0.0000
 6
CONTINUOUS
 0
ARC
 8
WHITE
 10
.8204616
 20
.9222756
 30
 0
 40
.1535331
 50
157.7013
 51
198.5836
 6
CONTINUOUS
 0
LINE
 8
WHITE
 10
.674933
 20
.873346
 30
0.0000
 11
.689998
 21
.828734
 31
0.0000
 6
CONTINUOUS
 0
ARC
 8
WHITE
 10
.7294529
 20
.8418865
 30
 0
 40
.0415891
 50
198.4352
 51
242.5425
 6
CONTINUOUS
 0
LINE
 8
WHITE
 10
.710276
 20
.804982
 30
0.0000
 11
.767054
 21
.774853
 31
0.0000
 6
CONTINUOUS
 0
ARC
 8
WHITE
 10
.7933121
 20
.8233979
 30
 0
 40
5.519095E-02
 50
241.591
 51
280.0846
 6
CONTINUOUS
 0
LINE
 8
WHITE
 10
.802976
 20
.769059
 30
0.0000
 11
.837738
 21
.775432
 31
0.0000
 6
CONTINUOUS
 0
ARC
 8
WHITE
 10
.8177218
 20
.8867257
 30
 0
 40
.1130792
 50
280.1957
 51
309.2729
 6
CONTINUOUS
 0
LINE
 8
WHITE
 10
.889302
 20
.799186
 30
0.0000
 11
.95593
 21
.853647
 31
0.0000
 6
CONTINUOUS
 0
ARC
 8
WHITE
 10
.9203382
 20
.8979555
 30
 0
 40
5.683296E-02
 50
308.7749
 51
333.0391
 6
CONTINUOUS
 0
LINE
 8
WHITE
 10
.970994
 20
.872188
 30
0.0000
 11
.988375
 21
.90695
 31
0.0000
 6
CONTINUOUS
 0
ARC
 8
WHITE
 10
.930554
 20
.9361508
 30
 0
 40
6.477661E-02
 50
333.2058
 51
359.795
 6
CONTINUOUS
 0
LINE
 8
WHITE
 10
.99533
 20
.935919
 30
0.0000
 11
.995328
 21
1.05585
 31
0.0000
 6
CONTINUOUS
 0
ARC
 8
WHITE
 10
1.178991
 20
1.05585
 30
 0
 40
.1836619
 50
167.981
 51
180
 6
CONTINUOUS
 0
LINE
 8
WHITE
 10
.999354
 20
1.094095
 30
0.0000
 11
1.015026
 21
1.167669
 31
0.0000
 6
CONTINUOUS
 0
ARC
 8
WHITE
 10
1.430902
 20
1.077924
 30
 0
 40
.4254486
 50
157.1713
 51
167.8224
 6
CONTINUOUS
 0
LINE
 8
WHITE
 10
1.038779
 20
1.242988
 30
0.0000
 11
1.060797
 21
1.295711
 31
0.0000
 6
CONTINUOUS
 0
LINE
 8
WHITE
 10
1.060797
 20
1.295711
 30
0.0000
 11
1.110624
 21
1.412165
 31
0.0000
 6
CONTINUOUS
 0
ARC
 8
WHITE
 10
1.461494
 20
1.261528
 30
 0
 40
.3818391
 50
136.697
 51
156.7649
 6
CONTINUOUS
 0
LINE
 8
WHITE
 10
1.183615
 20
1.523414
 30
0.0000
 11
1.278063
 21
1.623637
 31
0.0000
 6
CONTINUOUS
 0
ARC
 8
WHITE
 10
1.561842
 20
1.358225
 30
 0
 40
.3885537
 50
124.2872
 51
136.9154
 6
CONTINUOUS
 0
LINE
 8
WHITE
 10
1.342953
 20
1.679257
 30
0.0000
 11
1.420009
 21
1.7314
 31
0.0000
 6
CONTINUOUS
 0
ARC
 8
WHITE
 10
1.328816
 20
1.866628
 30
 0
 40
.1631028
 50
303.9948
 51
321.2003
 6
CONTINUOUS
 0
LINE
 8
WHITE
 10
1.455928
 20
1.764427
 30
0.0000
 11
1.526615
 21
1.853069
 31
0.0000
 6
CONTINUOUS
 0
ARC
 8
WHITE
 10
1.467056
 20
1.9
 30
 0
 40
7.582692E-02
 50
321.7635
 51
352.5385
 6
CONTINUOUS
 0
LINE
 8
WHITE
 10
1.54224
 20
1.890152
 30
0.0000
 11
1.552687
 21
2.007762
 31
0.0000
 6
CONTINUOUS
 0
LINE
 8
WHITE
 10
1.552687
 20
2.007762
 30
0.0000
 11
1.552687
 21
2.28876
 31
0.0000
 6
CONTINUOUS
 0
LINE
 8
WHITE
 10
1.552687
 20
2.28876
 30
0.0000
 11
1.556163
 21
2.462572
 31
0.0000
 6
CONTINUOUS
 0
ARC
 8
WHITE
 10
1.254425
 20
2.478273
 30
 0
 40
.3021467
 50
357.0213
 51
8.479706
 6
CONTINUOUS
 0
LINE
 8
WHITE
 10
1.553268
 20
2.522827
 30
0.0000
 11
1.529512
 21
2.678099
 31
0.0000
 6
CONTINUOUS
 0
LINE
 8
WHITE
 10
1.529512
 20
2.678099
 30
0.0000
 11
1.520242
 21
2.69664
 31
0.0000
 6
CONTINUOUS
 0
LINE
 8
WHITE
 10
1.520242
 20
2.69664
 30
0.0000
 11
1.479106
 21
2.855968
 31
0.0000
 6
CONTINUOUS
 0
ARC
 8
WHITE
 10
1.33629
 20
2.818425
 30
 0
 40
.1476681
 50
14.72871
 51
43.29886
 6
CONTINUOUS
 0
LINE
 8
WHITE
 10
1.443761
 20
2.919696
 30
0.0000
 11
1.424065
 21
2.941135
 31
0.0000
 6
CONTINUOUS
 0
ARC
 8
WHITE
 10
1.373553
 20
2.894313
 30
 0
 40
6.887616E-02
 50
42.82916
 51
103.0361
 6
CONTINUOUS
 0
LINE
 8
WHITE
 10
1.358016
 20
2.961414
 30
0.0000
 11
1.343532
 21
2.957937
 31
0.0000
 6
CONTINUOUS
 0
ARC
 8
WHITE
 10
1.354425
 20
2.911704
 30
 0
 40
.0475
 50
103.2572
 51
161.6533
 6
CONTINUOUS
 0
LINE
 8
WHITE
 10
1.30934
 20
2.926654
 30
0.0000
 11
1.280959
 21
2.846697
 31
0.0000
 6
CONTINUOUS
 0
LINE
 8
WHITE
 10
1.280959
 20
2.846697
 30
0.0000
 11
1.220126
 21
2.716338
 31
0.0000
 6
CONTINUOUS
 0
ARC
 8
WHITE
 10
.964506
 20
2.836617
 30
 0
 40
.2825043
 50
324.1454
 51
334.8013
 6
CONTINUOUS
 0
LINE
 8
WHITE
 10
1.193477
 20
2.671146
 30
0.0000
 11
1.121631
 21
2.570336
 31
0.0000
 6
CONTINUOUS
 0
LINE
 8
WHITE
 10
1.121631
 20
2.570336
 30
0.0000
 11
.995328
 21
2.452723
 31
0.0000
 6
CONTINUOUS
 0
LINE
 8
WHITE
 10
.995328
 20
2.452723
 30
0.0000
 11
.862072
 21
2.36292
 31
0.0000
 6
CONTINUOUS
 0
ARC
 8
WHITE
 10
.8649693
 20
2.357358
 30
 0
 40
6.271228E-03
 50
117.5115
 51
253.9087
 6
CONTINUOUS
 0
LINE
 8
WHITE
 10
.863231
 20
2.351332
 30
0.0000
 11
1.081076
 21
2.260949
 31
0.0000
 6
CONTINUOUS
 0
ARC
 8
WHITE
 10
1.076151
 20
2.249479
 30
 0
 40
1.248346E-02
 50
334.7422
 51
66.76556
 6
CONTINUOUS
 0
LINE
 8
WHITE
 10
1.087441
 20
2.244151
 30
0.0000
 11
1.074702
 21
2.218076
 31
0.0000
 6
CONTINUOUS
 0
ARC
 8
WHITE
 10
1.064811
 20
2.223308
 30
 0
 40
.0111899
 50
248.9829
 51
332.1287
 6
CONTINUOUS
 0
LINE
 8
WHITE
 10
1.060797
 20
2.212862
 30
0.0000
 11
.811087
 21
2.311935
 31
0.0000
 6
CONTINUOUS
 0
ARC
 8
WHITE
 10
.8046193
 20
2.295785
 30
 0
 40
.0173969
 50
68.17329
 51
145.8069
 6
CONTINUOUS
 0
LINE
 8
WHITE
 10
.790229
 20
2.305562
 30
0.0000
 11
.733451
 21
2.227346
 31
0.0000
 6
CONTINUOUS
 0
ARC
 8
WHITE
 10
.9191409
 20
2.093337
 30
 0
 40
.228996
 50
144.1826
 51
172.1036
 6
CONTINUOUS
 0
LINE
 8
WHITE
 10
.692316
 20
2.124797
 30
0.0000
 11
.676672
 21
2.017612
 31
0.0000
 6
CONTINUOUS
 0
ARC
 8
WHITE
 10
.9669973
 20
1.977461
 30
 0
 40
.293088
 50
172.1262
 51
187.0055
 6
CONTINUOUS
 0
LINE
 8
WHITE
 10
.676092
 20
1.941714
 30
0.0000
 11
.699846
 21
1.74994
 31
0.0000
 6
CONTINUOUS
 0
LINE
 8
WHITE
 10
.699846
 20
1.74994
 30
0.0000
 11
.736926
 21
1.56512
 31
0.0000
 6
CONTINUOUS
 0
ARC
 8
WHITE
 10
3.288167
 20
.6869587
 30
 0
 40
.3883986
 50
124.1617
 51
130.5069
 6
CONTINUOUS
 0
ARC
 8
WHITE
 10
3.289433
 20
.6880448
 30
 0
 40
.3883986
 50
130.7529
 51
137.0426
 6
CONTINUOUS
 0
LINE
 8
WHITE
 10
3.005179
 20
.95272
 30
0.0000
 11
2.910738
 21
.852492
 31
0.0000
 6
CONTINUOUS
 0
ARC
 8
WHITE
 10
3.18919
 20
.5912495
 30
 0
 40
.3818157
 50
136.8262
 51
156.773
 6
CONTINUOUS
 0
LINE
 8
WHITE
 10
2.83832
 20
.741828
 30
0.0000
 11
2.787914
 21
.624795
 31
0.0000
 6
CONTINUOUS
 0
LINE
 8
WHITE
 10
2.787914
 20
.624795
 30
0.0000
 11
2.765898
 21
.57265
 31
0.0000
 6
CONTINUOUS
 0
ARC
 8
WHITE
 10
3.158251
 20
.408167
 30
 0
 40
.4254352
 50
157.2553
 51
167.9815
 6
CONTINUOUS
 0
LINE
 8
WHITE
 10
2.742143
 20
.496753
 30
0.0000
 11
2.7265
 21
.423752
 31
0.0000
 6
CONTINUOUS
 0
ARC
 8
WHITE
 10
2.906113
 20
.3853658
 30
 0
 40
.1836683
 50
167.9363
 51
180.1349
 6
CONTINUOUS
 0
LINE
 8
WHITE
 10
2.722445
 20
.384933
 30
0.0000
 11
2.722446
 21
.265002
 31
0.0000
 6
CONTINUOUS
 0
ARC
 8
WHITE
 10
2.657671
 20
.2652346
 30
 0
 40
6.477636E-02
 50
333.2057
 51
359.795
 6
CONTINUOUS
 0
LINE
 8
WHITE
 10
2.715492
 20
.236034
 30
0.0000
 11
2.698111
 21
.201272
 31
0.0000
 6
CONTINUOUS
 0
ARC
 8
WHITE
 10
2.647456
 20
.2270389
 30
 0
 40
5.683258E-02
 50
308.7749
 51
333.0392
 6
CONTINUOUS
 0
LINE
 8
WHITE
 10
2.683048
 20
.182731
 30
0.0000
 11
2.616419
 21
.12827
 31
0.0000
 6
CONTINUOUS
 0
ARC
 8
WHITE
 10
2.545736
 20
.2165671
 30
 0
 40
.1131035
 50
279.7325
 51
308.6779
 6
CONTINUOUS
 0
LINE
 8
WHITE
 10
2.564855
 20
.105095
 30
0.0000
 11
2.530092
 21
.098722
 31
0.0000
 6
CONTINUOUS
 0
ARC
 8
WHITE
 10
2.519624
 20
.1529432
 30
 0
 40
5.522184E-02
 50
242.5544
 51
280.9283
 6
CONTINUOUS
 0
LINE
 8
WHITE
 10
2.494171
 20
.103936
 30
0.0000
 11
2.437393
 21
.134065
 31
0.0000
 6
CONTINUOUS
 0
ARC
 8
WHITE
 10
2.45657
 20
.1709703
 30
 0
 40
4.158934E-02
 50
198.4341
 51
242.5424
 6
CONTINUOUS
 0
LINE
 8
WHITE
 10
2.417114
 20
.157819
 30
0.0000
 11
2.40205
 21
.203009
 31
0.0000
 6
CONTINUOUS
 0
ARC
 8
WHITE
 10
2.547927
 20
.2508389
 30
 0
 40
.1535168
 50
157.489
 51
198.1531
 6
CONTINUOUS
 0
LINE
 8
WHITE
 10
2.406106
 20
.309614
 30
0.0000
 11
2.420588
 21
.345537
 31
0.0000
 6
CONTINUOUS
 0
ARC
 8
WHITE
 10
2.664972
 20
.247738
 30
 0
 40
.2632257
 50
146.9465
 51
158.1892
 6
CONTINUOUS
 0
LINE
 8
WHITE
 10
2.444345
 20
.391307
 30
0.0000
 11
2.488369
 21
.456202
 31
0.0000
 6
CONTINUOUS
 0
ARC
 8
WHITE
 10
2.436813
 20
.4907852
 30
 0
 40
6.208069E-02
 50
326.147
 51
356.9507
 6
CONTINUOUS
 0
LINE
 8
WHITE
 10
2.498806
 20
.487482
 30
0.0000
 11
2.506879
 21
.623059
 31
0.0000
 6
CONTINUOUS
 0
ARC
 8
WHITE
 10
2.154078
 20
.6433353
 30
 0
 40
.3533835
 50
356.7108
 51
10.86778
 6
CONTINUOUS
 0
LINE
 8
WHITE
 10
2.501123
 20
.709963
 30
0.0000
 11
2.426964
 21
1.079025
 31
0.0000
 6
CONTINUOUS
 0
LINE
 8
WHITE
 10
2.426964
 20
1.079025
 30
0.0000
 11
2.403759
 21
1.270794
 31
0.0000
 6
CONTINUOUS
 0
ARC
 8
WHITE
 10
2.694636
 20
1.30672
 30
 0
 40
.2930862
 50
172.0461
 51
187.0407
 6
CONTINUOUS
 0
LINE
 8
WHITE
 10
2.404368
 20
1.347275
 30
0.0000
 11
2.419433
 21
1.45388
 31
0.0000
 6
CONTINUOUS
 0
ARC
 8
WHITE
 10
2.646258
 20
1.42242
 30
 0
 40
.2289958
 50
144.1827
 51
172.1036
 6
CONTINUOUS
 0
LINE
 8
WHITE
 10
2.460567
 20
1.556429
 30
0.0000
 11
2.517346
 21
1.634645
 31
0.0000
 6
CONTINUOUS
 0
ARC
 8
WHITE
 10
2.532041
 20
1.625326
 30
 0
 40
1.740044E-02
 50
69.25366
 51
147.6127
 6
CONTINUOUS
 0
LINE
 8
WHITE
 10
2.538204
 20
1.641597
 30
0.0000
 11
2.787904
 21
1.541918
 31
0.0000
 6
CONTINUOUS
 0
ARC
 8
WHITE
 10
2.791681
 20
1.552433
 30
 0
 40
1.117199E-02
 50
250.2453
 51
335.1615
 6
CONTINUOUS
 0
LINE
 8
WHITE
 10
2.801819
 20
1.547739
 30
0.0000
 11
2.814558
 21
1.573235
 31
0.0000
 6
CONTINUOUS
 0
ARC
 8
WHITE
 10
2.803268
 20
1.578562
 30
 0
 40
.0124838
 50
334.7422
 51
66.76606
 6
CONTINUOUS
 0
LINE
 8
WHITE
 10
2.808192
 20
1.590033
 30
0.0000
 11
2.590927
 21
1.680416
 31
0.0000
 6
CONTINUOUS
 0
ARC
 8
WHITE
 10
2.590058
 20
1.68621
 30
 0
 40
5.858658E-03
 50
98.5329
 51
278.5327
 6
CONTINUOUS
 0
LINE
 8
WHITE
 10
2.589188
 20
1.692003
 30
0.0000
 11
2.722445
 21
1.782385
 31
0.0000
 6
CONTINUOUS
 0
LINE
 8
WHITE
 10
2.722445
 20
1.782385
 30
0.0000
 11
2.848748
 21
1.899419
 31
0.0000
 6
CONTINUOUS
 0
LINE
 8
WHITE
 10
2.848748
 20
1.899419
 30
0.0000
 11
2.920591
 21
2.00081
 31
0.0000
 6
CONTINUOUS
 0
ARC
 8
WHITE
 10
2.692393
 20
2.167405
 30
 0
 40
.2825385
 50
323.869
 51
334.422
 6
CONTINUOUS
 0
LINE
 8
WHITE
 10
2.947242
 20
2.045422
 30
0.0000
 11
3.008076
 21
2.175781
 31
0.0000
 6
CONTINUOUS
 0
LINE
 8
WHITE
 10
3.008076
 20
2.175781
 30
0.0000
 11
3.036466
 21
2.255735
 31
0.0000
 6
CONTINUOUS
 0
ARC
 8
WHITE
 10
3.081542
 20
2.240614
 30
 0
 40
4.754361E-02
 50
102.528
 51
161.4544
 6
CONTINUOUS
 0
LINE
 8
WHITE
 10
3.071229
 20
2.287022
 30
0.0000
 11
3.085713
 21
2.290498
 31
0.0000
 6
CONTINUOUS
 0
ARC
 8
WHITE
 10
3.101228
 20
2.223419
 30
 0
 40
6.884992E-02
 50
43.48463
 51
103.023
 6
CONTINUOUS
 0
LINE
 8
WHITE
 10
3.151183
 20
2.270799
 30
0.0000
 11
3.170877
 21
2.248779
 31
0.0000
 6
CONTINUOUS
 0
ARC
 8
WHITE
 10
3.063407
 20
2.147508
 30
 0
 40
.1476682
 50
14.72871
 51
43.29896
 6
CONTINUOUS
 0
LINE
 8
WHITE
 10
3.206223
 20
2.185051
 30
0.0000
 11
3.247358
 21
2.025723
 31
0.0000
 6
CONTINUOUS
 0
LINE
 8
WHITE
 10
3.247358
 20
2.025723
 30
0.0000
 11
3.256628
 21
2.007184
 31
0.0000
 6
CONTINUOUS
 0
LINE
 8
WHITE
 10
3.256628
 20
2.007184
 30
0.0000
 11
3.280379
 21
1.85191
 31
0.0000
 6
CONTINUOUS
 0
ARC
 8
WHITE
 10
2.981484
 20
1.807473
 30
 0
 40
.3021806
 50
357.1096
 51
8.456388
 6
CONTINUOUS
 0
LINE
 8
WHITE
 10
3.283279
 20
1.792235
 30
0.0000
 11
3.280383
 21
1.617843
 31
0.0000
 6
CONTINUOUS
 0
LINE
 8
WHITE
 10
3.280383
 20
1.617843
 30
0.0000
 11
3.280383
 21
1.336846
 31
0.0000
 6
CONTINUOUS
 0
LINE
 8
WHITE
 10
3.280383
 20
1.336846
 30
0.0000
 11
3.269375
 21
1.219813
 31
0.0000
 6
CONTINUOUS
 0
ARC
 8
WHITE
 10
3.194098
 20
1.229003
 30
 0
 40
7.583669E-02
 50
321.8463
 51
353.0397
 6
CONTINUOUS
 0
LINE
 8
WHITE
 10
3.253732
 20
1.182153
 30
0.0000
 11
3.183046
 21
1.09351
 31
0.0000
 6
CONTINUOUS
 0
ARC
 8
WHITE
 10
3.055934
 20
1.195711
 30
 0
 40
.1631023
 50
303.9949
 51
321.2003
 6
CONTINUOUS
 0
LINE
 8
WHITE
 10
3.147127
 20
1.060484
 30
0.0000
 11
3.07007
 21
1.008341
 31
0.0000
 6
CONTINUOUS
 0
LINE
 8
WHITE
 10
4.444926
 20
5.382622
 30
0.0000
 11
4.406688
 21
5.934767
 31
0.0000
 6
CONTINUOUS
 0
ARC
 8
WHITE
 10
4.440229
 20
5.937546
 30
 0
 40
3.365565E-02
 50
111.0774
 51
184.7364
 6
CONTINUOUS
 0
LINE
 8
WHITE
 10
4.428125
 20
5.96895
 30
0.0000
 11
4.51619
 21
6.002553
 31
0.0000
 6
CONTINUOUS
 0
ARC
 8
WHITE
 10
4.52604
 20
5.975903
 30
 0
 40
.0284132
 50
20.28223
 51
110.2828
 6
CONTINUOUS
 0
LINE
 8
WHITE
 10
4.55269
 20
5.985751
 30
0.0000
 11
4.656978
 21
5.704755
 31
0.0000
 6
CONTINUOUS
 0
ARC
 8
WHITE
 10
4.670304
 20
5.70939
 30
 0
 40
1.410827E-02
 50
199.179
 51
289.179
 6
CONTINUOUS
 0
LINE
 8
WHITE
 10
4.674938
 20
5.696064
 30
0.0000
 11
4.696375
 21
5.705334
 31
0.0000
 6
CONTINUOUS
 0
ARC
 8
WHITE
 10
4.692083
 20
5.717036
 30
 0
 40
1.246405E-02
 50
290.1445
 51
18.43772
 6
CONTINUOUS
 0
LINE
 8
WHITE
 10
4.703907
 20
5.720977
 30
0.0000
 11
4.59962
 21
6.007768
 31
0.0000
 6
CONTINUOUS
 0
ARC
 8
WHITE
 10
4.620434
 20
6.01548
 30
 0
 40
2.219637E-02
 50
111.3146
 51
200.3281
 6
CONTINUOUS
 0
LINE
 8
WHITE
 10
4.612366
 20
6.036157
 30
0.0000
 11
4.700431
 21
6.070341
 31
0.0000
 6
CONTINUOUS
 0
ARC
 8
WHITE
 10
4.715727
 20
6.032218
 30
 0
 40
4.107707E-02
 50
37.09631
 51
111.8613
 6
CONTINUOUS
 0
LINE
 8
WHITE
 10
4.74849
 20
6.056993
 30
0.0000
 11
4.873664
 21
5.890155
 31
0.0000
 6
CONTINUOUS
 0
LINE
 8
WHITE
 10
4.873664
 20
5.890155
 30
0.0000
 11
4.999388
 21
5.712866
 31
0.0000
 6
CONTINUOUS
 0
LINE
 8
WHITE
 10
4.999388
 20
5.712866
 30
0.0000
 11
5.198114
 21
5.424916
 31
0.0000
 6
CONTINUOUS
 0
LINE
 8
WHITE
 10
5.198114
 20
5.424916
 30
0.0000
 11
5.35918
 21
5.167674
 31
0.0000
 6
CONTINUOUS
 0
ARC
 8
WHITE
 10
5.243654
 20
5.092703
 30
 0
 40
.1377211
 50
334.9656
 51
32.98161
 6
CONTINUOUS
 0
LINE
 8
WHITE
 10
5.368436
 20
5.034424
 30
0.0000
 11
5.277489
 21
4.839169
 31
0.0000
 6
CONTINUOUS
 0
ARC
 8
WHITE
 10
5.439483
 20
4.765936
 30
 0
 40
.1777779
 50
155.6735
 51
162.4745
 6
CONTINUOUS
 0
LINE
 8
WHITE
 10
5.269957
 20
4.819469
 30
0.0000
 11
5.218392
 21
4.659562
 31
0.0000
 6
CONTINUOUS
 0
ARC
 8
WHITE
 10
5.08654
 20
4.703151
 30
 0
 40
.1388706
 50
325.9424
 51
341.707
 6
CONTINUOUS
 0
LINE
 8
WHITE
 10
5.20159
 20
4.625379
 30
0.0000
 11
5.153502
 21
4.552957
 31
0.0000
 6
CONTINUOUS
 0
ARC
 8
WHITE
 10
5.097931
 20
4.590047
 30
 0
 40
6.681207E-02
 50
281.4618
 51
326.2799
 6
CONTINUOUS
 0
LINE
 8
WHITE
 10
5.111207
 20
4.524567
 30
0.0000
 11
5.048635
 21
4.511821
 31
0.0000
 6
CONTINUOUS
 0
ARC
 8
WHITE
 10
5.030327
 20
4.599249
 30
 0
 40
.089324
 50
238.1246
 51
281.8274
 6
CONTINUOUS
 0
LINE
 8
WHITE
 10
4.983157
 20
4.523395
 30
0.0000
 11
4.863236
 21
4.597569
 31
0.0000
 6
CONTINUOUS
 0
ARC
 8
WHITE
 10
4.757848
 20
4.423004
 30
 0
 40
.2039113
 50
58.87976
 51
67.99002
 6
CONTINUOUS
 0
LINE
 8
WHITE
 10
4.834267
 20
4.612053
 30
0.0000
 11
4.715495
 21
4.6613
 31
0.0000
 6
CONTINUOUS
 0
LINE
 8
WHITE
 10
4.715495
 20
4.6613
 30
0.0000
 11
4.559643
 21
4.72561
 31
0.0000
 6
CONTINUOUS
 0
ARC
 8
WHITE
 10
4.606341
 20
4.839285
 30
 0
 40
.1228922
 50
183.8394
 51
247.667
 6
CONTINUOUS
 0
LINE
 8
WHITE
 10
4.483725
 20
4.831056
 30
0.0000
 11
4.444926
 21
5.382622
 31
0.0000
 6
CONTINUOUS
 0
LINE
 8
WHITE
 10
8.538785
 20
.704748
 30
0.0000
 11
8.534155
 21
.884934
 31
0.0000
 6
CONTINUOUS
 0
LINE
 8
WHITE
 10
8.534155
 20
.884934
 30
0.0000
 11
8.52952
 21
1.069754
 31
0.0000
 6
CONTINUOUS
 0
LINE
 8
WHITE
 10
8.52952
 20
1.069754
 30
0.0000
 11
8.515616
 21
1.196637
 31
0.0000
 6
CONTINUOUS
 0
ARC
 8
WHITE
 10
8.57645
 20
1.203011
 30
 0
 40
6.116685E-02
 50
138.4562
 51
185.9806
 6
CONTINUOUS
 0
ARC
 8
WHITE
 10
8.570351
 20
1.203883
 30
 0
 40
5.612544E-02
 50
80.18044
 51
134.991
 6
CONTINUOUS
 0
LINE
 8
WHITE
 10
8.579922
 20
1.259186
 30
0.0000
 11
8.623959
 21
1.251099
 31
0.0000
 6
CONTINUOUS
 0
LINE
 8
WHITE
 10
8.623959
 20
1.251099
 30
0.0000
 11
8.670888
 21
1.247623
 31
0.0000
 6
CONTINUOUS
 0
LINE
 8
WHITE
 10
8.670888
 20
1.247623
 30
0.0000
 11
8.55791
 21
1.605676
 31
0.0000
 6
CONTINUOUS
 0
LINE
 8
WHITE
 10
8.55791
 20
1.605676
 30
0.0000
 11
8.607157
 21
1.619002
 31
0.0000
 6
CONTINUOUS
 0
LINE
 8
WHITE
 10
8.607157
 20
1.619002
 30
0.0000
 11
8.719555
 21
1.280067
 31
0.0000
 6
CONTINUOUS
 0
ARC
 8
WHITE
 10
8.742663
 20
1.287862
 30
 0
 40
2.438664E-02
 50
198.6395
 51
293.9966
 6
CONTINUOUS
 0
LINE
 8
WHITE
 10
8.75258
 20
1.265583
 30
0.0000
 11
8.893368
 21
1.327576
 31
0.0000
 6
CONTINUOUS
 0
ARC
 8
WHITE
 10
8.865385
 20
1.39125
 30
 0
 40
6.955131E-02
 50
293.7249
 51
324.9724
 6
CONTINUOUS
 0
LINE
 8
WHITE
 10
8.922338
 20
1.351329
 30
0.0000
 11
8.939139
 21
1.375665
 31
0.0000
 6
CONTINUOUS
 0
ARC
 8
WHITE
 10
8.887112
 20
1.412282
 30
 0
 40
6.362111E-02
 50
324.8626
 51
.9391047
 6
CONTINUOUS
 0
LINE
 8
WHITE
 10
8.950723
 20
1.413324
 30
0.0000
 11
8.950147
 21
1.437079
 31
0.0000
 6
CONTINUOUS
 0
ARC
 8
WHITE
 10
8.916544
 20
1.436601
 30
 0
 40
3.360707E-02
 50
.8154131
 51
49.07306
 6
CONTINUOUS
 0
LINE
 8
WHITE
 10
8.938559
 20
1.461992
 30
0.0000
 11
8.885836
 21
1.507762
 31
0.0000
 6
CONTINUOUS
 0
LINE
 8
WHITE
 10
8.885836
 20
1.507762
 30
0.0000
 11
8.852232
 21
1.52804
 31
0.0000
 6
CONTINUOUS
 0
ARC
 8
WHITE
 10
8.888966
 20
1.589281
 30
 0
 40
7.141164E-02
 50
222.1392
 51
239.044
 6
CONTINUOUS
 0
LINE
 8
WHITE
 10
8.836012
 20
1.541368
 30
0.0000
 11
8.824422
 21
1.554692
 31
0.0000
 6
CONTINUOUS
 0
ARC
 8
WHITE
 10
9.031955
 20
1.745249
 30
 0
 40
.2817468
 50
205.9644
 51
222.5582
 6
CONTINUOUS
 0
LINE
 8
WHITE
 10
8.778646
 20
1.621896
 30
0.0000
 11
8.624538
 21
1.941714
 31
0.0000
 6
CONTINUOUS
 0
LINE
 8
WHITE
 10
8.624538
 20
1.941714
 30
0.0000
 11
8.570656
 21
2.032675
 31
0.0000
 6
CONTINUOUS
 0
ARC
 8
WHITE
 10
8.435162
 20
1.951992
 30
 0
 40
.1576986
 50
30.77276
 51
51.92265
 6
CONTINUOUS
 0
LINE
 8
WHITE
 10
8.532418
 20
2.076128
 30
0.0000
 11
8.519671
 21
2.08482
 31
0.0000
 6
CONTINUOUS
 0
ARC
 8
WHITE
 10
8.4509
 20
1.974623
 30
 0
 40
.1298962
 50
58.03284
 51
90.33232
 6
CONTINUOUS
 0
LINE
 8
WHITE
 10
8.450146
 20
2.104516
 30
0.0000
 11
8.415384
 21
2.104518
 31
0.0000
 6
CONTINUOUS
 0
ARC
 8
WHITE
 10
8.41579
 20
1.997913
 30
 0
 40
.1066057
 50
90.21783
 51
109.9218
 6
CONTINUOUS
 0
LINE
 8
WHITE
 10
8.379465
 20
2.098139
 30
0.0000
 11
8.36324
 21
2.092352
 31
0.0000
 6
CONTINUOUS
 0
ARC
 8
WHITE
 10
8.389138
 20
2.020452
 30
 0
 40
.0764223
 50
109.8086
 51
150.4221
 6
CONTINUOUS
 0
LINE
 8
WHITE
 10
8.322675
 20
2.058173
 30
0.0000
 11
8.295454
 21
2.01008
 31
0.0000
 6
CONTINUOUS
 0
ARC
 8
WHITE
 10
8.415558
 20
1.942004
 30
 0
 40
.1380556
 50
150.4548
 51
185.177
 6
CONTINUOUS
 0
LINE
 8
WHITE
 10
8.278065
 20
1.929547
 30
0.0000
 11
8.285024
 21
1.846697
 31
0.0000
 6
CONTINUOUS
 0
LINE
 8
WHITE
 10
8.285024
 20
1.846697
 30
0.0000
 11
8.283865
 21
1.80672
 31
0.0000
 6
CONTINUOUS
 0
ARC
 8
WHITE
 10
8.016774
 20
1.816743
 30
 0
 40
.2672797
 50
348.4587
 51
357.851
 6
CONTINUOUS
 0
LINE
 8
WHITE
 10
8.278649
 20
1.763267
 30
0.0000
 11
8.259531
 21
1.66709
 31
0.0000
 6
CONTINUOUS
 0
ARC
 8
WHITE
 10
8.071989
 20
1.705446
 30
 0
 40
.1914247
 50
334.6992
 51
348.4417
 6
CONTINUOUS
 0
LINE
 8
WHITE
 10
8.245048
 20
1.623637
 30
0.0000
 11
8.071235
 21
1.238352
 31
0.0000
 6
CONTINUOUS
 0
ARC
 8
WHITE
 10
8.384272
 20
1.099825
 30
 0
 40
.3423178
 50
156.1292
 51
168.1728
 6
CONTINUOUS
 0
LINE
 8
WHITE
 10
8.049221
 20
1.169986
 30
0.0000
 11
8.025465
 21
1.059905
 31
0.0000
 6
CONTINUOUS
 0
LINE
 8
WHITE
 10
8.025465
 20
1.059905
 30
0.0000
 11
7.989543
 21
.86002
 31
0.0000
 6
CONTINUOUS
 0
LINE
 8
WHITE
 10
7.989543
 20
.86002
 30
0.0000
 11
7.972741
 21
.738931
 31
0.0000
 6
CONTINUOUS
 0
ARC
 8
WHITE
 10
8.18769
 20
.7088041
 30
 0
 40
.2170493
 50
172.0213
 51
183.2138
 6
CONTINUOUS
 0
LINE
 8
WHITE
 10
7.970982
 20
.696635
 30
0.0000
 11
7.978535
 21
.563381
 31
0.0000
 6
CONTINUOUS
 0
LINE
 8
WHITE
 10
7.978535
 20
.563381
 30
0.0000
 11
8.006345
 21
.395941
 31
0.0000
 6
CONTINUOUS
 0
LINE
 8
WHITE
 10
8.006345
 20
.395941
 30
0.0000
 11
8.043425
 21
.26674
 31
0.0000
 6
CONTINUOUS
 0
ARC
 8
WHITE
 10
8.221126
 20
.3156202
 30
 0
 40
.1843
 50
195.3798
 51
214.3234
 6
CONTINUOUS
 0
LINE
 8
WHITE
 10
8.068918
 20
.2117
 30
0.0000
 11
8.090354
 21
.181572
 31
0.0000
 6
CONTINUOUS
 0
ARC
 8
WHITE
 10
8.160228
 20
.2305879
 30
 0
 40
8.535044E-02
 50
215.0493
 51
254.001
 6
CONTINUOUS
 0
LINE
 8
WHITE
 10
8.136703
 20
.148543
 30
0.0000
 11
8.188269
 21
.133484
 31
0.0000
 6
CONTINUOUS
 0
ARC
 8
WHITE
 10
8.189775
 20
.1393364
 30
 0
 40
6.042336E-03
 50
255.5688
 51
353.9626
 6
CONTINUOUS
 0
LINE
 8
WHITE
 10
8.195784
 20
.1387
 30
0.0000
 11
8.23346
 21
.804401
 31
0.0000
 6
CONTINUOUS
 0
LINE
 8
WHITE
 10
8.23346
 20
.804401
 30
0.0000
 11
8.284445
 21
.798027
 31
0.0000
 6
CONTINUOUS
 0
LINE
 8
WHITE
 10
8.284445
 20
.798027
 30
0.0000
 11
8.247365
 21
.142175
 31
0.0000
 6
CONTINUOUS
 0
ARC
 8
WHITE
 10
8.257215
 20
.1415959
 30
 0
 40
9.865621E-03
 50
176.6333
 51
290.5587
 6
CONTINUOUS
 0
LINE
 8
WHITE
 10
8.260679
 20
.132358
 30
0.0000
 11
8.311097
 21
.154342
 31
0.0000
 6
CONTINUOUS
 0
ARC
 8
WHITE
 10
8.264272
 20
.2613484
 30
 0
 40
.116803
 50
293.634
 51
321.066
 6
CONTINUOUS
 0
LINE
 8
WHITE
 10
8.355129
 20
.187946
 30
0.0000
 11
8.412487
 21
.25805
 31
0.0000
 6
CONTINUOUS
 0
ARC
 8
WHITE
 10
8.282475
 20
.3638448
 30
 0
 40
.1676167
 50
320.8638
 51
342.1663
 6
CONTINUOUS
 0
LINE
 8
WHITE
 10
8.442038
 20
.31251
 30
0.0000
 11
8.488965
 21
.465466
 31
0.0000
 6
CONTINUOUS
 0
LINE
 8
WHITE
 10
8.488965
 20
.465466
 30
0.0000
 11
8.531259
 21
.635803
 31
0.0000
 6
CONTINUOUS
 0
ARC
 8
WHITE
 10
8.275523
 20
.6986076
 30
 0
 40
.2633353
 50
346.2022
 51
1.336321
 6
CONTINUOUS
 0
LINE
 8
WHITE
 10
8.188848
 20
1.060484
 30
0.0000
 11
8.191165
 21
1.18505
 31
0.0000
 6
CONTINUOUS
 0
ARC
 8
WHITE
 10
8.202174
 20
1.18505
 30
 0
 40
1.100826E-02
 50
90
 51
180
 6
CONTINUOUS
 0
LINE
 8
WHITE
 10
8.202174
 20
1.196057
 30
0.0000
 11
8.23404
 21
1.196637
 31
0.0000
 6
CONTINUOUS
 0
ARC
 8
WHITE
 10
8.23404
 20
1.188527
 30
 0
 40
8.111358E-03
 50
8.420896E-04
 51
90
 6
CONTINUOUS
 0
LINE
 8
WHITE
 10
8.242151
 20
1.188526
 30
0.0000
 11
8.239253
 21
1.045421
 31
0.0000
 6
CONTINUOUS
 0
LINE
 8
WHITE
 10
8.239253
 20
1.045421
 30
0.0000
 11
8.235777
 21
.923752
 31
0.0000
 6
CONTINUOUS
 0
ARC
 8
WHITE
 10
8.229405
 20
.9236363
 30
 0
 40
6.373505E-03
 50
259.4996
 51
1.041705
 6
CONTINUOUS
 0
LINE
 8
WHITE
 10
8.228243
 20
.917369
 30
0.0000
 11
8.19638
 21
.922594
 31
0.0000
 6
CONTINUOUS
 0
ARC
 8
WHITE
 10
8.198873
 20
.9352876
 30
 0
 40
1.293588E-02
 50
177.1994
 51
258.8932
 6
CONTINUOUS
 0
LINE
 8
WHITE
 10
8.185952
 20
.935919
 30
0.0000
 11
8.188848
 21
1.060484
 31
0.0000
 6
CONTINUOUS
 0
LINE
 8
WHITE
 10
9.520255
 20
.302082
 30
0.0000
 11
9.550379
 21
.459673
 31
0.0000
 6
CONTINUOUS
 0
LINE
 8
WHITE
 10
9.550379
 20
.459673
 30
0.0000
 11
9.574713
 21
.632906
 31
0.0000
 6
CONTINUOUS
 0
ARC
 8
WHITE
 10
9.314049
 20
.6698436
 30
 0
 40
.263269
 50
351.9347
 51
7.110394
 6
CONTINUOUS
 0
LINE
 8
WHITE
 10
9.575293
 20
.702431
 30
0.0000
 11
9.527784
 21
1.06454
 31
0.0000
 6
CONTINUOUS
 0
LINE
 8
WHITE
 10
9.527784
 20
1.06454
 30
0.0000
 11
9.500554
 21
1.189685
 31
0.0000
 6
CONTINUOUS
 0
ARC
 8
WHITE
 10
9.560229
 20
1.202547
 30
 0
 40
6.104559E-02
 50
144.7406
 51
192.1632
 6
CONTINUOUS
 0
ARC
 8
WHITE
 10
9.553638
 20
1.202203
 30
 0
 40
5.601192E-02
 50
85.6244
 51
140.5573
 6
CONTINUOUS
 0
LINE
 8
WHITE
 10
9.557911
 20
1.258052
 30
0.0000
 11
9.602523
 21
1.254575
 31
0.0000
 6
CONTINUOUS
 0
LINE
 8
WHITE
 10
9.602523
 20
1.254575
 30
0.0000
 11
9.650495
 21
1.259616
 31
0.0000
 6
CONTINUOUS
 0
LINE
 8
WHITE
 10
9.650495
 20
1.259616
 30
0.0000
 11
9.499395
 21
1.600462
 31
0.0000
 6
CONTINUOUS
 0
LINE
 8
WHITE
 10
9.499395
 20
1.600462
 30
0.0000
 11
9.547483
 21
1.619002
 31
0.0000
 6
CONTINUOUS
 0
LINE
 8
WHITE
 10
9.547483
 20
1.619002
 30
0.0000
 11
9.694643
 21
1.293973
 31
0.0000
 6
CONTINUOUS
 0
ARC
 8
WHITE
 10
9.716892
 20
1.304517
 30
 0
 40
2.462032E-02
 50
205.3573
 51
298.9753
 6
CONTINUOUS
 0
LINE
 8
WHITE
 10
9.728818
 20
1.282979
 30
0.0000
 11
9.862083
 21
1.358863
 31
0.0000
 6
CONTINUOUS
 0
ARC
 8
WHITE
 10
9.826742
 20
1.418771
 30
 0
 40
6.955506E-02
 50
300.5377
 51
331.9837
 6
CONTINUOUS
 0
LINE
 8
WHITE
 10
9.888146
 20
1.386099
 30
0.0000
 11
9.90264
 21
1.412165
 31
0.0000
 6
CONTINUOUS
 0
ARC
 8
WHITE
 10
9.84736
 20
1.442916
 30
 0
 40
6.325744E-02
 50
330.9151
 51
6.799196
 6
CONTINUOUS
 0
LINE
 8
WHITE
 10
9.910171
 20
1.450404
 30
0.0000
 11
9.907275
 21
1.474158
 31
0.0000
 6
CONTINUOUS
 0
ARC
 8
WHITE
 10
9.873674
 20
1.469964
 30
 0
 40
.0338616
 50
7.115609
 51
55.6293
 6
CONTINUOUS
 0
LINE
 8
WHITE
 10
9.89279
 20
1.497913
 30
0.0000
 11
9.836011
 21
1.53789
 31
0.0000
 6
CONTINUOUS
 0
LINE
 8
WHITE
 10
9.836011
 20
1.53789
 30
0.0000
 11
9.800669
 21
1.554692
 31
0.0000
 6
CONTINUOUS
 0
ARC
 8
WHITE
 10
9.829755
 20
1.619814
 30
 0
 40
7.132175E-02
 50
229.3485
 51
245.9332
 6
CONTINUOUS
 0
LINE
 8
WHITE
 10
9.783288
 20
1.565699
 30
0.0000
 11
9.775756
 21
1.572652
 31
0.0000
 6
CONTINUOUS
 0
ARC
 8
WHITE
 10
9.996769
 20
1.824827
 30
 0
 40
.3353183
 50
212.065
 51
228.7679
 6
CONTINUOUS
 0
LINE
 8
WHITE
 10
9.712604
 20
1.646812
 30
0.0000
 11
9.530101
 21
1.941714
 31
0.0000
 6
CONTINUOUS
 0
LINE
 8
WHITE
 10
9.530101
 20
1.941714
 30
0.0000
 11
9.46695
 21
2.026882
 31
0.0000
 6
CONTINUOUS
 0
ARC
 8
WHITE
 10
9.340936
 20
1.932039
 30
 0
 40
.1577182
 50
36.96656
 51
57.93885
 6
CONTINUOUS
 0
LINE
 8
WHITE
 10
9.424655
 20
2.065701
 30
0.0000
 11
9.41133
 21
2.073232
 31
0.0000
 6
CONTINUOUS
 0
ARC
 8
WHITE
 10
9.354783
 20
1.956663
 30
 0
 40
.1295617
 50
64.12242
 51
96.52115
 6
CONTINUOUS
 0
LINE
 8
WHITE
 10
9.340068
 20
2.085385
 30
0.0000
 11
9.305304
 21
2.081344
 31
0.0000
 6
CONTINUOUS
 0
ARC
 8
WHITE
 10
9.316586
 20
1.975259
 30
 0
 40
.1066835
 50
96.06996
 51
115.5685
 6
CONTINUOUS
 0
LINE
 8
WHITE
 10
9.270542
 20
2.071494
 30
0.0000
 11
9.254899
 21
2.063962
 31
0.0000
 6
CONTINUOUS
 0
ARC
 8
WHITE
 10
9.28739
 20
1.995359
 30
 0
 40
7.590897E-02
 50
115.3421
 51
156.4205
 6
CONTINUOUS
 0
LINE
 8
WHITE
 10
9.217818
 20
2.025723
 30
0.0000
 11
9.196381
 21
1.974739
 31
0.0000
 6
CONTINUOUS
 0
ARC
 8
WHITE
 10
9.32265
 20
1.919039
 30
 0
 40
.1380081
 50
156.1964
 51
190.8558
 6
CONTINUOUS
 0
LINE
 8
WHITE
 10
9.187111
 20
1.893046
 30
0.0000
 11
9.202754
 21
1.811354
 31
0.0000
 6
CONTINUOUS
 0
LINE
 8
WHITE
 10
9.202754
 20
1.811354
 30
0.0000
 11
9.205652
 21
1.771377
 31
0.0000
 6
CONTINUOUS
 0
ARC
 8
WHITE
 10
8.93856
 20
1.753185
 30
 0
 40
.2677115
 50
354.5855
 51
3.896553
 6
CONTINUOUS
 0
LINE
 8
WHITE
 10
9.205072
 20
1.727924
 30
0.0000
 11
9.195802
 21
1.63001
 31
0.0000
 6
CONTINUOUS
 0
ARC
 8
WHITE
 10
9.005362
 20
1.649478
 30
 0
 40
.1914336
 50
340.6274
 51
354.1633
 6
CONTINUOUS
 0
LINE
 8
WHITE
 10
9.185956
 20
1.585977
 30
0.0000
 11
9.054434
 21
1.183892
 31
0.0000
 6
CONTINUOUS
 0
ARC
 8
WHITE
 10
9.379696
 20
1.077345
 30
 0
 40
.3422675
 50
161.8626
 51
173.888
 6
CONTINUOUS
 0
LINE
 8
WHITE
 10
9.039371
 20
1.113787
 30
0.0000
 11
9.027783
 21
1.004864
 31
0.0000
 6
CONTINUOUS
 0
LINE
 8
WHITE
 10
9.027783
 20
1.004864
 30
0.0000
 11
9.01272
 21
.799186
 31
0.0000
 6
CONTINUOUS
 0
LINE
 8
WHITE
 10
9.01272
 20
.799186
 30
0.0000
 11
9.008085
 21
.676939
 31
0.0000
 6
CONTINUOUS
 0
ARC
 8
WHITE
 10
9.224771
 20
.6700439
 30
 0
 40
.2167959
 50
178.1774
 51
189.553
 6
CONTINUOUS
 0
LINE
 8
WHITE
 10
9.010981
 20
.634064
 30
0.0000
 11
9.032998
 21
.502547
 31
0.0000
 6
CONTINUOUS
 0
LINE
 8
WHITE
 10
9.032998
 20
.502547
 30
0.0000
 11
9.078188
 21
.339742
 31
0.0000
 6
CONTINUOUS
 0
LINE
 8
WHITE
 10
9.078188
 20
.339742
 30
0.0000
 11
9.128595
 21
.214597
 31
0.0000
 6
CONTINUOUS
 0
ARC
 8
WHITE
 10
9.299685
 20
.2831378
 30
 0
 40
.1843075
 50
201.8315
 51
220.6659
 6
CONTINUOUS
 0
LINE
 8
WHITE
 10
9.159883
 20
.163034
 30
0.0000
 11
9.183635
 21
.135222
 31
0.0000
 6
CONTINUOUS
 0
ARC
 8
WHITE
 10
9.248294
 20
.1910746
 30
 0
 40
.0854406
 50
220.8205
 51
260.3974
 6
CONTINUOUS
 0
LINE
 8
WHITE
 10
9.234041
 20
.106831
 30
0.0000
 11
9.286764
 21
.097564
 31
0.0000
 6
CONTINUOUS
 0
ARC
 8
WHITE
 10
9.287228
 20
.1034736
 30
 0
 40
5.927769E-03
 50
265.5155
 51
4.484461
 6
CONTINUOUS
 0
LINE
 8
WHITE
 10
9.293137
 20
.103937
 30
0.0000
 11
9.261271
 21
.769059
 31
0.0000
 6
CONTINUOUS
 0
LINE
 8
WHITE
 10
9.261271
 20
.769059
 30
0.0000
 11
9.312836
 21
.768479
 31
0.0000
 6
CONTINUOUS
 0
LINE
 8
WHITE
 10
9.312836
 20
.768479
 30
0.0000
 11
9.344701
 21
.112627
 31
0.0000
 6
CONTINUOUS
 0
ARC
 8
WHITE
 10
9.35455
 20
.1132258
 30
 0
 40
9.866738E-03
 50
183.4751
 51
298.0255
 6
CONTINUOUS
 0
LINE
 8
WHITE
 10
9.359186
 20
.104516
 30
0.0000
 11
9.406695
 21
.131747
 31
0.0000
 6
CONTINUOUS
 0
ARC
 8
WHITE
 10
9.349616
 20
.2338852
 30
 0
 40
.1170053
 50
299.1984
 51
326.5588
 6
CONTINUOUS
 0
LINE
 8
WHITE
 10
9.447251
 20
.169405
 30
0.0000
 11
9.497076
 21
.245304
 31
0.0000
 6
CONTINUOUS
 0
ARC
 8
WHITE
 10
9.356232
 20
.3359183
 30
 0
 40
.1674764
 50
327.2444
 51
348.3441
 6
CONTINUOUS
 0
LINE
 8
WHITE
 10
9.245628
 20
.955039
 30
0.0000
 11
9.250843
 21
.88841
 31
0.0000
 6
CONTINUOUS
 0
ARC
 8
WHITE
 10
9.24447
 20
.887831
 30
 0
 40
6.399738E-03
 50
264.8098
 51
5.199357
 6
CONTINUOUS
 0
LINE
 8
WHITE
 10
9.24389
 20
.881458
 30
0.0000
 11
9.211445
 21
.883195
 31
0.0000
 6
CONTINUOUS
 0
ARC
 8
WHITE
 10
9.212604
 20
.8959002
 30
 0
 40
.0127569
 50
182.4143
 51
264.7929
 6
CONTINUOUS
 0
LINE
 8
WHITE
 10
9.199857
 20
.895362
 30
0.0000
 11
9.179
 21
1.143914
 31
0.0000
 6
CONTINUOUS
 0
ARC
 8
WHITE
 10
9.190009
 20
1.145073
 30
 0
 40
1.106908E-02
 50
96.01405
 51
186.0087
 6
CONTINUOUS
 0
LINE
 8
WHITE
 10
9.188849
 20
1.15608
 30
0.0000
 11
9.220136
 21
1.160137
 31
0.0000
 6
CONTINUOUS
 0
ARC
 8
WHITE
 10
9.221237
 20
1.152026
 30
 0
 40
8.185559E-03
 50
4.057316
 51
97.72676
 6
CONTINUOUS
 0
LINE
 8
WHITE
 10
9.229401
 20
1.152605
 30
0.0000
 11
9.240414
 21
1.022246
 31
0.0000
 6
CONTINUOUS
 0
LINE
 8
WHITE
 10
9.240414
 20
1.022246
 30
0.0000
 11
9.245628
 21
.955039
 31
0.0000
 6
CONTINUOUS
 0
LINE
 8
WHITE
 10
7.194641
 20
5.861184
 30
0.0000
 11
5.475635
 21
5.964315
 31
0.0000
 6
CONTINUOUS
 0
ARC
 8
WHITE
 10
5.471835
 20
5.886101
 30
 0
 40
7.830644E-02
 50
87.21821
 51
142.6497
 6
CONTINUOUS
 0
LINE
 8
WHITE
 10
5.409586
 20
5.933608
 30
0.0000
 11
5.371927
 21
5.88436
 31
0.0000
 6
CONTINUOUS
 0
ARC
 8
WHITE
 10
5.458022
 20
5.817965
 30
 0
 40
.1087234
 50
142.3606
 51
171.5416
 6
CONTINUOUS
 0
LINE
 8
WHITE
 10
5.350481
 20
5.833956
 30
0.0000
 11
5.342378
 21
5.781232
 31
0.0000
 6
CONTINUOUS
 0
ARC
 8
WHITE
 10
5.380556
 20
5.775764
 30
 0
 40
.0385672
 50
171.848
 51
269.2314
 6
CONTINUOUS
 0
LINE
 8
WHITE
 10
5.380038
 20
5.7372
 30
0.0000
 11
5.817466
 21
5.72677
 31
0.0000
 6
CONTINUOUS
 0
LINE
 8
WHITE
 10
5.817466
 20
5.72677
 30
0.0000
 11
5.819204
 21
5.660722
 31
0.0000
 6
CONTINUOUS
 0
LINE
 8
WHITE
 10
5.819204
 20
5.660722
 30
0.0000
 11
5.370189
 21
5.666516
 31
0.0000
 6
CONTINUOUS
 0
ARC
 8
WHITE
 10
5.37072
 20
5.638706
 30
 0
 40
2.781565E-02
 50
91.09425
 51
183.5825
 6
CONTINUOUS
 0
LINE
 8
WHITE
 10
5.342958
 20
5.636967
 30
0.0000
 11
5.35049
 21
5.522831
 31
0.0000
 6
CONTINUOUS
 0
ARC
 8
WHITE
 10
5.469271
 20
5.544217
 30
 0
 40
.1206908
 50
190.2061
 51
228.8723
 6
CONTINUOUS
 0
ARC
 8
WHITE
 10
5.453511
 20
5.531574
 30
 0
 40
.1008647
 50
230.8923
 51
269.7318
 6
CONTINUOUS
 0
LINE
 8
WHITE
 10
5.453039
 20
5.43071
 30
0.0000
 11
7.209125
 21
5.42086
 31
0.0000
 6
CONTINUOUS
 0
ARC
 8
WHITE
 10
7.209126
 20
5.51414
 30
 0
 40
9.327936E-02
 50
270
 51
16.97193
 6
CONTINUOUS
 0
ARC
 8
WHITE
 10
7.520484
 20
5.608427
 30
 0
 40
.2320435
 50
184.2581
 51
196.7975
 6
CONTINUOUS
 0
LINE
 8
WHITE
 10
7.289081
 20
5.591197
 30
0.0000
 11
7.286761
 21
5.61669
 31
0.0000
 6
CONTINUOUS
 0
ARC
 8
WHITE
 10
7.579355
 20
5.639895
 30
 0
 40
.2935122
 50
163.6103
 51
184.5346
 6
CONTINUOUS
 0
LINE
 8
WHITE
 10
7.29777
 20
5.722715
 30
0.0000
 11
7.300666
 21
5.733144
 31
0.0000
 6
CONTINUOUS
 0
ARC
 8
WHITE
 10
7.104374
 20
5.7934
 30
 0
 40
.2053324
 50
342.9353
 51
348.1129
 6
CONTINUOUS
 0
LINE
 8
WHITE
 10
7.305303
 20
5.751104
 30
0.0000
 11
7.307039
 21
5.763272
 31
0.0000
 6
CONTINUOUS
 0
ARC
 8
WHITE
 10
7.226565
 20
5.774802
 30
 0
 40
8.129656E-02
 50
351.8469
 51
74.32973
 6
CONTINUOUS
 0
LINE
 8
WHITE
 10
7.248523
 20
5.853076
 30
0.0000
 11
7.238094
 21
5.855391
 31
0.0000
 6
CONTINUOUS
 0
ARC
 8
WHITE
 10
7.179404
 20
5.581
 30
 0
 40
.2805982
 50
77.92674
 51
86.88714
 6
CONTINUOUS
 0
LINE
 8
WHITE
 10
6.247363
 20
.589452
 30
0.0000
 11
6.33311
 21
.553532
 31
0.0000
 6
CONTINUOUS
 0
LINE
 8
WHITE
 10
6.33311
 20
.553532
 30
0.0000
 11
6.508081
 21
.491539
 31
0.0000
 6
CONTINUOUS
 0
LINE
 8
WHITE
 10
6.508081
 20
.491539
 30
0.0000
 11
6.578186
 21
.464308
 31
0.0000
 6
CONTINUOUS
 0
ARC
 8
WHITE
 10
6.553099
 20
.3992446
 30
 0
 40
6.973273E-02
 50
21.08537
 51
68.91469
 6
CONTINUOUS
 0
LINE
 8
WHITE
 10
6.618162
 20
.424331
 30
0.0000
 11
6.640179
 21
.366973
 31
0.0000
 6
CONTINUOUS
 0
ARC
 8
WHITE
 10
6.721176
 20
.3980273
 30
 0
 40
8.674595E-02
 50
200.9766
 51
263.1692
 6
CONTINUOUS
 0
LINE
 8
WHITE
 10
6.710858
 20
.311897
 30
0.0000
 11
6.763006
 21
.306139
 31
0.0000
 6
CONTINUOUS
 0
ARC
 8
WHITE
 10
6.793424
 20
.5521996
 30
 0
 40
.2479335
 50
262.953
 51
277.0469
 6
CONTINUOUS
 0
LINE
 8
WHITE
 10
6.823841
 20
.306139
 30
0.0000
 11
6.872508
 21
.312511
 31
0.0000
 6
CONTINUOUS
 0
ARC
 8
WHITE
 10
6.867352
 20
.3501709
 30
 0
 40
.0380107
 50
277.796
 51
346.7893
 6
CONTINUOUS
 0
LINE
 8
WHITE
 10
6.904356
 20
.341484
 30
0.0000
 11
6.921176
 21
.413902
 31
0.0000
 6
CONTINUOUS
 0
ARC
 8
WHITE
 10
6.852752
 20
.4291977
 30
 0
 40
7.011283E-02
 50
347.3997
 51
22.13559
 6
CONTINUOUS
 0
LINE
 8
WHITE
 10
6.917696
 20
.455616
 30
0.0000
 11
6.899159
 21
.502547
 31
0.0000
 6
CONTINUOUS
 0
ARC
 8
WHITE
 10
6.855359
 20
.4840651
 30
 0
 40
.0475405
 50
22.87765
 51
65.83896
 6
CONTINUOUS
 0
LINE
 8
WHITE
 10
6.874817
 20
.52744
 30
0.0000
 11
6.827317
 21
.550055
 31
0.0000
 6
CONTINUOUS
 0
ARC
 8
WHITE
 10
6.870647
 20
.6428307
 30
 0
 40
.1023946
 50
203.7324
 51
244.9652
 6
CONTINUOUS
 0
LINE
 8
WHITE
 10
6.776911
 20
.60162
 30
0.0000
 11
6.764165
 21
.630589
 31
0.0000
 6
CONTINUOUS
 0
ARC
 8
WHITE
 10
6.93259
 20
.705734
 30
 0
 40
.1844278
 50
183.5483
 51
204.0447
 6
CONTINUOUS
 0
LINE
 8
WHITE
 10
6.748516
 20
.694319
 30
0.0000
 11
6.739831
 21
.843798
 31
0.0000
 6
CONTINUOUS
 0
ARC
 8
WHITE
 10
6.731141
 20
.8437985
 30
 0
 40
8.690834E-03
 50
0
 51
90
 6
CONTINUOUS
 0
LINE
 8
WHITE
 10
6.731141
 20
.852488
 30
0.0000
 11
6.587456
 21
.852489
 31
0.0000
 6
CONTINUOUS
 0
ARC
 8
WHITE
 10
6.586877
 20
.8634978
 30
 0
 40
1.102397E-02
 50
180
 51
273.0125
 6
CONTINUOUS
 0
LINE
 8
WHITE
 10
6.575853
 20
.863497
 30
0.0000
 11
6.575868
 21
.892465
 31
0.0000
 6
CONTINUOUS
 0
ARC
 8
WHITE
 10
6.587442
 20
.8918866
 30
 0
 40
1.158828E-02
 50
89.93163
 51
177.1343
 6
CONTINUOUS
 0
LINE
 8
WHITE
 10
6.587456
 20
.903474
 30
0.0000
 11
6.724768
 21
.903474
 31
0.0000
 6
CONTINUOUS
 0
ARC
 8
WHITE
 10
6.724339
 20
.9208553
 30
 0
 40
1.738601E-02
 50
271.4144
 51
352.3417
 6
CONTINUOUS
 0
LINE
 8
WHITE
 10
6.741569
 20
.918538
 30
0.0000
 11
6.756054
 21
1.010658
 31
0.0000
 6
CONTINUOUS
 0
LINE
 8
WHITE
 10
6.756054
 20
1.010658
 30
0.0000
 11
6.762427
 21
1.045421
 31
0.0000
 6
CONTINUOUS
 0
LINE
 8
WHITE
 10
6.762427
 20
1.045421
 30
0.0000
 11
6.773435
 21
1.106834
 31
0.0000
 6
CONTINUOUS
 0
ARC
 8
WHITE
 10
6.869098
 20
1.090388
 30
 0
 40
9.706568E-02
 50
131.5458
 51
170.2446
 6
CONTINUOUS
 0
LINE
 8
WHITE
 10
6.804721
 20
1.163034
 30
0.0000
 11
6.816309
 21
1.172883
 31
0.0000
 6
CONTINUOUS
 0
ARC
 8
WHITE
 10
6.886008
 20
1.093625
 30
 0
 40
.1055454
 50
106.3561
 51
131.328
 6
CONTINUOUS
 0
LINE
 8
WHITE
 10
6.856286
 20
1.194898
 30
0.0000
 11
6.891628
 21
1.205328
 31
0.0000
 6
CONTINUOUS
 0
ARC
 8
WHITE
 10
6.877897
 20
1.251157
 30
 0
 40
4.784153E-02
 50
286.6796
 51
342.3106
 6
CONTINUOUS
 0
LINE
 8
WHITE
 10
6.923476
 20
1.23662
 30
0.0000
 11
6.942033
 21
1.295131
 31
0.0000
 6
CONTINUOUS
 0
ARC
 8
WHITE
 10
6.878934
 20
1.315509
 30
 0
 40
6.630811E-02
 50
342.1027
 51
35.72718
 6
CONTINUOUS
 0
LINE
 8
WHITE
 10
6.932763
 20
1.354227
 30
0.0000
 11
6.919437
 21
1.372189
 31
0.0000
 6
CONTINUOUS
 0
ARC
 8
WHITE
 10
6.864745
 20
1.331749
 30
 0
 40
6.802004E-02
 50
36.47964
 51
80.4893
 6
CONTINUOUS
 0
LINE
 8
WHITE
 10
6.875984
 20
1.398833
 30
0.0000
 11
6.799507
 21
1.412165
 31
0.0000
 6
CONTINUOUS
 0
ARC
 8
WHITE
 10
6.771755
 20
1.258805
 30
 0
 40
.1558513
 50
79.74265
 51
101.3851
 6
CONTINUOUS
 0
LINE
 8
WHITE
 10
6.74099
 20
1.411585
 30
0.0000
 11
6.684211
 21
1.399419
 31
0.0000
 6
CONTINUOUS
 0
ARC
 8
WHITE
 10
6.694455
 20
1.352429
 30
 0
 40
4.809335E-02
 50
102.2971
 51
155.7408
 6
CONTINUOUS
 0
LINE
 8
WHITE
 10
6.650608
 20
1.372189
 30
0.0000
 11
6.623956
 21
1.313671
 31
0.0000
 6
CONTINUOUS
 0
ARC
 8
WHITE
 10
6.55055
 20
1.34519
 30
 0
 40
7.988696E-02
 50
300.8428
 51
336.7632
 6
CONTINUOUS
 0
LINE
 8
WHITE
 10
6.591506
 20
1.2766
 30
0.0000
 11
6.545161
 21
1.249361
 31
0.0000
 6
CONTINUOUS
 0
ARC
 8
WHITE
 10
6.496006
 20
1.33493
 30
 0
 40
9.868259E-02
 50
280.0905
 51
299.8753
 6
CONTINUOUS
 0
LINE
 8
WHITE
 10
6.513296
 20
1.237774
 30
0.0000
 11
6.347594
 21
1.205907
 31
0.0000
 6
CONTINUOUS
 0
ARC
 8
WHITE
 10
6.398001
 20
.9405541
 30
 0
 40
.2700988
 50
100.7556
 51
118.1593
 6
CONTINUOUS
 0
LINE
 8
WHITE
 10
6.270534
 20
1.178683
 30
0.0000
 11
6.16683
 21
1.123057
 31
0.0000
 6
CONTINUOUS
 0
ARC
 8
WHITE
 10
6.297711
 20
.8761855
 30
 0
 40
.2794199
 50
117.9306
 51
128.7544
 6
CONTINUOUS
 0
LINE
 8
WHITE
 10
6.122798
 20
1.094086
 30
0.0000
 11
6.028359
 21
1.017611
 31
0.0000
 6
CONTINUOUS
 0
ARC
 8
WHITE
 10
6.118163
 20
.9063715
 30
 0
 40
.1429649
 50
128.9137
 51
150.6296
 6
CONTINUOUS
 0
LINE
 8
WHITE
 10
5.993573
 20
.976489
 30
0.0000
 11
5.966366
 21
.928387
 31
0.0000
 6
CONTINUOUS
 0
ARC
 8
WHITE
 10
6.03734
 20
.8888744
 30
 0
 40
8.123133E-02
 50
150.8938
 51
197.7757
 6
CONTINUOUS
 0
LINE
 8
WHITE
 10
5.959986
 20
.864075
 30
0.0000
 11
5.98085
 21
.799186
 31
0.0000
 6
CONTINUOUS
 0
ARC
 8
WHITE
 10
6.111673
 20
.8411912
 30
 0
 40
.1374012
 50
197.8008
 51
226.3158
 6
CONTINUOUS
 0
LINE
 8
WHITE
 10
6.016773
 20
.741829
 30
0.0000
 11
6.084558
 21
.676939
 31
0.0000
 6
CONTINUOUS
 0
ARC
 8
WHITE
 10
6.261863
 20
.8623234
 30
 0
 40
.2565236
 50
226.2762
 51
247.1366
 6
CONTINUOUS
 0
LINE
 8
WHITE
 10
6.162194
 20
.625954
 30
0.0000
 11
6.247363
 21
.589452
 31
0.0000
 6
CONTINUOUS
 0
ARC
 8
WHITE
 10
1.10508
 20
7.171546
 30
 0
 40
7.207827E-02
 50
53.74651
 51
87.89527
 6
CONTINUOUS
 0
LINE
 8
WHITE
 10
1.107727
 20
7.243575
 30
0.0000
 11
1.088028
 21
7.244733
 31
0.0000
 6
CONTINUOUS
 0
ARC
 8
WHITE
 10
1.083512
 20
7.176813
 30
 0
 40
6.807063E-02
 50
86.19633
 51
115.2958
 6
CONTINUOUS
 0
LINE
 8
WHITE
 10
1.054426
 20
7.238357
 30
0.0000
 11
1.033567
 21
7.228511
 31
0.0000
 6
CONTINUOUS
 0
LINE
 8
WHITE
 10
1.033567
 20
7.228511
 30
0.0000
 11
.999384
 21
7.200122
 31
0.0000
 6
CONTINUOUS
 0
LINE
 8
WHITE
 10
.999384
 20
7.200122
 30
0.0000
 11
.962303
 21
7.154931
 31
0.0000
 6
CONTINUOUS
 0
LINE
 8
WHITE
 10
.962303
 20
7.154931
 30
0.0000
 11
.944343
 21
7.13639
 31
0.0000
 6
CONTINUOUS
 0
ARC
 8
WHITE
 10
.9081202
 20
7.17202
 30
 0
 40
5.080887E-02
 50
282.8616
 51
315.4733
 6
CONTINUOUS
 0
LINE
 8
WHITE
 10
.91943
 20
7.122486
 30
0.0000
 11
.906104
 21
7.119588
 31
0.0000
 6
CONTINUOUS
 0
ARC
 8
WHITE
 10
.9014261
 20
7.13932
 30
 0
 40
2.027807E-02
 50
233.282
 51
283.3386
 6
CONTINUOUS
 0
LINE
 8
WHITE
 10
.889302
 20
7.123065
 30
0.0000
 11
.880611
 21
7.130017
 31
0.0000
 6
CONTINUOUS
 0
ARC
 8
WHITE
 10
.8899977
 20
7.142706
 30
 0
 40
1.578237E-02
 50
179.7888
 51
233.5085
 6
CONTINUOUS
 0
LINE
 8
WHITE
 10
.874215
 20
7.142764
 30
0.0000
 11
.874239
 21
7.17347
 31
0.0000
 6
CONTINUOUS
 0
ARC
 8
WHITE
 10
.9014163
 20
7.17517
 30
 0
 40
2.723006E-02
 50
167.6324
 51
183.5782
 6
CONTINUOUS
 0
LINE
 8
WHITE
 10
.874818
 20
7.181002
 30
0.0000
 11
.886985
 21
7.223297
 31
0.0000
 6
CONTINUOUS
 0
ARC
 8
WHITE
 10
.9435899
 20
7.207017
 30
 0
 40
5.889959E-02
 50
144.4496
 51
163.9542
 6
CONTINUOUS
 0
LINE
 8
WHITE
 10
.895669
 20
7.241261
 30
0.0000
 11
.929279
 21
7.289925
 31
0.0000
 6
CONTINUOUS
 0
ARC
 8
WHITE
 10
1.080149
 20
7.177121
 30
 0
 40
.1883779
 50
138.2039
 51
143.2148
 6
CONTINUOUS
 0
LINE
 8
WHITE
 10
.939708
 20
7.302671
 30
0.0000
 11
.984899
 21
7.356553
 31
0.0000
 6
CONTINUOUS
 0
LINE
 8
WHITE
 10
.984899
 20
7.356553
 30
0.0000
 11
1.019083
 21
7.402324
 31
0.0000
 6
CONTINUOUS
 0
LINE
 8
WHITE
 10
1.019083
 20
7.402324
 30
0.0000
 11
1.045154
 21
7.42376
 31
0.0000
 6
CONTINUOUS
 0
ARC
 8
WHITE
 10
1.084146
 20
7.377585
 30
 0
 40
6.043665E-02
 50
100.1034
 51
130.1784
 6
CONTINUOUS
 0
ARC
 8
WHITE
 10
1.060766
 20
7.538153
 30
 0
 40
.101874
 50
277.2057
 51
298.5571
 6
CONTINUOUS
 0
LINE
 8
WHITE
 10
1.109465
 20
7.448673
 30
0.0000
 11
1.137275
 21
7.464896
 31
0.0000
 6
CONTINUOUS
 0
ARC
 8
WHITE
 10
1.121459
 20
7.49259
 30
 0
 40
.0318923
 50
299.7323
 51
327.2345
 6
CONTINUOUS
 0
LINE
 8
WHITE
 10
1.148276
 20
7.47533
 30
0.0000
 11
1.163346
 21
7.499079
 31
0.0000
 6
CONTINUOUS
 0
ARC
 8
WHITE
 10
1.129962
 20
7.520903
 30
 0
 40
3.988455E-02
 50
326.8281
 51
14.58363
 6
CONTINUOUS
 0
LINE
 8
WHITE
 10
1.168561
 20
7.530945
 30
0.0000
 11
1.162767
 21
7.555858
 31
0.0000
 6
CONTINUOUS
 0
ARC
 8
WHITE
 10
1.130157
 20
7.548347
 30
 0
 40
3.346425E-02
 50
12.97153
 51
75.67981
 6
CONTINUOUS
 0
LINE
 8
WHITE
 10
1.138434
 20
7.580771
 30
0.0000
 11
1.113521
 21
7.586565
 31
0.0000
 6
CONTINUOUS
 0
ARC
 8
WHITE
 10
1.096372
 20
7.520632
 30
 0
 40
6.812707E-02
 50
75.42014
 51
109.5749
 6
CONTINUOUS
 0
LINE
 8
WHITE
 10
1.073546
 20
7.584821
 30
0.0000
 11
1.066012
 21
7.58193
 31
0.0000
 6
CONTINUOUS
 0
ARC
 8
WHITE
 10
1.085132
 20
7.528049
 30
 0
 40
5.717323E-02
 50
109.5366
 51
126.7534
 6
CONTINUOUS
 0
LINE
 8
WHITE
 10
1.05092
 20
7.573856
 30
0.0000
 11
1.019083
 21
7.550064
 31
0.0000
 6
CONTINUOUS
 0
LINE
 8
WHITE
 10
1.019083
 20
7.550064
 30
0.0000
 11
1.009233
 21
7.531524
 31
0.0000
 6
CONTINUOUS
 0
ARC
 8
WHITE
 10
.8818285
 20
7.601108
 30
 0
 40
.1451679
 50
317.5555
 51
331.3585
 6
CONTINUOUS
 0
LINE
 8
WHITE
 10
.988952
 20
7.503137
 30
0.0000
 11
.968097
 21
7.479381
 31
0.0000
 6
CONTINUOUS
 0
ARC
 8
WHITE
 10
.9029337
 20
7.539905
 30
 0
 40
8.893489E-02
 50
302.4988
 51
317.1143
 6
CONTINUOUS
 0
LINE
 8
WHITE
 10
.950716
 20
7.464896
 30
0.0000
 11
.782118
 21
7.307306
 31
0.0000
 6
CONTINUOUS
 0
ARC
 8
WHITE
 10
.7705886
 20
7.319531
 30
 0
 40
1.680469E-02
 50
255.82
 51
313.3241
 6
CONTINUOUS
 0
LINE
 8
WHITE
 10
.766472
 20
7.303239
 30
0.0000
 11
.759523
 21
7.304988
 31
0.0000
 6
CONTINUOUS
 0
ARC
 8
WHITE
 10
.7639843
 20
7.322834
 30
 0
 40
1.839387E-02
 50
183.2497
 51
255.9638
 6
CONTINUOUS
 0
LINE
 8
WHITE
 10
.745617
 20
7.32179
 30
0.0000
 11
.744459
 21
7.338593
 31
0.0000
 6
CONTINUOUS
 0
ARC
 8
WHITE
 10
.8157798
 20
7.342706
 30
 0
 40
7.143898E-02
 50
166.9219
 51
183.3007
 6
CONTINUOUS
 0
LINE
 8
WHITE
 10
.746193
 20
7.358871
 30
0.0000
 11
.765896
 21
7.449253
 31
0.0000
 6
CONTINUOUS
 0
ARC
 8
WHITE
 10
.9417359
 20
7.406553
 30
 0
 40
.1809501
 50
158.4541
 51
166.3507
 6
CONTINUOUS
 0
LINE
 8
WHITE
 10
.773429
 20
7.473006
 30
0.0000
 11
.805873
 21
7.561652
 31
0.0000
 6
CONTINUOUS
 0
LINE
 8
WHITE
 10
.805873
 20
7.561652
 30
0.0000
 11
.838318
 21
7.620748
 31
0.0000
 6
CONTINUOUS
 0
ARC
 8
WHITE
 10
.9663594
 20
7.551223
 30
 0
 40
.1456995
 50
138.0635
 51
151.4985
 6
CONTINUOUS
 0
LINE
 8
WHITE
 10
.857975
 20
7.648595
 30
0.0000
 11
.871342
 21
7.663622
 31
0.0000
 6
CONTINUOUS
 0
LINE
 8
WHITE
 10
.871342
 20
7.663622
 30
0.0000
 11
.893937
 21
7.696067
 31
0.0000
 6
CONTINUOUS
 0
ARC
 8
WHITE
 10
1.042663
 20
7.594676
 30
 0
 40
.1799984
 50
129.9991
 51
145.7165
 6
CONTINUOUS
 0
LINE
 8
WHITE
 10
.926964
 20
7.732564
 30
0.0000
 11
.953033
 21
7.754583
 31
0.0000
 6
CONTINUOUS
 0
ARC
 8
WHITE
 10
.917576
 20
7.799891
 30
 0
 40
5.753251E-02
 50
308.047
 51
321.9531
 6
CONTINUOUS
 0
LINE
 8
WHITE
 10
.962882
 20
7.764433
 30
0.0000
 11
.980264
 21
7.788187
 31
0.0000
 6
CONTINUOUS
 0
ARC
 8
WHITE
 10
.9028019
 20
7.843576
 30
 0
 40
9.522787E-02
 50
324.4343
 51
342.4358
 6
CONTINUOUS
 0
LINE
 8
WHITE
 10
.993589
 20
7.814838
 30
0.0000
 11
.995907
 21
7.821791
 31
0.0000
 6
CONTINUOUS
 0
ARC
 8
WHITE
 10
.9090012
 20
7.85076
 30
 0
 40
9.160726E-02
 50
341.565
 51
6.900335
 6
CONTINUOUS
 0
LINE
 8
WHITE
 10
.999944
 20
7.861766
 30
0.0000
 11
.995328
 21
7.900586
 31
0.0000
 6
CONTINUOUS
 0
ARC
 8
WHITE
 10
.9611501
 20
7.896493
 30
 0
 40
3.442289E-02
 50
6.829905
 51
57.42176
 6
CONTINUOUS
 0
LINE
 8
WHITE
 10
.979685
 20
7.925499
 30
0.0000
 11
.961145
 21
7.937666
 31
0.0000
 6
CONTINUOUS
 0
ARC
 8
WHITE
 10
.9332197
 20
7.896009
 30
 0
 40
5.015137E-02
 50
56.16298
 51
106.6546
 6
CONTINUOUS
 0
LINE
 8
WHITE
 10
.918846
 20
7.944056
 30
0.0000
 11
.89104
 21
7.934769
 31
0.0000
 6
CONTINUOUS
 0
ARC
 8
WHITE
 10
.9090592
 20
7.873182
 30
 0
 40
6.416906E-02
 50
106.3078
 51
137.8553
 6
CONTINUOUS
 0
LINE
 8
WHITE
 10
.86148
 20
7.91624
 30
0.0000
 11
.841214
 21
7.893633
 31
0.0000
 6
CONTINUOUS
 0
ARC
 8
WHITE
 10
.8790476
 20
7.862058
 30
 0
 40
4.927855E-02
 50
140.1516
 51
165.3593
 6
CONTINUOUS
 0
LINE
 8
WHITE
 10
.831365
 20
7.874514
 30
0.0000
 11
.819778
 21
7.836855
 31
0.0000
 6
CONTINUOUS
 0
LINE
 8
WHITE
 10
.819778
 20
7.836855
 30
0.0000
 11
.812824
 21
7.79456
 31
0.0000
 6
CONTINUOUS
 0
ARC
 8
WHITE
 10
.783103
 20
7.798675
 30
 0
 40
3.000524E-02
 50
335.9588
 51
352.12
 6
CONTINUOUS
 0
LINE
 8
WHITE
 10
.810504
 20
7.78645
 30
0.0000
 11
.774586
 21
7.712289
 31
0.0000
 6
CONTINUOUS
 0
LINE
 8
WHITE
 10
.774586
 20
7.712289
 30
0.0000
 11
.717807
 21
7.632335
 31
0.0000
 6
CONTINUOUS
 0
LINE
 8
WHITE
 10
.717807
 20
7.632335
 30
0.0000
 11
.652338
 21
7.524572
 31
0.0000
 6
CONTINUOUS
 0
LINE
 8
WHITE
 10
.652338
 20
7.524572
 30
0.0000
 11
.609464
 21
7.422022
 31
0.0000
 6
CONTINUOUS
 0
LINE
 8
WHITE
 10
.609464
 20
7.422022
 30
0.0000
 11
.593821
 21
7.387839
 31
0.0000
 6
CONTINUOUS
 0
ARC
 8
WHITE
 10
.5744122
 20
7.397747
 30
 0
 40
2.179193E-02
 50
291.0369
 51
332.9589
 6
CONTINUOUS
 0
LINE
 8
WHITE
 10
.582234
 20
7.377408
 30
0.0000
 11
.567749
 21
7.371617
 31
0.0000
 6
CONTINUOUS
 0
ARC
 8
WHITE
 10
.5641529
 20
7.379107
 30
 0
 40
8.308001E-03
 50
195.8924
 51
295.6514
 6
CONTINUOUS
 0
LINE
 8
WHITE
 10
.556162
 20
7.376831
 30
0.0000
 11
.552106
 21
7.390736
 31
0.0000
 6
CONTINUOUS
 0
ARC
 8
WHITE
 10
.6846672
 20
7.42828
 30
 0
 40
.1377749
 50
180.1927
 51
195.8129
 6
CONTINUOUS
 0
LINE
 8
WHITE
 10
.546893
 20
7.427816
 30
0.0000
 11
.546891
 21
7.514722
 31
0.0000
 6
CONTINUOUS
 0
ARC
 8
WHITE
 10
.6500206
 20
7.512405
 30
 0
 40
.1031548
 50
165.0273
 51
178.7127
 6
CONTINUOUS
 0
LINE
 8
WHITE
 10
.550368
 20
7.539056
 30
0.0000
 11
.56717
 21
7.60974
 31
0.0000
 6
CONTINUOUS
 0
LINE
 8
WHITE
 10
.56717
 20
7.60974
 30
0.0000
 11
.598456
 21
7.714607
 31
0.0000
 6
CONTINUOUS
 0
LINE
 8
WHITE
 10
.598456
 20
7.714607
 30
0.0000
 11
.632639
 21
7.773703
 31
0.0000
 6
CONTINUOUS
 0
ARC
 8
WHITE
 10
.6095749
 20
7.787774
 30
 0
 40
2.701729E-02
 50
328.6155
 51
10.77127
 6
CONTINUOUS
 0
LINE
 8
WHITE
 10
.636116
 20
7.792822
 30
0.0000
 11
.627425
 21
7.834537
 31
0.0000
 6
CONTINUOUS
 0
ARC
 8
WHITE
 10
.5892442
 20
7.826253
 30
 0
 40
.0390694
 50
12.24309
 51
59.82279
 6
CONTINUOUS
 0
LINE
 8
WHITE
 10
.608883
 20
7.860026
 30
0.0000
 11
.582233
 21
7.875093
 31
0.0000
 6
CONTINUOUS
 0
ARC
 8
WHITE
 10
.5692611
 20
7.85319
 30
 0
 40
.0254569
 50
59.36329
 51
117.9724
 6
CONTINUOUS
 0
LINE
 8
WHITE
 10
.55732
 20
7.875673
 30
0.0000
 11
.530089
 21
7.860609
 31
0.0000
 6
CONTINUOUS
 0
ARC
 8
WHITE
 10
.5589429
 20
7.808698
 30
 0
 40
.0593913
 50
119.0655
 51
145.8143
 6
CONTINUOUS
 0
LINE
 8
WHITE
 10
.509813
 20
7.842068
 30
0.0000
 11
.486637
 21
7.808465
 31
0.0000
 6
CONTINUOUS
 0
ARC
 8
WHITE
 10
.5227795
 20
7.783943
 30
 0
 40
4.367627E-02
 50
145.8427
 51
180.5123
 6
CONTINUOUS
 0
LINE
 8
WHITE
 10
.479104
 20
7.783552
 30
0.0000
 11
.479104
 21
7.708233
 31
0.0000
 6
CONTINUOUS
 0
ARC
 8
WHITE
 10
.4148529
 20
7.710436
 30
 0
 40
6.428983E-02
 50
344.4232
 51
358.0371
 6
CONTINUOUS
 0
LINE
 8
WHITE
 10
.476781
 20
7.693171
 30
0.0000
 11
.461723
 21
7.632335
 31
0.0000
 6
CONTINUOUS
 0
LINE
 8
WHITE
 10
.461723
 20
7.632335
 30
0.0000
 11
.436231
 21
7.538476
 31
0.0000
 6
CONTINUOUS
 0
LINE
 8
WHITE
 10
.436231
 20
7.538476
 30
0.0000
 11
.419429
 21
7.456205
 31
0.0000
 6
CONTINUOUS
 0
LINE
 8
WHITE
 10
.419429
 20
7.456205
 30
0.0000
 11
.413635
 21
7.350759
 31
0.0000
 6
CONTINUOUS
 0
LINE
 8
WHITE
 10
.413635
 20
7.350759
 30
0.0000
 11
.407842
 21
7.226193
 31
0.0000
 6
CONTINUOUS
 0
ARC
 8
WHITE
 10
.5438797
 20
7.218025
 30
 0
 40
.1362823
 50
176.5635
 51
186.3212
 6
CONTINUOUS
 0
LINE
 8
WHITE
 10
.408421
 20
7.203019
 30
0.0000
 11
.419429
 21
7.11785
 31
0.0000
 6
CONTINUOUS
 0
LINE
 8
WHITE
 10
.419429
 20
7.11785
 30
0.0000
 11
.428119
 21
6.981118
 31
0.0000
 6
CONTINUOUS
 0
LINE
 8
WHITE
 10
.428119
 20
6.981118
 30
0.0000
 11
.428119
 21
6.898847
 31
0.0000
 6
CONTINUOUS
 0
LINE
 8
WHITE
 10
.428119
 20
6.898847
 30
0.0000
 11
.416532
 21
6.855973
 31
0.0000
 6
CONTINUOUS
 0
LINE
 8
WHITE
 10
.416532
 20
6.855973
 30
0.0000
 11
.382349
 21
6.807885
 31
0.0000
 6
CONTINUOUS
 0
LINE
 8
WHITE
 10
.382349
 20
6.807885
 30
0.0000
 11
.257204
 21
6.671152
 31
0.0000
 6
CONTINUOUS
 0
LINE
 8
WHITE
 10
.257204
 20
6.671152
 30
0.0000
 11
.239244
 21
6.655509
 31
0.0000
 6
CONTINUOUS
 0
ARC
 8
WHITE
 10
.2514627
 20
6.640615
 30
 0
 40
.0192652
 50
129.362
 51
185.6804
 6
CONTINUOUS
 0
LINE
 8
WHITE
 10
.232291
 20
6.638707
 30
0.0000
 11
.235768
 21
6.603365
 31
0.0000
 6
CONTINUOUS
 0
ARC
 8
WHITE
 10
.2798098
 20
6.607907
 30
 0
 40
4.427524E-02
 50
185.8873
 51
207.122
 6
CONTINUOUS
 0
LINE
 8
WHITE
 10
.240403
 20
6.587722
 30
0.0000
 11
.262419
 21
6.546007
 31
0.0000
 6
CONTINUOUS
 0
LINE
 8
WHITE
 10
.262419
 20
6.546007
 30
0.0000
 11
.280379
 21
6.516459
 31
0.0000
 6
CONTINUOUS
 0
ARC
 8
WHITE
 10
.3238325
 20
6.542531
 30
 0
 40
.0506747
 50
210.9639
 51
231.0336
 6
CONTINUOUS
 0
LINE
 8
WHITE
 10
.291965
 20
6.503131
 30
0.0000
 11
.304133
 21
6.493864
 31
0.0000
 6
CONTINUOUS
 0
ARC
 8
WHITE
 10
.3197769
 20
6.512983
 30
 0
 40
2.470331E-02
 50
230.7104
 51
327.4262
 6
CONTINUOUS
 0
LINE
 8
WHITE
 10
.340594
 20
6.499683
 30
0.0000
 11
.495327
 21
6.734883
 31
0.0000
 6
CONTINUOUS
 0
ARC
 8
WHITE
 10
.5070314
 20
6.727005
 30
 0
 40
1.410904E-02
 50
49.65409
 51
146.051
 6
CONTINUOUS
 0
LINE
 8
WHITE
 10
.516165
 20
6.737757
 30
0.0000
 11
.535883
 21
6.720979
 31
0.0000
 6
CONTINUOUS
 0
ARC
 8
WHITE
 10
.5264399
 20
6.710145
 30
 0
 40
1.437276E-02
 50
324.8385
 51
48.92369
 6
CONTINUOUS
 0
LINE
 8
WHITE
 10
.538189
 20
6.701868
 30
0.0000
 11
.370183
 21
6.452728
 31
0.0000
 6
CONTINUOUS
 0
ARC
 8
WHITE
 10
.3758949
 20
6.448582
 30
 0
 40
7.058259E-03
 50
144.0217
 51
256.4292
 6
CONTINUOUS
 0
LINE
 8
WHITE
 10
.374238
 20
6.44172
 30
0.0000
 11
.414215
 21
6.434188
 31
0.0000
 6
CONTINUOUS
 0
ARC
 8
WHITE
 10
.4445748
 20
6.580596
 30
 0
 40
.1495226
 50
258.2851
 51
275.916
 6
CONTINUOUS
 0
LINE
 8
WHITE
 10
.459986
 20
6.43187
 30
0.0000
 11
.497645
 21
6.435926
 31
0.0000
 6
CONTINUOUS
 0
ARC
 8
WHITE
 10
.4892446
 20
6.514142
 30
 0
 40
7.866547E-02
 50
276.1305
 51
297.8863
 6
CONTINUOUS
 0
LINE
 8
WHITE
 10
.526037
 20
6.444611
 30
0.0000
 11
.556162
 21
6.460839
 31
0.0000
 6
CONTINUOUS
 0
ARC
 8
WHITE
 10
.5441114
 20
6.483203
 30
 0
 40
2.540396E-02
 50
298.3188
 51
347.3589
 6
CONTINUOUS
 0
LINE
 8
WHITE
 10
.568899
 20
6.477643
 30
0.0000
 11
.57586
 21
6.509507
 31
0.0000
 6
CONTINUOUS
 0
ARC
 8
WHITE
 10
.4674016
 20
6.535927
 30
 0
 40
.1116304
 50
346.3099
 51
355.9522
 6
CONTINUOUS
 0
LINE
 8
WHITE
 10
.578753
 20
6.528047
 30
0.0000
 11
.581075
 21
6.58077
 31
0.0000
 6
CONTINUOUS
 0
ARC
 8
WHITE
 10
.6069736
 20
6.577757
 30
 0
 40
2.607333E-02
 50
161.6034
 51
173.3638
 6
CONTINUOUS
 0
LINE
 8
WHITE
 10
.582233
 20
6.585985
 30
0.0000
 11
.587448
 21
6.609159
 31
0.0000
 6
CONTINUOUS
 0
ARC
 8
WHITE
 10
.6278885
 20
6.601454
 30
 0
 40
4.116797E-02
 50
130.1466
 51
169.2119
 6
CONTINUOUS
 0
LINE
 8
WHITE
 10
.601345
 20
6.632922
 30
0.0000
 11
.612941
 21
6.642763
 31
0.0000
 6
CONTINUOUS
 0
LINE
 8
WHITE
 10
.612941
 20
6.642763
 30
0.0000
 11
.642489
 21
6.648557
 31
0.0000
 6
CONTINUOUS
 0
ARC
 8
WHITE
 10
.6310171
 20
6.702207
 30
 0
 40
5.486277E-02
 50
282.0701
 51
303.8915
 6
CONTINUOUS
 0
LINE
 8
WHITE
 10
.661609
 20
6.656665
 30
0.0000
 11
.688259
 21
6.67347
 31
0.0000
 6
CONTINUOUS
 0
ARC
 8
WHITE
 10
.6550038
 20
6.723354
 30
 0
 40
5.995304E-02
 50
303.6902
 51
329.7674
 6
CONTINUOUS
 0
LINE
 8
WHITE
 10
.706802
 20
6.693167
 30
0.0000
 11
.72476
 21
6.722717
 31
0.0000
 6
CONTINUOUS
 0
ARC
 8
WHITE
 10
.5594649
 20
6.819878
 30
 0
 40
.1917365
 50
329.553
 51
339.1664
 6
CONTINUOUS
 0
LINE
 8
WHITE
 10
.738665
 20
6.751686
 30
0.0000
 11
.748514
 21
6.776019
 31
0.0000
 6
CONTINUOUS
 0
ARC
 8
WHITE
 10
.9860002
 20
6.686216
 30
 0
 40
.2538979
 50
152.552
 51
159.2863
 6
CONTINUOUS
 0
LINE
 8
WHITE
 10
.760683
 20
6.803248
 30
0.0000
 11
.78965
 21
6.857131
 31
0.0000
 6
CONTINUOUS
 0
ARC
 8
WHITE
 10
.9401716
 20
6.779148
 30
 0
 40
.169523
 50
143.365
 51
152.6116
 6
CONTINUOUS
 0
LINE
 8
WHITE
 10
.804136
 20
6.880305
 30
0.0000
 11
.845849
 21
6.934768
 31
0.0000
 6
CONTINUOUS
 0
LINE
 8
WHITE
 10
.845849
 20
6.934768
 30
0.0000
 11
.871921
 21
6.961419
 31
0.0000
 6
CONTINUOUS
 0
LINE
 8
WHITE
 10
.871921
 20
6.961419
 30
0.0000
 11
.968097
 21
7.04427
 31
0.0000
 6
CONTINUOUS
 0
ARC
 8
WHITE
 10
1.017055
 20
6.987839
 30
 0
 40
7.470771E-02
 50
117.4792
 51
130.9436
 6
CONTINUOUS
 0
LINE
 8
WHITE
 10
.982582
 20
7.054118
 30
0.0000
 11
1.016186
 21
7.07208
 31
0.0000
 6
CONTINUOUS
 0
LINE
 8
WHITE
 10
1.016186
 20
7.07208
 30
0.0000
 11
1.076441
 21
7.091199
 31
0.0000
 6
CONTINUOUS
 0
ARC
 8
WHITE
 10
1.037391
 20
7.206437
 30
 0
 40
.1216738
 50
288.7197
 51
298.8719
 6
CONTINUOUS
 0
LINE
 8
WHITE
 10
1.096141
 20
7.099887
 30
0.0000
 11
1.130322
 21
7.11785
 31
0.0000
 6
CONTINUOUS
 0
ARC
 8
WHITE
 10
1.119867
 20
7.137246
 30
 0
 40
2.203352E-02
 50
298.3282
 51
327.4251
 6
CONTINUOUS
 0
LINE
 8
WHITE
 10
1.138434
 20
7.125382
 30
0.0000
 11
1.152339
 21
7.145081
 31
0.0000
 6
CONTINUOUS
 0
ARC
 8
WHITE
 10
1.116927
 20
7.168122
 30
 0
 40
4.224772E-02
 50
326.9506
 51
351.5085
 6
CONTINUOUS
 0
LINE
 8
WHITE
 10
1.158711
 20
7.161883
 30
0.0000
 11
1.163926
 21
7.193169
 31
0.0000
 6
CONTINUOUS
 0
ARC
 8
WHITE
 10
1.129354
 20
7.199659
 30
 0
 40
3.517691E-02
 50
349.3687
 51
58.55552
 6
CONTINUOUS
 0
ARC
 8
WHITE
 10
1.320937
 20
6.691199
 30
 0
 40
6.409125E-02
 50
120.4132
 51
136.3186
 6
CONTINUOUS
 0
LINE
 8
WHITE
 10
1.274586
 20
6.735463
 30
0.0000
 11
1.254888
 21
6.712867
 31
0.0000
 6
CONTINUOUS
 0
ARC
 8
WHITE
 10
1.291612
 20
6.680007
 30
 0
 40
4.927937E-02
 50
138.1782
 51
163.1064
 6
CONTINUOUS
 0
LINE
 8
WHITE
 10
1.244459
 20
6.694327
 30
0.0000
 11
1.233451
 21
6.656668
 31
0.0000
 6
CONTINUOUS
 0
LINE
 8
WHITE
 10
1.233451
 20
6.656668
 30
0.0000
 11
1.226498
 21
6.613794
 31
0.0000
 6
CONTINUOUS
 0
ARC
 8
WHITE
 10
1.197017
 20
6.618794
 30
 0
 40
.0299025
 50
332.7535
 51
350.376
 6
CONTINUOUS
 0
LINE
 8
WHITE
 10
1.223601
 20
6.605103
 30
0.0000
 11
1.187681
 21
6.531523
 31
0.0000
 6
CONTINUOUS
 0
LINE
 8
WHITE
 10
1.187681
 20
6.531523
 30
0.0000
 11
1.131481
 21
6.451569
 31
0.0000
 6
CONTINUOUS
 0
LINE
 8
WHITE
 10
1.131481
 20
6.451569
 30
0.0000
 11
1.066012
 21
6.343226
 31
0.0000
 6
CONTINUOUS
 0
LINE
 8
WHITE
 10
1.066012
 20
6.343226
 30
0.0000
 11
1.023138
 21
6.241256
 31
0.0000
 6
CONTINUOUS
 0
LINE
 8
WHITE
 10
1.023138
 20
6.241256
 30
0.0000
 11
1.007495
 21
6.207652
 31
0.0000
 6
CONTINUOUS
 0
ARC
 8
WHITE
 10
.987934
 20
6.216641
 30
 0
 40
2.152796E-02
 50
291.7392
 51
335.3204
 6
CONTINUOUS
 0
LINE
 8
WHITE
 10
.995907
 20
6.196644
 30
0.0000
 11
.980264
 21
6.19085
 31
0.0000
 6
CONTINUOUS
 0
ARC
 8
WHITE
 10
.9771363
 20
6.198325
 30
 0
 40
8.102364E-03
 50
192.0358
 51
292.7145
 6
CONTINUOUS
 0
LINE
 8
WHITE
 10
.969212
 20
6.196635
 30
0.0000
 11
.96578
 21
6.20997
 31
0.0000
 6
CONTINUOUS
 0
ARC
 8
WHITE
 10
1.098342
 20
6.247514
 30
 0
 40
.1377749
 50
180.1927
 51
195.8129
 6
CONTINUOUS
 0
LINE
 8
WHITE
 10
.960567
 20
6.24705
 30
0.0000
 11
.960565
 21
6.333956
 31
0.0000
 6
CONTINUOUS
 0
ARC
 8
WHITE
 10
1.063709
 20
6.334017
 30
 0
 40
.1031434
 50
166.3885
 51
180.0334
 6
CONTINUOUS
 0
LINE
 8
WHITE
 10
.963462
 20
6.35829
 30
0.0000
 11
.980844
 21
6.428394
 31
0.0000
 6
CONTINUOUS
 0
LINE
 8
WHITE
 10
.980844
 20
6.428394
 30
0.0000
 11
1.011551
 21
6.533841
 31
0.0000
 6
CONTINUOUS
 0
LINE
 8
WHITE
 10
1.011551
 20
6.533841
 30
0.0000
 11
1.046313
 21
6.593516
 31
0.0000
 6
CONTINUOUS
 0
ARC
 8
WHITE
 10
1.023249
 20
6.607586
 30
 0
 40
2.701734E-02
 50
328.6155
 51
10.77228
 6
CONTINUOUS
 0
LINE
 8
WHITE
 10
1.049789
 20
6.612636
 30
0.0000
 11
1.041099
 21
6.653771
 31
0.0000
 6
CONTINUOUS
 0
ARC
 8
WHITE
 10
1.002918
 20
6.645486
 30
 0
 40
.0390694
 50
12.24309
 51
59.82314
 6
CONTINUOUS
 0
LINE
 8
WHITE
 10
1.022557
 20
6.67926
 30
0.0000
 11
.995907
 21
6.694327
 31
0.0000
 6
CONTINUOUS
 0
ARC
 8
WHITE
 10
.9829348
 20
6.672424
 30
 0
 40
.0254569
 50
59.36329
 51
117.9724
 6
CONTINUOUS
 0
LINE
 8
WHITE
 10
.970994
 20
6.694907
 30
0.0000
 11
.943764
 21
6.679843
 31
0.0000
 6
CONTINUOUS
 0
ARC
 8
WHITE
 10
.971664
 20
6.627454
 30
 0
 40
5.935541E-02
 50
118.0372
 51
145.2297
 6
CONTINUOUS
 0
LINE
 8
WHITE
 10
.922906
 20
6.661303
 30
0.0000
 11
.90031
 21
6.627699
 31
0.0000
 6
CONTINUOUS
 0
ARC
 8
WHITE
 10
.9358848
 20
6.602323
 30
 0
 40
4.369789E-02
 50
144.4979
 51
179.3923
 6
CONTINUOUS
 0
LINE
 8
WHITE
 10
.89219
 20
6.602786
 30
0.0000
 11
.892199
 21
6.528047
 31
0.0000
 6
CONTINUOUS
 0
ARC
 8
WHITE
 10
.8278893
 20
6.526715
 30
 0
 40
6.432441E-02
 50
346.6144
 51
1.186791
 6
CONTINUOUS
 0
LINE
 8
WHITE
 10
.890461
 20
6.511824
 30
0.0000
 11
.875398
 21
6.451569
 31
0.0000
 6
CONTINUOUS
 0
LINE
 8
WHITE
 10
.875398
 20
6.451569
 30
0.0000
 11
.855119
 21
6.377409
 31
0.0000
 6
CONTINUOUS
 0
LINE
 8
WHITE
 10
.855119
 20
6.377409
 30
0.0000
 11
.849905
 21
6.35771
 31
0.0000
 6
CONTINUOUS
 0
LINE
 8
WHITE
 10
.849905
 20
6.35771
 30
0.0000
 11
.832524
 21
6.275439
 31
0.0000
 6
CONTINUOUS
 0
LINE
 8
WHITE
 10
.832524
 20
6.275439
 30
0.0000
 11
.82673
 21
6.169993
 31
0.0000
 6
CONTINUOUS
 0
LINE
 8
WHITE
 10
.82673
 20
6.169993
 30
0.0000
 11
.82615
 21
6.160723
 31
0.0000
 6
CONTINUOUS
 0
LINE
 8
WHITE
 10
.82615
 20
6.160723
 30
0.0000
 11
.821515
 21
6.045427
 31
0.0000
 6
CONTINUOUS
 0
ARC
 8
WHITE
 10
.9575529
 20
6.037259
 30
 0
 40
.1362823
 50
176.5635
 51
186.3215
 6
CONTINUOUS
 0
LINE
 8
WHITE
 10
.822095
 20
6.022252
 30
0.0000
 11
.832524
 21
5.936505
 31
0.0000
 6
CONTINUOUS
 0
LINE
 8
WHITE
 10
.832524
 20
5.936505
 30
0.0000
 11
.841214
 21
5.800352
 31
0.0000
 6
CONTINUOUS
 0
LINE
 8
WHITE
 10
.841214
 20
5.800352
 30
0.0000
 11
.841214
 21
5.71808
 31
0.0000
 6
CONTINUOUS
 0
LINE
 8
WHITE
 10
.841214
 20
5.71808
 30
0.0000
 11
.829627
 21
5.675206
 31
0.0000
 6
CONTINUOUS
 0
LINE
 8
WHITE
 10
.829627
 20
5.675206
 30
0.0000
 11
.796023
 21
5.627118
 31
0.0000
 6
CONTINUOUS
 0
LINE
 8
WHITE
 10
.796023
 20
5.627118
 30
0.0000
 11
.729974
 21
5.555855
 31
0.0000
 6
CONTINUOUS
 0
LINE
 8
WHITE
 10
.729974
 20
5.555855
 30
0.0000
 11
.670298
 21
5.490386
 31
0.0000
 6
CONTINUOUS
 0
LINE
 8
WHITE
 10
.670298
 20
5.490386
 30
0.0000
 11
.652338
 21
5.474163
 31
0.0000
 6
CONTINUOUS
 0
ARC
 8
WHITE
 10
.66554
 20
5.459613
 30
 0
 40
1.964645E-02
 50
132.2172
 51
184.8829
 6
CONTINUOUS
 0
LINE
 8
WHITE
 10
.645964
 20
5.457941
 30
0.0000
 11
.649441
 21
5.422598
 31
0.0000
 6
CONTINUOUS
 0
ARC
 8
WHITE
 10
.6934164
 20
5.427119
 30
 0
 40
.0442062
 50
185.8686
 51
207.1363
 6
CONTINUOUS
 0
LINE
 8
WHITE
 10
.654076
 20
5.406956
 30
0.0000
 11
.676092
 21
5.365241
 31
0.0000
 6
CONTINUOUS
 0
LINE
 8
WHITE
 10
.676092
 20
5.365241
 30
0.0000
 11
.694053
 21
5.335693
 31
0.0000
 6
CONTINUOUS
 0
ARC
 8
WHITE
 10
.7366542
 20
5.362782
 30
 0
 40
5.048384E-02
 50
212.4505
 51
232.0971
 6
CONTINUOUS
 0
LINE
 8
WHITE
 10
.70564
 20
5.322947
 30
0.0000
 11
.717807
 21
5.313097
 31
0.0000
 6
CONTINUOUS
 0
ARC
 8
WHITE
 10
.7334512
 20
5.332217
 30
 0
 40
2.470405E-02
 50
230.7101
 51
327.4262
 6
CONTINUOUS
 0
LINE
 8
WHITE
 10
.754268
 20
5.318916
 30
0.0000
 11
.909001
 21
5.554117
 31
0.0000
 6
CONTINUOUS
 0
ARC
 8
WHITE
 10
.9207046
 20
5.546237
 30
 0
 40
.0141091
 50
49.65409
 51
146.0465
 6
CONTINUOUS
 0
LINE
 8
WHITE
 10
.929838
 20
5.55699
 30
0.0000
 11
.948978
 21
5.540212
 31
0.0000
 6
CONTINUOUS
 0
ARC
 8
WHITE
 10
.9399011
 20
5.529058
 30
 0
 40
1.438081E-02
 50
326.3679
 51
50.86209
 6
CONTINUOUS
 0
LINE
 8
WHITE
 10
.951874
 20
5.521093
 30
0.0000
 11
.783276
 21
5.271961
 31
0.0000
 6
CONTINUOUS
 0
ARC
 8
WHITE
 10
.7888968
 20
5.268196
 30
 0
 40
6.765129E-03
 50
146.173
 51
261.5905
 6
CONTINUOUS
 0
LINE
 8
WHITE
 10
.787907
 20
5.261503
 30
0.0000
 11
.827888
 21
5.253422
 31
0.0000
 6
CONTINUOUS
 0
ARC
 8
WHITE
 10
.858248
 20
5.39983
 30
 0
 40
.1495226
 50
258.2851
 51
275.916
 6
CONTINUOUS
 0
LINE
 8
WHITE
 10
.873659
 20
5.251104
 30
0.0000
 11
.911319
 21
5.25516
 31
0.0000
 6
CONTINUOUS
 0
ARC
 8
WHITE
 10
.9021652
 20
5.333318
 30
 0
 40
7.869168E-02
 50
276.6803
 51
298.0179
 6
CONTINUOUS
 0
LINE
 8
WHITE
 10
.93913
 20
5.263848
 30
0.0000
 11
.969836
 21
5.280072
 31
0.0000
 6
CONTINUOUS
 0
ARC
 8
WHITE
 10
.9580164
 20
5.302263
 30
 0
 40
2.514175E-02
 50
298.0424
 51
347.63
 6
CONTINUOUS
 0
LINE
 8
WHITE
 10
.982574
 20
5.296876
 30
0.0000
 11
.989534
 21
5.329319
 31
0.0000
 6
CONTINUOUS
 0
ARC
 8
WHITE
 10
.8803222
 20
5.352379
 30
 0
 40
.1116207
 50
348.0776
 51
357.68
 6
CONTINUOUS
 0
LINE
 8
WHITE
 10
.99185
 20
5.34786
 30
0.0000
 11
.994748
 21
5.400003
 31
0.0000
 6
CONTINUOUS
 0
LINE
 8
WHITE
 10
.994748
 20
5.400003
 30
0.0000
 11
1.001122
 21
5.428393
 31
0.0000
 6
CONTINUOUS
 0
ARC
 8
WHITE
 10
1.041636
 20
5.42128
 30
 0
 40
4.113307E-02
 50
131.3741
 51
170.042
 6
CONTINUOUS
 0
LINE
 8
WHITE
 10
1.014448
 20
5.452147
 30
0.0000
 11
1.025455
 21
5.461996
 31
0.0000
 6
CONTINUOUS
 0
LINE
 8
WHITE
 10
1.025455
 20
5.461996
 30
0.0000
 11
1.056163
 21
5.46837
 31
0.0000
 6
CONTINUOUS
 0
ARC
 8
WHITE
 10
1.045966
 20
5.52231
 30
 0
 40
5.489521E-02
 50
280.7051
 51
302.281
 6
CONTINUOUS
 0
LINE
 8
WHITE
 10
1.075283
 20
5.4759
 30
0.0000
 11
1.101354
 21
5.492703
 31
0.0000
 6
CONTINUOUS
 0
ARC
 8
WHITE
 10
1.069025
 20
5.543168
 30
 0
 40
5.993129E-02
 50
302.6454
 51
329.1214
 6
CONTINUOUS
 0
LINE
 8
WHITE
 10
1.120461
 20
5.512409
 30
0.0000
 11
1.137854
 21
5.54195
 31
0.0000
 6
CONTINUOUS
 0
ARC
 8
WHITE
 10
.9746444
 20
5.641661
 30
 0
 40
.1912581
 50
328.5778
 51
338.2919
 6
CONTINUOUS
 0
LINE
 8
WHITE
 10
1.152338
 20
5.570919
 30
0.0000
 11
1.161608
 21
5.595253
 31
0.0000
 6
CONTINUOUS
 0
ARC
 8
WHITE
 10
1.39753
 20
5.501395
 30
 0
 40
.2539063
 50
151.5169
 51
158.3054
 6
CONTINUOUS
 0
LINE
 8
WHITE
 10
1.174357
 20
5.622482
 30
0.0000
 11
1.203323
 21
5.676365
 31
0.0000
 6
CONTINUOUS
 0
ARC
 8
WHITE
 10
1.353092
 20
5.596296
 30
 0
 40
.1698285
 50
142.8057
 51
151.8701
 6
CONTINUOUS
 0
LINE
 8
WHITE
 10
1.217808
 20
5.69896
 30
0.0000
 11
1.259523
 21
5.753422
 31
0.0000
 6
CONTINUOUS
 0
ARC
 8
WHITE
 10
1.394112
 20
5.653017
 30
 0
 40
.1679149
 50
130.522
 51
143.2764
 6
CONTINUOUS
 0
LINE
 8
WHITE
 10
1.285011
 20
5.780658
 30
0.0000
 11
1.381771
 21
5.863503
 31
0.0000
 6
CONTINUOUS
 0
ARC
 8
WHITE
 10
1.431656
 20
5.807826
 30
 0
 40
7.475641E-02
 50
118.7701
 51
131.8589
 6
CONTINUOUS
 0
LINE
 8
WHITE
 10
1.395676
 20
5.873353
 30
0.0000
 11
1.429859
 21
5.891893
 31
0.0000
 6
CONTINUOUS
 0
LINE
 8
WHITE
 10
1.429859
 20
5.891893
 30
0.0000
 11
1.490114
 21
5.910433
 31
0.0000
 6
CONTINUOUS
 0
ARC
 8
WHITE
 10
1.451065
 20
6.025671
 30
 0
 40
.1216742
 50
288.7197
 51
298.8717
 6
CONTINUOUS
 0
LINE
 8
WHITE
 10
1.509815
 20
5.91912
 30
0.0000
 11
1.543996
 21
5.937084
 31
0.0000
 6
CONTINUOUS
 0
ARC
 8
WHITE
 10
1.533336
 20
5.956667
 30
 0
 40
2.229643E-02
 50
298.5631
 51
327.2998
 6
CONTINUOUS
 0
LINE
 8
WHITE
 10
1.552098
 20
5.944622
 30
0.0000
 11
1.565433
 21
5.964315
 31
0.0000
 6
CONTINUOUS
 0
ARC
 8
WHITE
 10
1.530022
 20
5.987357
 30
 0
 40
4.224764E-02
 50
326.949
 51
351.5071
 6
CONTINUOUS
 0
LINE
 8
WHITE
 10
1.571806
 20
5.981117
 30
0.0000
 11
1.5776
 21
6.012403
 31
0.0000
 6
CONTINUOUS
 0
ARC
 8
WHITE
 10
1.541696
 20
6.018301
 30
 0
 40
3.638605E-02
 50
350.673
 51
57.25377
 6
CONTINUOUS
 0
ARC
 8
WHITE
 10
1.518098
 20
5.991836
 30
 0
 40
7.162327E-02
 50
52.82418
 51
87.3574
 6
CONTINUOUS
 0
LINE
 8
WHITE
 10
1.5214
 20
6.063382
 30
0.0000
 11
1.501123
 21
6.063967
 31
0.0000
 6
CONTINUOUS
 0
ARC
 8
WHITE
 10
1.497241
 20
5.992705
 30
 0
 40
7.136849E-02
 50
86.88208
 51
114.6097
 6
CONTINUOUS
 0
LINE
 8
WHITE
 10
1.467521
 20
6.05759
 30
0.0000
 11
1.446661
 21
6.047745
 31
0.0000
 6
CONTINUOUS
 0
LINE
 8
WHITE
 10
1.446661
 20
6.047745
 30
0.0000
 11
1.413058
 21
6.019355
 31
0.0000
 6
CONTINUOUS
 0
LINE
 8
WHITE
 10
1.413058
 20
6.019355
 30
0.0000
 11
1.375977
 21
5.973585
 31
0.0000
 6
CONTINUOUS
 0
LINE
 8
WHITE
 10
1.375977
 20
5.973585
 30
0.0000
 11
1.357438
 21
5.955624
 31
0.0000
 6
CONTINUOUS
 0
ARC
 8
WHITE
 10
1.322011
 20
5.991437
 30
 0
 40
5.037448E-02
 50
282.7209
 51
314.6899
 6
CONTINUOUS
 0
LINE
 8
WHITE
 10
1.333103
 20
5.942298
 30
0.0000
 11
1.319778
 21
5.939402
 31
0.0000
 6
CONTINUOUS
 0
ARC
 8
WHITE
 10
1.31466
 20
5.959
 30
 0
 40
2.025533E-02
 50
232.7433
 51
284.6365
 6
CONTINUOUS
 0
LINE
 8
WHITE
 10
1.302397
 20
5.942878
 30
0.0000
 11
1.294285
 21
5.949251
 31
0.0000
 6
CONTINUOUS
 0
ARC
 8
WHITE
 10
1.303092
 20
5.962346
 30
 0
 40
.0157799
 50
181.2657
 51
236.0768
 6
CONTINUOUS
 0
LINE
 8
WHITE
 10
1.287316
 20
5.961997
 30
0.0000
 11
1.287333
 21
5.992704
 31
0.0000
 6
CONTINUOUS
 0
ARC
 8
WHITE
 10
1.314564
 20
5.992357
 30
 0
 40
2.723343E-02
 50
163.1849
 51
179.2686
 6
CONTINUOUS
 0
LINE
 8
WHITE
 10
1.288491
 20
6.000236
 30
0.0000
 11
1.300658
 21
6.04311
 31
0.0000
 6
CONTINUOUS
 0
ARC
 8
WHITE
 10
1.357495
 20
6.027177
 30
 0
 40
5.902775E-02
 50
145.6392
 51
164.3402
 6
CONTINUOUS
 0
LINE
 8
WHITE
 10
1.308768
 20
6.060492
 30
0.0000
 11
1.342953
 21
6.108579
 31
0.0000
 6
CONTINUOUS
 0
ARC
 8
WHITE
 10
1.496372
 20
5.999251
 30
 0
 40
.1883877
 50
139.3778
 51
144.5258
 6
CONTINUOUS
 0
LINE
 8
WHITE
 10
1.353382
 20
6.121904
 30
0.0000
 11
1.398573
 21
6.175786
 31
0.0000
 6
CONTINUOUS
 0
LINE
 8
WHITE
 10
1.398573
 20
6.175786
 30
0.0000
 11
1.432177
 21
6.220978
 31
0.0000
 6
CONTINUOUS
 0
LINE
 8
WHITE
 10
1.432177
 20
6.220978
 30
0.0000
 11
1.458828
 21
6.242994
 31
0.0000
 6
CONTINUOUS
 0
ARC
 8
WHITE
 10
1.497994
 20
6.196934
 30
 0
 40
6.046098E-02
 50
100.8255
 51
130.3748
 6
CONTINUOUS
 0
ARC
 8
WHITE
 10
1.472301
 20
6.357757
 30
 0
 40
.1024464
 50
278.0454
 51
299.3796
 6
CONTINUOUS
 0
LINE
 8
WHITE
 10
1.52256
 20
6.268486
 30
0.0000
 11
1.550949
 21
6.28413
 31
0.0000
 6
CONTINUOUS
 0
ARC
 8
WHITE
 10
1.535132
 20
6.311824
 30
 0
 40
3.189272E-02
 50
299.7319
 51
327.2335
 6
CONTINUOUS
 0
LINE
 8
WHITE
 10
1.561949
 20
6.294563
 30
0.0000
 11
1.577021
 21
6.318313
 31
0.0000
 6
CONTINUOUS
 0
ARC
 8
WHITE
 10
1.543527
 20
6.339972
 30
 0
 40
3.988678E-02
 50
327.1113
 51
13.96714
 6
CONTINUOUS
 0
LINE
 8
WHITE
 10
1.582234
 20
6.349599
 30
0.0000
 11
1.575862
 21
6.375092
 31
0.0000
 6
CONTINUOUS
 0
ARC
 8
WHITE
 10
1.543475
 20
6.366807
 30
 0
 40
3.343052E-02
 50
14.34907
 51
77.09464
 6
CONTINUOUS
 0
LINE
 8
WHITE
 10
1.550941
 20
6.399392
 30
0.0000
 11
1.526615
 21
6.405798
 31
0.0000
 6
CONTINUOUS
 0
ARC
 8
WHITE
 10
1.509792
 20
6.339756
 30
 0
 40
6.815244E-02
 50
75.70882
 51
109.3434
 6
CONTINUOUS
 0
LINE
 8
WHITE
 10
1.487217
 20
6.40406
 30
0.0000
 11
1.479686
 21
6.401164
 31
0.0000
 6
CONTINUOUS
 0
ARC
 8
WHITE
 10
1.498806
 20
6.347282
 30
 0
 40
5.717372E-02
 50
109.5366
 51
126.7534
 6
CONTINUOUS
 0
LINE
 8
WHITE
 10
1.464594
 20
6.39309
 30
0.0000
 11
1.432177
 21
6.369298
 31
0.0000
 6
CONTINUOUS
 0
LINE
 8
WHITE
 10
1.432177
 20
6.369298
 30
0.0000
 11
1.422327
 21
6.350758
 31
0.0000
 6
CONTINUOUS
 0
ARC
 8
WHITE
 10
1.294054
 20
6.418719
 30
 0
 40
.1451647
 50
318.4139
 51
332.0849
 6
CONTINUOUS
 0
LINE
 8
WHITE
 10
1.40263
 20
6.322367
 30
0.0000
 11
1.381192
 21
6.298614
 31
0.0000
 6
CONTINUOUS
 0
ARC
 8
WHITE
 10
1.315119
 20
6.358274
 30
 0
 40
8.902192E-02
 50
303.6051
 51
317.9201
 6
CONTINUOUS
 0
LINE
 8
WHITE
 10
1.36439
 20
6.28413
 30
0.0000
 11
1.245039
 21
6.17289
 31
0.0000
 6
CONTINUOUS
 0
LINE
 8
WHITE
 10
1.245039
 20
6.17289
 30
0.0000
 11
1.195212
 21
6.12654
 31
0.0000
 6
CONTINUOUS
 0
ARC
 8
WHITE
 10
1.183799
 20
6.138881
 30
 0
 40
1.680956E-02
 50
257.4501
 51
312.7655
 6
CONTINUOUS
 0
LINE
 8
WHITE
 10
1.180146
 20
6.122473
 30
0.0000
 11
1.173196
 21
6.124222
 31
0.0000
 6
CONTINUOUS
 0
ARC
 8
WHITE
 10
1.177078
 20
6.142241
 30
 0
 40
1.843211E-02
 50
183.793
 51
257.8425
 6
CONTINUOUS
 0
LINE
 8
WHITE
 10
1.158686
 20
6.141022
 30
0.0000
 11
1.158133
 21
6.157826
 31
0.0000
 6
CONTINUOUS
 0
ARC
 8
WHITE
 10
1.229338
 20
6.163505
 30
 0
 40
.0714313
 50
168.6813
 51
184.5593
 6
CONTINUOUS
 0
LINE
 8
WHITE
 10
1.159291
 20
6.177525
 30
0.0000
 11
1.179569
 21
6.269066
 31
0.0000
 6
CONTINUOUS
 0
ARC
 8
WHITE
 10
1.356279
 20
6.230248
 30
 0
 40
.1809233
 50
159.7662
 51
167.6106
 6
CONTINUOUS
 0
LINE
 8
WHITE
 10
1.186521
 20
6.29282
 30
0.0000
 11
1.219546
 21
6.380306
 31
0.0000
 6
CONTINUOUS
 0
LINE
 8
WHITE
 10
1.219546
 20
6.380306
 30
0.0000
 11
1.251411
 21
6.439402
 31
0.0000
 6
CONTINUOUS
 0
ARC
 8
WHITE
 10
1.37928
 20
6.36953
 30
 0
 40
.1457134
 50
137.5946
 51
151.346
 6
CONTINUOUS
 0
LINE
 8
WHITE
 10
1.271686
 20
6.467795
 30
0.0000
 11
1.284436
 21
6.482855
 31
0.0000
 6
CONTINUOUS
 0
LINE
 8
WHITE
 10
1.284436
 20
6.482855
 30
0.0000
 11
1.307032
 21
6.5153
 31
0.0000
 6
CONTINUOUS
 0
ARC
 8
WHITE
 10
1.456279
 20
6.413795
 30
 0
 40
.1804942
 50
129.8434
 51
145.7795
 6
CONTINUOUS
 0
LINE
 8
WHITE
 10
1.340635
 20
6.552381
 30
0.0000
 11
1.366707
 21
6.573817
 31
0.0000
 6
CONTINUOUS
 0
ARC
 8
WHITE
 10
1.328585
 20
6.617039
 30
 0
 40
5.763195E-02
 50
311.4134
 51
325.3192
 6
CONTINUOUS
 0
LINE
 8
WHITE
 10
1.375977
 20
6.584246
 30
0.0000
 11
1.393938
 21
6.608
 31
0.0000
 6
CONTINUOUS
 0
ARC
 8
WHITE
 10
1.317099
 20
6.663716
 30
 0
 40
9.491373E-02
 50
324.0547
 51
341.8008
 6
CONTINUOUS
 0
LINE
 8
WHITE
 10
1.407264
 20
6.634072
 30
0.0000
 11
1.409001
 21
6.641025
 31
0.0000
 6
CONTINUOUS
 0
ARC
 8
WHITE
 10
1.321975
 20
6.67021
 30
 0
 40
9.179071E-02
 50
341.4607
 51
7.116156
 6
CONTINUOUS
 0
LINE
 8
WHITE
 10
1.413058
 20
6.681581
 30
0.0000
 11
1.409001
 21
6.720399
 31
0.0000
 6
CONTINUOUS
 0
ARC
 8
WHITE
 10
1.374823
 20
6.716306
 30
 0
 40
3.442289E-02
 50
6.829905
 51
57.42093
 6
CONTINUOUS
 0
LINE
 8
WHITE
 10
1.393358
 20
6.745312
 30
0.0000
 11
1.374239
 21
6.7569
 31
0.0000
 6
CONTINUOUS
 0
ARC
 8
WHITE
 10
1.347125
 20
6.714722
 30
 0
 40
5.014226E-02
 50
57.26485
 51
106.9274
 6
CONTINUOUS
 0
LINE
 8
WHITE
 10
1.332525
 20
6.762691
 30
0.0000
 11
1.304135
 21
6.754003
 31
0.0000
 6
CONTINUOUS
 0
ARC
 8
WHITE
 10
1.324264
 20
6.692185
 30
 0
 40
6.501297E-02
 50
108.0353
 51
123.3828
 6
CONTINUOUS
 0
LINE
 8
WHITE
 10
1.118734
 20
.228502
 30
0.0000
 11
1.139592
 21
.22155
 31
0.0000
 6
CONTINUOUS
 0
ARC
 8
WHITE
 10
1.232698
 20
.5078195
 30
 0
 40
.3010294
 50
251.9835
 51
264.4002
 6
CONTINUOUS
 0
LINE
 8
WHITE
 10
1.203323
 20
.208226
 30
0.0000
 11
1.215491
 21
.206485
 31
0.0000
 6
CONTINUOUS
 0
ARC
 8
WHITE
 10
1.220357
 20
.2557908
 30
 0
 40
4.954439E-02
 50
264.3633
 51
311.4443
 6
CONTINUOUS
 0
LINE
 8
WHITE
 10
1.25315
 20
.218652
 30
0.0000
 11
1.276904
 21
.238931
 31
0.0000
 6
CONTINUOUS
 0
ARC
 8
WHITE
 10
1.206105
 20
.3193482
 30
 0
 40
.1071421
 50
311.361
 51
350.0997
 6
CONTINUOUS
 0
LINE
 8
WHITE
 10
1.311651
 20
.300926
 30
0.0000
 11
1.315143
 21
.32294
 31
0.0000
 6
CONTINUOUS
 0
ARC
 8
WHITE
 10
1.384031
 20
.3108899
 30
 0
 40
6.993434E-02
 50
113.3793
 51
170.0778
 6
CONTINUOUS
 0
LINE
 8
WHITE
 10
1.35628
 20
.375081
 30
0.0000
 11
1.375977
 21
.383774
 31
0.0000
 6
CONTINUOUS
 0
ARC
 8
WHITE
 10
1.296719
 20
.5605999
 30
 0
 40
.1937758
 50
294.1434
 51
315.3149
 6
CONTINUOUS
 0
LINE
 8
WHITE
 10
1.434489
 20
.424335
 30
0.0000
 11
1.493591
 21
.483427
 31
0.0000
 6
CONTINUOUS
 0
ARC
 8
WHITE
 10
1.485074
 20
.4922916
 30
 0
 40
1.229243E-02
 50
313.856
 51
33.46542
 6
CONTINUOUS
 0
LINE
 8
WHITE
 10
1.495329
 20
.49907
 30
0.0000
 11
1.440288
 21
.588294
 31
0.0000
 6
CONTINUOUS
 0
ARC
 8
WHITE
 10
1.43407
 20
.5846196
 30
 0
 40
7.223597E-03
 50
30.58041
 51
138.0043
 6
CONTINUOUS
 0
LINE
 8
WHITE
 10
1.428701
 20
.589452
 30
0.0000
 11
1.304135
 21
.464887
 31
0.0000
 6
CONTINUOUS
 0
ARC
 8
WHITE
 10
1.296751
 20
.4726114
 30
 0
 40
1.068594E-02
 50
236.2242
 51
313.7152
 6
CONTINUOUS
 0
LINE
 8
WHITE
 10
1.290809
 20
.463729
 30
0.0000
 11
1.258943
 21
.484585
 31
0.0000
 6
CONTINUOUS
 0
ARC
 8
WHITE
 10
1.262905
 20
.4916175
 30
 0
 40
8.070764E-03
 50
134.9222
 51
240.6033
 6
CONTINUOUS
 0
LINE
 8
WHITE
 10
1.257206
 20
.497332
 30
0.0000
 11
1.393938
 21
.627112
 31
0.0000
 6
CONTINUOUS
 0
ARC
 8
WHITE
 10
1.38913
 20
.6321527
 30
 0
 40
6.966441E-03
 50
313.6522
 51
58.54845
 6
CONTINUOUS
 0
LINE
 8
WHITE
 10
1.392764
 20
.638095
 30
0.0000
 11
1.351064
 21
.663612
 31
0.0000
 6
CONTINUOUS
 0
LINE
 8
WHITE
 10
1.351064
 20
.663612
 30
0.0000
 11
1.2995
 21
.690843
 31
0.0000
 6
CONTINUOUS
 0
ARC
 8
WHITE
 10
1.280265
 20
.6549807
 30
 0
 40
4.069635E-02
 50
61.7924
 51
128.5834
 6
CONTINUOUS
 0
LINE
 8
WHITE
 10
1.254884
 20
.686792
 30
0.0000
 11
1.210856
 21
.650866
 31
0.0000
 6
CONTINUOUS
 0
ARC
 8
WHITE
 10
1.263869
 20
.585166
 30
 0
 40
.0844211
 50
128.8996
 51
156.3729
 6
CONTINUOUS
 0
LINE
 8
WHITE
 10
1.186524
 20
.619
 30
0.0000
 11
1.159291
 21
.55527
 31
0.0000
 6
CONTINUOUS
 0
ARC
 8
WHITE
 10
1.066672
 20
.59543
 30
 0
 40
.1009519
 50
292.2093
 51
336.5587
 6
CONTINUOUS
 0
LINE
 8
WHITE
 10
1.10483
 20
.501967
 30
0.0000
 11
1.099615
 21
.500229
 31
0.0000
 6
CONTINUOUS
 0
ARC
 8
WHITE
 10
1.067159
 20
.5801893
 30
 0
 40
8.629628E-02
 50
242.4114
 51
292.0925
 6
CONTINUOUS
 0
LINE
 8
WHITE
 10
1.027193
 20
.503705
 30
0.0000
 11
.96578
 21
.53557
 31
0.0000
 6
CONTINUOUS
 0
ARC
 8
WHITE
 10
.8280052
 20
.2640179
 30
 0
 40
.3045047
 50
63.09855
 51
70.92036
 6
CONTINUOUS
 0
LINE
 8
WHITE
 10
.927542
 20
.551794
 30
0.0000
 11
.82615
 21
.587135
 31
0.0000
 6
CONTINUOUS
 0
ARC
 8
WHITE
 10
.7753974
 20
.4453049
 30
 0
 40
.1506384
 50
70.31061
 51
87.6636
 6
CONTINUOUS
 0
LINE
 8
WHITE
 10
.781538
 20
.595817
 30
0.0000
 11
.714331
 21
.598143
 31
0.0000
 6
CONTINUOUS
 0
ARC
 8
WHITE
 10
.711435
 20
.5019678
 30
 0
 40
9.621982E-02
 50
88.27477
 51
127.9053
 6
CONTINUOUS
 0
LINE
 8
WHITE
 10
.652321
 20
.577887
 30
0.0000
 11
.614679
 21
.548896
 31
0.0000
 6
CONTINUOUS
 0
ARC
 8
WHITE
 10
.598283
 20
.5696382
 30
 0
 40
2.643966E-02
 50
259.0102
 51
308.3265
 6
CONTINUOUS
 0
LINE
 8
WHITE
 10
.593242
 20
.543683
 30
0.0000
 11
.580496
 21
.547159
 31
0.0000
 6
CONTINUOUS
 0
ARC
 8
WHITE
 10
.5839719
 20
.5662784
 30
 0
 40
1.943273E-02
 50
169.6953
 51
259.6968
 6
CONTINUOUS
 0
LINE
 8
WHITE
 10
.564852
 20
.569754
 30
0.0000
 11
.577019
 21
.632326
 31
0.0000
 6
CONTINUOUS
 0
ARC
 8
WHITE
 10
.8414467
 20
.5773439
 30
 0
 40
.2700826
 50
161.2424
 51
168.2538
 6
CONTINUOUS
 0
LINE
 8
WHITE
 10
.585709
 20
.664192
 30
0.0000
 11
.614099
 21
.748202
 31
0.0000
 6
CONTINUOUS
 0
ARC
 8
WHITE
 10
.5109706
 20
.7823853
 30
 0
 40
.1086464
 50
341.6617
 51
355.7184
 6
CONTINUOUS
 0
LINE
 8
WHITE
 10
.619313
 20
.774273
 30
0.0000
 11
.626845
 21
.880299
 31
0.0000
 6
CONTINUOUS
 0
ARC
 8
WHITE
 10
.4095226
 20
.8966954
 30
 0
 40
.2179406
 50
355.6854
 51
20.16919
 6
CONTINUOUS
 0
LINE
 8
WHITE
 10
.614099
 20
.97184
 30
0.0000
 11
.591504
 21
1.034992
 31
0.0000
 6
CONTINUOUS
 0
ARC
 8
WHITE
 10
.4619631
 20
.9867699
 30
 0
 40
.1382258
 50
20.41824
 51
52.09016
 6
CONTINUOUS
 0
LINE
 8
WHITE
 10
.546891
 20
1.095827
 30
0.0000
 11
.487796
 21
1.142756
 31
0.0000
 6
CONTINUOUS
 0
ARC
 8
WHITE
 10
.3964288
 20
1.026186
 30
 0
 40
.1481103
 50
51.91078
 51
70.65073
 6
CONTINUOUS
 0
LINE
 8
WHITE
 10
.445501
 20
1.16593
 30
0.0000
 11
.383508
 21
1.187947
 31
0.0000
 6
CONTINUOUS
 0
ARC
 8
WHITE
 10
.3595805
 20
1.120044
 30
 0
 40
7.199536E-02
 50
70.5881
 51
124.6747
 6
CONTINUOUS
 0
LINE
 8
WHITE
 10
.318621
 20
1.179252
 30
0.0000
 11
.291387
 21
1.160137
 31
0.0000
 6
CONTINUOUS
 0
ARC
 8
WHITE
 10
.3618974
 20
1.059211
 30
 0
 40
.1231171
 50
124.9392
 51
165.4994
 6
CONTINUOUS
 0
LINE
 8
WHITE
 10
.242702
 20
1.090037
 30
0.0000
 11
.235188
 21
1.061644
 31
0.0000
 6
CONTINUOUS
 0
ARC
 8
WHITE
 10
.3139258
 20
1.041134
 30
 0
 40
8.136509E-02
 50
165.3998
 51
190.9183
 6
CONTINUOUS
 0
LINE
 8
WHITE
 10
.234029
 20
1.025722
 30
0.0000
 11
.265316
 21
.857124
 31
0.0000
 6
CONTINUOUS
 0
LINE
 8
WHITE
 10
.265316
 20
.857124
 30
0.0000
 11
.276903
 21
.774853
 31
0.0000
 6
CONTINUOUS
 0
ARC
 8
WHITE
 10
.1189081
 20
.7510991
 30
 0
 40
.1597707
 50
351.4497
 51
8.55031
 6
CONTINUOUS
 0
LINE
 8
WHITE
 10
.276903
 20
.727344
 30
0.0000
 11
.254307
 21
.59177
 31
0.0000
 6
CONTINUOUS
 0
LINE
 8
WHITE
 10
.254307
 20
.59177
 30
0.0000
 11
.240403
 21
.46199
 31
0.0000
 6
CONTINUOUS
 0
ARC
 8
WHITE
 10
.3452694
 20
.4504034
 30
 0
 40
.1055046
 50
173.6945
 51
205.0169
 6
CONTINUOUS
 0
LINE
 8
WHITE
 10
.249662
 20
.405786
 30
0.0000
 11
.291387
 21
.316567
 31
0.0000
 6
CONTINUOUS
 0
ARC
 8
WHITE
 10
.3659536
 20
.3517353
 30
 0
 40
8.244332E-02
 50
205.2503
 51
252.5331
 6
CONTINUOUS
 0
LINE
 8
WHITE
 10
.341208
 20
.273093
 30
0.0000
 11
.375396
 21
.262106
 31
0.0000
 6
CONTINUOUS
 0
ARC
 8
WHITE
 10
.3919091
 20
.3147138
 30
 0
 40
5.513777E-02
 50
252.5741
 51
289.3298
 6
CONTINUOUS
 0
LINE
 8
WHITE
 10
.410159
 20
.262684
 30
0.0000
 11
.469256
 21
.284122
 31
0.0000
 6
CONTINUOUS
 0
ARC
 8
WHITE
 10
.5144475
 20
.157819
 30
 0
 40
.1341445
 50
76.26374
 51
109.6872
 6
CONTINUOUS
 0
LINE
 8
WHITE
 10
.5463
 20
.288127
 30
0.0000
 11
.681306
 21
.255154
 31
0.0000
 6
CONTINUOUS
 0
LINE
 8
WHITE
 10
.681306
 20
.255154
 30
0.0000
 11
.751991
 21
.233716
 31
0.0000
 6
CONTINUOUS
 0
ARC
 8
WHITE
 10
.931481
 20
.826649
 30
 0
 40
.6195042
 50
253.1581
 51
263.9983
 6
CONTINUOUS
 0
LINE
 8
WHITE
 10
.866706
 20
.21054
 30
0.0000
 11
.911898
 21
.205327
 31
0.0000
 6
CONTINUOUS
 0
ARC
 8
WHITE
 10
.93797
 20
.4504034
 30
 0
 40
.2464585
 50
263.9276
 51
287.3701
 6
CONTINUOUS
 0
LINE
 8
WHITE
 10
1.011548
 20
.215184
 30
0.0000
 11
1.056163
 21
.229081
 31
0.0000
 6
CONTINUOUS
 0
ARC
 8
WHITE
 10
1.086551
 20
.1318148
 30
 0
 40
.1019032
 50
71.58919
 51
107.3498
 6
CONTINUOUS
 0
LINE
 8
WHITE
 10
.45998
 20
.781856
 30
0.0000
 11
.434493
 21
.779488
 31
0.0000
 6
CONTINUOUS
 0
ARC
 8
WHITE
 10
.4322337
 20
.7973986
 30
 0
 40
1.805221E-02
 50
183.5217
 51
277.192
 6
CONTINUOUS
 0
LINE
 8
WHITE
 10
.414215
 20
.796289
 30
0.0000
 11
.389301
 21
1.052374
 31
0.0000
 6
CONTINUOUS
 0
ARC
 8
WHITE
 10
.3967758
 20
1.05359
 30
 0
 40
7.572248E-03
 50
98.3788
 51
189.2423
 6
CONTINUOUS
 0
LINE
 8
WHITE
 10
.395672
 20
1.061081
 30
0.0000
 11
.416532
 21
1.062802
 31
0.0000
 6
CONTINUOUS
 0
LINE
 8
WHITE
 10
.416532
 20
1.062802
 30
0.0000
 11
.432175
 21
1.06454
 31
0.0000
 6
CONTINUOUS
 0
ARC
 8
WHITE
 10
.432755
 20
1.05527
 30
 0
 40
9.288636E-03
 50
3.576277
 51
93.57619
 6
CONTINUOUS
 0
LINE
 8
WHITE
 10
.442024
 20
1.055849
 30
0.0000
 11
.468097
 21
.791075
 31
0.0000
 6
CONTINUOUS
 0
ARC
 8
WHITE
 10
.4609241
 20
.7892087
 30
 0
 40
7.412341E-03
 50
262.6838
 51
14.5905
 6
CONTINUOUS
 0
ARC
 8
WHITE
 10
1.782769
 20
.704348
 30
 0
 40
.2466941
 50
235.8343
 51
247.4743
 6
CONTINUOUS
 0
LINE
 8
WHITE
 10
1.688261
 20
.476474
 30
0.0000
 11
1.731134
 21
.458514
 31
0.0000
 6
CONTINUOUS
 0
ARC
 8
WHITE
 10
1.691679
 20
.3649456
 30
 0
 40
.1015476
 50
31.08706
 51
67.13617
 6
CONTINUOUS
 0
LINE
 8
WHITE
 10
1.778642
 20
.417378
 30
0.0000
 11
1.79023
 21
.398838
 31
0.0000
 6
CONTINUOUS
 0
ARC
 8
WHITE
 10
2.046894
 20
.5564284
 30
 0
 40
.301182
 50
211.5497
 51
223.9867
 6
CONTINUOUS
 0
LINE
 8
WHITE
 10
1.830193
 20
.34726
 30
0.0000
 11
1.838898
 21
.338584
 31
0.0000
 6
CONTINUOUS
 0
ARC
 8
WHITE
 10
1.874356
 20
.3726513
 30
 0
 40
4.917107E-02
 50
223.8546
 51
271.2159
 6
CONTINUOUS
 0
LINE
 8
WHITE
 10
1.875399
 20
.323491
 30
0.0000
 11
1.906685
 21
.324678
 31
0.0000
 6
CONTINUOUS
 0
ARC
 8
WHITE
 10
1.904774
 20
.4312834
 30
 0
 40
.1066221
 50
271.0275
 51
309.9969
 6
CONTINUOUS
 0
LINE
 8
WHITE
 10
1.973304
 20
.349602
 30
0.0000
 11
1.990115
 21
.363496
 31
0.0000
 6
CONTINUOUS
 0
ARC
 8
WHITE
 10
2.035538
 20
.309847
 30
 0
 40
7.029591E-02
 50
73.92477
 51
130.2533
 6
CONTINUOUS
 0
LINE
 8
WHITE
 10
2.055002
 20
.377394
 30
0.0000
 11
2.075283
 21
.371607
 31
0.0000
 6
CONTINUOUS
 0
ARC
 8
WHITE
 10
2.129455
 20
.5581092
 30
 0
 40
.1942095
 50
253.8034
 51
275.049
 6
CONTINUOUS
 0
LINE
 8
WHITE
 10
2.146546
 20
.364653
 30
0.0000
 11
2.229976
 21
.371607
 31
0.0000
 6
CONTINUOUS
 0
ARC
 8
WHITE
 10
2.228875
 20
.3837747
 30
 0
 40
1.221658E-02
 50
275.1697
 51
351.8315
 6
CONTINUOUS
 0
LINE
 8
WHITE
 10
2.240967
 20
.382038
 30
0.0000
 11
2.256048
 21
.486324
 31
0.0000
 6
CONTINUOUS
 0
ARC
 8
WHITE
 10
2.249095
 20
.48742
 30
 0
 40
7.039694E-03
 50
351.0486
 51
94.70903
 6
CONTINUOUS
 0
LINE
 8
WHITE
 10
2.248516
 20
.494435
 30
0.0000
 11
2.072966
 21
.479371
 31
0.0000
 6
CONTINUOUS
 0
ARC
 8
WHITE
 10
2.07146
 20
.4897424
 30
 0
 40
1.047962E-02
 50
195.7277
 51
278.2643
 6
CONTINUOUS
 0
LINE
 8
WHITE
 10
2.061372
 20
.486901
 30
0.0000
 11
2.050949
 21
.523984
 31
0.0000
 6
CONTINUOUS
 0
ARC
 8
WHITE
 10
2.058424
 20
.5265332
 30
 0
 40
7.897413E-03
 50
93.78619
 51
198.8319
 6
CONTINUOUS
 0
LINE
 8
WHITE
 10
2.057902
 20
.534412
 30
0.0000
 11
2.245619
 21
.545999
 31
0.0000
 6
CONTINUOUS
 0
ARC
 8
WHITE
 10
2.245388
 20
.5529528
 30
 0
 40
6.956921E-03
 50
271.9089
 51
19.33453
 6
CONTINUOUS
 0
LINE
 8
WHITE
 10
2.251951
 20
.555255
 30
0.0000
 11
2.23635
 21
.60162
 31
0.0000
 6
CONTINUOUS
 0
LINE
 8
WHITE
 10
2.23635
 20
.60162
 30
0.0000
 11
2.214333
 21
.655501
 31
0.0000
 6
CONTINUOUS
 0
ARC
 8
WHITE
 10
2.176674
 20
.6404378
 30
 0
 40
4.056107E-02
 50
21.80096
 51
89.18123
 6
CONTINUOUS
 0
LINE
 8
WHITE
 10
2.177253
 20
.680993
 30
0.0000
 11
2.121053
 21
.682152
 31
0.0000
 6
CONTINUOUS
 0
ARC
 8
WHITE
 10
2.120167
 20
.5975643
 30
 0
 40
8.459317E-02
 50
89.39976
 51
117.0812
 6
CONTINUOUS
 0
LINE
 8
WHITE
 10
2.081656
 20
.672882
 30
0.0000
 11
2.019663
 21
.642175
 31
0.0000
 6
CONTINUOUS
 0
ARC
 8
WHITE
 10
1.97482
 20
.7324432
 30
 0
 40
.1007925
 50
252.3984
 51
296.4177
 6
CONTINUOUS
 0
LINE
 8
WHITE
 10
1.944341
 20
.63637
 30
0.0000
 11
1.93855
 21
.63812
 31
0.0000
 6
CONTINUOUS
 0
ARC
 8
WHITE
 10
1.964739
 20
.7203342
 30
 0
 40
8.628363E-02
 50
202.8803
 51
252.3312
 6
CONTINUOUS
 0
LINE
 8
WHITE
 10
1.885244
 20
.686786
 30
0.0000
 11
1.858596
 21
.751099
 31
0.0000
 6
CONTINUOUS
 0
ARC
 8
WHITE
 10
1.577601
 20
.6334859
 30
 0
 40
.3046174
 50
22.71212
 51
30.51526
 6
CONTINUOUS
 0
LINE
 8
WHITE
 10
1.840026
 20
.78816
 30
0.0000
 11
1.785016
 21
.880878
 31
0.0000
 6
CONTINUOUS
 0
ARC
 8
WHITE
 10
1.655841
 20
.8043588
 30
 0
 40
.1501383
 50
30.64124
 51
47.8335
 6
CONTINUOUS
 0
LINE
 8
WHITE
 10
1.756627
 20
.91564
 30
0.0000
 11
1.70738
 21
.960252
 31
0.0000
 6
CONTINUOUS
 0
ARC
 8
WHITE
 10
1.642799
 20
.8892044
 30
 0
 40
9.601377E-02
 50
47.72981
 51
88.10932
 6
CONTINUOUS
 0
LINE
 8
WHITE
 10
1.645966
 20
.985165
 30
0.0000
 11
1.599036
 21
.986904
 31
0.0000
 6
CONTINUOUS
 0
ARC
 8
WHITE
 10
1.600063
 20
1.013577
 30
 0
 40
2.669262E-02
 50
219.0683
 51
267.7973
 6
CONTINUOUS
 0
LINE
 8
WHITE
 10
1.579338
 20
.996754
 30
0.0000
 11
1.570647
 21
1.007182
 31
0.0000
 6
CONTINUOUS
 0
ARC
 8
WHITE
 10
1.585422
 20
1.019697
 30
 0
 40
1.936249E-02
 50
127.8299
 51
220.2656
 6
CONTINUOUS
 0
LINE
 8
WHITE
 10
1.573547
 20
1.034989
 30
0.0000
 11
1.622791
 21
1.074969
 31
0.0000
 6
CONTINUOUS
 0
ARC
 8
WHITE
 10
1.789362
 20
.8624543
 30
 0
 40
.2700157
 50
120.9237
 51
128.0895
 6
CONTINUOUS
 0
LINE
 8
WHITE
 10
1.650602
 20
1.094087
 30
0.0000
 11
1.726499
 21
1.140438
 31
0.0000
 6
CONTINUOUS
 0
ARC
 8
WHITE
 10
1.669528
 20
1.23244
 30
 0
 40
.1082129
 50
301.7674
 51
315.5506
 6
CONTINUOUS
 0
LINE
 8
WHITE
 10
1.746778
 20
1.15666
 30
0.0000
 11
1.821517
 21
1.232559
 31
0.0000
 6
CONTINUOUS
 0
ARC
 8
WHITE
 10
1.665897
 20
1.384588
 30
 0
 40
.2175553
 50
315.6689
 51
340.3297
 6
CONTINUOUS
 0
LINE
 8
WHITE
 10
1.870756
 20
1.311357
 30
0.0000
 11
1.893359
 21
1.374505
 31
0.0000
 6
CONTINUOUS
 0
ARC
 8
WHITE
 10
1.762595
 20
1.420334
 30
 0
 40
.1385629
 50
340.6862
 51
12.28726
 6
CONTINUOUS
 0
LINE
 8
WHITE
 10
1.897983
 20
1.449822
 30
0.0000
 11
1.88293
 21
1.523984
 31
0.0000
 6
CONTINUOUS
 0
ARC
 8
WHITE
 10
1.738203
 20
1.493278
 30
 0
 40
.147949
 50
11.97884
 51
30.60207
 6
CONTINUOUS
 0
LINE
 8
WHITE
 10
1.865546
 20
1.568594
 30
0.0000
 11
1.832525
 21
1.625375
 31
0.0000
 6
CONTINUOUS
 0
ARC
 8
WHITE
 10
1.770775
 20
1.588452
 30
 0
 40
7.194817E-02
 50
30.8774
 51
85.11238
 6
CONTINUOUS
 0
LINE
 8
WHITE
 10
1.776904
 20
1.660138
 30
0.0000
 11
1.74388
 21
1.663034
 31
0.0000
 6
CONTINUOUS
 0
ARC
 8
WHITE
 10
1.732497
 20
1.540847
 30
 0
 40
.1227166
 50
84.67738
 51
125.2853
 6
CONTINUOUS
 0
LINE
 8
WHITE
 10
1.661609
 20
1.641018
 30
0.0000
 11
1.637275
 21
1.623637
 31
0.0000
 6
CONTINUOUS
 0
ARC
 8
WHITE
 10
1.685538
 20
1.557531
 30
 0
 40
8.184969E-02
 50
126.1321
 51
151.639
 6
CONTINUOUS
 0
LINE
 8
WHITE
 10
1.613513
 20
1.596411
 30
0.0000
 11
1.528932
 21
1.447507
 31
0.0000
 6
CONTINUOUS
 0
LINE
 8
WHITE
 10
1.528932
 20
1.447507
 30
0.0000
 11
1.484899
 21
1.376823
 31
0.0000
 6
CONTINUOUS
 0
ARC
 8
WHITE
 10
1.349454
 20
1.461523
 30
 0
 40
.159749
 50
310.969
 51
327.9808
 6
CONTINUOUS
 0
LINE
 8
WHITE
 10
1.454193
 20
1.340902
 30
0.0000
 11
1.349326
 21
1.251099
 31
0.0000
 6
CONTINUOUS
 0
LINE
 8
WHITE
 10
1.349326
 20
1.251099
 30
0.0000
 11
1.256046
 21
1.161295
 31
0.0000
 6
CONTINUOUS
 0
ARC
 8
WHITE
 10
1.329092
 20
1.084863
 30
 0
 40
.105724
 50
133.7014
 51
164.7741
 6
CONTINUOUS
 0
LINE
 8
WHITE
 10
1.227078
 20
1.112628
 30
0.0000
 11
1.202165
 21
1.016452
 31
0.0000
 6
CONTINUOUS
 0
ARC
 8
WHITE
 10
1.281598
 20
.995305
 30
 0
 40
8.219906E-02
 50
165.092
 51
212.1552
 6
CONTINUOUS
 0
LINE
 8
WHITE
 10
1.212007
 20
.951557
 30
0.0000
 11
1.230554
 21
.920855
 31
0.0000
 6
CONTINUOUS
 0
ARC
 8
WHITE
 10
1.276971
 20
.9509137
 30
 0
 40
5.529809E-02
 50
212.9263
 51
250.3387
 6
CONTINUOUS
 0
LINE
 8
WHITE
 10
1.258364
 20
.898839
 30
0.0000
 11
1.316881
 21
.877402
 31
0.0000
 6
CONTINUOUS
 0
ARC
 8
WHITE
 10
1.270126
 20
.7516199
 30
 0
 40
.1341912
 50
36.29105
 51
69.60895
 6
CONTINUOUS
 0
LINE
 8
WHITE
 10
1.378286
 20
.831045
 30
0.0000
 11
1.445503
 21
.74009
 31
0.0000
 6
CONTINUOUS
 0
LINE
 8
WHITE
 10
1.445503
 20
.74009
 30
0.0000
 11
1.461146
 21
.719232
 31
0.0000
 6
CONTINUOUS
 0
LINE
 8
WHITE
 10
1.461146
 20
.719232
 30
0.0000
 11
1.501123
 21
.65724
 31
0.0000
 6
CONTINUOUS
 0
ARC
 8
WHITE
 10
2.019664
 20
.995885
 30
 0
 40
.619326
 50
213.1474
 51
223.9956
 6
CONTINUOUS
 0
LINE
 8
WHITE
 10
1.574124
 20
.565699
 30
0.0000
 11
1.605409
 21
.532674
 31
0.0000
 6
CONTINUOUS
 0
ARC
 8
WHITE
 10
1.782177
 20
.7047485
 30
 0
 40
.2466907
 50
224.2292
 51
236.0003
 6
CONTINUOUS
 0
LINE
 8
WHITE
 10
1.717808
 20
1.376823
 30
0.0000
 11
1.793128
 21
1.485745
 31
0.0000
 6
CONTINUOUS
 0
ARC
 8
WHITE
 10
1.785017
 20
1.49096
 30
 0
 40
9.642754E-03
 50
327.2643
 51
57.26516
 6
CONTINUOUS
 0
LINE
 8
WHITE
 10
1.79023
 20
1.499071
 30
0.0000
 11
1.774008
 21
1.510079
 31
0.0000
 6
CONTINUOUS
 0
LINE
 8
WHITE
 10
1.774008
 20
1.510079
 30
0.0000
 11
1.760103
 21
1.519929
 31
0.0000
 6
CONTINUOUS
 0
ARC
 8
WHITE
 10
1.755584
 20
1.514019
 30
 0
 40
.0074398
 50
52.59082
 51
151.0326
 6
CONTINUOUS
 0
LINE
 8
WHITE
 10
1.749075
 20
1.517622
 30
0.0000
 11
1.604251
 21
1.304981
 31
0.0000
 6
CONTINUOUS
 0
ARC
 8
WHITE
 10
1.619316
 20
1.294553
 30
 0
 40
1.832141E-02
 50
145.3051
 51
235.3047
 6
CONTINUOUS
 0
LINE
 8
WHITE
 10
1.608887
 20
1.279489
 30
0.0000
 11
1.629743
 21
1.265004
 31
0.0000
 6
CONTINUOUS
 0
ARC
 8
WHITE
 10
1.635132
 20
1.273406
 30
 0
 40
9.980419E-03
 50
237.3243
 51
322.5327
 6
CONTINUOUS
 0
LINE
 8
WHITE
 10
1.643053
 20
1.267334
 30
0.0000
 11
1.717808
 21
1.376823
 31
0.0000
 6
CONTINUOUS
 0
LINE
 8
WHITE
 10
8.00171
 20
4.951567
 30
0.0000
 11
8.269961
 21
4.285286
 31
0.0000
 6
CONTINUOUS
 0
ARC
 8
WHITE
 10
8.314811
 20
4.302654
 30
 0
 40
4.809463E-02
 50
201.1683
 51
224.3003
 6
CONTINUOUS
 0
LINE
 8
WHITE
 10
8.280389
 20
4.269063
 30
0.0000
 11
8.312834
 21
4.236618
 31
0.0000
 6
CONTINUOUS
 0
ARC
 8
WHITE
 10
8.338684
 20
4.263435
 30
 0
 40
3.724622E-02
 50
226.0514
 51
270.3433
 6
CONTINUOUS
 0
LINE
 8
WHITE
 10
8.338907
 20
4.226189
 30
0.0000
 11
8.35397
 21
4.22561
 31
0.0000
 6
CONTINUOUS
 0
ARC
 8
WHITE
 10
8.35361
 20
4.266167
 30
 0
 40
4.055803E-02
 50
270.5093
 51
319.9967
 6
CONTINUOUS
 0
LINE
 8
WHITE
 10
8.384677
 20
4.240095
 30
0.0000
 11
8.420598
 21
4.28123
 31
0.0000
 6
CONTINUOUS
 0
ARC
 8
WHITE
 10
8.376151
 20
4.318995
 30
 0
 40
5.832414E-02
 50
319.6483
 51
341.9568
 6
CONTINUOUS
 0
LINE
 8
WHITE
 10
8.431607
 20
4.300929
 30
0.0000
 11
8.653507
 21
4.95794
 31
0.0000
 6
CONTINUOUS
 0
ARC
 8
WHITE
 10
8.660344
 20
4.955333
 30
 0
 40
7.317024E-03
 50
65.66953
 51
159.1284
 6
CONTINUOUS
 0
LINE
 8
WHITE
 10
8.663356
 20
4.961996
 30
0.0000
 11
8.69835
 21
4.94276
 31
0.0000
 6
CONTINUOUS
 0
LINE
 8
WHITE
 10
8.69835
 20
4.94276
 30
0.0000
 11
8.664515
 21
4.807302
 31
0.0000
 6
CONTINUOUS
 0
ARC
 8
WHITE
 10
8.674249
 20
4.804059
 30
 0
 40
1.025969E-02
 50
161.565
 51
280.4268
 6
CONTINUOUS
 0
LINE
 8
WHITE
 10
8.676105
 20
4.793968
 30
0.0000
 11
8.716079
 21
4.80093
 31
0.0000
 6
CONTINUOUS
 0
ARC
 8
WHITE
 10
8.703913
 20
4.873352
 30
 0
 40
7.343648E-02
 50
279.5367
 51
307.9544
 6
CONTINUOUS
 0
LINE
 8
WHITE
 10
8.749078
 20
4.815447
 30
0.0000
 11
8.794295
 21
4.851335
 31
0.0000
 6
CONTINUOUS
 0
ARC
 8
WHITE
 10
8.760113
 20
4.895369
 30
 0
 40
5.574366E-02
 50
307.8219
 51
344.9531
 6
CONTINUOUS
 0
LINE
 8
WHITE
 10
8.813944
 20
4.880897
 30
0.0000
 11
8.837169
 21
4.969528
 31
0.0000
 6
CONTINUOUS
 0
LINE
 8
WHITE
 10
8.837169
 20
4.969528
 30
0.0000
 11
8.857447
 21
5.062807
 31
0.0000
 6
CONTINUOUS
 0
ARC
 8
WHITE
 10
8.780443
 20
5.080337
 30
 0
 40
7.897457E-02
 50
347.1753
 51
21.40312
 6
CONTINUOUS
 0
LINE
 8
WHITE
 10
8.853971
 20
5.109157
 30
0.0000
 11
8.82732
 21
5.175786
 31
0.0000
 6
CONTINUOUS
 0
ARC
 8
WHITE
 10
8.765906
 20
5.151452
 30
 0
 40
.066059
 50
21.61494
 51
68.38583
 6
CONTINUOUS
 0
LINE
 8
WHITE
 10
8.790239
 20
5.212865
 30
0.0000
 11
8.719555
 21
5.240675
 31
0.0000
 6
CONTINUOUS
 0
ARC
 8
WHITE
 10
8.673334
 20
5.12045
 30
 0
 40
.1288041
 50
68.97022
 51
99.11549
 6
CONTINUOUS
 0
LINE
 8
WHITE
 10
8.652928
 20
5.247627
 30
0.0000
 11
8.584561
 21
5.237199
 31
0.0000
 6
CONTINUOUS
 0
ARC
 8
WHITE
 10
8.602812
 20
5.11837
 30
 0
 40
.1202231
 50
98.73154
 51
120.8788
 6
CONTINUOUS
 0
LINE
 8
WHITE
 10
8.54111
 20
5.221551
 30
0.0000
 11
8.459416
 21
5.172308
 31
0.0000
 6
CONTINUOUS
 0
ARC
 8
WHITE
 10
8.404144
 20
5.264604
 30
 0
 40
.1075793
 50
283.8343
 51
300.9159
 6
CONTINUOUS
 0
LINE
 8
WHITE
 10
8.429868
 20
5.160142
 30
0.0000
 11
8.377145
 21
5.146817
 31
0.0000
 6
CONTINUOUS
 0
ARC
 8
WHITE
 10
8.382418
 20
5.126539
 30
 0
 40
2.095207E-02
 50
104.5733
 51
180
 6
CONTINUOUS
 0
LINE
 8
WHITE
 10
8.361466
 20
5.126539
 30
0.0000
 11
8.361502
 21
4.901741
 31
0.0000
 6
CONTINUOUS
 0
LINE
 8
WHITE
 10
8.361502
 20
4.901741
 30
0.0000
 11
8.309938
 21
4.901741
 31
0.0000
 6
CONTINUOUS
 0
LINE
 8
WHITE
 10
8.309938
 20
4.901741
 30
0.0000
 11
8.309938
 21
5.128856
 31
0.0000
 6
CONTINUOUS
 0
ARC
 8
WHITE
 10
8.29835
 20
5.128973
 30
 0
 40
1.158868E-02
 50
359.4271
 51
81.38039
 6
CONTINUOUS
 0
LINE
 8
WHITE
 10
8.300086
 20
5.140429
 30
0.0000
 11
8.264746
 21
5.145078
 31
0.0000
 6
CONTINUOUS
 0
ARC
 8
WHITE
 10
8.276073
 20
5.230781
 30
 0
 40
8.644768E-02
 50
245.6374
 51
262.4712
 6
CONTINUOUS
 0
LINE
 8
WHITE
 10
8.240412
 20
5.15203
 30
0.0000
 11
8.148292
 21
5.193167
 31
0.0000
 6
CONTINUOUS
 0
ARC
 8
WHITE
 10
8.110806
 20
5.100931
 30
 0
 40
9.956295E-02
 50
67.88256
 51
75.26772
 6
CONTINUOUS
 0
LINE
 8
WHITE
 10
8.136125
 20
5.19722
 30
0.0000
 11
8.034155
 21
5.228508
 31
0.0000
 6
CONTINUOUS
 0
ARC
 8
WHITE
 10
8.010597
 20
5.14965
 30
 0
 40
8.230265E-02
 50
73.3668
 51
96.60461
 6
CONTINUOUS
 0
LINE
 8
WHITE
 10
8.001131
 20
5.231405
 30
0.0000
 11
7.944931
 21
5.225032
 31
0.0000
 6
CONTINUOUS
 0
ARC
 8
WHITE
 10
7.9582
 20
5.103306
 30
 0
 40
.1224474
 50
96.22037
 51
113.9819
 6
CONTINUOUS
 0
LINE
 8
WHITE
 10
7.908431
 20
5.215183
 30
0.0000
 11
7.857446
 21
5.191428
 31
0.0000
 6
CONTINUOUS
 0
ARC
 8
WHITE
 10
7.899137
 20
5.099876
 30
 0
 40
.1005981
 50
114.4837
 51
165.3141
 6
CONTINUOUS
 0
LINE
 8
WHITE
 10
7.801826
 20
5.12538
 30
0.0000
 11
7.794873
 21
5.099308
 31
0.0000
 6
CONTINUOUS
 0
ARC
 8
WHITE
 10
7.973205
 20
5.051857
 30
 0
 40
.1845364
 50
165.0998
 51
183.7987
 6
CONTINUOUS
 0
LINE
 8
WHITE
 10
7.789074
 20
5.039631
 30
0.0000
 11
7.793715
 21
4.971265
 31
0.0000
 6
CONTINUOUS
 0
ARC
 8
WHITE
 10
7.893367
 20
4.977813
 30
 0
 40
9.986712E-02
 50
183.7588
 51
208.1406
 6
CONTINUOUS
 0
LINE
 8
WHITE
 10
7.805302
 20
4.93071
 30
0.0000
 11
7.845279
 21
4.857129
 31
0.0000
 6
CONTINUOUS
 0
ARC
 8
WHITE
 10
7.897713
 20
4.88546
 30
 0
 40
5.959786E-02
 50
208.3832
 51
234.6561
 6
CONTINUOUS
 0
LINE
 8
WHITE
 10
7.863236
 20
4.836846
 30
0.0000
 11
7.921756
 21
4.795135
 31
0.0000
 6
CONTINUOUS
 0
ARC
 8
WHITE
 10
7.945221
 20
4.827408
 30
 0
 40
3.990068E-02
 50
233.9793
 51
266.2518
 6
CONTINUOUS
 0
LINE
 8
WHITE
 10
7.942613
 20
4.787593
 30
0.0000
 11
7.999972
 21
4.784707
 31
0.0000
 6
CONTINUOUS
 0
ARC
 8
WHITE
 10
8.00032
 20
4.79166
 30
 0
 40
6.961471E-03
 50
267.1339
 51
19.33487
 6
CONTINUOUS
 0
LINE
 8
WHITE
 10
8.006888
 20
4.793964
 30
0.0000
 11
7.958837
 21
4.92144
 31
0.0000
 6
CONTINUOUS
 0
ARC
 8
WHITE
 10
7.971435
 20
4.926496
 30
 0
 40
1.357409E-02
 50
120.0822
 51
201.8657
 6
CONTINUOUS
 0
ARC
 8
WHITE
 10
8.004828
 20
4.884643
 30
 0
 40
6.699781E-02
 50
92.66708
 51
126.869
 6
CONTINUOUS
 0
LINE
 8
WHITE
 10
7.75142
 20
6.285288
 30
0.0000
 11
7.711443
 21
6.106262
 31
0.0000
 6
CONTINUOUS
 0
LINE
 8
WHITE
 10
7.711443
 20
6.106262
 30
0.0000
 11
7.685371
 21
5.981696
 31
0.0000
 6
CONTINUOUS
 0
ARC
 8
WHITE
 10
7.729285
 20
5.972409
 30
 0
 40
4.488426E-02
 50
168.0582
 51
231.9076
 6
CONTINUOUS
 0
LINE
 8
WHITE
 10
7.701594
 20
5.937084
 30
0.0000
 11
7.734039
 21
5.910433
 31
0.0000
 6
CONTINUOUS
 0
ARC
 8
WHITE
 10
7.765094
 20
5.950005
 30
 0
 40
5.030177E-02
 50
231.8761
 51
280.8826
 6
CONTINUOUS
 0
LINE
 8
WHITE
 10
7.77459
 20
5.900608
 30
0.0000
 11
7.860342
 21
5.916227
 31
0.0000
 6
CONTINUOUS
 0
ARC
 8
WHITE
 10
7.848442
 20
5.979317
 30
 0
 40
6.420203E-02
 50
280.6825
 51
311.5791
 6
CONTINUOUS
 0
LINE
 8
WHITE
 10
7.891049
 20
5.931291
 30
0.0000
 11
7.950146
 21
5.983434
 31
0.0000
 6
CONTINUOUS
 0
ARC
 8
WHITE
 10
7.825216
 20
6.127337
 30
 0
 40
.1905659
 50
310.9631
 51
327.5726
 6
CONTINUOUS
 0
LINE
 8
WHITE
 10
7.986067
 20
6.025149
 30
0.0000
 11
8.091513
 21
6.192588
 31
0.0000
 6
CONTINUOUS
 0
ARC
 8
WHITE
 10
8.276995
 20
6.075679
 30
 0
 40
.2192511
 50
109.4707
 51
147.7766
 6
CONTINUOUS
 0
LINE
 8
WHITE
 10
8.203912
 20
6.282392
 30
0.0000
 11
8.297191
 21
6.307884
 31
0.0000
 6
CONTINUOUS
 0
LINE
 8
WHITE
 10
8.297191
 20
6.307884
 30
0.0000
 11
8.368454
 21
6.350758
 31
0.0000
 6
CONTINUOUS
 0
ARC
 8
WHITE
 10
8.305861
 20
6.454453
 30
 0
 40
.1211222
 50
301.117
 51
341.3145
 6
CONTINUOUS
 0
LINE
 8
WHITE
 10
8.420598
 20
6.415648
 30
0.0000
 11
8.457098
 21
6.520515
 31
0.0000
 6
CONTINUOUS
 0
ARC
 8
WHITE
 10
8.367927
 20
6.550796
 30
 0
 40
9.417337E-02
 50
341.2439
 51
30.59762
 6
CONTINUOUS
 0
LINE
 8
WHITE
 10
8.448987
 20
6.598731
 30
0.0000
 11
8.386415
 21
6.705915
 31
0.0000
 6
CONTINUOUS
 0
ARC
 8
WHITE
 10
8.293832
 20
6.651802
 30
 0
 40
.1072383
 50
30.30569
 51
73.42552
 6
CONTINUOUS
 0
LINE
 8
WHITE
 10
8.324422
 20
6.754584
 30
0.0000
 11
8.258373
 21
6.773702
 31
0.0000
 6
CONTINUOUS
 0
ARC
 8
WHITE
 10
8.240413
 20
6.713274
 30
 0
 40
6.304125E-02
 50
73.44704
 51
153.0582
 6
CONTINUOUS
 0
LINE
 8
WHITE
 10
8.184213
 20
6.741836
 30
0.0000
 11
8.107156
 21
6.590619
 31
0.0000
 6
CONTINUOUS
 0
ARC
 8
WHITE
 10
8.098234
 20
6.594791
 30
 0
 40
9.849504E-03
 50
243.4362
 51
334.9436
 6
CONTINUOUS
 0
LINE
 8
WHITE
 10
8.09383
 20
6.585982
 30
0.0000
 11
8.063124
 21
6.603365
 31
0.0000
 6
CONTINUOUS
 0
ARC
 8
WHITE
 10
8.068234
 20
6.611214
 30
 0
 40
9.365103E-03
 50
156.4658
 51
236.933
 6
CONTINUOUS
 0
LINE
 8
WHITE
 10
8.059648
 20
6.614953
 30
0.0000
 11
8.148871
 21
6.786448
 31
0.0000
 6
CONTINUOUS
 0
ARC
 8
WHITE
 10
8.142731
 20
6.789983
 30
 0
 40
7.085175E-03
 50
330.0772
 51
62.80721
 6
CONTINUOUS
 0
LINE
 8
WHITE
 10
8.145968
 20
6.796284
 30
0.0000
 11
8.081664
 21
6.827004
 31
0.0000
 6
CONTINUOUS
 0
ARC
 8
WHITE
 10
8.116021
 20
6.899601
 30
 0
 40
8.031561E-02
 50
194.3268
 51
244.6735
 6
CONTINUOUS
 0
LINE
 8
WHITE
 10
8.038204
 20
6.879726
 30
0.0000
 11
8.012139
 21
6.981118
 31
0.0000
 6
CONTINUOUS
 0
ARC
 8
WHITE
 10
7.900899
 20
6.952729
 30
 0
 40
.1148053
 50
14.31658
 51
37.62149
 6
CONTINUOUS
 0
LINE
 8
WHITE
 10
7.991831
 20
7.02281
 30
0.0000
 11
7.943773
 21
7.084826
 31
0.0000
 6
CONTINUOUS
 0
ARC
 8
WHITE
 10
7.888443
 20
7.0423
 30
 0
 40
6.978482E-02
 50
37.54549
 51
73.35592
 6
CONTINUOUS
 0
LINE
 8
WHITE
 10
7.908431
 20
7.10916
 30
0.0000
 11
7.878303
 21
7.119009
 31
0.0000
 6
CONTINUOUS
 0
ARC
 8
WHITE
 10
7.864945
 20
7.073248
 30
 0
 40
4.767094E-02
 50
73.72696
 51
130.0498
 6
CONTINUOUS
 0
LINE
 8
WHITE
 10
7.834271
 20
7.109739
 30
0.0000
 11
7.809937
 21
7.09004
 31
0.0000
 6
CONTINUOUS
 0
ARC
 8
WHITE
 10
7.90959
 20
6.97011
 30
 0
 40
.155929
 50
129.7238
 51
156.1025
 6
CONTINUOUS
 0
LINE
 8
WHITE
 10
7.767028
 20
7.033277
 30
0.0000
 11
7.738674
 21
6.969531
 31
0.0000
 6
CONTINUOUS
 0
ARC
 8
WHITE
 10
7.901363
 20
6.89624
 30
 0
 40
.1784355
 50
155.7484
 51
170.5622
 6
CONTINUOUS
 0
LINE
 8
WHITE
 10
7.725343
 20
6.925498
 30
0.0000
 11
7.717237
 21
6.876831
 31
0.0000
 6
CONTINUOUS
 0
ARC
 8
WHITE
 10
7.783228
 20
6.865359
 30
 0
 40
6.698062E-02
 50
170.1384
 51
228.9632
 6
CONTINUOUS
 0
LINE
 8
WHITE
 10
7.739252
 20
6.814836
 30
0.0000
 11
7.766484
 21
6.791083
 31
0.0000
 6
CONTINUOUS
 0
ARC
 8
WHITE
 10
7.718743
 20
6.735762
 30
 0
 40
7.307347E-02
 50
6.137756
 51
49.20652
 6
CONTINUOUS
 0
LINE
 8
WHITE
 10
7.791397
 20
6.743574
 30
0.0000
 11
7.800667
 21
6.660724
 31
0.0000
 6
CONTINUOUS
 0
LINE
 8
WHITE
 10
7.800667
 20
6.660724
 30
0.0000
 11
7.791397
 21
6.463736
 31
0.0000
 6
CONTINUOUS
 0
LINE
 8
WHITE
 10
7.791397
 20
6.463736
 30
0.0000
 11
7.75142
 21
6.285288
 31
0.0000
 6
CONTINUOUS
 0
CIRCLE
 8
WHITE
 10
8.28097
 20
6.537317
 30
 0
 40
.1031288
 6
CONTINUOUS
 0
LINE
 8
WHITE
 10
8.832534
 20
7.31252
 30
0.0000
 11
8.856288
 21
7.281814
 31
0.0000
 6
CONTINUOUS
 0
ARC
 8
WHITE
 10
8.765675
 20
7.211999
 30
 0
 40
.1143899
 50
14.21918
 51
37.6128
 6
CONTINUOUS
 0
LINE
 8
WHITE
 10
8.876559
 20
7.240097
 30
0.0000
 11
8.902638
 21
7.138129
 31
0.0000
 6
CONTINUOUS
 0
LINE
 8
WHITE
 10
8.902638
 20
7.138129
 30
0.0000
 11
8.946091
 21
7.085405
 31
0.0000
 6
CONTINUOUS
 0
LINE
 8
WHITE
 10
8.946091
 20
7.085405
 30
0.0000
 11
9.010402
 21
7.054698
 31
0.0000
 6
CONTINUOUS
 0
ARC
 8
WHITE
 10
9.007744
 20
7.048223
 30
 0
 40
7.000946E-03
 50
331.2005
 51
67.67973
 6
CONTINUOUS
 0
LINE
 8
WHITE
 10
9.013878
 20
7.044849
 30
0.0000
 11
8.924075
 21
6.873933
 31
0.0000
 6
CONTINUOUS
 0
ARC
 8
WHITE
 10
8.932187
 20
6.869299
 30
 0
 40
9.342682E-03
 50
150.258
 51
240.2551
 6
CONTINUOUS
 0
LINE
 8
WHITE
 10
8.927552
 20
6.861187
 30
0.0000
 11
8.958258
 21
6.844965
 31
0.0000
 6
CONTINUOUS
 0
ARC
 8
WHITE
 10
8.963331
 20
6.85344
 30
 0
 40
9.876529E-03
 50
239.096
 51
333.4226
 6
CONTINUOUS
 0
LINE
 8
WHITE
 10
8.972164
 20
6.84902
 30
0.0000
 11
9.049221
 21
7.000237
 31
0.0000
 6
CONTINUOUS
 0
ARC
 8
WHITE
 10
9.105536
 20
6.972138
 30
 0
 40
6.293592E-02
 50
74.08347
 51
153.4815
 6
CONTINUOUS
 0
LINE
 8
WHITE
 10
9.122795
 20
7.032661
 30
0.0000
 11
9.18885
 21
7.013563
 31
0.0000
 6
CONTINUOUS
 0
ARC
 8
WHITE
 10
9.158491
 20
6.911072
 30
 0
 40
.1068937
 50
30.23396
 51
73.50011
 6
CONTINUOUS
 0
LINE
 8
WHITE
 10
9.250844
 20
6.964895
 30
0.0000
 11
9.313415
 21
6.857131
 31
0.0000
 6
CONTINUOUS
 0
ARC
 8
WHITE
 10
9.231607
 20
6.809797
 30
 0
 40
9.451526E-02
 50
340.9319
 51
30.05394
 6
CONTINUOUS
 0
LINE
 8
WHITE
 10
9.320936
 20
6.77892
 30
0.0000
 11
9.285026
 21
6.674049
 31
0.0000
 6
CONTINUOUS
 0
ARC
 8
WHITE
 10
9.17031
 20
6.712868
 30
 0
 40
.1211062
 50
301.1049
 51
341.3052
 6
CONTINUOUS
 0
LINE
 8
WHITE
 10
9.232873
 20
6.609174
 30
0.0000
 11
9.161619
 21
6.566286
 31
0.0000
 6
CONTINUOUS
 0
LINE
 8
WHITE
 10
9.161619
 20
6.566286
 30
0.0000
 11
9.068919
 21
6.541372
 31
0.0000
 6
CONTINUOUS
 0
ARC
 8
WHITE
 10
9.141796
 20
6.334475
 30
 0
 40
.219358
 50
109.4041
 51
147.9157
 6
CONTINUOUS
 0
LINE
 8
WHITE
 10
8.955941
 20
6.45099
 30
0.0000
 11
8.850495
 21
6.28355
 31
0.0000
 6
CONTINUOUS
 0
ARC
 8
WHITE
 10
8.689428
 20
6.385926
 30
 0
 40
.190849
 50
310.9748
 51
327.5596
 6
CONTINUOUS
 0
LINE
 8
WHITE
 10
8.814572
 20
6.241836
 30
0.0000
 11
8.755477
 21
6.189692
 31
0.0000
 6
CONTINUOUS
 0
ARC
 8
WHITE
 10
8.713936
 20
6.237954
 30
 0
 40
6.367868E-02
 50
279.7964
 51
310.7205
 6
CONTINUOUS
 0
LINE
 8
WHITE
 10
8.72477
 20
6.175204
 30
0.0000
 11
8.639022
 21
6.158985
 31
0.0000
 6
CONTINUOUS
 0
ARC
 8
WHITE
 10
8.630507
 20
6.20829
 30
 0
 40
5.003506E-02
 50
231.0189
 51
279.7999
 6
CONTINUOUS
 0
LINE
 8
WHITE
 10
8.599031
 20
6.169395
 30
0.0000
 11
8.566021
 21
6.195486
 31
0.0000
 6
CONTINUOUS
 0
ARC
 8
WHITE
 10
8.593838
 20
6.230856
 30
 0
 40
4.499757E-02
 50
168.1484
 51
231.8179
 6
CONTINUOUS
 0
LINE
 8
WHITE
 10
8.549798
 20
6.240097
 30
0.0000
 11
8.575871
 21
6.365242
 31
0.0000
 6
CONTINUOUS
 0
LINE
 8
WHITE
 10
8.575871
 20
6.365242
 30
0.0000
 11
8.656404
 21
6.722717
 31
0.0000
 6
CONTINUOUS
 0
LINE
 8
WHITE
 10
8.656404
 20
6.722717
 30
0.0000
 11
8.665095
 21
6.919125
 31
0.0000
 6
CONTINUOUS
 0
LINE
 8
WHITE
 10
8.665095
 20
6.919125
 30
0.0000
 11
8.655824
 21
7.001976
 31
0.0000
 6
CONTINUOUS
 0
ARC
 8
WHITE
 10
8.583346
 20
6.994839
 30
 0
 40
7.282887E-02
 50
5.624068
 51
48.61868
 6
CONTINUOUS
 0
LINE
 8
WHITE
 10
8.631491
 20
7.049484
 30
0.0000
 11
8.60426
 21
7.073238
 31
0.0000
 6
CONTINUOUS
 0
ARC
 8
WHITE
 10
8.647655
 20
7.124166
 30
 0
 40
6.690819E-02
 50
170.4806
 51
229.5657
 6
CONTINUOUS
 0
LINE
 8
WHITE
 10
8.581665
 20
7.135231
 30
0.0000
 11
8.589776
 21
7.183899
 31
0.0000
 6
CONTINUOUS
 0
ARC
 8
WHITE
 10
8.765965
 20
7.154641
 30
 0
 40
.1786014
 50
155.7714
 51
170.5712
 6
CONTINUOUS
 0
LINE
 8
WHITE
 10
8.603096
 20
7.227934
 30
0.0000
 11
8.63207
 21
7.291663
 31
0.0000
 6
CONTINUOUS
 0
ARC
 8
WHITE
 10
8.774423
 20
7.227527
 30
 0
 40
.1561333
 50
129.5798
 51
155.7461
 6
CONTINUOUS
 0
LINE
 8
WHITE
 10
8.674942
 20
7.347864
 30
0.0000
 11
8.698698
 21
7.36814
 31
0.0000
 6
CONTINUOUS
 0
ARC
 8
WHITE
 10
8.728628
 20
7.331474
 30
 0
 40
.0473309
 50
73.39729
 51
129.2229
 6
CONTINUOUS
 0
LINE
 8
WHITE
 10
8.742152
 20
7.376831
 30
0.0000
 11
8.773438
 21
7.36814
 31
0.0000
 6
CONTINUOUS
 0
ARC
 8
WHITE
 10
8.752754
 20
7.301629
 30
 0
 40
6.965414E-02
 50
37.26057
 51
72.72511
 6
CONTINUOUS
 0
LINE
 8
WHITE
 10
8.808191
 20
7.3438
 30
0.0000
 11
8.832534
 21
7.31252
 31
0.0000
 6
CONTINUOUS
 0
CIRCLE
 8
WHITE
 10
9.134389
 20
6.776599
 30
 0
 40
.1083431
 6
CONTINUOUS
 0
LINE
 8
WHITE
 10
1.797762
 20
5.419123
 30
0.0000
 11
1.764738
 21
5.409852
 31
0.0000
 6
CONTINUOUS
 0
ARC
 8
WHITE
 10
1.758944
 20
5.428393
 30
 0
 40
1.942408E-02
 50
252.6457
 51
287.3539
 6
CONTINUOUS
 0
LINE
 8
WHITE
 10
1.75315
 20
5.409852
 30
0.0000
 11
1.714333
 21
5.423179
 31
0.0000
 6
CONTINUOUS
 0
ARC
 8
WHITE
 10
1.717114
 20
5.432507
 30
 0
 40
9.733635E-03
 50
151.9112
 51
253.3985
 6
CONTINUOUS
 0
LINE
 8
WHITE
 10
1.708527
 20
5.437089
 30
0.0000
 11
1.848168
 21
5.686214
 31
0.0000
 6
CONTINUOUS
 0
LINE
 8
WHITE
 10
1.848168
 20
5.686214
 30
0.0000
 11
1.801238
 21
5.705334
 31
0.0000
 6
CONTINUOUS
 0
LINE
 8
WHITE
 10
1.801238
 20
5.705334
 30
0.0000
 11
1.673196
 21
5.475901
 31
0.0000
 6
CONTINUOUS
 0
ARC
 8
WHITE
 10
1.666235
 20
5.479982
 30
 0
 40
8.069743E-03
 50
201.2258
 51
329.6269
 6
CONTINUOUS
 0
LINE
 8
WHITE
 10
1.658712
 20
5.47706
 30
0.0000
 11
1.632061
 21
5.555855
 31
0.0000
 6
CONTINUOUS
 0
ARC
 8
WHITE
 10
1.771401
 20
5.603016
 30
 0
 40
.1471044
 50
167.1186
 51
198.699
 6
CONTINUOUS
 0
LINE
 8
WHITE
 10
1.627999
 20
5.63581
 30
0.0000
 11
1.633219
 21
5.656087
 31
0.0000
 6
CONTINUOUS
 0
ARC
 8
WHITE
 10
1.831946
 20
5.610317
 30
 0
 40
.2039286
 50
145.768
 51
167.0298
 6
CONTINUOUS
 0
LINE
 8
WHITE
 10
1.663344
 20
5.725035
 30
0.0000
 11
1.688261
 21
5.762113
 31
0.0000
 6
CONTINUOUS
 0
ARC
 8
WHITE
 10
1.853383
 20
5.649714
 30
 0
 40
.1997468
 50
123.0448
 51
145.7567
 6
CONTINUOUS
 0
LINE
 8
WHITE
 10
1.744462
 20
5.817151
 30
0.0000
 11
1.771691
 21
5.834535
 31
0.0000
 6
CONTINUOUS
 0
ARC
 8
WHITE
 10
1.837392
 20
5.733898
 30
 0
 40
.1201854
 50
85.13316
 51
123.1385
 6
CONTINUOUS
 0
LINE
 8
WHITE
 10
1.847588
 20
5.853649
 30
0.0000
 11
1.862652
 21
5.852495
 31
0.0000
 6
CONTINUOUS
 0
ARC
 8
WHITE
 10
1.859046
 20
5.808491
 30
 0
 40
.0441515
 50
26.45671
 51
85.31467
 6
CONTINUOUS
 0
LINE
 8
WHITE
 10
1.898573
 20
5.828161
 30
0.0000
 11
1.916534
 21
5.792819
 31
0.0000
 6
CONTINUOUS
 0
ARC
 8
WHITE
 10
1.819605
 20
5.744558
 30
 0
 40
.1082795
 50
7.471067
 51
26.46871
 6
CONTINUOUS
 0
LINE
 8
WHITE
 10
1.926965
 20
5.758637
 30
0.0000
 11
1.931018
 21
5.728508
 31
0.0000
 6
CONTINUOUS
 0
ARC
 8
WHITE
 10
1.950636
 20
5.730391
 30
 0
 40
1.970735E-02
 50
185.4788
 51
225.4622
 6
CONTINUOUS
 0
ARC
 8
WHITE
 10
1.951151
 20
5.729865
 30
 0
 40
1.970745E-02
 50
223.3237
 51
258.559
 6
CONTINUOUS
 0
ARC
 8
WHITE
 10
1.952456
 20
5.741371
 30
 0
 40
3.125982E-02
 50
260.3972
 51
288.3678
 6
CONTINUOUS
 0
LINE
 8
WHITE
 10
1.962306
 20
5.711703
 30
0.0000
 11
2.010393
 21
5.726191
 31
0.0000
 6
CONTINUOUS
 0
ARC
 8
WHITE
 10
1.997742
 20
5.762917
 30
 0
 40
3.884331E-02
 50
289.0092
 51
308.6106
 6
CONTINUOUS
 0
LINE
 8
WHITE
 10
2.02198
 20
5.732564
 30
0.0000
 11
2.044576
 21
5.749367
 31
0.0000
 6
CONTINUOUS
 0
ARC
 8
WHITE
 10
2.058339
 20
5.730734
 30
 0
 40
2.316399E-02
 50
48.96963
 51
126.4486
 6
CONTINUOUS
 0
LINE
 8
WHITE
 10
2.073544
 20
5.748208
 30
0.0000
 11
2.089188
 21
5.734882
 31
0.0000
 6
CONTINUOUS
 0
ARC
 8
WHITE
 10
2.073309
 20
5.717116
 30
 0
 40
2.382814E-02
 50
10.74091
 51
48.21144
 6
CONTINUOUS
 0
LINE
 8
WHITE
 10
2.096719
 20
5.721556
 30
0.0000
 11
2.119894
 21
5.545426
 31
0.0000
 6
CONTINUOUS
 0
LINE
 8
WHITE
 10
2.119894
 20
5.545426
 30
0.0000
 11
2.187682
 21
5.192008
 31
0.0000
 6
CONTINUOUS
 0
ARC
 8
WHITE
 10
2.196952
 20
5.193631
 30
 0
 40
9.410821E-03
 50
189.926
 51
284.2066
 6
CONTINUOUS
 0
LINE
 8
WHITE
 10
2.199261
 20
5.184507
 30
0.0000
 11
2.231135
 21
5.190849
 31
0.0000
 6
CONTINUOUS
 0
ARC
 8
WHITE
 10
2.235364
 20
5.173526
 30
 0
 40
1.783217E-02
 50
5.394866
 51
103.7182
 6
CONTINUOUS
 0
LINE
 8
WHITE
 10
2.253117
 20
5.175202
 30
0.0000
 11
2.2827
 21
4.935924
 31
0.0000
 6
CONTINUOUS
 0
ARC
 8
WHITE
 10
2.269992
 20
4.934078
 30
 0
 40
1.284137E-02
 50
280.2206
 51
8.266553
 6
CONTINUOUS
 0
LINE
 8
WHITE
 10
2.27227
 20
4.92144
 30
0.0000
 11
2.241563
 21
4.915646
 31
0.0000
 6
CONTINUOUS
 0
ARC
 8
WHITE
 10
2.244576
 20
4.901162
 30
 0
 40
1.479393E-02
 50
101.75
 51
189.0215
 6
CONTINUOUS
 0
LINE
 8
WHITE
 10
2.229965
 20
4.898842
 30
0.0000
 11
2.333684
 21
4.284707
 31
0.0000
 6
CONTINUOUS
 0
ARC
 8
WHITE
 10
2.2949
 20
4.277765
 30
 0
 40
3.940163E-02
 50
287.0518
 51
10.14806
 6
CONTINUOUS
 0
LINE
 8
WHITE
 10
2.306453
 20
4.240095
 30
0.0000
 11
2.248516
 21
4.221555
 31
0.0000
 6
CONTINUOUS
 0
ARC
 8
WHITE
 10
2.236923
 20
4.258072
 30
 0
 40
3.831335E-02
 50
200.3806
 51
287.6138
 6
CONTINUOUS
 0
LINE
 8
WHITE
 10
2.201008
 20
4.244729
 30
0.0000
 11
2.159871
 21
4.357129
 31
0.0000
 6
CONTINUOUS
 0
ARC
 8
WHITE
 10
1.912131
 20
4.268369
 30
 0
 40
.2631613
 50
19.71155
 51
37.45013
 6
CONTINUOUS
 0
LINE
 8
WHITE
 10
2.121049
 20
4.428389
 30
0.0000
 11
1.980265
 21
4.605101
 31
0.0000
 6
CONTINUOUS
 0
ARC
 8
WHITE
 10
2.067173
 20
4.674626
 30
 0
 40
.1112947
 50
202.023
 51
218.6595
 6
CONTINUOUS
 0
LINE
 8
WHITE
 10
1.963999
 20
4.632893
 30
0.0000
 11
1.906105
 21
4.776016
 31
0.0000
 6
CONTINUOUS
 0
ARC
 8
WHITE
 10
2.072386
 20
4.843224
 30
 0
 40
.179349
 50
183.3339
 51
202.0076
 6
CONTINUOUS
 0
LINE
 8
WHITE
 10
1.89334
 20
4.832794
 30
0.0000
 11
1.880613
 21
5.034997
 31
0.0000
 6
CONTINUOUS
 0
ARC
 8
WHITE
 10
1.917136
 20
5.037605
 30
 0
 40
3.661483E-02
 50
175.9165
 51
184.0827
 6
CONTINUOUS
 0
LINE
 8
WHITE
 10
1.880613
 20
5.040212
 30
0.0000
 11
1.899733
 21
5.240675
 31
0.0000
 6
CONTINUOUS
 0
LINE
 8
WHITE
 10
1.899733
 20
5.240675
 30
0.0000
 11
1.934494
 21
5.385519
 31
0.0000
 6
CONTINUOUS
 0
ARC
 8
WHITE
 10
1.904832
 20
5.392008
 30
 0
 40
3.036496E-02
 50
347.6602
 51
25.7826
 6
CONTINUOUS
 0
LINE
 8
WHITE
 10
1.932173
 20
5.405215
 30
0.0000
 11
1.917113
 21
5.438821
 31
0.0000
 6
CONTINUOUS
 0
ARC
 8
WHITE
 10
1.895677
 20
5.428972
 30
 0
 40
2.359089E-02
 50
24.6778
 51
114.6764
 6
CONTINUOUS
 0
LINE
 8
WHITE
 10
1.885828
 20
5.450408
 30
0.0000
 11
1.875978
 21
5.445774
 31
0.0000
 6
CONTINUOUS
 0
ARC
 8
WHITE
 10
1.745039
 20
5.729089
 30
 0
 40
.3121097
 50
285.9454
 51
294.8048
 6
CONTINUOUS
 0
LINE
 8
WHITE
 10
1.830782
 20
5.428988
 30
0.0000
 11
1.797762
 21
5.419123
 31
0.0000
 6
CONTINUOUS
 0
LINE
 8
WHITE
 10
3.60773
 20
4.36408
 30
0.0000
 11
3.619897
 21
4.161879
 31
0.0000
 6
CONTINUOUS
 0
ARC
 8
WHITE
 10
3.798928
 20
4.172248
 30
 0
 40
.1793304
 50
183.3147
 51
201.9895
 6
CONTINUOUS
 0
LINE
 8
WHITE
 10
3.632643
 20
4.1051
 30
0.0000
 11
3.691159
 21
3.961995
 31
0.0000
 6
CONTINUOUS
 0
ARC
 8
WHITE
 10
3.794351
 20
4.003555
 30
 0
 40
.1112461
 50
201.9369
 51
218.5776
 6
CONTINUOUS
 0
LINE
 8
WHITE
 10
3.707383
 20
3.934185
 30
0.0000
 11
3.848171
 21
3.757475
 31
0.0000
 6
CONTINUOUS
 0
ARC
 8
WHITE
 10
3.640813
 20
3.595598
 30
 0
 40
.263062
 50
20.28282
 51
37.97783
 6
CONTINUOUS
 0
LINE
 8
WHITE
 10
3.887562
 20
3.686789
 30
0.0000
 11
3.928124
 21
3.573813
 31
0.0000
 6
CONTINUOUS
 0
ARC
 8
WHITE
 10
3.96404
 20
3.587155
 30
 0
 40
3.831261E-02
 50
200.3788
 51
287.6141
 6
CONTINUOUS
 0
LINE
 8
WHITE
 10
3.975633
 20
3.550638
 30
0.0000
 11
4.03415
 21
3.569179
 31
0.0000
 6
CONTINUOUS
 0
ARC
 8
WHITE
 10
4.022563
 20
3.606838
 30
 0
 40
3.940183E-02
 50
287.1029
 51
10.15371
 6
CONTINUOUS
 0
LINE
 8
WHITE
 10
4.061347
 20
3.613784
 30
0.0000
 11
3.98722
 21
4.052377
 31
0.0000
 6
CONTINUOUS
 0
LINE
 8
WHITE
 10
3.98722
 20
4.052377
 30
0.0000
 11
3.957093
 21
4.228507
 31
0.0000
 6
CONTINUOUS
 0
ARC
 8
WHITE
 10
3.971577
 20
4.230941
 30
 0
 40
1.468737E-02
 50
101.3991
 51
189.5363
 6
CONTINUOUS
 0
LINE
 8
WHITE
 10
3.968674
 20
4.245338
 30
0.0000
 11
3.999387
 21
4.250524
 31
0.0000
 6
CONTINUOUS
 0
ARC
 8
WHITE
 10
3.996954
 20
4.26327
 30
 0
 40
1.297652E-02
 50
280.8078
 51
7.695516
 6
CONTINUOUS
 0
LINE
 8
WHITE
 10
4.009813
 20
4.265007
 30
0.0000
 11
3.979688
 21
4.504868
 31
0.0000
 6
CONTINUOUS
 0
ARC
 8
WHITE
 10
3.961782
 20
4.502172
 30
 0
 40
1.810846E-02
 50
8.566761
 51
101.2402
 6
CONTINUOUS
 0
LINE
 8
WHITE
 10
3.958252
 20
4.519932
 30
0.0000
 11
3.926386
 21
4.51356
 31
0.0000
 6
CONTINUOUS
 0
ARC
 8
WHITE
 10
3.924185
 20
4.522888
 30
 0
 40
9.584063E-03
 50
190.8314
 51
283.2771
 6
CONTINUOUS
 0
LINE
 8
WHITE
 10
3.914772
 20
4.521087
 30
0.0000
 11
3.847011
 21
4.87451
 31
0.0000
 6
CONTINUOUS
 0
LINE
 8
WHITE
 10
3.847011
 20
4.87451
 30
0.0000
 11
3.823836
 21
5.05122
 31
0.0000
 6
CONTINUOUS
 0
ARC
 8
WHITE
 10
3.800662
 20
5.046122
 30
 0
 40
2.372928E-02
 50
12.40817
 51
48.76035
 6
CONTINUOUS
 0
LINE
 8
WHITE
 10
3.816304
 20
5.063964
 30
0.0000
 11
3.800661
 21
5.077291
 31
0.0000
 6
CONTINUOUS
 0
ARC
 8
WHITE
 10
3.785714
 20
5.059795
 30
 0
 40
2.301275E-02
 50
49.49245
 51
125.7717
 6
CONTINUOUS
 0
LINE
 8
WHITE
 10
3.772261
 20
5.078466
 30
0.0000
 11
3.749677
 21
5.061648
 31
0.0000
 6
CONTINUOUS
 0
ARC
 8
WHITE
 10
3.727082
 20
5.093398
 30
 0
 40
3.896932E-02
 50
285.5243
 51
305.4387
 6
CONTINUOUS
 0
LINE
 8
WHITE
 10
3.737511
 20
5.05585
 30
0.0000
 11
3.688843
 21
5.040791
 31
0.0000
 6
CONTINUOUS
 0
ARC
 8
WHITE
 10
3.679202
 20
5.070227
 30
 0
 40
3.097425E-02
 50
261.0042
 51
288.1349
 6
CONTINUOUS
 0
ARC
 8
WHITE
 10
3.67922
 20
5.059309
 30
 0
 40
.0202678
 50
221.0255
 51
256.1227
 6
CONTINUOUS
 0
ARC
 8
WHITE
 10
3.678386
 20
5.059497
 30
 0
 40
.0197736
 50
185.5298
 51
223.0222
 6
CONTINUOUS
 0
LINE
 8
WHITE
 10
3.658704
 20
5.057591
 30
0.0000
 11
3.654659
 21
5.08772
 31
0.0000
 6
CONTINUOUS
 0
ARC
 8
WHITE
 10
3.547074
 20
5.071938
 30
 0
 40
.1087378
 50
8.345466
 51
27.35511
 6
CONTINUOUS
 0
LINE
 8
WHITE
 10
3.643651
 20
5.121903
 30
0.0000
 11
3.62569
 21
5.157245
 31
0.0000
 6
CONTINUOUS
 0
ARC
 8
WHITE
 10
3.586061
 20
5.137489
 30
 0
 40
4.428056E-02
 50
26.49704
 51
84.44608
 6
CONTINUOUS
 0
LINE
 8
WHITE
 10
3.590347
 20
5.181561
 30
0.0000
 11
3.574706
 21
5.183317
 31
0.0000
 6
CONTINUOUS
 0
ARC
 8
WHITE
 10
3.564567
 20
5.063387
 30
 0
 40
.1203581
 50
85.16756
 51
123.1163
 6
CONTINUOUS
 0
LINE
 8
WHITE
 10
3.49881
 20
5.164194
 30
0.0000
 11
3.471577
 21
5.146237
 31
0.0000
 6
CONTINUOUS
 0
ARC
 8
WHITE
 10
3.581542
 20
4.979493
 30
 0
 40
.1997396
 50
123.4041
 51
145.9964
 6
CONTINUOUS
 0
LINE
 8
WHITE
 10
3.415957
 20
5.091196
 30
0.0000
 11
3.390465
 21
5.054696
 31
0.0000
 6
CONTINUOUS
 0
ARC
 8
WHITE
 10
3.559237
 20
4.940269
 30
 0
 40
.2039054
 50
145.8629
 51
167.2787
 6
CONTINUOUS
 0
LINE
 8
WHITE
 10
3.360337
 20
4.985171
 30
0.0000
 11
3.355701
 21
4.964893
 31
0.0000
 6
CONTINUOUS
 0
ARC
 8
WHITE
 10
3.499271
 20
4.931405
 30
 0
 40
.1474229
 50
166.8702
 51
198.1359
 6
CONTINUOUS
 0
LINE
 8
WHITE
 10
3.359172
 20
4.885516
 30
0.0000
 11
3.38525
 21
4.806724
 31
0.0000
 6
CONTINUOUS
 0
ARC
 8
WHITE
 10
3.39284
 20
4.80881
 30
 0
 40
7.871635E-03
 50
195.3647
 51
330.9854
 6
CONTINUOUS
 0
LINE
 8
WHITE
 10
3.399723
 20
4.804992
 30
0.0000
 11
3.528356
 21
5.034417
 31
0.0000
 6
CONTINUOUS
 0
LINE
 8
WHITE
 10
3.528356
 20
5.034417
 30
0.0000
 11
3.575864
 21
5.015298
 31
0.0000
 6
CONTINUOUS
 0
LINE
 8
WHITE
 10
3.575864
 20
5.015298
 30
0.0000
 11
3.436235
 21
4.766746
 31
0.0000
 6
CONTINUOUS
 0
ARC
 8
WHITE
 10
3.444902
 20
4.762066
 30
 0
 40
9.849502E-03
 50
151.6266
 51
249.4836
 6
CONTINUOUS
 0
LINE
 8
WHITE
 10
3.441449
 20
4.752841
 30
0.0000
 11
3.480267
 21
4.739516
 31
0.0000
 6
CONTINUOUS
 0
ARC
 8
WHITE
 10
3.486062
 20
4.757477
 30
 0
 40
1.887207E-02
 50
252.1197
 51
287.878
 6
CONTINUOUS
 0
LINE
 8
WHITE
 10
3.491855
 20
4.739517
 30
0.0000
 11
3.557903
 21
4.758056
 31
0.0000
 6
CONTINUOUS
 0
ARC
 8
WHITE
 10
3.472052
 20
5.058142
 30
 0
 40
.3121251
 50
285.9653
 51
294.8245
 6
CONTINUOUS
 0
LINE
 8
WHITE
 10
3.603095
 20
4.774857
 30
0.0000
 11
3.612944
 21
4.779493
 31
0.0000
 6
CONTINUOUS
 0
ARC
 8
WHITE
 10
3.623025
 20
4.758172
 30
 0
 40
2.358423E-02
 50
25.93573
 51
115.3045
 6
CONTINUOUS
 0
LINE
 8
WHITE
 10
3.64423
 20
4.768485
 30
0.0000
 11
3.659294
 21
4.73488
 31
0.0000
 6
CONTINUOUS
 0
ARC
 8
WHITE
 10
3.631542
 20
4.721439
 30
 0
 40
3.083599E-02
 50
347.1916
 51
25.8429
 6
CONTINUOUS
 0
LINE
 8
WHITE
 10
3.66161
 20
4.714603
 30
0.0000
 11
3.626849
 21
4.570338
 31
0.0000
 6
CONTINUOUS
 0
LINE
 8
WHITE
 10
3.626849
 20
4.570338
 30
0.0000
 11
3.608309
 21
4.369875
 31
0.0000
 6
CONTINUOUS
 0
LINE
 8
WHITE
 10
3.608309
 20
4.369875
 30
0.0000
 11
3.60773
 21
4.36408
 31
0.0000
 6
CONTINUOUS
 0
ARC
 8
WHITE
 10
7.560111
 20
1.082038
 30
 0
 40
.3018183
 50
133.9889
 51
167.6073
 6
CONTINUOUS
 0
ARC
 8
WHITE
 10
7.560309
 20
1.082948
 30
 0
 40
.3018183
 50
167.7841
 51
201.3637
 6
CONTINUOUS
 0
LINE
 8
WHITE
 10
7.27923
 20
.972999
 30
0.0000
 11
7.314571
 21
.882617
 31
0.0000
 6
CONTINUOUS
 0
ARC
 8
WHITE
 10
7.197422
 20
.8381206
 30
 0
 40
.1253157
 50
5.784381
 51
20.7981
 6
CONTINUOUS
 0
LINE
 8
WHITE
 10
7.322103
 20
.85075
 30
0.0000
 11
7.327897
 21
.802663
 31
0.0000
 6
CONTINUOUS
 0
LINE
 8
WHITE
 10
7.327897
 20
.802663
 30
0.0000
 11
7.34354
 21
.658977
 31
0.0000
 6
CONTINUOUS
 0
LINE
 8
WHITE
 10
7.34354
 20
.658977
 30
0.0000
 11
7.342381
 21
.642175
 31
0.0000
 6
CONTINUOUS
 0
LINE
 8
WHITE
 10
7.342381
 20
.642175
 30
0.0000
 11
7.358604
 21
.423752
 31
0.0000
 6
CONTINUOUS
 0
LINE
 8
WHITE
 10
7.358604
 20
.423752
 30
0.0000
 11
7.364977
 21
.331051
 31
0.0000
 6
CONTINUOUS
 0
ARC
 8
WHITE
 10
7.40901
 20
.3339484
 30
 0
 40
4.412776E-02
 50
183.764
 51
246.8015
 6
CONTINUOUS
 0
LINE
 8
WHITE
 10
7.391628
 20
.293392
 30
0.0000
 11
7.454764
 21
.266125
 31
0.0000
 6
CONTINUOUS
 0
ARC
 8
WHITE
 10
7.459415
 20
.2767647
 30
 0
 40
1.161174E-02
 50
246.3875
 51
356.2781
 6
CONTINUOUS
 0
LINE
 8
WHITE
 10
7.471003
 20
.27601
 30
0.0000
 11
7.483749
 21
.478792
 31
0.0000
 6
CONTINUOUS
 0
ARC
 8
WHITE
 10
7.494931
 20
.4777493
 30
 0
 40
1.123036E-02
 50
75.96372
 51
174.6717
 6
CONTINUOUS
 0
LINE
 8
WHITE
 10
7.497654
 20
.488642
 30
0.0000
 11
7.525464
 21
.483427
 31
0.0000
 6
CONTINUOUS
 0
ARC
 8
WHITE
 10
7.523147
 20
.472072
 30
 0
 40
1.158926E-02
 50
358.8541
 51
78.46278
 6
CONTINUOUS
 0
LINE
 8
WHITE
 10
7.534734
 20
.47184
 30
0.0000
 11
7.526043
 21
.275432
 31
0.0000
 6
CONTINUOUS
 0
ARC
 8
WHITE
 10
7.54134
 20
.2743982
 30
 0
 40
1.533089E-02
 50
176.133
 51
277.8172
 6
CONTINUOUS
 0
LINE
 8
WHITE
 10
7.543425
 20
.259209
 30
0.0000
 11
7.593251
 21
.267899
 31
0.0000
 6
CONTINUOUS
 0
ARC
 8
WHITE
 10
7.585799
 20
.3154216
 30
 0
 40
4.810268E-02
 50
278.9121
 51
309.5459
 6
CONTINUOUS
 0
LINE
 8
WHITE
 10
7.616425
 20
.278329
 30
0.0000
 11
7.636682
 21
.295155
 31
0.0000
 6
CONTINUOUS
 0
ARC
 8
WHITE
 10
7.597307
 20
.3426391
 30
 0
 40
6.168597E-02
 50
309.6677
 51
354.6107
 6
CONTINUOUS
 0
LINE
 8
WHITE
 10
7.65872
 20
.336845
 30
0.0000
 11
7.671466
 21
.472999
 31
0.0000
 6
CONTINUOUS
 0
LINE
 8
WHITE
 10
7.671466
 20
.472999
 30
0.0000
 11
7.69638
 21
.644493
 31
0.0000
 6
CONTINUOUS
 0
LINE
 8
WHITE
 10
7.69638
 20
.644493
 30
0.0000
 11
7.760111
 21
.855385
 31
0.0000
 6
CONTINUOUS
 0
LINE
 8
WHITE
 10
7.760111
 20
.855385
 30
0.0000
 11
7.81631
 21
.975316
 31
0.0000
 6
CONTINUOUS
 0
ARC
 8
WHITE
 10
7.576749
 20
1.08681
 30
 0
 40
.2642356
 50
335.0425
 51
40.561
 6
CONTINUOUS
 0
LINE
 8
WHITE
 10
7.777492
 20
1.25863
 30
0.0000
 11
7.718399
 21
1.328158
 31
0.0000
 6
CONTINUOUS
 0
ARC
 8
WHITE
 10
7.805187
 20
1.400463
 30
 0
 40
.1129597
 50
200.3499
 51
219.798
 6
CONTINUOUS
 0
LINE
 8
WHITE
 10
7.699276
 20
1.36118
 30
0.0000
 11
7.686507
 21
1.394775
 31
0.0000
 6
CONTINUOUS
 0
ARC
 8
WHITE
 10
7.760691
 20
1.423174
 30
 0
 40
7.943343E-02
 50
192.2115
 51
200.9477
 6
CONTINUOUS
 0
LINE
 8
WHITE
 10
7.683054
 20
1.406372
 30
0.0000
 11
7.6674
 21
1.475894
 31
0.0000
 6
CONTINUOUS
 0
ARC
 8
WHITE
 10
7.611096
 20
1.463846
 30
 0
 40
5.757968E-02
 50
12.0787
 51
39.93834
 6
CONTINUOUS
 0
LINE
 8
WHITE
 10
7.655244
 20
1.500809
 30
0.0000
 11
7.629172
 21
1.531516
 31
0.0000
 6
CONTINUOUS
 0
ARC
 8
WHITE
 10
7.591208
 20
1.499613
 30
 0
 40
4.959024E-02
 50
40.04223
 51
96.3542
 6
CONTINUOUS
 0
LINE
 8
WHITE
 10
7.585719
 20
1.548898
 30
0.0000
 11
7.550377
 21
1.544842
 31
0.0000
 6
CONTINUOUS
 0
ARC
 8
WHITE
 10
7.554699
 20
1.505674
 30
 0
 40
3.940557E-02
 50
96.29624
 51
137.8926
 6
CONTINUOUS
 0
LINE
 8
WHITE
 10
7.525464
 20
1.532096
 30
0.0000
 11
7.500551
 21
1.504865
 31
0.0000
 6
CONTINUOUS
 0
ARC
 8
WHITE
 10
7.597017
 20
1.418538
 30
 0
 40
.1294528
 50
138.1749
 51
156.2458
 6
CONTINUOUS
 0
LINE
 8
WHITE
 10
7.478535
 20
1.470682
 30
0.0000
 11
7.449565
 21
1.405212
 31
0.0000
 6
CONTINUOUS
 0
ARC
 8
WHITE
 10
7.35901
 20
1.445595
 30
 0
 40
9.915212E-02
 50
314.1951
 51
335.9662
 6
CONTINUOUS
 0
LINE
 8
WHITE
 10
7.428129
 20
1.374505
 30
0.0000
 11
7.350492
 21
1.299188
 31
0.0000
 6
CONTINUOUS
 0
LINE
 8
WHITE
 10
4.407267
 20
3.820627
 30
0.0000
 11
4.400895
 21
3.781809
 31
0.0000
 6
CONTINUOUS
 0
ARC
 8
WHITE
 10
4.701649
 20
3.734243
 30
 0
 40
.3044919
 50
171.0126
 51
182.3882
 6
CONTINUOUS
 0
LINE
 8
WHITE
 10
4.397421
 20
3.721554
 30
0.0000
 11
4.402632
 21
3.593512
 31
0.0000
 6
CONTINUOUS
 0
ARC
 8
WHITE
 10
4.744522
 20
3.605911
 30
 0
 40
.3421136
 50
182.0769
 51
191.27
 6
CONTINUOUS
 0
LINE
 8
WHITE
 10
4.409005
 20
3.53905
 30
0.0000
 11
4.421751
 21
3.476478
 31
0.0000
 6
CONTINUOUS
 0
ARC
 8
WHITE
 10
4.473896
 20
3.486907
 30
 0
 40
5.317672E-02
 50
191.31
 51
249.5902
 6
CONTINUOUS
 0
LINE
 8
WHITE
 10
4.455351
 20
3.437069
 30
0.0000
 11
4.491857
 21
3.423176
 31
0.0000
 6
CONTINUOUS
 0
ARC
 8
WHITE
 10
4.512077
 20
3.476305
 30
 0
 40
5.684607E-02
 50
249.164
 51
289.1
 6
CONTINUOUS
 0
LINE
 8
WHITE
 10
4.530677
 20
3.422588
 30
0.0000
 11
4.561381
 21
3.433604
 31
0.0000
 6
CONTINUOUS
 0
ARC
 8
WHITE
 10
4.541451
 20
3.494555
 30
 0
 40
.0641261
 50
288.1074
 51
321.3079
 6
CONTINUOUS
 0
LINE
 8
WHITE
 10
4.591502
 20
3.454467
 30
0.0000
 11
4.641914
 21
3.519352
 31
0.0000
 6
CONTINUOUS
 0
ARC
 8
WHITE
 10
4.808369
 20
3.385285
 30
 0
 40
.2137313
 50
131.4723
 51
141.151
 6
CONTINUOUS
 0
LINE
 8
WHITE
 10
4.666823
 20
3.545429
 30
0.0000
 11
4.71086
 21
3.585401
 31
0.0000
 6
CONTINUOUS
 0
ARC
 8
WHITE
 10
4.850281
 20
3.433907
 30
 0
 40
.2058851
 50
116.695
 51
132.6234
 6
CONTINUOUS
 0
LINE
 8
WHITE
 10
4.757789
 20
3.617846
 30
0.0000
 11
4.805298
 21
3.641021
 31
0.0000
 6
CONTINUOUS
 0
LINE
 8
WHITE
 10
4.805298
 20
3.641021
 30
0.0000
 11
4.845391
 21
3.663269
 31
0.0000
 6
CONTINUOUS
 0
LINE
 8
WHITE
 10
4.845391
 20
3.663269
 30
0.0000
 11
4.731717
 21
3.745309
 31
0.0000
 6
CONTINUOUS
 0
ARC
 8
WHITE
 10
4.7356
 20
3.752377
 30
 0
 40
8.063591E-03
 50
140.5645
 51
241.2222
 6
CONTINUOUS
 0
LINE
 8
WHITE
 10
4.729371
 20
3.757498
 30
0.0000
 11
4.749099
 21
3.783547
 31
0.0000
 6
CONTINUOUS
 0
ARC
 8
WHITE
 10
4.756921
 20
3.777928
 30
 0
 40
9.630846E-03
 50
55.26188
 51
144.3052
 6
CONTINUOUS
 0
LINE
 8
WHITE
 10
4.762408
 20
3.785842
 30
0.0000
 11
4.919435
 21
3.681577
 31
0.0000
 6
CONTINUOUS
 0
LINE
 8
WHITE
 10
4.919435
 20
3.681577
 30
0.0000
 11
4.983746
 21
3.738355
 31
0.0000
 6
CONTINUOUS
 0
ARC
 8
WHITE
 10
4.890409
 20
3.835112
 30
 0
 40
.134438
 50
313.9698
 51
330.5736
 6
CONTINUOUS
 0
LINE
 8
WHITE
 10
5.007502
 20
3.769061
 30
0.0000
 11
5.02546
 21
3.799769
 31
0.0000
 6
CONTINUOUS
 0
ARC
 8
WHITE
 10
4.929285
 20
3.853825
 30
 0
 40
.1103262
 50
330.6619
 51
350.8446
 6
CONTINUOUS
 0
LINE
 8
WHITE
 10
5.038204
 20
3.836271
 30
0.0000
 11
5.049794
 21
3.902898
 31
0.0000
 6
CONTINUOUS
 0
ARC
 8
WHITE
 10
4.826909
 20
3.942239
 30
 0
 40
.2263308
 50
349.9902
 51
3.977992
 6
CONTINUOUS
 0
LINE
 8
WHITE
 10
5.052693
 20
3.957939
 30
0.0000
 11
5.048056
 21
4.014718
 31
0.0000
 6
CONTINUOUS
 0
LINE
 8
WHITE
 10
5.048056
 20
4.014718
 30
0.0000
 11
5.042842
 21
4.096409
 31
0.0000
 6
CONTINUOUS
 0
ARC
 8
WHITE
 10
5.211498
 20
4.09977
 30
 0
 40
.1686889
 50
160.2892
 51
181.1414
 6
CONTINUOUS
 0
LINE
 8
WHITE
 10
5.052692
 20
4.156664
 30
0.0000
 11
5.057906
 21
4.180998
 31
0.0000
 6
CONTINUOUS
 0
LINE
 8
WHITE
 10
5.057906
 20
4.180998
 30
0.0000
 11
5.081659
 21
4.236039
 31
0.0000
 6
CONTINUOUS
 0
ARC
 8
WHITE
 10
5.000896
 20
4.269121
 30
 0
 40
8.727691E-02
 50
337.7257
 51
9.900013
 6
CONTINUOUS
 0
LINE
 8
WHITE
 10
5.086873
 20
4.284126
 30
0.0000
 11
5.083398
 21
4.307882
 31
0.0000
 6
CONTINUOUS
 0
ARC
 8
WHITE
 10
5.01509
 20
4.295947
 30
 0
 40
6.934321E-02
 50
9.911003
 51
55.44718
 6
CONTINUOUS
 0
LINE
 8
WHITE
 10
5.054419
 20
4.353058
 30
0.0000
 11
5.032413
 21
4.368716
 31
0.0000
 6
CONTINUOUS
 0
ARC
 8
WHITE
 10
4.989617
 20
4.30667
 30
 0
 40
7.537427E-02
 50
55.40432
 51
90.49876
 6
CONTINUOUS
 0
LINE
 8
WHITE
 10
4.98896
 20
4.382041
 30
0.0000
 11
4.940292
 21
4.382041
 31
0.0000
 6
CONTINUOUS
 0
ARC
 8
WHITE
 10
4.940148
 20
4.316573
 30
 0
 40
6.546895E-02
 50
89.87314
 51
133.476
 6
CONTINUOUS
 0
LINE
 8
WHITE
 10
4.895102
 20
4.36408
 30
0.0000
 11
4.874823
 21
4.344382
 31
0.0000
 6
CONTINUOUS
 0
LINE
 8
WHITE
 10
4.874823
 20
4.344382
 30
0.0000
 11
4.837163
 21
4.313675
 31
0.0000
 6
CONTINUOUS
 0
LINE
 8
WHITE
 10
4.837163
 20
4.313675
 30
0.0000
 11
4.77575
 21
4.270802
 31
0.0000
 6
CONTINUOUS
 0
ARC
 8
WHITE
 10
4.664511
 20
4.429551
 30
 0
 40
.1938443
 50
291.1971
 51
305.02
 6
CONTINUOUS
 0
LINE
 8
WHITE
 10
4.7346
 20
4.248822
 30
0.0000
 11
4.657557
 21
4.218657
 31
0.0000
 6
CONTINUOUS
 0
ARC
 8
WHITE
 10
4.762656
 20
3.943687
 30
 0
 40
.2943717
 50
110.9176
 51
124.7222
 6
CONTINUOUS
 0
LINE
 8
WHITE
 10
4.594982
 20
4.185637
 30
0.0000
 11
4.531833
 21
4.141601
 31
0.0000
 6
CONTINUOUS
 0
ARC
 8
WHITE
 10
4.596302
 20
4.05057
 30
 0
 40
.1115475
 50
125.3059
 51
157.035
 6
CONTINUOUS
 0
LINE
 8
WHITE
 10
4.493595
 20
4.094092
 30
0.0000
 11
4.458252
 21
4.012979
 31
0.0000
 6
CONTINUOUS
 0
LINE
 8
WHITE
 10
4.458252
 20
4.012979
 30
0.0000
 11
4.453617
 21
3.992122
 31
0.0000
 6
CONTINUOUS
 0
LINE
 8
WHITE
 10
4.453617
 20
3.992122
 30
0.0000
 11
4.425807
 21
3.908113
 31
0.0000
 6
CONTINUOUS
 0
ARC
 8
WHITE
 10
4.704487
 20
3.811995
 30
 0
 40
.2947898
 50
160.9702
 51
170.6228
 6
CONTINUOUS
 0
LINE
 8
WHITE
 10
4.413636
 20
3.860025
 30
0.0000
 11
4.407267
 21
3.820627
 31
0.0000
 6
CONTINUOUS
 0
LINE
 8
WHITE
 10
4.627198
 20
2.694727
 30
0.0000
 11
4.585714
 21
2.674623
 31
0.0000
 6
CONTINUOUS
 0
LINE
 8
WHITE
 10
4.585714
 20
2.674623
 30
0.0000
 11
4.538786
 21
2.650869
 31
0.0000
 6
CONTINUOUS
 0
ARC
 8
WHITE
 10
4.630907
 20
2.46489
 30
 0
 40
.2075445
 50
116.3504
 51
132.2846
 6
CONTINUOUS
 0
LINE
 8
WHITE
 10
4.491268
 20
2.618433
 30
0.0000
 11
4.446665
 21
2.579026
 31
0.0000
 6
CONTINUOUS
 0
ARC
 8
WHITE
 10
4.593247
 20
2.420741
 30
 0
 40
.2157318
 50
132.8015
 51
142.3977
 6
CONTINUOUS
 0
LINE
 8
WHITE
 10
4.422329
 20
2.552376
 30
0.0000
 11
4.371346
 21
2.487485
 31
0.0000
 6
CONTINUOUS
 0
ARC
 8
WHITE
 10
4.322679
 20
2.526304
 30
 0
 40
6.225288E-02
 50
288.4348
 51
321.4243
 6
CONTINUOUS
 0
LINE
 8
WHITE
 10
4.342364
 20
2.467245
 30
0.0000
 11
4.31167
 21
2.456199
 31
0.0000
 6
CONTINUOUS
 0
ARC
 8
WHITE
 10
4.293942
 20
2.508401
 30
 0
 40
5.512947E-02
 50
249.4511
 51
288.7588
 6
CONTINUOUS
 0
LINE
 8
WHITE
 10
4.27459
 20
2.456778
 30
0.0000
 11
4.237511
 21
2.470684
 31
0.0000
 6
CONTINUOUS
 0
ARC
 8
WHITE
 10
4.255298
 20
2.51883
 30
 0
 40
5.132655E-02
 50
191.7919
 51
249.7238
 6
CONTINUOUS
 0
LINE
 8
WHITE
 10
4.205054
 20
2.508341
 30
0.0000
 11
4.192319
 21
2.571494
 31
0.0000
 6
CONTINUOUS
 0
ARC
 8
WHITE
 10
4.525692
 20
2.638123
 30
 0
 40
.3399647
 50
182.051
 51
191.3023
 6
CONTINUOUS
 0
LINE
 8
WHITE
 10
4.185944
 20
2.625955
 30
0.0000
 11
4.180732
 21
2.753418
 31
0.0000
 6
CONTINUOUS
 0
ARC
 8
WHITE
 10
4.48319
 20
2.765739
 30
 0
 40
.3027086
 50
170.9997
 51
182.3325
 6
CONTINUOUS
 0
LINE
 8
WHITE
 10
4.184208
 20
2.813094
 30
0.0000
 11
4.196954
 21
2.89131
 31
0.0000
 6
CONTINUOUS
 0
ARC
 8
WHITE
 10
4.486932
 20
2.846872
 30
 0
 40
.2933633
 50
161.6151
 51
171.2873
 6
CONTINUOUS
 0
LINE
 8
WHITE
 10
4.208543
 20
2.939397
 30
0.0000
 11
4.236931
 21
3.023407
 31
0.0000
 6
CONTINUOUS
 0
LINE
 8
WHITE
 10
4.236931
 20
3.023407
 30
0.0000
 11
4.240987
 21
3.044264
 31
0.0000
 6
CONTINUOUS
 0
LINE
 8
WHITE
 10
4.240987
 20
3.044264
 30
0.0000
 11
4.276329
 21
3.125957
 31
0.0000
 6
CONTINUOUS
 0
ARC
 8
WHITE
 10
4.376909
 20
3.081925
 30
 0
 40
.1097955
 50
124.5956
 51
156.3567
 6
CONTINUOUS
 0
LINE
 8
WHITE
 10
4.314568
 20
3.172306
 30
0.0000
 11
4.377719
 21
3.216339
 31
0.0000
 6
CONTINUOUS
 0
ARC
 8
WHITE
 10
4.545269
 20
2.97652
 30
 0
 40
.2925505
 50
111.1501
 51
124.94
 6
CONTINUOUS
 0
LINE
 8
WHITE
 10
4.439713
 20
3.249364
 30
0.0000
 11
4.516769
 21
3.278912
 31
0.0000
 6
CONTINUOUS
 0
ARC
 8
WHITE
 10
4.445101
 20
3.46101
 30
 0
 40
.1956935
 50
291.4832
 51
305.4076
 6
CONTINUOUS
 0
LINE
 8
WHITE
 10
4.558483
 20
3.301509
 30
0.0000
 11
4.631485
 21
3.352492
 31
0.0000
 6
CONTINUOUS
 0
ARC
 8
WHITE
 10
4.552111
 20
3.465471
 30
 0
 40
.1380735
 50
305.0905
 51
313.4702
 6
CONTINUOUS
 0
LINE
 8
WHITE
 10
4.647102
 20
3.365266
 30
0.0000
 11
4.678414
 21
3.394786
 31
0.0000
 6
CONTINUOUS
 0
ARC
 8
WHITE
 10
4.722216
 20
3.348263
 30
 0
 40
6.389783E-02
 50
90.3117
 51
133.2735
 6
CONTINUOUS
 0
LINE
 8
WHITE
 10
4.721868
 20
3.41216
 30
0.0000
 11
4.770536
 21
3.412168
 31
0.0000
 6
CONTINUOUS
 0
ARC
 8
WHITE
 10
4.771985
 20
3.338588
 30
 0
 40
7.359499E-02
 50
55.74683
 51
91.1275
 6
CONTINUOUS
 0
LINE
 8
WHITE
 10
4.813407
 20
3.399418
 30
0.0000
 11
4.834846
 21
3.383778
 31
0.0000
 6
CONTINUOUS
 0
ARC
 8
WHITE
 10
4.79626
 20
3.328622
 30
 0
 40
6.731364E-02
 50
9.511231
 51
55.02429
 6
CONTINUOUS
 0
LINE
 8
WHITE
 10
4.862648
 20
3.339744
 30
0.0000
 11
4.866712
 21
3.315991
 31
0.0000
 6
CONTINUOUS
 0
ARC
 8
WHITE
 10
4.782877
 20
3.30116
 30
 0
 40
8.513752E-02
 50
337.4311
 51
10.03283
 6
CONTINUOUS
 0
LINE
 8
WHITE
 10
4.861494
 20
3.268484
 30
0.0000
 11
4.838322
 21
3.213442
 31
0.0000
 6
CONTINUOUS
 0
LINE
 8
WHITE
 10
4.838322
 20
3.213442
 30
0.0000
 11
4.832529
 21
3.189108
 31
0.0000
 6
CONTINUOUS
 0
ARC
 8
WHITE
 10
4.993711
 20
3.13262
 30
 0
 40
.1707935
 50
160.6862
 51
183.5982
 6
CONTINUOUS
 0
LINE
 8
WHITE
 10
4.823253
 20
3.121901
 30
0.0000
 11
4.832529
 21
2.989804
 31
0.0000
 6
CONTINUOUS
 0
ARC
 8
WHITE
 10
4.608833
 20
2.973987
 30
 0
 40
.2242552
 50
349.9268
 51
4.044483
 6
CONTINUOUS
 0
LINE
 8
WHITE
 10
4.82963
 20
2.934763
 30
0.0000
 11
4.818623
 21
2.869293
 31
0.0000
 6
CONTINUOUS
 0
ARC
 8
WHITE
 10
4.711439
 20
2.887833
 30
 0
 40
.108776
 50
329.6121
 51
350.1865
 6
CONTINUOUS
 0
LINE
 8
WHITE
 10
4.805271
 20
2.832808
 30
0.0000
 11
4.787337
 21
2.801506
 31
0.0000
 6
CONTINUOUS
 0
ARC
 8
WHITE
 10
4.67239
 20
2.867729
 30
 0
 40
.1326591
 50
313.425
 51
330.0533
 6
CONTINUOUS
 0
LINE
 8
WHITE
 10
4.763579
 20
2.771382
 30
0.0000
 11
4.70159
 21
2.7146
 31
0.0000
 6
CONTINUOUS
 0
LINE
 8
WHITE
 10
4.70159
 20
2.7146
 30
0.0000
 11
4.545158
 21
2.819467
 31
0.0000
 6
CONTINUOUS
 0
ARC
 8
WHITE
 10
4.538901
 20
2.809561
 30
 0
 40
1.171754E-02
 50
57.72176
 51
143.2434
 6
CONTINUOUS
 0
LINE
 8
WHITE
 10
4.529513
 20
2.816572
 30
0.0000
 11
4.509237
 21
2.790498
 31
0.0000
 6
CONTINUOUS
 0
ARC
 8
WHITE
 10
4.518085
 20
2.78439
 30
 0
 40
1.075117E-02
 50
145.3771
 51
236.4001
 6
CONTINUOUS
 0
LINE
 8
WHITE
 10
4.512135
 20
2.775435
 30
0.0000
 11
4.627198
 21
2.694727
 31
0.0000
 6
CONTINUOUS
 0
ARC
 8
WHITE
 10
3.699793
 20
5.938939
 30
 0
 40
2.255561E-02
 50
17.64338
 51
129.8808
 6
CONTINUOUS
 0
LINE
 8
WHITE
 10
3.68533
 20
5.956247
 30
0.0000
 11
3.659873
 21
5.936505
 31
0.0000
 6
CONTINUOUS
 0
ARC
 8
WHITE
 10
3.721234
 20
5.859405
 30
 0
 40
9.853674E-02
 50
128.5144
 51
162.1706
 6
CONTINUOUS
 0
LINE
 8
WHITE
 10
3.627429
 20
5.889575
 30
0.0000
 11
3.601357
 21
5.809622
 31
0.0000
 6
CONTINUOUS
 0
ARC
 8
WHITE
 10
3.647823
 20
5.794384
 30
 0
 40
4.890074E-02
 50
161.8433
 51
202.066
 6
CONTINUOUS
 0
LINE
 8
WHITE
 10
3.602504
 20
5.776013
 30
0.0000
 11
3.648286
 21
5.666516
 31
0.0000
 6
CONTINUOUS
 0
LINE
 8
WHITE
 10
3.648286
 20
5.666516
 30
0.0000
 11
3.665668
 21
5.617848
 31
0.0000
 6
CONTINUOUS
 0
LINE
 8
WHITE
 10
3.665668
 20
5.617848
 30
0.0000
 11
3.905529
 21
5.091775
 31
0.0000
 6
CONTINUOUS
 0
LINE
 8
WHITE
 10
3.905529
 20
5.091775
 30
0.0000
 11
4.039944
 21
4.672887
 31
0.0000
 6
CONTINUOUS
 0
LINE
 8
WHITE
 10
4.039944
 20
4.672887
 30
0.0000
 11
4.119318
 21
4.374509
 31
0.0000
 6
CONTINUOUS
 0
ARC
 8
WHITE
 10
4.151242
 20
4.383085
 30
 0
 40
3.305549E-02
 50
195.036
 51
236.9511
 6
CONTINUOUS
 0
LINE
 8
WHITE
 10
4.133215
 20
4.355378
 30
0.0000
 11
4.178993
 21
4.325842
 31
0.0000
 6
CONTINUOUS
 0
ARC
 8
WHITE
 10
4.193034
 20
4.346223
 30
 0
 40
2.474873E-02
 50
235.4364
 51
279.1137
 6
CONTINUOUS
 0
LINE
 8
WHITE
 10
4.196954
 20
4.321786
 30
0.0000
 11
4.22824
 21
4.32758
 31
0.0000
 6
CONTINUOUS
 0
ARC
 8
WHITE
 10
4.221462
 20
4.369933
 30
 0
 40
4.289126E-02
 50
279.0934
 51
334.3008
 6
CONTINUOUS
 0
LINE
 8
WHITE
 10
4.260107
 20
4.351335
 30
0.0000
 11
4.278646
 21
4.391891
 31
0.0000
 6
CONTINUOUS
 0
ARC
 8
WHITE
 10
4.22181
 20
4.418369
 30
 0
 40
6.270127E-02
 50
335.0215
 51
11.35181
 6
CONTINUOUS
 0
LINE
 8
WHITE
 10
4.283281
 20
4.430709
 30
0.0000
 11
4.261844
 21
4.540211
 31
0.0000
 6
CONTINUOUS
 0
LINE
 8
WHITE
 10
4.261844
 20
4.540211
 30
0.0000
 11
4.258368
 21
4.557592
 31
0.0000
 6
CONTINUOUS
 0
LINE
 8
WHITE
 10
4.258368
 20
4.557592
 30
0.0000
 11
4.139596
 21
5.000234
 31
0.0000
 6
CONTINUOUS
 0
LINE
 8
WHITE
 10
4.139596
 20
5.000234
 30
0.0000
 11
4.073547
 21
5.365241
 31
0.0000
 6
CONTINUOUS
 0
LINE
 8
WHITE
 10
4.073547
 20
5.365241
 30
0.0000
 11
4.009237
 21
5.742993
 31
0.0000
 6
CONTINUOUS
 0
LINE
 8
WHITE
 10
4.009237
 20
5.742993
 30
0.0000
 11
3.970998
 21
5.90406
 31
0.0000
 6
CONTINUOUS
 0
ARC
 8
WHITE
 10
3.885719
 20
5.884283
 30
 0
 40
8.754319E-02
 50
13.05667
 51
56.59341
 6
CONTINUOUS
 0
LINE
 8
WHITE
 10
3.933917
 20
5.957362
 30
0.0000
 11
3.926965
 21
5.961418
 31
0.0000
 6
CONTINUOUS
 0
ARC
 8
WHITE
 10
3.83919
 20
5.827814
 30
 0
 40
.1598584
 50
56.6959
 51
87.19558
 6
CONTINUOUS
 0
LINE
 8
WHITE
 10
3.847011
 20
5.98748
 30
0.0000
 11
3.786177
 21
5.990386
 31
0.0000
 6
CONTINUOUS
 0
ARC
 8
WHITE
 10
3.786062
 20
5.972369
 30
 0
 40
1.801861E-02
 50
89.63382
 51
196.6292
 6
CONTINUOUS
 0
LINE
 8
WHITE
 10
3.768797
 20
5.967212
 30
0.0000
 11
3.884671
 21
5.617848
 31
0.0000
 6
CONTINUOUS
 0
ARC
 8
WHITE
 10
3.875285
 20
5.61472
 30
 0
 40
9.893351E-03
 50
284.1983
 51
18.43189
 6
CONTINUOUS
 0
LINE
 8
WHITE
 10
3.877712
 20
5.605129
 30
0.0000
 11
3.851067
 21
5.598729
 31
0.0000
 6
CONTINUOUS
 0
ARC
 8
WHITE
 10
3.847819
 20
5.612703
 30
 0
 40
1.434627E-02
 50
199.1408
 51
283.0861
 6
CONTINUOUS
 0
LINE
 8
WHITE
 10
3.834266
 20
5.607998
 30
0.0000
 11
3.721287
 21
5.945775
 31
0.0000
 6
CONTINUOUS
 0
LINE
 8
WHITE
 10
2.196373
 20
7.482278
 30
0.0000
 11
2.18942
 21
7.536738
 31
0.0000
 6
CONTINUOUS
 0
ARC
 8
WHITE
 10
2.323314
 20
7.553657
 30
 0
 40
.1349583
 50
175.124
 51
187.2013
 6
CONTINUOUS
 0
LINE
 8
WHITE
 10
2.188841
 20
7.565128
 30
0.0000
 11
2.195793
 21
7.64682
 31
0.0000
 6
CONTINUOUS
 0
ARC
 8
WHITE
 10
2.239884
 20
7.643923
 30
 0
 40
4.418604E-02
 50
156.8304
 51
176.2411
 6
CONTINUOUS
 0
LINE
 8
WHITE
 10
2.199262
 20
7.661308
 30
0.0000
 11
2.225341
 21
7.718662
 31
0.0000
 6
CONTINUOUS
 0
ARC
 8
WHITE
 10
2.189363
 20
7.736566
 30
 0
 40
4.018731E-02
 50
333.5456
 51
5.044184
 6
CONTINUOUS
 0
LINE
 8
WHITE
 10
2.229393
 20
7.740098
 30
0.0000
 11
2.22592
 21
7.765012
 31
0.0000
 6
CONTINUOUS
 0
ARC
 8
WHITE
 10
2.270533
 20
7.770227
 30
 0
 40
4.491561E-02
 50
156.4125
 51
186.6664
 6
CONTINUOUS
 0
LINE
 8
WHITE
 10
2.229369
 20
7.788199
 30
0.0000
 11
2.245039
 21
7.824109
 31
0.0000
 6
CONTINUOUS
 0
ARC
 8
WHITE
 10
2.270069
 20
7.81397
 30
 0
 40
2.700458E-02
 50
93.93669
 51
157.9476
 6
CONTINUOUS
 0
LINE
 8
WHITE
 10
2.268214
 20
7.84091
 30
0.0000
 11
2.290231
 21
7.842069
 31
0.0000
 6
CONTINUOUS
 0
ARC
 8
WHITE
 10
2.292086
 20
7.797979
 30
 0
 40
4.412924E-02
 50
52.09217
 51
92.40811
 6
CONTINUOUS
 0
LINE
 8
WHITE
 10
2.319198
 20
7.832797
 30
0.0000
 11
2.326732
 21
7.827585
 31
0.0000
 6
CONTINUOUS
 0
ARC
 8
WHITE
 10
2.301993
 20
7.796017
 30
 0
 40
4.010725E-02
 50
352.9365
 51
51.91558
 6
CONTINUOUS
 0
LINE
 8
WHITE
 10
2.341796
 20
7.791084
 30
0.0000
 11
2.339478
 21
7.767909
 31
0.0000
 6
CONTINUOUS
 0
ARC
 8
WHITE
 10
2.17847
 20
7.786681
 30
 0
 40
.1620989
 50
339.4081
 51
353.35
 6
CONTINUOUS
 0
LINE
 8
WHITE
 10
2.330208
 20
7.729671
 30
0.0000
 11
2.308191
 21
7.672312
 31
0.0000
 6
CONTINUOUS
 0
ARC
 8
WHITE
 10
2.351124
 20
7.656322
 30
 0
 40
4.581313E-02
 50
159.5712
 51
189.0213
 6
CONTINUOUS
 0
LINE
 8
WHITE
 10
2.305874
 20
7.649137
 30
0.0000
 11
2.312247
 21
7.607422
 31
0.0000
 6
CONTINUOUS
 0
ARC
 8
WHITE
 10
2.358484
 20
7.614943
 30
 0
 40
4.684362E-02
 50
189.2381
 51
215.5249
 6
CONTINUOUS
 0
LINE
 8
WHITE
 10
2.320359
 20
7.587724
 30
0.0000
 11
2.327891
 21
7.576715
 31
0.0000
 6
CONTINUOUS
 0
ARC
 8
WHITE
 10
2.336234
 20
7.582973
 30
 0
 40
1.042862E-02
 50
216.8691
 51
291.4475
 6
CONTINUOUS
 0
LINE
 8
WHITE
 10
2.340047
 20
7.573266
 30
0.0000
 11
2.348168
 21
7.576715
 31
0.0000
 6
CONTINUOUS
 0
ARC
 8
WHITE
 10
2.334438
 20
7.607249
 30
 0
 40
3.347837E-02
 50
294.2144
 51
335.7856
 6
CONTINUOUS
 0
LINE
 8
WHITE
 10
2.364969
 20
7.593517
 30
0.0000
 11
2.395098
 21
7.660725
 31
0.0000
 6
CONTINUOUS
 0
LINE
 8
WHITE
 10
2.395098
 20
7.660725
 30
0.0000
 11
2.443186
 21
7.717504
 31
0.0000
 6
CONTINUOUS
 0
LINE
 8
WHITE
 10
2.443186
 20
7.717504
 30
0.0000
 11
2.479108
 21
7.764433
 31
0.0000
 6
CONTINUOUS
 0
ARC
 8
WHITE
 10
2.41855
 20
7.811693
 30
 0
 40
7.681685E-02
 50
322.0316
 51
345.7795
 6
CONTINUOUS
 0
LINE
 8
WHITE
 10
2.493012
 20
7.792822
 30
0.0000
 11
2.500544
 21
7.823529
 31
0.0000
 6
CONTINUOUS
 0
ARC
 8
WHITE
 10
2.553922
 20
7.810447
 30
 0
 40
5.495735E-02
 50
124.0629
 51
166.2281
 6
CONTINUOUS
 0
LINE
 8
WHITE
 10
2.523139
 20
7.855974
 30
0.0000
 11
2.531831
 21
7.861768
 31
0.0000
 6
CONTINUOUS
 0
ARC
 8
WHITE
 10
2.562298
 20
7.816405
 30
 0
 40
5.464438E-02
 50
78.1215
 51
123.886
 6
CONTINUOUS
 0
LINE
 8
WHITE
 10
2.573545
 20
7.869879
 30
0.0000
 11
2.592085
 21
7.866403
 31
0.0000
 6
CONTINUOUS
 0
ARC
 8
WHITE
 10
2.581078
 20
7.813101
 30
 0
 40
5.442758E-02
 50
29.29136
 51
78.33139
 6
CONTINUOUS
 0
LINE
 8
WHITE
 10
2.628545
 20
7.839729
 30
0.0000
 11
2.6338
 21
7.829323
 31
0.0000
 6
CONTINUOUS
 0
ARC
 8
WHITE
 10
2.600317
 20
7.809981
 30
 0
 40
3.866895E-02
 50
340.1932
 51
30.01278
 6
CONTINUOUS
 0
LINE
 8
WHITE
 10
2.636698
 20
7.796878
 30
0.0000
 11
2.632642
 21
7.786449
 31
0.0000
 6
CONTINUOUS
 0
ARC
 8
WHITE
 10
2.569433
 20
7.809451
 30
 0
 40
6.726463E-02
 50
310.9494
 51
340.0042
 6
CONTINUOUS
 0
LINE
 8
WHITE
 10
2.613517
 20
7.758646
 30
0.0000
 11
2.585712
 21
7.734305
 31
0.0000
 6
CONTINUOUS
 0
ARC
 8
WHITE
 10
2.653731
 20
7.657944
 30
 0
 40
.1022626
 50
131.6929
 51
141.1172
 6
CONTINUOUS
 0
LINE
 8
WHITE
 10
2.574127
 20
7.722136
 30
0.0000
 11
2.543418
 21
7.685059
 31
0.0000
 6
CONTINUOUS
 0
ARC
 8
WHITE
 10
2.590504
 20
7.643324
 30
 0
 40
6.291942E-02
 50
138.4477
 51
156.0792
 6
CONTINUOUS
 0
LINE
 8
WHITE
 10
2.532989
 20
7.668836
 30
0.0000
 11
2.514449
 21
7.623645
 31
0.0000
 6
CONTINUOUS
 0
ARC
 8
WHITE
 10
2.567404
 20
7.600818
 30
 0
 40
5.766562E-02
 50
156.6803
 51
182.6494
 6
CONTINUOUS
 0
LINE
 8
WHITE
 10
2.5098
 20
7.598152
 30
0.0000
 11
2.510393
 21
7.578454
 31
0.0000
 6
CONTINUOUS
 0
ARC
 8
WHITE
 10
2.529513
 20
7.579613
 30
 0
 40
1.915434E-02
 50
183.4681
 51
275.1948
 6
CONTINUOUS
 0
ARC
 8
WHITE
 10
2.520442
 20
7.63144
 30
 0
 40
7.172098E-02
 50
278.6651
 51
291.1463
 6
CONTINUOUS
 0
LINE
 8
WHITE
 10
2.546315
 20
7.564548
 30
0.0000
 11
2.577021
 21
7.575557
 31
0.0000
 6
CONTINUOUS
 0
LINE
 8
WHITE
 10
2.577021
 20
7.575557
 30
0.0000
 11
2.626268
 21
7.602787
 31
0.0000
 6
CONTINUOUS
 0
ARC
 8
WHITE
 10
2.700545
 20
7.46872
 30
 0
 40
.1532682
 50
109.4762
 51
118.9875
 6
CONTINUOUS
 0
LINE
 8
WHITE
 10
2.649443
 20
7.613217
 30
0.0000
 11
2.677253
 21
7.623065
 31
0.0000
 6
CONTINUOUS
 0
ARC
 8
WHITE
 10
2.651993
 20
7.693808
 30
 0
 40
7.511647E-02
 50
289.6508
 51
310.1508
 6
CONTINUOUS
 0
LINE
 8
WHITE
 10
2.700428
 20
7.636392
 30
0.0000
 11
2.727659
 21
7.659566
 31
0.0000
 6
CONTINUOUS
 0
ARC
 8
WHITE
 10
2.757961
 20
7.624398
 30
 0
 40
4.642167E-02
 50
95.94549
 51
130.7486
 6
CONTINUOUS
 0
LINE
 8
WHITE
 10
2.753152
 20
7.670569
 30
0.0000
 11
2.775747
 21
7.672892
 31
0.0000
 6
CONTINUOUS
 0
ARC
 8
WHITE
 10
2.780614
 20
7.622428
 30
 0
 40
.0506978
 50
55.47463
 51
95.50844
 6
CONTINUOUS
 0
LINE
 8
WHITE
 10
2.809348
 20
7.664196
 30
0.0000
 11
2.822097
 21
7.65609
 31
0.0000
 6
CONTINUOUS
 0
ARC
 8
WHITE
 10
2.805006
 20
7.630231
 30
 0
 40
3.099706E-02
 50
359.6069
 51
56.53801
 6
CONTINUOUS
 0
LINE
 8
WHITE
 10
2.836002
 20
7.630018
 30
0.0000
 11
2.836002
 21
7.607422
 31
0.0000
 6
CONTINUOUS
 0
ARC
 8
WHITE
 10
2.808193
 20
7.606669
 30
 0
 40
2.781982E-02
 50
304.2196
 51
1.551846
 6
CONTINUOUS
 0
LINE
 8
WHITE
 10
2.823837
 20
7.583665
 30
0.0000
 11
2.808192
 21
7.573239
 31
0.0000
 6
CONTINUOUS
 0
ARC
 8
WHITE
 10
2.723778
 20
7.693865
 30
 0
 40
.1472289
 50
286.859
 51
304.9846
 6
CONTINUOUS
 0
LINE
 8
WHITE
 10
2.766477
 20
7.552964
 30
0.0000
 11
2.725341
 21
7.540215
 31
0.0000
 6
CONTINUOUS
 0
ARC
 8
WHITE
 10
2.738957
 20
7.49375
 30
 0
 40
4.841958E-02
 50
106.3316
 51
129.8056
 6
CONTINUOUS
 0
LINE
 8
WHITE
 10
2.707959
 20
7.530946
 30
0.0000
 11
2.660451
 21
7.491547
 31
0.0000
 6
CONTINUOUS
 0
ARC
 8
WHITE
 10
2.69927
 20
7.444618
 30
 0
 40
.0609033
 50
129.5962
 51
152.2162
 6
CONTINUOUS
 0
LINE
 8
WHITE
 10
2.645388
 20
7.473007
 30
0.0000
 11
2.618158
 21
7.420864
 31
0.0000
 6
CONTINUOUS
 0
ARC
 8
WHITE
 10
2.634844
 20
7.412
 30
 0
 40
1.889442E-02
 50
152.0206
 51
199.1588
 6
CONTINUOUS
 0
LINE
 8
WHITE
 10
2.616996
 20
7.405798
 30
0.0000
 11
2.622792
 21
7.390736
 31
0.0000
 6
CONTINUOUS
 0
ARC
 8
WHITE
 10
2.63433
 20
7.394886
 30
 0
 40
1.226103E-02
 50
199.7809
 51
270.234
 6
CONTINUOUS
 0
LINE
 8
WHITE
 10
2.63438
 20
7.382625
 30
0.0000
 11
2.691738
 21
7.384943
 31
0.0000
 6
CONTINUOUS
 0
ARC
 8
WHITE
 10
2.689942
 20
7.420285
 30
 0
 40
3.538734E-02
 50
272.9092
 51
305.0685
 6
CONTINUOUS
 0
ARC
 8
WHITE
 10
2.743389
 20
7.342298
 30
 0
 40
5.916033E-02
 50
95.70467
 51
124.039
 6
CONTINUOUS
 0
LINE
 8
WHITE
 10
2.737508
 20
7.401165
 30
0.0000
 11
2.750255
 21
7.402903
 31
0.0000
 6
CONTINUOUS
 0
ARC
 8
WHITE
 10
2.756315
 20
7.343187
 30
 0
 40
6.002336E-02
 50
54.24197
 51
95.79415
 6
CONTINUOUS
 0
ARC
 8
WHITE
 10
2.763924
 20
7.350314
 30
 0
 40
4.983375E-02
 50
353.1692
 51
56.55314
 6
CONTINUOUS
 0
LINE
 8
WHITE
 10
2.813404
 20
7.344387
 30
0.0000
 11
2.811089
 21
7.326426
 31
0.0000
 6
CONTINUOUS
 0
ARC
 8
WHITE
 10
2.780383
 20
7.329612
 30
 0
 40
3.087175E-02
 50
299.211
 51
354.076
 6
CONTINUOUS
 0
LINE
 8
WHITE
 10
2.795449
 20
7.302667
 30
0.0000
 11
2.776906
 21
7.292822
 31
0.0000
 6
CONTINUOUS
 0
ARC
 8
WHITE
 10
2.73357
 20
7.370748
 30
 0
 40
8.916567E-02
 50
265.8268
 51
299.0799
 6
CONTINUOUS
 0
LINE
 8
WHITE
 10
2.72708
 20
7.281814
 30
0.0000
 11
2.714333
 21
7.282972
 31
0.0000
 6
CONTINUOUS
 0
ARC
 8
WHITE
 10
2.705064
 20
7.168257
 30
 0
 40
.1150899
 50
85.38033
 51
106.9757
 6
CONTINUOUS
 0
LINE
 8
WHITE
 10
2.671462
 20
7.278331
 30
0.0000
 11
2.636698
 21
7.267329
 31
0.0000
 6
CONTINUOUS
 0
ARC
 8
WHITE
 10
2.69985
 20
7.060493
 30
 0
 40
.2162627
 50
106.9786
 51
125.734
 6
CONTINUOUS
 0
LINE
 8
WHITE
 10
2.573547
 20
7.236041
 30
0.0000
 11
2.560799
 21
7.226773
 31
0.0000
 6
CONTINUOUS
 0
ARC
 8
WHITE
 10
2.653837
 20
7.098376
 30
 0
 40
.1585613
 50
125.9273
 51
148.5939
 6
CONTINUOUS
 0
LINE
 8
WHITE
 10
2.518505
 20
7.181002
 30
0.0000
 11
2.502282
 21
7.15551
 31
0.0000
 6
CONTINUOUS
 0
ARC
 8
WHITE
 10
2.586698
 20
7.103656
 30
 0
 40
9.906996E-02
 50
148.4388
 51
183.1855
 6
CONTINUOUS
 0
LINE
 8
WHITE
 10
2.487782
 20
7.098151
 30
0.0000
 11
2.490116
 21
7.061072
 31
0.0000
 6
CONTINUOUS
 0
ARC
 8
WHITE
 10
2.38467
 20
7.054699
 30
 0
 40
.1056385
 50
322.1249
 51
3.458881
 6
CONTINUOUS
 0
LINE
 8
WHITE
 10
2.468055
 20
6.989842
 30
0.0000
 11
2.463464
 21
6.983436
 31
0.0000
 6
CONTINUOUS
 0
ARC
 8
WHITE
 10
2.433164
 20
7.007017
 30
 0
 40
3.839548E-02
 50
282.4628
 51
322.1099
 6
CONTINUOUS
 0
LINE
 8
WHITE
 10
2.441449
 20
6.969525
 30
0.0000
 11
2.376558
 21
6.955046
 31
0.0000
 6
CONTINUOUS
 0
ARC
 8
WHITE
 10
2.374994
 20
6.962636
 30
 0
 40
7.749338E-03
 50
180.4337
 51
281.6456
 6
CONTINUOUS
 0
LINE
 8
WHITE
 10
2.367244
 20
6.962577
 30
0.0000
 11
2.374241
 21
7.17405
 31
0.0000
 6
CONTINUOUS
 0
ARC
 8
WHITE
 10
2.363812
 20
7.174746
 30
 0
 40
1.045182E-02
 50
356.186
 51
80.43368
 6
CONTINUOUS
 0
LINE
 8
WHITE
 10
2.365549
 20
7.185051
 30
0.0000
 11
2.340058
 21
7.189693
 31
0.0000
 6
CONTINUOUS
 0
ARC
 8
WHITE
 10
2.339015
 20
7.179728
 30
 0
 40
1.001991E-02
 50
84.0219
 51
176.0074
 6
CONTINUOUS
 0
LINE
 8
WHITE
 10
2.329019
 20
7.180425
 30
0.0000
 11
2.315723
 21
6.966054
 31
0.0000
 6
CONTINUOUS
 0
ARC
 8
WHITE
 10
2.307613
 20
6.966634
 30
 0
 40
8.131189E-03
 50
274.0858
 51
355.9142
 6
CONTINUOUS
 0
LINE
 8
WHITE
 10
2.308192
 20
6.958523
 30
0.0000
 11
2.283858
 21
6.957943
 31
0.0000
 6
CONTINUOUS
 0
ARC
 8
WHITE
 10
2.28212
 20
7.057016
 30
 0
 40
9.908818E-02
 50
241.3359
 51
271.0051
 6
CONTINUOUS
 0
LINE
 8
WHITE
 10
2.23459
 20
6.970071
 30
0.0000
 11
2.224761
 21
6.975324
 31
0.0000
 6
CONTINUOUS
 0
ARC
 8
WHITE
 10
2.238258
 20
7.000136
 30
 0
 40
2.824427E-02
 50
194.0372
 51
241.4563
 6
CONTINUOUS
 0
LINE
 8
WHITE
 10
2.210856
 20
6.993285
 30
0.0000
 11
2.205642
 21
7.014722
 31
0.0000
 6
CONTINUOUS
 0
ARC
 8
WHITE
 10
2.280906
 20
7.033576
 30
 0
 40
7.758959E-02
 50
172.9412
 51
194.0636
 6
CONTINUOUS
 0
LINE
 8
WHITE
 10
2.203904
 20
7.043111
 30
0.0000
 11
2.20796
 21
7.074976
 31
0.0000
 6
CONTINUOUS
 0
ARC
 8
WHITE
 10
2.165145
 20
7.080597
 30
 0
 40
4.318319E-02
 50
352.5221
 51
49.02405
 6
CONTINUOUS
 0
LINE
 8
WHITE
 10
2.193461
 20
7.113199
 30
0.0000
 11
2.184784
 21
7.120747
 31
0.0000
 6
CONTINUOUS
 0
LINE
 8
WHITE
 10
2.184784
 20
7.120747
 30
0.0000
 11
2.170301
 21
7.131755
 31
0.0000
 6
CONTINUOUS
 0
LINE
 8
WHITE
 10
2.170301
 20
7.131755
 30
0.0000
 11
2.144808
 21
7.154351
 31
0.0000
 6
CONTINUOUS
 0
ARC
 8
WHITE
 10
2.202151
 20
7.219873
 30
 0
 40
8.707008E-02
 50
196.662
 51
228.8084
 6
CONTINUOUS
 0
LINE
 8
WHITE
 10
2.118736
 20
7.194907
 30
0.0000
 11
2.105989
 21
7.236043
 31
0.0000
 6
CONTINUOUS
 0
ARC
 8
WHITE
 10
1.984321
 20
7.198384
 30
 0
 40
.1273637
 50
17.19866
 51
51.46231
 6
CONTINUOUS
 0
LINE
 8
WHITE
 10
2.063672
 20
7.298007
 30
0.0000
 11
2.051529
 21
7.307886
 31
0.0000
 6
CONTINUOUS
 0
ARC
 8
WHITE
 10
1.962884
 20
7.197225
 30
 0
 40
.1417879
 50
51.30354
 51
70.67688
 6
CONTINUOUS
 0
LINE
 8
WHITE
 10
2.009801
 20
7.331025
 30
0.0000
 11
1.983163
 21
7.340331
 31
0.0000
 6
CONTINUOUS
 0
ARC
 8
WHITE
 10
2.021898
 20
7.450481
 30
 0
 40
.1167626
 50
229.8834
 51
250.6254
 6
CONTINUOUS
 0
ARC
 8
WHITE
 10
1.982181
 20
7.398693
 30
 0
 40
.0516532
 50
172.0907
 51
226.5578
 6
CONTINUOUS
 0
LINE
 8
WHITE
 10
1.931018
 20
7.4058
 30
0.0000
 11
1.934494
 21
7.432451
 31
0.0000
 6
CONTINUOUS
 0
ARC
 8
WHITE
 10
1.979628
 20
7.426252
 30
 0
 40
4.555712E-02
 50
112.3563
 51
172.179
 6
CONTINUOUS
 0
LINE
 8
WHITE
 10
1.9623
 20
7.468384
 30
0.0000
 11
1.969258
 21
7.476483
 31
0.0000
 6
CONTINUOUS
 0
ARC
 8
WHITE
 10
1.99625
 20
7.397455
 30
 0
 40
8.351111E-02
 50
69.95245
 51
108.8577
 6
CONTINUOUS
 0
LINE
 8
WHITE
 10
2.024878
 20
7.475906
 30
0.0000
 11
2.045735
 21
7.47011
 31
0.0000
 6
CONTINUOUS
 0
LINE
 8
WHITE
 10
2.045735
 20
7.47011
 30
0.0000
 11
2.060219
 21
7.460261
 31
0.0000
 6
CONTINUOUS
 0
ARC
 8
WHITE
 10
1.985307
 20
7.348558
 30
 0
 40
.1344974
 50
35.79874
 51
56.15269
 6
CONTINUOUS
 0
LINE
 8
WHITE
 10
2.094394
 20
7.42723
 30
0.0000
 11
2.100196
 21
7.419705
 31
0.0000
 6
CONTINUOUS
 0
ARC
 8
WHITE
 10
2.127717
 20
7.43981
 30
 0
 40
3.408149E-02
 50
216.1494
 51
273.4126
 6
CONTINUOUS
 0
LINE
 8
WHITE
 10
2.129745
 20
7.405788
 30
0.0000
 11
2.148864
 21
7.406379
 31
0.0000
 6
CONTINUOUS
 0
ARC
 8
WHITE
 10
2.146686
 20
7.437084
 30
 0
 40
.0307817
 50
274.0587
 51
329.4615
 6
CONTINUOUS
 0
LINE
 8
WHITE
 10
2.173197
 20
7.421443
 30
0.0000
 11
2.188841
 21
7.446356
 31
0.0000
 6
CONTINUOUS
 0
ARC
 8
WHITE
 10
2.141217
 20
7.475093
 30
 0
 40
5.562302E-02
 50
328.8929
 51
7.421804
 6
CONTINUOUS
 0
LINE
 8
WHITE
 10
3.209122
 20
6.121901
 30
0.0000
 11
3.190001
 21
6.112055
 31
0.0000
 6
CONTINUOUS
 0
ARC
 8
WHITE
 10
3.146758
 20
6.18952
 30
 0
 40
8.871685E-02
 50
265.7446
 51
299.1719
 6
CONTINUOUS
 0
LINE
 8
WHITE
 10
3.140174
 20
6.101047
 30
0.0000
 11
3.128008
 21
6.102206
 31
0.0000
 6
CONTINUOUS
 0
ARC
 8
WHITE
 10
3.119741
 20
5.987431
 30
 0
 40
.115073
 50
85.88028
 51
107.805
 6
CONTINUOUS
 0
LINE
 8
WHITE
 10
3.084554
 20
6.096992
 30
0.0000
 11
3.050371
 21
6.086563
 31
0.0000
 6
CONTINUOUS
 0
ARC
 8
WHITE
 10
3.113581
 20
5.879553
 30
 0
 40
.2164461
 50
106.9798
 51
125.7195
 6
CONTINUOUS
 0
LINE
 8
WHITE
 10
2.987216
 20
6.055281
 30
0.0000
 11
2.973893
 21
6.046007
 31
0.0000
 6
CONTINUOUS
 0
ARC
 8
WHITE
 10
3.066931
 20
5.91761
 30
 0
 40
.1585619
 50
125.9273
 51
148.5938
 6
CONTINUOUS
 0
LINE
 8
WHITE
 10
2.931599
 20
6.000236
 30
0.0000
 11
2.915956
 21
5.975323
 31
0.0000
 6
CONTINUOUS
 0
ARC
 8
WHITE
 10
3.000139
 20
5.92347
 30
 0
 40
9.887172E-02
 50
148.3685
 51
183.5282
 6
CONTINUOUS
 0
LINE
 8
WHITE
 10
2.901455
 20
5.917385
 30
0.0000
 11
2.903789
 21
5.880305
 31
0.0000
 6
CONTINUOUS
 0
ARC
 8
WHITE
 10
2.798343
 20
5.873933
 30
 0
 40
.1056392
 50
322.1249
 51
3.458341
 6
CONTINUOUS
 0
LINE
 8
WHITE
 10
2.881729
 20
5.809076
 30
0.0000
 11
2.876559
 21
5.802669
 31
0.0000
 6
CONTINUOUS
 0
ARC
 8
WHITE
 10
2.846373
 20
5.825728
 30
 0
 40
3.798557E-02
 50
283.3156
 51
322.624
 6
CONTINUOUS
 0
LINE
 8
WHITE
 10
2.855121
 20
5.788764
 30
0.0000
 11
2.789653
 21
5.77428
 31
0.0000
 6
CONTINUOUS
 0
ARC
 8
WHITE
 10
2.787509
 20
5.781117
 30
 0
 40
7.165068E-03
 50
174.4315
 51
287.4082
 6
CONTINUOUS
 0
LINE
 8
WHITE
 10
2.780378
 20
5.781812
 30
0.0000
 11
2.788494
 21
5.993284
 31
0.0000
 6
CONTINUOUS
 0
ARC
 8
WHITE
 10
2.778066
 20
5.993864
 30
 0
 40
1.044475E-02
 50
356.8203
 51
86.82133
 6
CONTINUOUS
 0
LINE
 8
WHITE
 10
2.778644
 20
6.004291
 30
0.0000
 11
2.753731
 21
6.008927
 31
0.0000
 6
CONTINUOUS
 0
ARC
 8
WHITE
 10
2.75211
 20
5.999078
 30
 0
 40
9.982241E-03
 50
80.64747
 51
176.6727
 6
CONTINUOUS
 0
LINE
 8
WHITE
 10
2.742144
 20
5.999657
 30
0.0000
 11
2.729397
 21
5.785288
 31
0.0000
 6
CONTINUOUS
 0
ARC
 8
WHITE
 10
2.721287
 20
5.785868
 30
 0
 40
8.131428E-03
 50
270
 51
355.9143
 6
CONTINUOUS
 0
LINE
 8
WHITE
 10
2.721286
 20
5.777736
 30
0.0000
 11
2.696953
 21
5.777177
 31
0.0000
 6
CONTINUOUS
 0
ARC
 8
WHITE
 10
2.695724
 20
5.875678
 30
 0
 40
.0985084
 50
241.2126
 51
270.7151
 6
CONTINUOUS
 0
LINE
 8
WHITE
 10
2.648285
 20
5.789343
 30
0.0000
 11
2.637856
 21
5.794558
 31
0.0000
 6
CONTINUOUS
 0
ARC
 8
WHITE
 10
2.651353
 20
5.81937
 30
 0
 40
2.824492E-02
 50
194.0379
 51
241.4559
 6
CONTINUOUS
 0
LINE
 8
WHITE
 10
2.623951
 20
5.812519
 30
0.0000
 11
2.619316
 21
5.833955
 31
0.0000
 6
CONTINUOUS
 0
ARC
 8
WHITE
 10
2.69458
 20
5.85281
 30
 0
 40
7.758936E-02
 50
172.9412
 51
194.0636
 6
CONTINUOUS
 0
LINE
 8
WHITE
 10
2.617578
 20
5.862344
 30
0.0000
 11
2.621054
 21
5.89421
 31
0.0000
 6
CONTINUOUS
 0
ARC
 8
WHITE
 10
2.578238
 20
5.900288
 30
 0
 40
4.324626E-02
 50
351.9216
 51
48.04622
 6
CONTINUOUS
 0
LINE
 8
WHITE
 10
2.607149
 20
5.932449
 30
0.0000
 11
2.598459
 21
5.939981
 31
0.0000
 6
CONTINUOUS
 0
LINE
 8
WHITE
 10
2.598459
 20
5.939981
 30
0.0000
 11
2.583974
 21
5.950989
 31
0.0000
 6
CONTINUOUS
 0
LINE
 8
WHITE
 10
2.583974
 20
5.950989
 30
0.0000
 11
2.557902
 21
5.973585
 31
0.0000
 6
CONTINUOUS
 0
ARC
 8
WHITE
 10
2.614971
 20
6.039287
 30
 0
 40
8.702575E-02
 50
197.1927
 51
229.0224
 6
CONTINUOUS
 0
LINE
 8
WHITE
 10
2.531831
 20
6.013562
 30
0.0000
 11
2.519663
 21
6.055277
 31
0.0000
 6
CONTINUOUS
 0
ARC
 8
WHITE
 10
2.397995
 20
6.017618
 30
 0
 40
.1273638
 50
17.19865
 51
51.46235
 6
CONTINUOUS
 0
LINE
 8
WHITE
 10
2.477346
 20
6.117241
 30
0.0000
 11
2.465203
 21
6.127119
 31
0.0000
 6
CONTINUOUS
 0
LINE
 8
WHITE
 10
2.465203
 20
6.127119
 30
0.0000
 11
2.423488
 21
6.150294
 31
0.0000
 6
CONTINUOUS
 0
LINE
 8
WHITE
 10
2.423488
 20
6.150294
 30
0.0000
 11
2.396256
 21
6.159564
 31
0.0000
 6
CONTINUOUS
 0
ARC
 8
WHITE
 10
2.43489
 20
6.269539
 30
 0
 40
.1165632
 50
229.8661
 51
250.6441
 6
CONTINUOUS
 0
ARC
 8
WHITE
 10
2.395332
 20
6.217284
 30
 0
 40
.0512288
 50
171.2982
 51
226.0169
 6
CONTINUOUS
 0
LINE
 8
WHITE
 10
2.344692
 20
6.225034
 30
0.0000
 11
2.348168
 21
6.251685
 31
0.0000
 6
CONTINUOUS
 0
ARC
 8
WHITE
 10
2.392838
 20
6.245833
 30
 0
 40
4.505129E-02
 50
111.9782
 51
172.5367
 6
CONTINUOUS
 0
LINE
 8
WHITE
 10
2.375979
 20
6.287606
 30
0.0000
 11
2.382757
 21
6.29537
 31
0.0000
 6
CONTINUOUS
 0
ARC
 8
WHITE
 10
2.409497
 20
6.216028
 30
 0
 40
8.372666E-02
 50
69.69656
 51
108.6249
 6
CONTINUOUS
 0
LINE
 8
WHITE
 10
2.438549
 20
6.294552
 30
0.0000
 11
2.458829
 21
6.289344
 31
0.0000
 6
CONTINUOUS
 0
LINE
 8
WHITE
 10
2.458829
 20
6.289344
 30
0.0000
 11
2.473314
 21
6.279495
 31
0.0000
 6
CONTINUOUS
 0
ARC
 8
WHITE
 10
2.399781
 20
6.167285
 30
 0
 40
.1341578
 50
36.17439
 51
56.76241
 6
CONTINUOUS
 0
LINE
 8
WHITE
 10
2.508076
 20
6.24647
 30
0.0000
 11
2.51387
 21
6.238938
 31
0.0000
 6
CONTINUOUS
 0
ARC
 8
WHITE
 10
2.541565
 20
6.259391
 30
 0
 40
3.442792E-02
 50
216.4452
 51
273.0889
 6
CONTINUOUS
 0
LINE
 8
WHITE
 10
2.543419
 20
6.225013
 30
0.0000
 11
2.561958
 21
6.226192
 31
0.0000
 6
CONTINUOUS
 0
ARC
 8
WHITE
 10
2.560741
 20
6.2569
 30
 0
 40
3.073098E-02
 50
272.269
 51
328.1652
 6
CONTINUOUS
 0
LINE
 8
WHITE
 10
2.586849
 20
6.24069
 30
0.0000
 11
2.601935
 21
6.266169
 31
0.0000
 6
CONTINUOUS
 0
ARC
 8
WHITE
 10
2.554717
 20
6.295602
 30
 0
 40
5.564079E-02
 50
328.0641
 51
6.096288
 6
CONTINUOUS
 0
LINE
 8
WHITE
 10
2.610042
 20
6.30151
 30
0.0000
 11
2.602514
 21
6.355972
 31
0.0000
 6
CONTINUOUS
 0
ARC
 8
WHITE
 10
2.736408
 20
6.37289
 30
 0
 40
.134958
 50
175.124
 51
187.2013
 6
CONTINUOUS
 0
LINE
 8
WHITE
 10
2.601935
 20
6.384362
 30
0.0000
 11
2.608888
 21
6.466053
 31
0.0000
 6
CONTINUOUS
 0
ARC
 8
WHITE
 10
2.652869
 20
6.461549
 30
 0
 40
.0442114
 50
154.5638
 51
174.152
 6
CONTINUOUS
 0
LINE
 8
WHITE
 10
2.612943
 20
6.480538
 30
0.0000
 11
2.639014
 21
6.537896
 31
0.0000
 6
CONTINUOUS
 0
ARC
 8
WHITE
 10
2.602572
 20
6.554814
 30
 0
 40
4.017814E-02
 50
335.098
 51
6.458587
 6
CONTINUOUS
 0
LINE
 8
WHITE
 10
2.642491
 20
6.559333
 30
0.0000
 11
2.639595
 21
6.584246
 31
0.0000
 6
CONTINUOUS
 0
ARC
 8
WHITE
 10
2.684207
 20
6.589461
 30
 0
 40
4.491538E-02
 50
156.413
 51
186.6665
 6
CONTINUOUS
 0
LINE
 8
WHITE
 10
2.643043
 20
6.607433
 30
0.0000
 11
2.658134
 21
6.643922
 31
0.0000
 6
CONTINUOUS
 0
ARC
 8
WHITE
 10
2.682911
 20
6.633145
 30
 0
 40
2.701901E-02
 50
92.16692
 51
156.4915
 6
CONTINUOUS
 0
LINE
 8
WHITE
 10
2.681889
 20
6.660144
 30
0.0000
 11
2.703325
 21
6.661303
 31
0.0000
 6
CONTINUOUS
 0
ARC
 8
WHITE
 10
2.706446
 20
6.617335
 30
 0
 40
4.407879E-02
 50
53.16159
 51
94.05947
 6
CONTINUOUS
 0
LINE
 8
WHITE
 10
2.732873
 20
6.652612
 30
0.0000
 11
2.740405
 21
6.646819
 31
0.0000
 6
CONTINUOUS
 0
ARC
 8
WHITE
 10
2.716188
 20
6.615475
 30
 0
 40
.0396103
 50
352.522
 51
52.30901
 6
CONTINUOUS
 0
LINE
 8
WHITE
 10
2.75546
 20
6.610319
 30
0.0000
 11
2.753151
 21
6.587722
 31
0.0000
 6
CONTINUOUS
 0
ARC
 8
WHITE
 10
2.592028
 20
6.605683
 30
 0
 40
.1621222
 50
339.4992
 51
353.6395
 6
CONTINUOUS
 0
LINE
 8
WHITE
 10
2.743881
 20
6.548904
 30
0.0000
 11
2.721865
 21
6.490967
 31
0.0000
 6
CONTINUOUS
 0
ARC
 8
WHITE
 10
2.764908
 20
6.475137
 30
 0
 40
4.586132E-02
 50
159.8077
 51
188.4837
 6
CONTINUOUS
 0
LINE
 8
WHITE
 10
2.719548
 20
6.468371
 30
0.0000
 11
2.725921
 21
6.426656
 31
0.0000
 6
CONTINUOUS
 0
ARC
 8
WHITE
 10
2.772334
 20
6.433113
 30
 0
 40
4.685938E-02
 50
187.9195
 51
213.9292
 6
CONTINUOUS
 0
LINE
 8
WHITE
 10
2.733453
 20
6.406957
 30
0.0000
 11
2.740984
 21
6.395949
 31
0.0000
 6
CONTINUOUS
 0
ARC
 8
WHITE
 10
2.749494
 20
6.402043
 30
 0
 40
1.046616E-02
 50
215.6061
 51
293.8826
 6
CONTINUOUS
 0
LINE
 8
WHITE
 10
2.753731
 20
6.392473
 30
0.0000
 11
2.761263
 21
6.395949
 31
0.0000
 6
CONTINUOUS
 0
ARC
 8
WHITE
 10
2.747863
 20
6.427204
 30
 0
 40
3.400553E-02
 50
293.208
 51
334.85
 6
CONTINUOUS
 0
LINE
 8
WHITE
 10
2.778644
 20
6.412751
 30
0.0000
 11
2.808772
 21
6.479959
 31
0.0000
 6
CONTINUOUS
 0
LINE
 8
WHITE
 10
2.808772
 20
6.479959
 30
0.0000
 11
2.85686
 21
6.536737
 31
0.0000
 6
CONTINUOUS
 0
LINE
 8
WHITE
 10
2.85686
 20
6.536737
 30
0.0000
 11
2.862074
 21
6.544848
 31
0.0000
 6
CONTINUOUS
 0
LINE
 8
WHITE
 10
2.862074
 20
6.544848
 30
0.0000
 11
2.892781
 21
6.583667
 31
0.0000
 6
CONTINUOUS
 0
ARC
 8
WHITE
 10
2.831483
 20
6.631292
 30
 0
 40
7.762469E-02
 50
322.1553
 51
345.6527
 6
CONTINUOUS
 0
LINE
 8
WHITE
 10
2.906686
 20
6.612056
 30
0.0000
 11
2.913638
 21
6.643342
 31
0.0000
 6
CONTINUOUS
 0
ARC
 8
WHITE
 10
2.966901
 20
6.629797
 30
 0
 40
.0549578
 50
123.1923
 51
165.7307
 6
CONTINUOUS
 0
LINE
 8
WHITE
 10
2.936814
 20
6.675787
 30
0.0000
 11
2.945504
 21
6.681002
 31
0.0000
 6
CONTINUOUS
 0
ARC
 8
WHITE
 10
2.97598
 20
6.635463
 30
 0
 40
5.479504E-02
 50
78.1676
 51
123.7905
 6
CONTINUOUS
 0
LINE
 8
WHITE
 10
2.987215
 20
6.689094
 30
0.0000
 11
3.005179
 21
6.685636
 31
0.0000
 6
CONTINUOUS
 0
ARC
 8
WHITE
 10
2.993766
 20
6.632277
 30
 0
 40
5.456747E-02
 50
28.60587
 51
77.92661
 6
CONTINUOUS
 0
LINE
 8
WHITE
 10
3.041672
 20
6.658402
 30
0.0000
 11
3.047474
 21
6.648557
 31
0.0000
 6
CONTINUOUS
 0
ARC
 8
WHITE
 10
3.013819
 20
6.630093
 30
 0
 40
3.838761E-02
 50
339.5671
 51
28.75013
 6
CONTINUOUS
 0
LINE
 8
WHITE
 10
3.049791
 20
6.616691
 30
0.0000
 11
3.045736
 21
6.605103
 31
0.0000
 6
CONTINUOUS
 0
ARC
 8
WHITE
 10
2.982841
 20
6.628937
 30
 0
 40
6.725997E-02
 50
310.6059
 51
339.2466
 6
CONTINUOUS
 0
LINE
 8
WHITE
 10
3.026616
 20
6.577873
 30
0.0000
 11
2.998807
 21
6.553539
 31
0.0000
 6
CONTINUOUS
 0
ARC
 8
WHITE
 10
3.067521
 20
6.477236
 30
 0
 40
.1026831
 50
132.0037
 51
140.9311
 6
CONTINUOUS
 0
LINE
 8
WHITE
 10
2.987798
 20
6.541952
 30
0.0000
 11
2.956513
 21
6.504292
 31
0.0000
 6
CONTINUOUS
 0
ARC
 8
WHITE
 10
3.005128
 20
6.463673
 30
 0
 40
6.335112E-02
 50
140.1197
 51
157.3492
 6
CONTINUOUS
 0
LINE
 8
WHITE
 10
2.946663
 20
6.48807
 30
0.0000
 11
2.927543
 21
6.442879
 31
0.0000
 6
CONTINUOUS
 0
ARC
 8
WHITE
 10
2.979977
 20
6.420167
 30
 0
 40
5.714101E-02
 50
156.58
 51
182.7896
 6
CONTINUOUS
 0
LINE
 8
WHITE
 10
2.922904
 20
6.417386
 30
0.0000
 11
2.924067
 21
6.397687
 31
0.0000
 6
CONTINUOUS
 0
ARC
 8
WHITE
 10
2.942608
 20
6.398193
 30
 0
 40
1.854727E-02
 50
181.5616
 51
275.3777
 6
CONTINUOUS
 0
ARC
 8
WHITE
 10
2.936583
 20
6.451685
 30
 0
 40
7.237566E-02
 50
276.1579
 51
288.8701
 6
CONTINUOUS
 0
LINE
 8
WHITE
 10
2.95999
 20
6.383199
 30
0.0000
 11
2.990696
 21
6.394791
 31
0.0000
 6
CONTINUOUS
 0
LINE
 8
WHITE
 10
2.990696
 20
6.394791
 30
0.0000
 11
3.039363
 21
6.422021
 31
0.0000
 6
CONTINUOUS
 0
ARC
 8
WHITE
 10
3.112538
 20
6.287664
 30
 0
 40
.1529914
 50
108.8464
 51
118.5741
 6
CONTINUOUS
 0
LINE
 8
WHITE
 10
3.063117
 20
6.43245
 30
0.0000
 11
3.090348
 21
6.442299
 31
0.0000
 6
CONTINUOUS
 0
ARC
 8
WHITE
 10
3.066189
 20
6.513215
 30
 0
 40
7.491776E-02
 50
288.8133
 51
309.7599
 6
CONTINUOUS
 0
LINE
 8
WHITE
 10
3.114104
 20
6.455623
 30
0.0000
 11
3.141333
 21
6.4788
 31
0.0000
 6
CONTINUOUS
 0
ARC
 8
WHITE
 10
3.171808
 20
6.443169
 30
 0
 40
4.688656E-02
 50
96.09785
 51
130.5398
 6
CONTINUOUS
 0
LINE
 8
WHITE
 10
3.166827
 20
6.489789
 30
0.0000
 11
3.189421
 21
6.492125
 31
0.0000
 6
CONTINUOUS
 0
ARC
 8
WHITE
 10
3.194288
 20
6.441662
 30
 0
 40
.0506978
 50
55.47463
 51
95.50844
 6
CONTINUOUS
 0
LINE
 8
WHITE
 10
3.223022
 20
6.48343
 30
0.0000
 11
3.235192
 21
6.474744
 31
0.0000
 6
CONTINUOUS
 0
ARC
 8
WHITE
 10
3.21868
 20
6.448499
 30
 0
 40
3.100831E-02
 50
1.392272
 51
57.82445
 6
CONTINUOUS
 0
LINE
 8
WHITE
 10
3.249678
 20
6.449252
 30
0.0000
 11
3.249676
 21
6.426656
 31
0.0000
 6
CONTINUOUS
 0
ARC
 8
WHITE
 10
3.221867
 20
6.426483
 30
 0
 40
.0278104
 50
304.2192
 51
.3585759
 6
CONTINUOUS
 0
LINE
 8
WHITE
 10
3.237506
 20
6.403486
 30
0.0000
 11
3.221866
 21
6.392473
 31
0.0000
 6
CONTINUOUS
 0
ARC
 8
WHITE
 10
3.137567
 20
6.51281
 30
 0
 40
.1469257
 50
286.8485
 51
305.0122
 6
CONTINUOUS
 0
LINE
 8
WHITE
 10
3.180152
 20
6.37219
 30
0.0000
 11
3.138436
 21
6.359448
 31
0.0000
 6
CONTINUOUS
 0
ARC
 8
WHITE
 10
3.15182
 20
6.312925
 30
 0
 40
4.841031E-02
 50
106.0489
 51
128.5842
 6
CONTINUOUS
 0
LINE
 8
WHITE
 10
3.121628
 20
6.350767
 30
0.0000
 11
3.074126
 21
6.31136
 31
0.0000
 6
CONTINUOUS
 0
ARC
 8
WHITE
 10
3.11335
 20
6.264142
 30
 0
 40
6.138495E-02
 50
129.7157
 51
153.3629
 6
CONTINUOUS
 0
LINE
 8
WHITE
 10
3.05848
 20
6.291663
 30
0.0000
 11
3.031251
 21
6.240097
 31
0.0000
 6
CONTINUOUS
 0
ARC
 8
WHITE
 10
3.04817
 20
6.231639
 30
 0
 40
1.891468E-02
 50
153.4343
 51
202.3242
 6
CONTINUOUS
 0
LINE
 8
WHITE
 10
3.030673
 20
6.224454
 30
0.0000
 11
3.035887
 21
6.20997
 31
0.0000
 6
CONTINUOUS
 0
ARC
 8
WHITE
 10
3.047243
 20
6.214663
 30
 0
 40
1.228701E-02
 50
202.4522
 51
273.7963
 6
CONTINUOUS
 0
LINE
 8
WHITE
 10
3.048056
 20
6.202403
 30
0.0000
 11
3.104833
 21
6.204176
 31
0.0000
 6
CONTINUOUS
 0
ARC
 8
WHITE
 10
3.10437
 20
6.240098
 30
 0
 40
3.592457E-02
 50
270.7392
 51
303.0238
 6
CONTINUOUS
 0
ARC
 8
WHITE
 10
3.158164
 20
6.161762
 30
 0
 40
5.912222E-02
 50
97.34637
 51
125.3611
 6
CONTINUOUS
 0
LINE
 8
WHITE
 10
3.150603
 20
6.220398
 30
0.0000
 11
3.163928
 21
6.221557
 31
0.0000
 6
CONTINUOUS
 0
ARC
 8
WHITE
 10
3.170129
 20
6.162462
 30
 0
 40
5.942019E-02
 50
54.00126
 51
95.98907
 6
CONTINUOUS
 0
ARC
 8
WHITE
 10
3.177173
 20
6.168841
 30
 0
 40
5.015631E-02
 50
354.0284
 51
56.22895
 6
CONTINUOUS
 0
LINE
 8
WHITE
 10
3.227057
 20
6.163622
 30
0.0000
 11
3.224763
 21
6.145659
 31
0.0000
 6
CONTINUOUS
 0
ARC
 8
WHITE
 10
3.194056
 20
6.148846
 30
 0
 40
.0308718
 50
299.2114
 51
354.0752
 6
CONTINUOUS
 0
ARC
 8
WHITE
 10
6.399168
 20
.31355
 30
 0
 40
1.349667E-02
 50
350.6312
 51
94.96164
 6
CONTINUOUS
 0
LINE
 8
WHITE
 10
6.398
 20
.326995
 30
0.0000
 11
5.897419
 21
.272534
 31
0.0000
 6
CONTINUOUS
 0
LINE
 8
WHITE
 10
5.897419
 20
.272534
 30
0.0000
 11
5.886411
 21
.323519
 31
0.0000
 6
CONTINUOUS
 0
LINE
 8
WHITE
 10
5.886411
 20
.323519
 30
0.0000
 11
6.394524
 21
.388409
 31
0.0000
 6
CONTINUOUS
 0
ARC
 8
WHITE
 10
6.392902
 20
.4005772
 30
 0
 40
1.227512E-02
 50
277.5941
 51
37.73234
 6
CONTINUOUS
 0
LINE
 8
WHITE
 10
6.402609
 20
.408088
 30
0.0000
 11
6.370769
 21
.445768
 31
0.0000
 6
CONTINUOUS
 0
ARC
 8
WHITE
 10
6.323377
 20
.4056177
 30
 0
 40
6.211407E-02
 50
40.27089
 51
76.62481
 6
CONTINUOUS
 0
LINE
 8
WHITE
 10
6.337745
 20
.466046
 30
0.0000
 11
6.222449
 21
.493856
 31
0.0000
 6
CONTINUOUS
 0
ARC
 8
WHITE
 10
6.182647
 20
.3250846
 30
 0
 40
.173402
 50
76.7299
 51
90.24879
 6
CONTINUOUS
 0
LINE
 8
WHITE
 10
6.181893
 20
.498484
 30
0.0000
 11
6.012716
 21
.49849
 31
0.0000
 6
CONTINUOUS
 0
ARC
 8
WHITE
 10
6.013759
 20
.1288497
 30
 0
 40
.3696427
 50
90.16157
 51
99.63654
 6
CONTINUOUS
 0
LINE
 8
WHITE
 10
5.951881
 20
.493276
 30
0.0000
 11
5.745045
 21
.458514
 31
0.0000
 6
CONTINUOUS
 0
LINE
 8
WHITE
 10
5.745045
 20
.458514
 30
0.0000
 11
5.491278
 21
.402315
 31
0.0000
 6
CONTINUOUS
 0
LINE
 8
WHITE
 10
5.491278
 20
.402315
 30
0.0000
 11
5.271115
 21
.323519
 31
0.0000
 6
CONTINUOUS
 0
LINE
 8
WHITE
 10
5.271115
 20
.323519
 30
0.0000
 11
5.144812
 21
.26732
 31
0.0000
 6
CONTINUOUS
 0
ARC
 8
WHITE
 10
5.162483
 20
.2237519
 30
 0
 40
4.701605E-02
 50
112.0764
 51
168.4823
 6
CONTINUOUS
 0
LINE
 8
WHITE
 10
5.116414
 20
.233139
 30
0.0000
 11
5.111207
 21
.208224
 31
0.0000
 6
CONTINUOUS
 0
ARC
 8
WHITE
 10
5.143653
 20
.2017356
 30
 0
 40
3.308738E-02
 50
168.691
 51
245.1422
 6
CONTINUOUS
 0
LINE
 8
WHITE
 10
5.129744
 20
.171713
 30
0.0000
 11
5.181312
 21
.14739
 31
0.0000
 6
CONTINUOUS
 0
ARC
 8
WHITE
 10
5.289851
 20
.3769858
 30
 0
 40
.253958
 50
244.6982
 51
261.2956
 6
CONTINUOUS
 0
LINE
 8
WHITE
 10
5.251417
 20
.125952
 30
0.0000
 11
5.434499
 21
.097564
 31
0.0000
 6
CONTINUOUS
 0
LINE
 8
WHITE
 10
5.434499
 20
.097564
 30
0.0000
 11
5.761846
 21
.103357
 31
0.0000
 6
CONTINUOUS
 0
LINE
 8
WHITE
 10
5.761846
 20
.103357
 30
0.0000
 11
5.76764
 21
.103357
 31
0.0000
 6
CONTINUOUS
 0
LINE
 8
WHITE
 10
5.76764
 20
.103357
 30
0.0000
 11
6.0272
 21
.131747
 31
0.0000
 6
CONTINUOUS
 0
LINE
 8
WHITE
 10
6.0272
 20
.131747
 30
0.0000
 11
6.268799
 21
.19316
 31
0.0000
 6
CONTINUOUS
 0
ARC
 8
WHITE
 10
6.231372
 20
.335861
 30
 0
 40
.1475267
 50
284.6965
 51
303.5153
 6
CONTINUOUS
 0
LINE
 8
WHITE
 10
6.312832
 20
.212859
 30
0.0000
 11
6.390468
 21
.262685
 31
0.0000
 6
CONTINUOUS
 0
ARC
 8
WHITE
 10
6.366077
 20
.3002873
 30
 0
 40
4.482035E-02
 50
302.9706
 51
349.6487
 6
CONTINUOUS
 0
LINE
 8
WHITE
 10
6.410167
 20
.292234
 30
0.0000
 11
6.412484
 21
.311352
 31
0.0000
 6
CONTINUOUS
 0
LINE
 8
WHITE
 10
6.976796
 20
1.617843
 30
0.0000
 11
6.510978
 21
1.810196
 31
0.0000
 6
CONTINUOUS
 0
LINE
 8
WHITE
 10
6.510978
 20
1.810196
 30
0.0000
 11
6.524883
 21
1.860022
 31
0.0000
 6
CONTINUOUS
 0
LINE
 8
WHITE
 10
6.524883
 20
1.860022
 30
0.0000
 11
7.002868
 21
1.673464
 31
0.0000
 6
CONTINUOUS
 0
ARC
 8
WHITE
 10
7.007155
 20
1.684356
 30
 0
 40
1.170564E-02
 50
248.5152
 51
14.85711
 6
CONTINUOUS
 0
LINE
 8
WHITE
 10
7.018469
 20
1.687357
 30
0.0000
 11
7.009241
 21
1.735456
 31
0.0000
 6
CONTINUOUS
 0
ARC
 8
WHITE
 10
6.948291
 20
1.723811
 30
 0
 40
6.205282E-02
 50
10.81682
 51
47.61125
 6
CONTINUOUS
 0
LINE
 8
WHITE
 10
6.990123
 20
1.769642
 30
0.0000
 11
6.901477
 21
1.848435
 31
0.0000
 6
CONTINUOUS
 0
ARC
 8
WHITE
 10
6.784351
 20
1.72043
 30
 0
 40
.1735047
 50
47.54103
 51
61.00552
 6
CONTINUOUS
 0
LINE
 8
WHITE
 10
6.868453
 20
1.872189
 30
0.0000
 11
6.720133
 21
1.953302
 31
0.0000
 6
CONTINUOUS
 0
ARC
 8
WHITE
 10
6.544756
 20
1.628156
 30
 0
 40
.3694278
 50
61.6585
 51
71.08485
 6
CONTINUOUS
 0
LINE
 8
WHITE
 10
6.664512
 20
1.977633
 30
0.0000
 11
6.457097
 21
2.049477
 31
0.0000
 6
CONTINUOUS
 0
LINE
 8
WHITE
 10
6.457097
 20
2.049477
 30
0.0000
 11
6.216076
 21
2.118423
 31
0.0000
 6
CONTINUOUS
 0
LINE
 8
WHITE
 10
6.216076
 20
2.118423
 30
0.0000
 11
5.984905
 21
2.154344
 31
0.0000
 6
CONTINUOUS
 0
LINE
 8
WHITE
 10
5.984905
 20
2.154344
 30
0.0000
 11
5.847014
 21
2.165932
 31
0.0000
 6
CONTINUOUS
 0
ARC
 8
WHITE
 10
5.841974
 20
2.118423
 30
 0
 40
4.777537E-02
 50
83.94361
 51
139.0821
 6
CONTINUOUS
 0
LINE
 8
WHITE
 10
5.805872
 20
2.149715
 30
0.0000
 11
5.789656
 21
2.13001
 31
0.0000
 6
CONTINUOUS
 0
ARC
 8
WHITE
 10
5.814395
 20
2.108342
 30
 0
 40
.0328866
 50
138.7852
 51
216.3244
 6
CONTINUOUS
 0
LINE
 8
WHITE
 10
5.787899
 20
2.088861
 30
0.0000
 11
5.822101
 21
2.043105
 31
0.0000
 6
CONTINUOUS
 0
ARC
 8
WHITE
 10
6.02778
 20
2.193163
 30
 0
 40
.2546002
 50
216.1135
 51
232.5826
 6
CONTINUOUS
 0
LINE
 8
WHITE
 10
5.873081
 20
1.990952
 30
0.0000
 11
6.020827
 21
1.877982
 31
0.0000
 6
CONTINUOUS
 0
LINE
 8
WHITE
 10
6.020827
 20
1.877982
 30
0.0000
 11
6.315729
 21
1.723289
 31
0.0000
 6
CONTINUOUS
 0
LINE
 8
WHITE
 10
6.315729
 20
1.723289
 30
0.0000
 11
6.557328
 21
1.624216
 31
0.0000
 6
CONTINUOUS
 0
LINE
 8
WHITE
 10
6.557328
 20
1.624216
 30
0.0000
 11
6.798928
 21
1.562803
 31
0.0000
 6
CONTINUOUS
 0
ARC
 8
WHITE
 10
6.836951
 20
1.705499
 30
 0
 40
.1476748
 50
255.0795
 51
273.9081
 6
CONTINUOUS
 0
LINE
 8
WHITE
 10
6.847016
 20
1.558167
 30
0.0000
 11
6.939136
 21
1.565699
 31
0.0000
 6
CONTINUOUS
 0
ARC
 8
WHITE
 10
6.935834
 20
1.610312
 30
 0
 40
4.473401E-02
 50
274.2338
 51
320.6218
 6
CONTINUOUS
 0
LINE
 8
WHITE
 10
6.970412
 20
1.581931
 30
0.0000
 11
6.98201
 21
1.596406
 31
0.0000
 6
CONTINUOUS
 0
ARC
 8
WHITE
 10
6.971676
 20
1.605246
 30
 0
 40
1.359897E-02
 50
319.4595
 51
67.88186
 6
CONTINUOUS
 0
LINE
 8
WHITE
 10
8.172626
 20
5.623062
 30
0.0000
 11
8.194063
 21
5.610317
 31
0.0000
 6
CONTINUOUS
 0
ARC
 8
WHITE
 10
8.208548
 20
5.636389
 30
 0
 40
.0298253
 50
240.9455
 51
277.8159
 6
CONTINUOUS
 0
LINE
 8
WHITE
 10
8.212603
 20
5.606841
 30
0.0000
 11
8.249103
 21
5.611475
 31
0.0000
 6
CONTINUOUS
 0
LINE
 8
WHITE
 10
8.249103
 20
5.611475
 30
0.0000
 11
8.293715
 21
5.5883
 31
0.0000
 6
CONTINUOUS
 0
LINE
 8
WHITE
 10
8.293715
 20
5.5883
 30
0.0000
 11
8.312834
 21
5.555855
 31
0.0000
 6
CONTINUOUS
 0
ARC
 8
WHITE
 10
8.464284
 20
5.642935
 30
 0
 40
.1746991
 50
209.898
 51
297.1514
 6
CONTINUOUS
 0
LINE
 8
WHITE
 10
8.544006
 20
5.487488
 30
0.0000
 11
8.566021
 21
5.499076
 31
0.0000
 6
CONTINUOUS
 0
ARC
 8
WHITE
 10
8.631665
 20
5.369702
 30
 0
 40
.1450748
 50
99.02972
 51
116.9029
 6
CONTINUOUS
 0
LINE
 8
WHITE
 10
8.608896
 20
5.512979
 30
0.0000
 11
8.663356
 21
5.522251
 31
0.0000
 6
CONTINUOUS
 0
ARC
 8
WHITE
 10
8.65681
 20
5.566342
 30
 0
 40
4.457418E-02
 50
278.446
 51
329.4703
 6
CONTINUOUS
 0
LINE
 8
WHITE
 10
8.695203
 20
5.543699
 30
0.0000
 11
8.7155
 21
5.578451
 31
0.0000
 6
CONTINUOUS
 0
ARC
 8
WHITE
 10
8.681086
 20
5.598382
 30
 0
 40
3.976969E-02
 50
329.9243
 51
24.62299
 6
CONTINUOUS
 0
LINE
 8
WHITE
 10
8.717238
 20
5.614951
 30
0.0000
 11
8.692904
 21
5.666516
 31
0.0000
 6
CONTINUOUS
 0
ARC
 8
WHITE
 10
8.666718
 20
5.654582
 30
 0
 40
2.877837E-02
 50
24.50123
 51
118.6276
 6
CONTINUOUS
 0
LINE
 8
WHITE
 10
8.652929
 20
5.679841
 30
0.0000
 11
8.553275
 21
5.62538
 31
0.0000
 6
CONTINUOUS
 0
ARC
 8
WHITE
 10
8.542731
 20
5.645601
 30
 0
 40
2.280421E-02
 50
200.6923
 51
297.5397
 6
CONTINUOUS
 0
LINE
 8
WHITE
 10
8.521397
 20
5.637543
 30
0.0000
 11
8.506345
 21
5.679262
 31
0.0000
 6
CONTINUOUS
 0
ARC
 8
WHITE
 10
8.53126
 20
5.688011
 30
 0
 40
2.640518E-02
 50
118.8719
 51
199.3488
 6
CONTINUOUS
 0
LINE
 8
WHITE
 10
8.518509
 20
5.711133
 30
0.0000
 11
8.656983
 21
5.793399
 31
0.0000
 6
CONTINUOUS
 0
ARC
 8
WHITE
 10
8.646381
 20
5.811244
 30
 0
 40
2.075656E-02
 50
300.7157
 51
21.62371
 6
CONTINUOUS
 0
LINE
 8
WHITE
 10
8.665677
 20
5.818893
 30
0.0000
 11
8.648872
 21
5.864083
 31
0.0000
 6
CONTINUOUS
 0
ARC
 8
WHITE
 10
8.621874
 20
5.853655
 30
 0
 40
2.894257E-02
 50
21.11952
 51
90.45877
 6
CONTINUOUS
 0
LINE
 8
WHITE
 10
8.621642
 20
5.882596
 30
0.0000
 11
8.59499
 21
5.883202
 31
0.0000
 6
CONTINUOUS
 0
ARC
 8
WHITE
 10
8.595396
 20
5.96895
 30
 0
 40
8.574868E-02
 50
241.4608
 51
269.7292
 6
CONTINUOUS
 0
LINE
 8
WHITE
 10
8.554429
 20
5.893621
 30
0.0000
 11
8.540529
 21
5.900584
 31
0.0000
 6
CONTINUOUS
 0
ARC
 8
WHITE
 10
8.568745
 20
5.952496
 30
 0
 40
5.908424E-02
 50
194.54
 51
241.4748
 6
CONTINUOUS
 0
LINE
 8
WHITE
 10
8.511552
 20
5.937662
 30
0.0000
 11
8.500552
 21
5.981117
 31
0.0000
 6
CONTINUOUS
 0
ARC
 8
WHITE
 10
8.454674
 20
5.969267
 30
 0
 40
4.738417E-02
 50
14.4829
 51
58.1262
 6
CONTINUOUS
 0
LINE
 8
WHITE
 10
8.479695
 20
6.009506
 30
0.0000
 11
8.263587
 21
6.143921
 31
0.0000
 6
CONTINUOUS
 0
ARC
 8
WHITE
 10
8.236183
 20
6.099657
 30
 0
 40
5.206104E-02
 50
58.23765
 51
145.1069
 6
CONTINUOUS
 0
LINE
 8
WHITE
 10
8.193482
 20
6.129437
 30
0.0000
 11
7.979115
 21
5.822947
 31
0.0000
 6
CONTINUOUS
 0
ARC
 8
WHITE
 10
8.012475
 20
5.800277
 30
 0
 40
4.033399E-02
 50
145.8014
 51
224.5876
 6
CONTINUOUS
 0
LINE
 8
WHITE
 10
7.983749
 20
5.771962
 30
0.0000
 11
8.033576
 21
5.721556
 31
0.0000
 6
CONTINUOUS
 0
ARC
 8
WHITE
 10
8.040935
 20
5.728045
 30
 0
 40
9.810851E-03
 50
221.406
 51
327.243
 6
CONTINUOUS
 0
LINE
 8
WHITE
 10
8.049184
 20
5.722737
 30
0.0000
 11
8.162776
 21
5.878567
 31
0.0000
 6
CONTINUOUS
 0
LINE
 8
WHITE
 10
8.162776
 20
5.878567
 30
0.0000
 11
8.247944
 21
5.824686
 31
0.0000
 6
CONTINUOUS
 0
LINE
 8
WHITE
 10
8.247944
 20
5.824686
 30
0.0000
 11
8.143077
 21
5.665357
 31
0.0000
 6
CONTINUOUS
 0
ARC
 8
WHITE
 10
8.160787
 20
5.653969
 30
 0
 40
.0210543
 50
147.2565
 51
242.8802
 6
CONTINUOUS
 0
LINE
 8
WHITE
 10
8.151188
 20
5.635229
 30
0.0000
 11
8.172626
 21
5.623062
 31
0.0000
 6
CONTINUOUS
 0
ARC
 8
WHITE
 10
9.335968
 20
5.926147
 30
 0
 40
.1933828
 50
210.0461
 51
297.1045
 6
CONTINUOUS
 0
LINE
 8
WHITE
 10
9.424076
 20
5.754001
 30
0.0000
 11
9.430449
 21
5.757478
 31
0.0000
 6
CONTINUOUS
 0
ARC
 8
WHITE
 10
9.495687
 20
5.628451
 30
 0
 40
.1445819
 50
98.66565
 51
116.8214
 6
CONTINUOUS
 0
LINE
 8
WHITE
 10
9.473902
 20
5.771381
 30
0.0000
 11
9.528363
 21
5.780653
 31
0.0000
 6
CONTINUOUS
 0
ARC
 8
WHITE
 10
9.521817
 20
5.824744
 30
 0
 40
4.457356E-02
 50
278.4449
 51
329.4698
 6
CONTINUOUS
 0
LINE
 8
WHITE
 10
9.560211
 20
5.8021
 30
0.0000
 11
9.579928
 21
5.836852
 31
0.0000
 6
CONTINUOUS
 0
ARC
 8
WHITE
 10
9.545852
 20
5.856767
 30
 0
 40
.0394689
 50
329.6983
 51
24.84979
 6
CONTINUOUS
 0
LINE
 8
WHITE
 10
9.581665
 20
5.873353
 30
0.0000
 11
9.557911
 21
5.924917
 31
0.0000
 6
CONTINUOUS
 0
ARC
 8
WHITE
 10
9.531609
 20
5.913272
 30
 0
 40
2.876589E-02
 50
23.88052
 51
119.7178
 6
CONTINUOUS
 0
LINE
 8
WHITE
 10
9.517348
 20
5.938255
 30
0.0000
 11
9.417702
 21
5.883781
 31
0.0000
 6
CONTINUOUS
 0
ARC
 8
WHITE
 10
9.407216
 20
5.90377
 30
 0
 40
2.257234E-02
 50
198.7144
 51
297.6829
 6
CONTINUOUS
 0
LINE
 8
WHITE
 10
9.385837
 20
5.896528
 30
0.0000
 11
9.371353
 21
5.937664
 31
0.0000
 6
CONTINUOUS
 0
ARC
 8
WHITE
 10
9.396399
 20
5.946596
 30
 0
 40
.0265905
 50
120.4061
 51
199.6281
 6
CONTINUOUS
 0
LINE
 8
WHITE
 10
9.38294
 20
5.969529
 30
0.0000
 11
9.52141
 21
6.05238
 31
0.0000
 6
CONTINUOUS
 0
ARC
 8
WHITE
 10
9.510919
 20
6.070627
 30
 0
 40
2.104867E-02
 50
299.8994
 51
20.13403
 6
CONTINUOUS
 0
LINE
 8
WHITE
 10
9.530681
 20
6.077872
 30
0.0000
 11
9.513879
 21
6.122484
 31
0.0000
 6
CONTINUOUS
 0
ARC
 8
WHITE
 10
9.486487
 20
6.112427
 30
 0
 40
2.918039E-02
 50
20.16133
 51
90.82022
 6
CONTINUOUS
 0
LINE
 8
WHITE
 10
9.486069
 20
6.141603
 30
0.0000
 11
9.459418
 21
6.141603
 31
0.0000
 6
CONTINUOUS
 0
ARC
 8
WHITE
 10
9.459824
 20
6.227352
 30
 0
 40
8.574868E-02
 50
241.4608
 51
269.7292
 6
CONTINUOUS
 0
LINE
 8
WHITE
 10
9.418856
 20
6.152022
 30
0.0000
 11
9.405536
 21
6.158985
 31
0.0000
 6
CONTINUOUS
 0
ARC
 8
WHITE
 10
9.433342
 20
6.210565
 30
 0
 40
5.859675E-02
 50
194.3262
 51
241.6719
 6
CONTINUOUS
 0
LINE
 8
WHITE
 10
9.376567
 20
6.196065
 30
0.0000
 11
9.364979
 21
6.239518
 31
0.0000
 6
CONTINUOUS
 0
ARC
 8
WHITE
 10
9.319267
 20
6.227757
 30
 0
 40
4.720122E-02
 50
14.42848
 51
58.23991
 6
CONTINUOUS
 0
LINE
 8
WHITE
 10
9.344112
 20
6.26789
 30
0.0000
 11
9.128015
 21
6.402322
 31
0.0000
 6
CONTINUOUS
 0
ARC
 8
WHITE
 10
9.100322
 20
6.358232
 30
 0
 40
5.206626E-02
 50
57.86647
 51
144.5592
 6
CONTINUOUS
 0
LINE
 8
WHITE
 10
9.057902
 20
6.388423
 30
0.0000
 11
8.843542
 21
6.081928
 31
0.0000
 6
CONTINUOUS
 0
ARC
 8
WHITE
 10
8.876451
 20
6.058579
 30
 0
 40
4.035012E-02
 50
144.644
 51
225.5242
 6
CONTINUOUS
 0
LINE
 8
WHITE
 10
8.848177
 20
6.029784
 30
0.0000
 11
8.898003
 21
5.979958
 31
0.0000
 6
CONTINUOUS
 0
ARC
 8
WHITE
 10
8.905334
 20
5.987171
 30
 0
 40
1.028349E-02
 50
224.5379
 51
323.9367
 6
CONTINUOUS
 0
LINE
 8
WHITE
 10
8.913646
 20
5.981117
 30
0.0000
 11
9.027204
 21
6.136969
 31
0.0000
 6
CONTINUOUS
 0
LINE
 8
WHITE
 10
9.027204
 20
6.136969
 30
0.0000
 11
9.112372
 21
6.083086
 31
0.0000
 6
CONTINUOUS
 0
LINE
 8
WHITE
 10
9.112372
 20
6.083086
 30
0.0000
 11
9.007505
 21
5.923758
 31
0.0000
 6
CONTINUOUS
 0
ARC
 8
WHITE
 10
9.02592
 20
5.912561
 30
 0
 40
2.155203E-02
 50
148.6958
 51
241.4401
 6
CONTINUOUS
 0
LINE
 8
WHITE
 10
9.015616
 20
5.893631
 30
0.0000
 11
9.059069
 21
5.869297
 31
0.0000
 6
CONTINUOUS
 0
ARC
 8
WHITE
 10
9.073439
 20
5.895428
 30
 0
 40
2.982081E-02
 50
241.194
 51
276.9167
 6
CONTINUOUS
 0
LINE
 8
WHITE
 10
9.07703
 20
5.865821
 30
0.0000
 11
9.113531
 21
5.869877
 31
0.0000
 6
CONTINUOUS
 0
ARC
 8
WHITE
 10
9.118051
 20
5.824049
 30
 0
 40
4.605113E-02
 50
29.4679
 51
95.63208
 6
CONTINUOUS
 0
LINE
 8
WHITE
 10
9.158143
 20
5.846702
 30
0.0000
 11
9.168571
 21
5.82932
 31
0.0000
 6
CONTINUOUS
 0
ARC
 8
WHITE
 10
6.946934
 20
4.345222
 30
 0
 40
8.641981E-03
 50
320.6964
 51
45.02235
 6
CONTINUOUS
 0
LINE
 8
WHITE
 10
6.953042
 20
4.351335
 30
0.0000
 11
6.81515
 21
4.47648
 31
0.0000
 6
CONTINUOUS
 0
ARC
 8
WHITE
 10
6.820655
 20
4.482622
 30
 0
 40
8.246794E-03
 50
143.8553
 51
228.1312
 6
CONTINUOUS
 0
LINE
 8
WHITE
 10
6.813992
 20
4.487488
 30
0.0000
 11
6.836008
 21
4.51356
 31
0.0000
 6
CONTINUOUS
 0
ARC
 8
WHITE
 10
6.842381
 20
4.508346
 30
 0
 40
8.234212E-03
 50
50.70592
 51
140.7106
 6
CONTINUOUS
 0
LINE
 8
WHITE
 10
6.847595
 20
4.514718
 30
0.0000
 11
6.984907
 21
4.39247
 31
0.0000
 6
CONTINUOUS
 0
ARC
 8
WHITE
 10
6.997074
 20
4.406376
 30
 0
 40
1.847631E-02
 50
228.815
 51
302.1971
 6
CONTINUOUS
 0
LINE
 8
WHITE
 10
7.006918
 20
4.39074
 30
0.0000
 11
7.028939
 21
4.404058
 31
0.0000
 6
CONTINUOUS
 0
ARC
 8
WHITE
 10
7.144757
 20
4.216689
 30
 0
 40
.2202749
 50
113.2202
 51
121.721
 6
CONTINUOUS
 0
LINE
 8
WHITE
 10
7.057909
 20
4.41912
 30
0.0000
 11
7.115266
 21
4.444034
 31
0.0000
 6
CONTINUOUS
 0
ARC
 8
WHITE
 10
7.084096
 20
4.514255
 30
 0
 40
7.682777E-02
 50
293.9361
 51
319.4643
 6
CONTINUOUS
 0
ARC
 8
WHITE
 10
7.114393
 20
4.488989
 30
 0
 40
3.738465E-02
 50
318.7165
 51
20.32271
 6
CONTINUOUS
 0
LINE
 8
WHITE
 10
7.149449
 20
4.501972
 30
0.0000
 11
7.143076
 21
4.517615
 31
0.0000
 6
CONTINUOUS
 0
ARC
 8
WHITE
 10
7.095973
 20
4.498149
 30
 0
 40
5.096754E-02
 50
22.45431
 51
50.21145
 6
CONTINUOUS
 0
LINE
 8
WHITE
 10
7.12859
 20
4.537312
 30
0.0000
 11
7.030678
 21
4.620744
 31
0.0000
 6
CONTINUOUS
 0
LINE
 8
WHITE
 10
7.030678
 20
4.620744
 30
0.0000
 11
6.965208
 21
4.675205
 31
0.0000
 6
CONTINUOUS
 0
LINE
 8
WHITE
 10
6.965208
 20
4.675205
 30
0.0000
 11
6.826737
 21
4.758635
 31
0.0000
 6
CONTINUOUS
 0
LINE
 8
WHITE
 10
6.826737
 20
4.758635
 30
0.0000
 11
6.669147
 21
4.835113
 31
0.0000
 6
CONTINUOUS
 0
LINE
 8
WHITE
 10
6.669147
 20
4.835113
 30
0.0000
 11
6.558487
 21
4.875669
 31
0.0000
 6
CONTINUOUS
 0
ARC
 8
WHITE
 10
6.487688
 20
4.678334
 30
 0
 40
.2096516
 50
70.26306
 51
85.21264
 6
CONTINUOUS
 0
LINE
 8
WHITE
 10
6.505184
 20
4.887253
 30
0.0000
 11
6.486065
 21
4.888995
 31
0.0000
 6
CONTINUOUS
 0
ARC
 8
WHITE
 10
6.482068
 20
4.844383
 30
 0
 40
4.479066E-02
 50
84.87984
 51
143.4712
 6
CONTINUOUS
 0
LINE
 8
WHITE
 10
6.446076
 20
4.871043
 30
0.0000
 11
6.434501
 21
4.854812
 31
0.0000
 6
CONTINUOUS
 0
ARC
 8
WHITE
 10
6.479924
 20
4.820687
 30
 0
 40
5.681364E-02
 50
143.0833
 51
186.5021
 6
CONTINUOUS
 0
LINE
 8
WHITE
 10
6.423476
 20
4.814253
 30
0.0000
 11
6.42581
 21
4.794557
 31
0.0000
 6
CONTINUOUS
 0
ARC
 8
WHITE
 10
6.583864
 20
4.815125
 30
 0
 40
.1593865
 50
187.4142
 51
203.2285
 6
CONTINUOUS
 0
LINE
 8
WHITE
 10
6.437397
 20
4.752262
 30
0.0000
 11
6.464628
 21
4.687372
 31
0.0000
 6
CONTINUOUS
 0
ARC
 8
WHITE
 10
6.635776
 20
4.760605
 30
 0
 40
.1861572
 50
203.1658
 51
212.0281
 6
CONTINUOUS
 0
LINE
 8
WHITE
 10
6.477954
 20
4.66188
 30
0.0000
 11
6.544003
 21
4.55006
 31
0.0000
 6
CONTINUOUS
 0
LINE
 8
WHITE
 10
6.544003
 20
4.55006
 30
0.0000
 11
6.625115
 21
4.41101
 31
0.0000
 6
CONTINUOUS
 0
ARC
 8
WHITE
 10
6.785603
 20
4.501104
 30
 0
 40
.1840459
 50
209.3087
 51
218.6738
 6
CONTINUOUS
 0
LINE
 8
WHITE
 10
6.641915
 20
4.386096
 30
0.0000
 11
6.715497
 21
4.296874
 31
0.0000
 6
CONTINUOUS
 0
LINE
 8
WHITE
 10
6.715497
 20
4.296874
 30
0.0000
 11
6.772276
 21
4.231984
 31
0.0000
 6
CONTINUOUS
 0
ARC
 8
WHITE
 10
6.872522
 20
4.32351
 30
 0
 40
.135743
 50
222.3967
 51
240.0346
 6
CONTINUOUS
 0
LINE
 8
WHITE
 10
6.804721
 20
4.205912
 30
0.0000
 11
6.848754
 21
4.180998
 31
0.0000
 6
CONTINUOUS
 0
ARC
 8
WHITE
 10
6.857198
 20
4.194103
 30
 0
 40
1.558925E-02
 50
237.2043
 51
316.2183
 6
CONTINUOUS
 0
LINE
 8
WHITE
 10
6.868453
 20
4.183316
 30
0.0000
 11
6.884096
 21
4.200117
 31
0.0000
 6
CONTINUOUS
 0
ARC
 8
WHITE
 10
6.85564
 20
4.225485
 30
 0
 40
3.812157E-02
 50
318.2846
 51
347.017
 6
CONTINUOUS
 0
LINE
 8
WHITE
 10
6.892786
 20
4.21692
 30
0.0000
 11
6.903794
 21
4.251103
 31
0.0000
 6
CONTINUOUS
 0
LINE
 8
WHITE
 10
6.903794
 20
4.251103
 30
0.0000
 11
6.911906
 21
4.277175
 31
0.0000
 6
CONTINUOUS
 0
ARC
 8
WHITE
 10
6.974479
 20
4.258635
 30
 0
 40
6.526148E-02
 50
142.2141
 51
163.4953
 6
CONTINUOUS
 0
LINE
 8
WHITE
 10
6.922902
 20
4.298621
 30
0.0000
 11
6.95362
 21
4.339747
 31
0.0000
 6
CONTINUOUS
 0
LINE
 8
WHITE
 10
1.544576
 20
7.738361
 30
0.0000
 11
1.570647
 21
7.700702
 31
0.0000
 6
CONTINUOUS
 0
LINE
 8
WHITE
 10
1.570647
 20
7.700702
 30
0.0000
 11
1.600196
 21
7.660725
 31
0.0000
 6
CONTINUOUS
 0
ARC
 8
WHITE
 10
1.659177
 20
7.705511
 30
 0
 40
7.405717E-02
 50
217.2108
 51
246.5832
 6
CONTINUOUS
 0
LINE
 8
WHITE
 10
1.629743
 20
7.63755
 30
0.0000
 11
1.640173
 21
7.633494
 31
0.0000
 6
CONTINUOUS
 0
ARC
 8
WHITE
 10
1.657554
 20
7.673703
 30
 0
 40
.0438043
 50
246.6222
 51
300.1583
 6
CONTINUOUS
 0
LINE
 8
WHITE
 10
1.679561
 20
7.635828
 30
0.0000
 11
1.704483
 21
7.650296
 31
0.0000
 6
CONTINUOUS
 0
ARC
 8
WHITE
 10
1.687449
 20
7.680077
 30
 0
 40
3.430729E-02
 50
299.769
 51
330.2303
 6
CONTINUOUS
 0
LINE
 8
WHITE
 10
1.717229
 20
7.663042
 30
0.0000
 11
1.758365
 21
7.737782
 31
0.0000
 6
CONTINUOUS
 0
LINE
 8
WHITE
 10
1.758365
 20
7.737782
 30
0.0000
 11
1.795444
 21
7.800933
 31
0.0000
 6
CONTINUOUS
 0
ARC
 8
WHITE
 10
1.963638
 20
7.700586
 30
 0
 40
.195853
 50
132.2543
 51
149.1787
 6
CONTINUOUS
 0
LINE
 8
WHITE
 10
1.831941
 20
7.84555
 30
0.0000
 11
1.840057
 21
7.852498
 31
0.0000
 6
CONTINUOUS
 0
LINE
 8
WHITE
 10
1.840057
 20
7.852498
 30
0.0000
 11
1.866128
 21
7.876832
 31
0.0000
 6
CONTINUOUS
 0
LINE
 8
WHITE
 10
1.866128
 20
7.876832
 30
0.0000
 11
1.917113
 21
7.907538
 31
0.0000
 6
CONTINUOUS
 0
ARC
 8
WHITE
 10
2.0082
 20
7.759231
 30
 0
 40
.1740459
 50
95.58086
 51
121.5571
 6
CONTINUOUS
 0
LINE
 8
WHITE
 10
1.991274
 20
7.932452
 30
0.0000
 11
2.007496
 21
7.93419
 31
0.0000
 6
CONTINUOUS
 0
ARC
 8
WHITE
 10
2.017733
 20
7.825215
 30
 0
 40
.1094551
 50
74.54871
 51
95.36628
 6
CONTINUOUS
 0
LINE
 8
WHITE
 10
2.046893
 20
7.930714
 30
0.0000
 11
2.103093
 21
7.916229
 31
0.0000
 6
CONTINUOUS
 0
ARC
 8
WHITE
 10
2.099965
 20
7.902672
 30
 0
 40
1.391372E-02
 50
301.0466
 51
77.00583
 6
CONTINUOUS
 0
LINE
 8
WHITE
 10
2.10714
 20
7.890752
 30
0.0000
 11
1.970995
 21
7.803251
 31
0.0000
 6
CONTINUOUS
 0
ARC
 8
WHITE
 10
1.979687
 20
7.788767
 30
 0
 40
1.689186E-02
 50
120.9653
 51
210.9651
 6
CONTINUOUS
 0
LINE
 8
WHITE
 10
1.965202
 20
7.780076
 30
0.0000
 11
1.973893
 21
7.765592
 31
0.0000
 6
CONTINUOUS
 0
ARC
 8
WHITE
 10
1.987219
 20
7.773124
 30
 0
 40
1.530709E-02
 50
209.4766
 51
299.4771
 6
CONTINUOUS
 0
LINE
 8
WHITE
 10
1.99475
 20
7.759799
 30
0.0000
 11
2.129745
 21
7.839172
 31
0.0000
 6
CONTINUOUS
 0
ARC
 8
WHITE
 10
2.135713
 20
7.829439
 30
 0
 40
.0114174
 50
356.5137
 51
121.512
 6
CONTINUOUS
 0
LINE
 8
WHITE
 10
2.147108
 20
7.828744
 30
0.0000
 11
2.145966
 21
7.791084
 31
0.0000
 6
CONTINUOUS
 0
ARC
 8
WHITE
 10
2.092673
 20
7.792775
 30
 0
 40
5.332073E-02
 50
318.5544
 51
358.1838
 6
CONTINUOUS
 0
LINE
 8
WHITE
 10
2.132641
 20
7.757481
 30
0.0000
 11
2.075862
 21
7.69317
 31
0.0000
 6
CONTINUOUS
 0
ARC
 8
WHITE
 10
2.03212
 20
7.73054
 30
 0
 40
5.753187E-02
 50
287.8877
 51
319.4925
 6
CONTINUOUS
 0
LINE
 8
WHITE
 10
2.04979
 20
7.675788
 30
0.0000
 11
1.942026
 21
7.641026
 31
0.0000
 6
CONTINUOUS
 0
ARC
 8
WHITE
 10
1.981309
 20
7.513158
 30
 0
 40
.1337661
 50
107.0774
 51
117.5529
 6
CONTINUOUS
 0
LINE
 8
WHITE
 10
1.919433
 20
7.631752
 30
0.0000
 11
1.893359
 21
7.617851
 31
0.0000
 6
CONTINUOUS
 0
ARC
 8
WHITE
 10
1.969258
 20
7.476484
 30
 0
 40
.1604538
 50
118.2306
 51
152.2317
 6
CONTINUOUS
 0
LINE
 8
WHITE
 10
1.827282
 20
7.551238
 30
0.0000
 11
1.80877
 21
7.515881
 31
0.0000
 6
CONTINUOUS
 0
ARC
 8
WHITE
 10
1.600962
 20
7.625741
 30
 0
 40
.2350607
 50
306.3858
 51
332.1367
 6
CONTINUOUS
 0
LINE
 8
WHITE
 10
1.740404
 20
7.436507
 30
0.0000
 11
1.715491
 21
7.417967
 31
0.0000
 6
CONTINUOUS
 0
ARC
 8
WHITE
 10
1.65852
 20
7.493286
 30
 0
 40
9.443803E-02
 50
270.1166
 51
307.1039
 6
CONTINUOUS
 0
LINE
 8
WHITE
 10
1.658712
 20
7.398847
 30
0.0000
 11
1.627426
 21
7.398847
 31
0.0000
 6
CONTINUOUS
 0
LINE
 8
WHITE
 10
1.627426
 20
7.398847
 30
0.0000
 11
1.607728
 21
7.406379
 31
0.0000
 6
CONTINUOUS
 0
ARC
 8
WHITE
 10
1.629744
 20
7.466055
 30
 0
 40
6.360739E-02
 50
210.0684
 51
249.7495
 6
CONTINUOUS
 0
LINE
 8
WHITE
 10
1.574696
 20
7.434185
 30
0.0000
 11
1.538202
 21
7.49792
 31
0.0000
 6
CONTINUOUS
 0
ARC
 8
WHITE
 10
1.382698
 20
7.408697
 30
 0
 40
.1792832
 50
29.84597
 51
53.88561
 6
CONTINUOUS
 0
LINE
 8
WHITE
 10
1.488367
 20
7.553529
 30
0.0000
 11
1.440288
 21
7.589462
 31
0.0000
 6
CONTINUOUS
 0
LINE
 8
WHITE
 10
1.440288
 20
7.589462
 30
0.0000
 11
1.306452
 21
7.668836
 31
0.0000
 6
CONTINUOUS
 0
LINE
 8
WHITE
 10
1.306452
 20
7.668836
 30
0.0000
 11
1.264158
 21
7.692011
 31
0.0000
 6
CONTINUOUS
 0
ARC
 8
WHITE
 10
1.310393
 20
7.775731
 30
 0
 40
.0956378
 50
210.7908
 51
241.0904
 6
CONTINUOUS
 0
LINE
 8
WHITE
 10
1.228236
 20
7.726773
 30
0.0000
 11
1.202744
 21
7.768488
 31
0.0000
 6
CONTINUOUS
 0
ARC
 8
WHITE
 10
1.294286
 20
7.82353
 30
 0
 40
.1068143
 50
198.3366
 51
211.0171
 6
CONTINUOUS
 0
LINE
 8
WHITE
 10
1.192894
 20
7.789926
 30
0.0000
 11
1.172037
 21
7.853077
 31
0.0000
 6
CONTINUOUS
 0
ARC
 8
WHITE
 10
1.194639
 20
7.860672
 30
 0
 40
2.384353E-02
 50
129.2002
 51
198.5721
 6
CONTINUOUS
 0
LINE
 8
WHITE
 10
1.179569
 20
7.879149
 30
0.0000
 11
1.205062
 21
7.900007
 31
0.0000
 6
CONTINUOUS
 0
ARC
 8
WHITE
 10
1.239361
 20
7.858408
 30
 0
 40
5.391588E-02
 50
94.43645
 51
129.5059
 6
CONTINUOUS
 0
LINE
 8
WHITE
 10
1.23519
 20
7.912161
 30
0.0000
 11
1.278063
 21
7.91565
 31
0.0000
 6
CONTINUOUS
 0
ARC
 8
WHITE
 10
1.291197
 20
7.745324
 30
 0
 40
.1708319
 50
60.24586
 51
94.40948
 6
CONTINUOUS
 0
LINE
 8
WHITE
 10
1.375977
 20
7.893633
 30
0.0000
 11
1.386406
 21
7.88726
 31
0.0000
 6
CONTINUOUS
 0
ARC
 8
WHITE
 10
1.130033
 20
7.438071
 30
 0
 40
.5172028
 50
46.85202
 51
60.28458
 6
CONTINUOUS
 0
ARC
 8
WHITE
 10
1.250775
 20
7.573877
 30
 0
 40
.3355801
 50
36.91538
 51
46.03536
 6
CONTINUOUS
 0
LINE
 8
WHITE
 10
1.51908
 20
7.775439
 30
0.0000
 11
1.544576
 21
7.738361
 31
0.0000
 6
CONTINUOUS
 0
CIRCLE
 8
WHITE
 10
1.020821
 20
5.398845
 30
 0
 40
2.609761E-02
 6
CONTINUOUS
 0
LINE
 8
WHITE
 10
2.013863
 20
6.479953
 30
0.0000
 11
1.984321
 21
6.519936
 31
0.0000
 6
CONTINUOUS
 0
LINE
 8
WHITE
 10
1.984321
 20
6.519936
 30
0.0000
 11
1.932756
 21
6.594675
 31
0.0000
 6
CONTINUOUS
 0
ARC
 8
WHITE
 10
1.664119
 20
6.392797
 30
 0
 40
.3360374
 50
36.9245
 51
46.03201
 6
CONTINUOUS
 0
ARC
 8
WHITE
 10
1.543939
 20
6.257595
 30
 0
 40
.5168344
 50
46.84877
 51
60.29094
 6
CONTINUOUS
 0
LINE
 8
WHITE
 10
1.800079
 20
6.706492
 30
0.0000
 11
1.789072
 21
6.712867
 31
0.0000
 6
CONTINUOUS
 0
ARC
 8
WHITE
 10
1.704427
 20
6.565159
 30
 0
 40
.1702426
 50
60.18496
 51
94.47061
 6
CONTINUOUS
 0
LINE
 8
WHITE
 10
1.691157
 20
6.734883
 30
0.0000
 11
1.648284
 21
6.731407
 31
0.0000
 6
CONTINUOUS
 0
ARC
 8
WHITE
 10
1.65315
 20
6.677584
 30
 0
 40
5.404347E-02
 50
95.16596
 51
129.5614
 6
CONTINUOUS
 0
LINE
 8
WHITE
 10
1.61873
 20
6.719247
 30
0.0000
 11
1.592664
 21
6.698383
 31
0.0000
 6
CONTINUOUS
 0
ARC
 8
WHITE
 10
1.607776
 20
6.679894
 30
 0
 40
2.387942E-02
 50
129.2602
 51
198.514
 6
CONTINUOUS
 0
LINE
 8
WHITE
 10
1.585132
 20
6.672311
 30
0.0000
 11
1.606568
 21
6.609159
 31
0.0000
 6
CONTINUOUS
 0
ARC
 8
WHITE
 10
1.707959
 20
6.642764
 30
 0
 40
.1068144
 50
198.3369
 51
211.0172
 6
CONTINUOUS
 0
LINE
 8
WHITE
 10
1.616418
 20
6.587722
 30
0.0000
 11
1.641331
 21
6.546007
 31
0.0000
 6
CONTINUOUS
 0
ARC
 8
WHITE
 10
1.723028
 20
6.595246
 30
 0
 40
9.538782E-02
 50
211.077
 51
241.7175
 6
CONTINUOUS
 0
LINE
 8
WHITE
 10
1.677831
 20
6.511245
 30
0.0000
 11
1.720126
 21
6.488649
 31
0.0000
 6
CONTINUOUS
 0
LINE
 8
WHITE
 10
1.720126
 20
6.488649
 30
0.0000
 11
1.829628
 21
6.4226
 31
0.0000
 6
CONTINUOUS
 0
LINE
 8
WHITE
 10
1.829628
 20
6.4226
 30
0.0000
 11
1.853383
 21
6.409275
 31
0.0000
 6
CONTINUOUS
 0
LINE
 8
WHITE
 10
1.853383
 20
6.409275
 30
0.0000
 11
1.90205
 21
6.373353
 31
0.0000
 6
CONTINUOUS
 0
ARC
 8
WHITE
 10
1.795098
 20
6.228742
 30
 0
 40
.1798647
 50
41.47406
 51
53.5141
 6
CONTINUOUS
 0
LINE
 8
WHITE
 10
1.92986
 20
6.347861
 30
0.0000
 11
1.951876
 21
6.317734
 31
0.0000
 6
CONTINUOUS
 0
LINE
 8
WHITE
 10
1.951876
 20
6.317734
 30
0.0000
 11
1.987797
 21
6.254002
 31
0.0000
 6
CONTINUOUS
 0
ARC
 8
WHITE
 10
2.042845
 20
6.285858
 30
 0
 40
6.360016E-02
 50
210.0578
 51
249.7404
 6
CONTINUOUS
 0
LINE
 8
WHITE
 10
2.020821
 20
6.226192
 30
0.0000
 11
2.0411
 21
6.218081
 31
0.0000
 6
CONTINUOUS
 0
LINE
 8
WHITE
 10
2.0411
 20
6.218081
 30
0.0000
 11
2.072386
 21
6.218081
 31
0.0000
 6
CONTINUOUS
 0
ARC
 8
WHITE
 10
2.07161
 20
6.31252
 30
 0
 40
9.444126E-02
 50
270.4709
 51
307.1061
 6
CONTINUOUS
 0
LINE
 8
WHITE
 10
2.128586
 20
6.2372
 30
0.0000
 11
2.154078
 21
6.255741
 31
0.0000
 6
CONTINUOUS
 0
ARC
 8
WHITE
 10
2.013811
 20
6.444154
 30
 0
 40
.2348916
 50
306.6664
 51
332.3415
 6
CONTINUOUS
 0
LINE
 8
WHITE
 10
2.221861
 20
6.335116
 30
0.0000
 11
2.240984
 21
6.370457
 31
0.0000
 6
CONTINUOUS
 0
ARC
 8
WHITE
 10
2.382777
 20
6.295381
 30
 0
 40
.1604417
 50
118.4056
 51
152.0997
 6
CONTINUOUS
 0
LINE
 8
WHITE
 10
2.306453
 20
6.436505
 30
0.0000
 11
2.332526
 21
6.45099
 31
0.0000
 6
CONTINUOUS
 0
ARC
 8
WHITE
 10
2.396257
 20
6.333377
 30
 0
 40
.1337699
 50
107.6501
 51
118.4519
 6
CONTINUOUS
 0
LINE
 8
WHITE
 10
2.355697
 20
6.46085
 30
0.0000
 11
2.463464
 21
6.495022
 31
0.0000
 6
CONTINUOUS
 0
ARC
 8
WHITE
 10
2.446373
 20
6.550179
 30
 0
 40
5.774411E-02
 50
287.2167
 51
318.3762
 6
CONTINUOUS
 0
LINE
 8
WHITE
 10
2.489537
 20
6.511824
 30
0.0000
 11
2.545736
 21
6.576714
 31
0.0000
 6
CONTINUOUS
 0
ARC
 8
WHITE
 10
2.505296
 20
6.612173
 30
 0
 40
5.378396E-02
 50
318.7559
 51
358.0251
 6
CONTINUOUS
 0
LINE
 8
WHITE
 10
2.559047
 20
6.610319
 30
0.0000
 11
2.56022
 21
6.648557
 31
0.0000
 6
CONTINUOUS
 0
ARC
 8
WHITE
 10
2.548632
 20
6.648369
 30
 0
 40
1.158963E-02
 50
.9311925
 51
119.9922
 6
CONTINUOUS
 0
LINE
 8
WHITE
 10
2.542838
 20
6.658406
 30
0.0000
 11
2.407845
 21
6.579031
 31
0.0000
 6
CONTINUOUS
 0
ARC
 8
WHITE
 10
2.399888
 20
6.591525
 30
 0
 40
1.481174E-02
 50
209.4308
 51
302.4959
 6
CONTINUOUS
 0
LINE
 8
WHITE
 10
2.386987
 20
6.584246
 30
0.0000
 11
2.378875
 21
6.59931
 31
0.0000
 6
CONTINUOUS
 0
ARC
 8
WHITE
 10
2.39365
 20
6.607943
 30
 0
 40
1.711109E-02
 50
121.6967
 51
210.2986
 6
CONTINUOUS
 0
LINE
 8
WHITE
 10
2.384659
 20
6.622501
 30
0.0000
 11
2.520243
 21
6.70997
 31
0.0000
 6
CONTINUOUS
 0
ARC
 8
WHITE
 10
2.513522
 20
6.722022
 30
 0
 40
1.379848E-02
 50
299.148
 51
76.42863
 6
CONTINUOUS
 0
LINE
 8
WHITE
 10
2.51676
 20
6.735434
 30
0.0000
 11
2.460567
 21
6.750527
 31
0.0000
 6
CONTINUOUS
 0
ARC
 8
WHITE
 10
2.432949
 20
6.644265
 30
 0
 40
.1097927
 50
75.43072
 51
96.15856
 6
CONTINUOUS
 0
LINE
 8
WHITE
 10
2.42117
 20
6.753424
 30
0.0000
 11
2.404947
 21
6.751686
 31
0.0000
 6
CONTINUOUS
 0
ARC
 8
WHITE
 10
2.421866
 20
6.578395
 30
 0
 40
.1741151
 50
95.57596
 51
121.5425
 6
CONTINUOUS
 0
LINE
 8
WHITE
 10
2.330781
 20
6.726784
 30
0.0000
 11
2.279802
 21
6.696065
 31
0.0000
 6
CONTINUOUS
 0
LINE
 8
WHITE
 10
2.279802
 20
6.696065
 30
0.0000
 11
2.245619
 21
6.664779
 31
0.0000
 6
CONTINUOUS
 0
ARC
 8
WHITE
 10
2.377717
 20
6.520515
 30
 0
 40
.1956065
 50
132.4792
 51
149.5603
 6
CONTINUOUS
 0
LINE
 8
WHITE
 10
2.209072
 20
6.619615
 30
0.0000
 11
2.171459
 21
6.557015
 31
0.0000
 6
CONTINUOUS
 0
LINE
 8
WHITE
 10
2.171459
 20
6.557015
 30
0.0000
 11
2.130903
 21
6.482855
 31
0.0000
 6
CONTINUOUS
 0
ARC
 8
WHITE
 10
2.100486
 20
6.499194
 30
 0
 40
3.452729E-02
 50
300.7828
 51
331.7577
 6
CONTINUOUS
 0
LINE
 8
WHITE
 10
2.118156
 20
6.469531
 30
0.0000
 11
2.093243
 21
6.455045
 31
0.0000
 6
CONTINUOUS
 0
ARC
 8
WHITE
 10
2.070996
 20
6.492937
 30
 0
 40
.0439401
 50
246.2061
 51
300.4194
 6
CONTINUOUS
 0
ARC
 8
WHITE
 10
2.073198
 20
6.524455
 30
 0
 40
7.416859E-02
 50
216.87
 51
245.8377
 6
CONTINUOUS
 0
LINE
 8
WHITE
 10
2.053266
 20
6.452728
 30
0.0000
 11
2.042838
 21
6.456784
 31
0.0000
 6
CONTINUOUS
 0
ENDSEC
 0
EOF
