  0
SECTION
  2
HEADER
  9
$ACADVER
  1
AC1006
  9
$INSBASE
 10
0.0
 20
0.0
 30
0.0
  9
$EXTMIN
 10
1.000000E+20
 20
1.000000E+20
  9
$EXTMAX
 10
-1.000000E+20
 20
-1.000000E+20
  9
$LIMMIN
 10
0.0
 20
0.0
  9
$LIMMAX
 10
0.0
 20
0.0
  9
$VIEWCTR
 10
6.591288
 20
4.579184
  9
$VIEWSIZE
 40
9.158369
  9
$SNAPMODE
 70
     0
  9
$SNAPUNIT
 10
1.0
 20
1.0
  9
$SNAPBASE
 10
0.0
 20
0.0
  9
$SNAPANG
 50
0.0
  9
$SNAPSTYLE
 70
     0
  9
$SNAPISOPAIR
 70
     0
  9
$GRIDMODE
 70
     0
  9
$GRIDUNIT
 10
0.0
 20
0.0
  9
$ORTHOMODE
 70
     0
  9
$REGENMODE
 70
     1
  9
$FILLMODE
 70
     1
  9
$QTEXTMODE
 70
     0
  9
$MIRRTEXT
 70
     1
  9
$DRAGMODE
 70
     2
  9
$LTSCALE
 40
1.0
  9
$OSMODE
 70
     0
  9
$ATTMODE
 70
     1
  9
$TEXTSIZE
 40
0.2
  9
$TRACEWID
 40
0.05
  9
$TEXTSTYLE
  7
STANDARD
  9
$CLAYER
  8
0
  9
$CELTYPE
  6
CONTINUOUS
  9
$CECOLOR
 62
   256
  9
$DIMSCALE
 40
1.0
  9
$DIMASZ
 40
0.18
  9
$DIMEXO
 40
0.0625
  9
$DIMDLI
 40
0.38
  9
$DIMRND
 40
0.0
  9
$DIMDLE
 40
0.0
  9
$DIMEXE
 40
0.18
  9
$DIMTP
 40
0.0
  9
$DIMTM
 40
0.0
  9
$DIMTXT
 40
0.18
  9
$DIMCEN
 40
0.09
  9
$DIMTSZ
 40
0.0
  9
$DIMTOL
 70
     0
  9
$DIMLIM
 70
     0
  9
$DIMTIH
 70
     1
  9
$DIMTOH
 70
     1
  9
$DIMSE1
 70
     0
  9
$DIMSE2
 70
     0
  9
$DIMTAD
 70
     0
  9
$DIMZIN
 70
     0
  9
$DIMBLK
  1

  9
$DIMASO
 70
     1
  9
$DIMSHO
 70
     1
  9
$DIMPOST
  1

  9
$DIMAPOST
  1

  9
$DIMALT
 70
     0
  9
$DIMALTD
 70
     2
  9
$DIMALTF
 40
25.4
  9
$DIMLFAC
 40
1.0
  9
$DIMTOFL
 70
     0
  9
$DIMTVP
 40
0.0
  9
$DIMTIX
 70
     0
  9
$DIMSOXD
 70
     0
  9
$DIMSAH
 70
     0
  9
$DIMBLK1
  1

  9
$DIMBLK2
  1

  9
$LUNITS
 70
     2
  9
$LUPREC
 70
     4
  9
$AXISMODE
 70
     0
  9
$AXISUNIT
 10
0.0
 20
0.0
  9
$SKETCHINC
 40
0.1
  9
$FILLETRAD
 40
0.0
  9
$AUNITS
 70
     0
  9
$AUPREC
 70
     0
  9
$MENU
  1
acad
  9
$ELEVATION
 40
0.0
  9
$THICKNESS
 40
0.0
  9
$LIMCHECK
 70
     0
  9
$BLIPMODE
 70
     1
  9
$CHAMFERA
 40
0.0
  9
$CHAMFERB
 40
0.0
  9
$SKPOLY
 70
     0
  9
$TDCREATE
 40
0.000000000
  9
$TDUPDATE
 40
0.000000000
  9
$TDINDWG
 40
0.0000000000
  9
$TDUSRTIMER
 40
0.0000000000
  9
$USRTIMER
 70
     1
  9
$ANGBASE
 50
0.0
  9
$ANGDIR
 70
     0
  9
$PDMODE
 70
     0
  9
$PDSIZE
 40
0.0
  9
$PLINEWID
 40
0.0
  9
$COORDS
 70
     0
  9
$SPLFRAME
 70
     0
  9
$SPLINETYPE
 70
     6
  9
$SPLINESEGS
 70
     8
  9
$ATTDIA
 70
     0
  9
$ATTREQ
 70
     1
  9
$HANDLING
 70
     1
  9
$HANDSEED
  5
14E
  9
$SURFTAB1
 70
     6
  9
$SURFTAB2
 70
     6
  9
$SURFTYPE
 70
     6
  9
$SURFU
 70
     6
  9
$SURFV
 70
     6
  9
$FLATLAND
 70
     0
  9
$UCSNAME
  2

  9
$UCSORG
 10
0.0
 20
0.0
 30
0.0
  9
$UCSXDIR
 10
1.0
 20
0.0
 30
0.0
  9
$UCSYDIR
 10
0.0
 20
1.0
 30
0.0
  9
$USERI1
 70
     0
  9
$USERI2
 70
     0
  9
$USERI3
 70
     0
  9
$USERI4
 70
     0
  9
$USERI5
 70
     0
  9
$USERR1
 40
0.0
  9
$USERR2
 40
0.0
  9
$USERR3
 40
0.0
  9
$USERR4
 40
0.0
  9
$USERR5
 40
0.0
  9
$WORLDVIEW
 70
     1
  0
ENDSEC
  0
SECTION
  2
TABLES
  0
TABLE
  2
VPORT
 70
     1
  0
VPORT
  2
*ACTIVE
 70
     0
 10
0.0
 20
0.0
 11
1.0
 21
1.0
 12
6.591288
 22
4.579184
 13
0.0
 23
0.0
 14
1.0
 24
1.0
 15
0.0
 25
0.0
 16
0.0
 26
0.0
 36
1.0
 17
0.0
 27
0.0
 37
0.0
 40
9.158369
 41
0.688564
 42
50.0
 43
0.0
 44
0.0
 50
0.0
 51
0.0
 71
     0
 72
   100
 73
     1
 74
     1
 75
     0
 76
     0
 77
     0
 78
     0
  0
ENDTAB
  0
TABLE
  2
LTYPE
 70
    25
  0
LTYPE
  2
CONTINUOUS
 70
     0
  3
Solid line
 72
    65
 73
     0
 40
0.0
  0
LTYPE
  2
BORDER
 70
     0
  3
Border __ __ . __ __ . __ __ . __ __ . __ __ .
 72
    65
 73
     6
 40
1.75
 49
0.5
 49
-0.25
 49
0.5
 49
-0.25
 49
0.0
 49
-0.25
  0
LTYPE
  2
BORDER2
 70
     0
  3
Border (.5x) __.__.__.__.__.__.__.__.__.__.__.
 72
    65
 73
     6
 40
0.875
 49
0.25
 49
-0.125
 49
0.25
 49
-0.125
 49
0.0
 49
-0.125
  0
LTYPE
  2
BORDERX2
 70
     0
  3
Border (2x) ____  ____  .  ____  ____  .  ___
 72
    65
 73
     6
 40
3.5
 49
1.0
 49
-0.5
 49
1.0
 49
-0.5
 49
0.0
 49
-0.5
  0
LTYPE
  2
CENTER
 70
     0
  3
Center ____ _ ____ _ ____ _ ____ _ ____ _ ____
 72
    65
 73
     4
 40
2.0
 49
1.25
 49
-0.25
 49
0.25
 49
-0.25
  0
LTYPE
  2
CENTER2
 70
     0
  3
Center (.5x) ___ _ ___ _ ___ _ ___ _ ___ _ ___
 72
    65
 73
     4
 40
1.125
 49
0.75
 49
-0.125
 49
0.125
 49
-0.125
  0
LTYPE
  2
CENTERX2
 70
     0
  3
Center (2x) ________  __  ________  __  _____
 72
    65
 73
     4
 40
4.0
 49
2.5
 49
-0.5
 49
0.5
 49
-0.5
  0
LTYPE
  2
DASHDOT
 70
     0
  3
Dash dot __ . __ . __ . __ . __ . __ . __ . __
 72
    65
 73
     4
 40
1.0
 49
0.5
 49
-0.25
 49
0.0
 49
-0.25
  0
LTYPE
  2
DASHDOT2
 70
     0
  3
Dash dot (.5x) _._._._._._._._._._._._._._._.
 72
    65
 73
     4
 40
0.5
 49
0.25
 49
-0.125
 49
0.0
 49
-0.125
  0
LTYPE
  2
DASHDOTX2
 70
     0
  3
Dash dot (2x) ____  .  ____  .  ____  .  ___
 72
    65
 73
     4
 40
2.0
 49
1.0
 49
-0.5
 49
0.0
 49
-0.5
  0
LTYPE
  2
DASHED
 70
     0
  3
Dashed __ __ __ __ __ __ __ __ __ __ __ __ __ _
 72
    65
 73
     2
 40
0.75
 49
0.5
 49
-0.25
  0
LTYPE
  2
DASHED2
 70
     0
  3
Dashed (.5x) _ _ _ _ _ _ _ _ _ _ _ _ _ _ _ _ _
 72
    65
 73
     2
 40
0.375
 49
0.25
 49
-0.125
  0
LTYPE
  2
DASHEDX2
 70
     0
  3
Dashed (2x) ____  ____  ____  ____  ____  ___
 72
    65
 73
     2
 40
1.5
 49
1.0
 49
-0.5
  0
LTYPE
  2
DIVIDE
 70
     0
  3
Divide ____ . . ____ . . ____ . . ____ . . ____
 72
    65
 73
     6
 40
1.25
 49
0.5
 49
-0.25
 49
0.0
 49
-0.25
 49
0.0
 49
-0.25
  0
LTYPE
  2
DIVIDE2
 70
     0
  3
Divide (.5x) __..__..__..__..__..__..__..__.._
 72
    65
 73
     6
 40
0.625
 49
0.25
 49
-0.125
 49
0.0
 49
-0.125
 49
0.0
 49
-0.125
  0
LTYPE
  2
DIVIDEX2
 70
     0
  3
Divide (2x) ________  .  .  ________  .  .  _
 72
    65
 73
     6
 40
2.5
 49
1.0
 49
-0.5
 49
0.0
 49
-0.5
 49
0.0
 49
-0.5
  0
LTYPE
  2
DOT
 70
     0
  3
Dot . . . . . . . . . . . . . . . . . . . . . .
 72
    65
 73
     2
 40
0.25
 49
0.0
 49
-0.25
  0
LTYPE
  2
DOT2
 70
     0
  3
Dot (.5x) .....................................
 72
    65
 73
     2
 40
0.125
 49
0.0
 49
-0.125
  0
LTYPE
  2
DOTX2
 70
     0
  3
Dot (2x) .  .  .  .  .  .  .  .  .  .  .  .  . 
 72
    65
 73
     2
 40
0.5
 49
0.0
 49
-0.5
  0
LTYPE
  2
HIDDEN
 70
     0
  3
Hidden __ __ __ __ __ __ __ __ __ __ __ __ __ _
 72
    65
 73
     2
 40
0.375
 49
0.25
 49
-0.125
  0
LTYPE
  2
HIDDEN2
 70
     0
  3
Hidden (.5x) _ _ _ _ _ _ _ _ _ _ _ _ _ _ _ _ _
 72
    65
 73
     2
 40
0.1875
 49
0.125
 49
-0.0625
  0
LTYPE
  2
HIDDENX2
 70
     0
  3
Hidden (2x) ____ ____ ____ ____ ____ ____ ____
 72
    65
 73
     2
 40
0.75
 49
0.5
 49
-0.25
  0
LTYPE
  2
PHANTOM
 70
     0
  3
Phantom ______  __  __  ______  __  __  ______
 72
    65
 73
     6
 40
2.5
 49
1.25
 49
-0.25
 49
0.25
 49
-0.25
 49
0.25
 49
-0.25
  0
LTYPE
  2
PHANTOM2
 70
     0
  3
Phantom (.5x) ___ _ _ ___ _ _ ___ _ _ ___ _ _
 72
    65
 73
     6
 40
1.25
 49
0.625
 49
-0.125
 49
0.125
 49
-0.125
 49
0.125
 49
-0.125
  0
LTYPE
  2
PHANTOMX2
 70
     0
  3
Phantom (2x) ____________    ____    ____   _
 72
    65
 73
     6
 40
5.0
 49
2.5
 49
-0.5
 49
0.5
 49
-0.5
 49
0.5
 49
-0.5
  0
ENDTAB
  0
TABLE
  2
LAYER
 70
    19
  0
LAYER
  2
0
 70
     0
 62
     7
  6
CONTINUOUS
  0
LAYER
  2
0
 70
     0
 62
     7
  6
CONTINUOUS
  0
LAYER
  2
OBJ
 70
     4
 62
     2
  6
CONTINUOUS
  0
LAYER
  2
DADO
 70
     4
 62
     2
  6
DOT
  0
LAYER
  2
T0000
 70
     0
 62
     2
  6
DOT
  0
LAYER
  2
JUNK
 70
     0
 62
     2
  6
DOT
  0
LAYER
  2
LUR
 70
     0
 62
     2
  6
DOT
  0
LAYER
  2
DROP_DOOR
 70
     4
 62
     2
  6
DOT
  0
LAYER
  2
COMMONLINE
 70
     4
 62
     7
  6
CONTINUOUS
  0
LAYER
  2
COMMONCROSS
 70
     4
 62
     8
  6
CONTINUOUS
  0
LAYER
  2
SLUG_AND_UNTOOLED
 70
     0
 62
     2
  6
DOT
  0
LAYER
  2
BLACK
 70
     0
 62
    -1
  6
CONTINUOUS
  0
LAYER
  2
WHITE
 70
     0
 62
     7
  6
CONTINUOUS
  0
LAYER
  2
RED
 70
     0
 62
     1
  6
CONTINUOUS
  0
LAYER
  2
YELLOW
 70
     0
 62
     2
  6
CONTINUOUS
  0
LAYER
  2
GREEN
 70
     0
 62
     3
  6
CONTINUOUS
  0
LAYER
  2
CYAN
 70
     0
 62
     4
  6
CONTINUOUS
  0
LAYER
  2
BLUE
 70
     0
 62
     5
  6
CONTINUOUS
  0
LAYER
  2
MAGENTA
 70
     0
 62
     6
  6
CONTINUOUS
  0
ENDTAB
  0
TABLE
  2
STYLE
 70
     1
  0
STYLE
  2
STANDARD
 70
     0
 40
0.0
 41
1.0
 50
0.0
 71
     0
 42
0.0
  3
txt
  4

  0
ENDTAB
  0
TABLE
  2
VIEW
 70
     0
  0
ENDTAB
  0
TABLE
  2
UCS
 70
     0
  0
ENDTAB
  0
ENDSEC
  0
SECTION
  2
BLOCKS
  0
ENDSEC
  0
SECTION
  2
ENTITIES
  0
LINE
  8
WHITE
  6
CONTINUOUS
  5
47
 10
187.955608
 20
97.874258
 30
0.0
 11
176.914603
 21
100.291904
 31
0.0
  0
LINE
  8
WHITE
  6
CONTINUOUS
  5
48
 10
176.914603
 20
100.291904
 30
0.0
 11
170.324332
 21
101.439218
 31
0.0
  0
LINE
  8
WHITE
  6
CONTINUOUS
  5
49
 10
170.324332
 20
101.439218
 30
0.0
 11
164.042012
 21
101.827142
 31
0.0
  0
LINE
  8
WHITE
  6
CONTINUOUS
  5
4A
 10
164.042012
 20
101.827142
 30
0.0
 11
161.629635
 21
100.725132
 31
0.0
  0
LINE
  8
WHITE
  6
CONTINUOUS
  5
4B
 10
161.629635
 20
100.725132
 30
0.0
 11
160.080299
 21
102.827602
 31
0.0
  0
LINE
  8
WHITE
  6
CONTINUOUS
  5
4C
 10
160.080299
 20
102.827602
 30
0.0
 11
139.150847
 21
124.192032
 31
0.0
  0
LINE
  8
WHITE
  6
CONTINUOUS
  5
4D
 10
139.150847
 20
124.192032
 30
0.0
 11
136.562658
 21
125.384195
 31
0.0
  0
ARC
  8
WHITE
  6
CONTINUOUS
  5
4E
 10
136.395317
 20
125.020878
 30
0.0
 40
0.400003
 50
65.269568
 51
152.559717
  0
LINE
  8
WHITE
  6
CONTINUOUS
  5
4F
 10
136.040318
 20
125.205209
 30
0.0
 11
135.315968
 21
123.810224
 31
0.0
  0
LINE
  8
WHITE
  6
CONTINUOUS
  5
50
 10
135.315968
 20
123.810224
 30
0.0
 11
134.634553
 21
121.228623
 31
0.0
  0
LINE
  8
WHITE
  6
CONTINUOUS
  5
51
 10
134.634553
 20
121.228623
 30
0.0
 11
135.425324
 21
118.951727
 31
0.0
  0
LINE
  8
WHITE
  6
CONTINUOUS
  5
52
 10
135.425324
 20
118.951727
 30
0.0
 11
131.475831
 21
118.672371
 31
0.0
  0
LINE
  8
WHITE
  6
CONTINUOUS
  5
53
 10
131.475831
 20
118.672371
 30
0.0
 11
131.475831
 21
97.664896
 31
0.0
  0
LINE
  8
WHITE
  6
CONTINUOUS
  5
54
 10
131.475831
 20
97.664896
 30
0.0
 11
124.540051
 21
97.746063
 31
0.0
  0
LINE
  8
WHITE
  6
CONTINUOUS
  5
55
 10
124.540051
 20
97.746063
 30
0.0
 11
108.043601
 21
98.088381
 31
0.0
  0
LINE
  8
WHITE
  6
CONTINUOUS
  5
56
 10
108.043601
 20
98.088381
 30
0.0
 11
99.633674
 21
97.963249
 31
0.0
  0
LINE
  8
WHITE
  6
CONTINUOUS
  5
57
 10
99.633674
 20
97.963249
 30
0.0
 11
89.049453
 21
97.530189
 31
0.0
  0
LINE
  8
WHITE
  6
CONTINUOUS
  5
58
 10
89.049453
 20
97.530189
 30
0.0
 11
87.449697
 21
97.464818
 31
0.0
  0
LINE
  8
WHITE
  6
CONTINUOUS
  5
59
 10
87.449697
 20
97.464818
 30
0.0
 11
71.446786
 21
96.809964
 31
0.0
  0
LINE
  8
WHITE
  6
CONTINUOUS
  5
5A
 10
71.446786
 20
96.809964
 30
0.0
 11
70.633581
 21
100.786674
 31
0.0
  0
ARC
  8
WHITE
  6
CONTINUOUS
  5
5B
 10
68.495809
 20
100.341743
 30
0.0
 40
2.183583
 50
11.757033
 51
86.690502
  0
ARC
  8
WHITE
  6
CONTINUOUS
  5
5C
 10
76.258291
 20
234.580445
 30
0.0
 40
132.279369
 50
-104.534829
 51
-93.309498
  0
LINE
  8
WHITE
  6
CONTINUOUS
  5
5D
 10
43.060339
 20
106.534643
 30
0.0
 11
22.259816
 21
116.069417
 31
0.0
  0
ARC
  8
WHITE
  6
CONTINUOUS
  5
5E
 10
22.05146
 20
115.614907
 30
0.0
 40
0.499992
 50
65.372381
 51
-179.917567
  0
LINE
  8
WHITE
  6
CONTINUOUS
  5
5F
 10
21.55147
 20
115.614188
 30
0.0
 11
21.557671
 21
111.322347
 31
0.0
  0
LINE
  8
WHITE
  6
CONTINUOUS
  5
60
 10
21.557671
 20
111.322347
 30
0.0
 11
19.897457
 21
109.102267
 31
0.0
  0
LINE
  8
WHITE
  6
CONTINUOUS
  5
61
 10
19.897457
 20
109.102267
 30
0.0
 11
19.484421
 21
106.74214
 31
0.0
  0
LINE
  8
WHITE
  6
CONTINUOUS
  5
62
 10
19.484421
 20
106.74214
 30
0.0
 11
26.285956
 21
94.36236
 31
0.0
  0
LINE
  8
WHITE
  6
CONTINUOUS
  5
63
 10
26.285956
 20
94.36236
 30
0.0
 11
17.947111
 21
84.599027
 31
0.0
  0
LINE
  8
WHITE
  6
CONTINUOUS
  5
64
 10
17.947111
 20
84.599027
 30
0.0
 11
10.631267
 21
83.29864
 31
0.0
  0
LINE
  8
WHITE
  6
CONTINUOUS
  5
65
 10
10.631267
 20
83.29864
 30
0.0
 11
9.367461
 21
80.140572
 31
0.0
  0
LINE
  8
WHITE
  6
CONTINUOUS
  5
66
 10
9.367461
 20
80.140572
 30
0.0
 11
14.315617
 21
80.338525
 31
0.0
  0
LINE
  8
WHITE
  6
CONTINUOUS
  5
67
 10
14.315617
 20
80.338525
 30
0.0
 11
11.063862
 21
71.797543
 31
0.0
  0
LINE
  8
WHITE
  6
CONTINUOUS
  5
68
 10
11.063862
 20
71.797543
 30
0.0
 11
9.466725
 21
66.828758
 31
0.0
  0
LINE
  8
WHITE
  6
CONTINUOUS
  5
69
 10
9.466725
 20
66.828758
 30
0.0
 11
1.681346
 21
66.318114
 31
0.0
  0
ARC
  8
WHITE
  6
CONTINUOUS
  5
6A
 10
1.673114
 20
64.664512
 30
0.0
 40
1.653622
 50
89.714771
 51
179.710233
  0
LINE
  8
WHITE
  6
CONTINUOUS
  5
6B
 10
0.019513
 20
64.672875
 30
0.0
 11
0.000021
 21
60.804701
 31
0.0
  0
ARC
  8
WHITE
  6
CONTINUOUS
  5
6C
 10
1.653638
 20
60.796418
 30
0.0
 40
1.653638
 50
179.713007
 51
-90.284993
  0
LINE
  8
WHITE
  6
CONTINUOUS
  5
6D
 10
1.645413
 20
59.1428
 30
0.0
 11
7.726711
 21
59.142708
 31
0.0
  0
LINE
  8
WHITE
  6
CONTINUOUS
  5
6E
 10
7.726711
 20
59.142708
 30
0.0
 11
7.726711
 21
55.145568
 31
0.0
  0
LINE
  8
WHITE
  6
CONTINUOUS
  5
6F
 10
7.726711
 20
55.145568
 30
0.0
 11
23.726587
 21
55.065253
 31
0.0
  0
ARC
  8
WHITE
  6
CONTINUOUS
  5
70
 10
23.582311
 20
67.118644
 30
0.0
 40
12.054254
 50
-89.314217
 51
-37.54056
  0
ARC
  8
WHITE
  6
CONTINUOUS
  5
71
 10
33.776505
 20
59.284893
 30
0.0
 40
0.802233
 50
-0.682172
 51
142.459494
  0
ARC
  8
WHITE
  6
CONTINUOUS
  5
72
 10
52.767295
 20
59.058735
 30
0.0
 40
18.189903
 50
179.3177
 51
-116.541261
  0
LINE
  8
WHITE
  6
CONTINUOUS
  5
73
 10
44.639279
 20
42.785815
 30
0.0
 11
19.248768
 21
38.085463
 31
0.0
  0
ARC
  8
WHITE
  6
CONTINUOUS
  5
74
 10
20.027592
 20
33.878365
 30
0.0
 40
4.278579
 50
100.487945
 51
-179.999993
  0
LINE
  8
WHITE
  6
CONTINUOUS
  5
75
 10
15.749013
 20
33.878364
 30
0.0
 11
15.74905
 21
5.348226
 31
0.0
  0
ARC
  8
WHITE
  6
CONTINUOUS
  5
76
 10
21.097331
 20
5.348281
 30
0.0
 40
5.348281
 50
-179.999411
 51
-90.0
  0
LINE
  8
WHITE
  6
CONTINUOUS
  5
77
 10
21.097331
 20
0.0
 30
0.0
 11
208.285266
 21
0.0
 31
0.0
  0
ARC
  8
WHITE
  6
CONTINUOUS
  5
78
 10
208.285237
 20
5.348225
 30
0.0
 40
5.348225
 50
-89.999689
 51
0.0
  0
LINE
  8
WHITE
  6
CONTINUOUS
  5
79
 10
213.633462
 20
5.348225
 30
0.0
 11
213.633453
 21
34.074016
 31
0.0
  0
ARC
  8
WHITE
  6
CONTINUOUS
  5
7A
 10
209.354871
 20
34.074004
 30
0.0
 40
4.278582
 50
0.000161
 51
76.345349
  0
LINE
  8
WHITE
  6
CONTINUOUS
  5
7B
 10
210.364912
 20
38.231657
 30
0.0
 11
191.619205
 21
42.785812
 31
0.0
  0
ARC
  8
WHITE
  6
CONTINUOUS
  5
7C
 10
183.492638
 20
59.059472
 30
0.0
 40
18.189918
 50
-63.463864
 51
0.566858
  0
ARC
  8
WHITE
  6
CONTINUOUS
  5
7D
 10
202.216463
 20
59.244717
 30
0.0
 40
0.534823
 50
59.623046
 51
-179.433822
  0
LINE
  8
WHITE
  6
CONTINUOUS
  5
7E
 10
202.486916
 20
59.706118
 30
0.0
 11
210.084623
 21
55.252314
 31
0.0
  0
LINE
  8
WHITE
  6
CONTINUOUS
  5
7F
 10
210.084623
 20
55.252314
 30
0.0
 11
213.861016
 21
62.044457
 31
0.0
  0
LINE
  8
WHITE
  6
CONTINUOUS
  5
80
 10
213.861016
 20
62.044457
 30
0.0
 11
223.074286
 21
61.998123
 31
0.0
  0
LINE
  8
WHITE
  6
CONTINUOUS
  5
81
 10
223.074286
 20
61.998123
 30
0.0
 11
223.097129
 21
66.544152
 31
0.0
  0
LINE
  8
WHITE
  6
CONTINUOUS
  5
82
 10
223.097129
 20
66.544152
 30
0.0
 11
216.381689
 21
66.577763
 31
0.0
  0
ARC
  8
WHITE
  6
CONTINUOUS
  5
83
 10
204.50844
 20
72.196515
 30
0.0
 40
13.135616
 50
-25.324816
 51
8.77168
  0
LINE
  8
WHITE
  6
CONTINUOUS
  5
84
 10
217.490421
 20
74.199662
 30
0.0
 11
218.332642
 21
76.284176
 31
0.0
  0
LINE
  8
WHITE
  6
CONTINUOUS
  5
85
 10
218.332642
 20
76.284176
 30
0.0
 11
217.676239
 21
78.694161
 31
0.0
  0
LINE
  8
WHITE
  6
CONTINUOUS
  5
86
 10
217.676239
 20
78.694161
 30
0.0
 11
215.975111
 21
80.104821
 31
0.0
  0
ARC
  8
WHITE
  6
CONTINUOUS
  5
87
 10
200.21891
 20
72.914796
 30
0.0
 40
17.31919
 50
24.52863
 51
46.927758
  0
ARC
  8
WHITE
  6
CONTINUOUS
  5
88
 10
174.291641
 20
43.081385
 30
0.0
 40
56.83664
 50
48.373634
 51
67.980504
  0
LINE
  8
WHITE
  6
CONTINUOUS
  5
89
 10
195.600951
 20
95.772152
 30
0.0
 11
187.955608
 21
97.874258
 31
0.0
  0
LINE
  8
WHITE
  6
CONTINUOUS
  5
8A
 10
70.702724
 20
56.026304
 30
0.0
 11
165.643162
 21
55.556468
 31
0.0
  0
ARC
  8
WHITE
  6
CONTINUOUS
  5
8B
 10
183.492568
 20
59.059456
 30
0.0
 40
18.189893
 50
-168.896681
 51
-116.536115
  0
LINE
  8
WHITE
  6
CONTINUOUS
  5
8C
 10
175.366018
 20
42.785815
 30
0.0
 11
60.895389
 21
42.785815
 31
0.0
  0
ARC
  8
WHITE
  6
CONTINUOUS
  5
8D
 10
52.76733
 20
59.058762
 30
0.0
 40
18.189947
 50
-63.458656
 51
-9.596626
  0
LINE
  8
WHITE
  6
CONTINUOUS
  5
8E
 10
135.369392
 20
116.678973
 30
0.0
 11
143.810083
 21
102.329909
 31
0.0
  0
LINE
  8
WHITE
  6
CONTINUOUS
  5
8F
 10
143.810083
 20
102.329909
 30
0.0
 11
144.070714
 21
100.991486
 31
0.0
  0
LINE
  8
WHITE
  6
CONTINUOUS
  5
90
 10
144.070714
 20
100.991486
 30
0.0
 11
143.442906
 21
100.236978
 31
0.0
  0
LINE
  8
WHITE
  6
CONTINUOUS
  5
91
 10
143.442906
 20
100.236978
 30
0.0
 11
142.236609
 21
99.619053
 31
0.0
  0
LINE
  8
WHITE
  6
CONTINUOUS
  5
92
 10
142.236609
 20
99.619053
 30
0.0
 11
133.148731
 21
99.345856
 31
0.0
  0
LINE
  8
WHITE
  6
CONTINUOUS
  5
93
 10
133.148731
 20
99.345856
 30
0.0
 11
133.148743
 21
116.678973
 31
0.0
  0
LINE
  8
WHITE
  6
CONTINUOUS
  5
94
 10
133.148743
 20
116.678973
 30
0.0
 11
135.369392
 21
116.678973
 31
0.0
  0
LINE
  8
WHITE
  6
CONTINUOUS
  5
95
 10
140.091403
 20
116.209573
 30
0.0
 11
142.831449
 21
111.605191
 31
0.0
  0
LINE
  8
WHITE
  6
CONTINUOUS
  5
96
 10
142.831449
 20
111.605191
 30
0.0
 11
145.615787
 21
106.911376
 31
0.0
  0
LINE
  8
WHITE
  6
CONTINUOUS
  5
97
 10
145.615787
 20
106.911376
 30
0.0
 11
147.872457
 21
103.646568
 31
0.0
  0
LINE
  8
WHITE
  6
CONTINUOUS
  5
98
 10
147.872457
 20
103.646568
 30
0.0
 11
152.010431
 21
102.244195
 31
0.0
  0
LINE
  8
WHITE
  6
CONTINUOUS
  5
99
 10
152.010431
 20
102.244195
 30
0.0
 11
156.338812
 21
103.292012
 31
0.0
  0
LINE
  8
WHITE
  6
CONTINUOUS
  5
9A
 10
156.338812
 20
103.292012
 30
0.0
 11
156.813941
 21
103.605365
 31
0.0
  0
LINE
  8
WHITE
  6
CONTINUOUS
  5
9B
 10
156.813941
 20
103.605365
 30
0.0
 11
137.632723
 21
123.241157
 31
0.0
  0
LINE
  8
WHITE
  6
CONTINUOUS
  5
9C
 10
137.632723
 20
123.241157
 30
0.0
 11
136.338071
 21
122.354378
 31
0.0
  0
LINE
  8
WHITE
  6
CONTINUOUS
  5
9D
 10
136.338071
 20
122.354378
 30
0.0
 11
140.091403
 21
116.209573
 31
0.0
  0
ARC
  8
WHITE
  6
CONTINUOUS
  5
9E
 10
52.767291
 20
59.058524
 30
0.0
 40
19.507853
 50
-1.0273
 51
162.100828
  0
LINE
  8
WHITE
  6
CONTINUOUS
  5
9F
 10
34.203641
 20
65.054123
 30
0.0
 11
35.251066
 21
63.963272
 31
0.0
  0
ARC
  8
WHITE
  6
CONTINUOUS
  5
A0
 10
52.767362
 20
59.058984
 30
0.0
 40
18.189905
 50
-1.103194
 51
164.358587
  0
LINE
  8
WHITE
  6
CONTINUOUS
  5
A1
 10
70.953896
 20
58.708771
 30
0.0
 11
72.272008
 21
58.708771
 31
0.0
  0
ARC
  8
WHITE
  6
CONTINUOUS
  5
A2
 10
183.492664
 20
59.059158
 30
0.0
 40
18.190008
 50
18.438018
 51
179.587663
  0
LINE
  8
WHITE
  6
CONTINUOUS
  5
A3
 10
165.303128
 20
59.190064
 30
0.0
 11
163.985148
 21
59.179364
 31
0.0
  0
ARC
  8
WHITE
  6
CONTINUOUS
  5
A4
 10
183.492573
 20
59.059728
 30
0.0
 40
19.507791
 50
19.259416
 51
179.648617
  0
LINE
  8
WHITE
  6
CONTINUOUS
  5
A5
 10
201.908607
 20
65.494291
 30
0.0
 11
200.748913
 21
64.812269
 31
0.0
  0
LINE
  8
WHITE
  6
CONTINUOUS
  5
A6
 10
1.076169
 20
62.071902
 30
0.0
 11
23.538443
 21
61.959251
 31
0.0
  0
LINE
  8
WHITE
  6
CONTINUOUS
  5
A7
 10
23.538443
 20
61.959251
 30
0.0
 11
24.079814
 21
63.279816
 31
0.0
  0
LINE
  8
WHITE
  6
CONTINUOUS
  5
A8
 10
24.079814
 20
63.279816
 30
0.0
 11
1.082803
 21
63.409344
 31
0.0
  0
LINE
  8
WHITE
  6
CONTINUOUS
  5
A9
 10
1.082803
 20
63.409344
 30
0.0
 11
1.076169
 21
62.071902
 31
0.0
  0
LINE
  8
WHITE
  6
CONTINUOUS
  5
AA
 10
208.286962
 20
72.769074
 30
0.0
 11
206.860692
 21
72.776232
 31
0.0
  0
LINE
  8
WHITE
  6
CONTINUOUS
  5
AB
 10
206.860692
 20
72.776232
 30
0.0
 11
204.697598
 21
85.80117
 31
0.0
  0
LINE
  8
WHITE
  6
CONTINUOUS
  5
AC
 10
204.697598
 20
85.80117
 30
0.0
 11
207.766112
 21
84.448637
 31
0.0
  0
LINE
  8
WHITE
  6
CONTINUOUS
  5
AD
 10
207.766112
 20
84.448637
 30
0.0
 11
208.286962
 21
72.769074
 31
0.0
  0
LINE
  8
WHITE
  6
CONTINUOUS
  5
AE
 10
24.913062
 20
78.369029
 30
0.0
 11
21.34427
 21
68.804473
 31
0.0
  0
LINE
  8
WHITE
  6
CONTINUOUS
  5
AF
 10
21.34427
 20
68.804473
 30
0.0
 11
20.051757
 21
68.811001
 31
0.0
  0
LINE
  8
WHITE
  6
CONTINUOUS
  5
B0
 10
20.051757
 20
68.811001
 30
0.0
 11
20.497131
 21
77.633385
 31
0.0
  0
LINE
  8
WHITE
  6
CONTINUOUS
  5
B1
 10
20.497131
 20
77.633385
 30
0.0
 11
24.913062
 21
78.369029
 31
0.0
  0
LINE
  8
WHITE
  6
CONTINUOUS
  5
B2
 10
222.012796
 20
63.615176
 30
0.0
 11
209.71202
 21
63.676927
 31
0.0
  0
LINE
  8
WHITE
  6
CONTINUOUS
  5
B3
 10
209.71202
 20
63.676927
 30
0.0
 11
209.183903
 21
65.002361
 31
0.0
  0
LINE
  8
WHITE
  6
CONTINUOUS
  5
B4
 10
209.183903
 20
65.002361
 30
0.0
 11
222.019481
 21
64.938054
 31
0.0
  0
LINE
  8
WHITE
  6
CONTINUOUS
  5
B5
 10
222.019481
 20
64.938054
 30
0.0
 11
222.012796
 21
63.615176
 31
0.0
  0
ARC
  8
WHITE
  6
CONTINUOUS
  5
B6
 10
105.024969
 20
104.994833
 30
0.0
 40
15.661547
 50
-97.833811
 51
-82.100763
  0
ARC
  8
WHITE
  6
CONTINUOUS
  5
B7
 10
106.877672
 20
92.915483
 30
0.0
 40
3.446643
 50
-85.011849
 51
-59.883091
  0
ARC
  8
WHITE
  6
CONTINUOUS
  5
B8
 10
108.501592
 20
90.15042
 30
0.0
 40
0.240648
 50
-64.001208
 51
63.437288
  0
ARC
  8
WHITE
  6
CONTINUOUS
  5
B9
 10
106.849967
 20
87.403447
 30
0.0
 40
3.44524
 50
59.294283
 51
84.433752
  0
ARC
  8
WHITE
  6
CONTINUOUS
  5
BA
 10
104.876952
 20
75.334195
 30
0.0
 40
15.669039
 50
81.532682
 51
97.258027
  0
ARC
  8
WHITE
  6
CONTINUOUS
  5
BB
 10
103.273392
 20
86.568636
 30
0.0
 40
4.325422
 50
94.987352
 51
116.360827
  0
ARC
  8
WHITE
  6
CONTINUOUS
  5
BC
 10
101.43809
 20
90.185897
 30
0.0
 40
0.272096
 50
108.266244
 51
-108.838914
  0
ARC
  8
WHITE
  6
CONTINUOUS
  5
BD
 10
103.30883
 20
93.781319
 30
0.0
 40
4.322185
 50
-116.946024
 51
-95.556868
  0
LINE
  8
WHITE
  6
CONTINUOUS
  5
BE
 10
44.629809
 20
57.594837
 30
0.0
 11
50.093223
 21
59.058756
 31
0.0
  0
LINE
  8
WHITE
  6
CONTINUOUS
  5
BF
 10
50.093223
 20
59.058756
 30
0.0
 11
44.629808
 21
60.522679
 31
0.0
  0
ARC
  8
WHITE
  6
CONTINUOUS
  5
C0
 10
52.767297
 20
59.058758
 30
0.0
 40
8.268119
 50
169.801667
 51
-169.801666
  0
LINE
  8
WHITE
  6
CONTINUOUS
  5
C1
 10
48.048363
 20
52.26952
 30
0.0
 11
50.876433
 21
57.167883
 31
0.0
  0
LINE
  8
WHITE
  6
CONTINUOUS
  5
C2
 10
50.876433
 20
57.167883
 30
0.0
 11
45.978077
 21
54.339803
 31
0.0
  0
ARC
  8
WHITE
  6
CONTINUOUS
  5
C3
 10
52.767295
 20
59.058745
 30
0.0
 40
8.268125
 50
-145.198222
 51
-124.801695
  0
LINE
  8
WHITE
  6
CONTINUOUS
  5
C4
 10
45.978088
 20
63.777715
 30
0.0
 11
50.876439
 21
60.949647
 31
0.0
  0
LINE
  8
WHITE
  6
CONTINUOUS
  5
C5
 10
50.876439
 20
60.949647
 30
0.0
 11
48.048366
 21
65.84801
 31
0.0
  0
ARC
  8
WHITE
  6
CONTINUOUS
  5
C6
 10
52.767352
 20
59.058785
 30
0.0
 40
8.268156
 50
124.802001
 51
145.19847
  0
LINE
  8
WHITE
  6
CONTINUOUS
  5
C7
 10
54.231249
 20
50.921238
 30
0.0
 11
52.76733
 21
56.384652
 31
0.0
  0
LINE
  8
WHITE
  6
CONTINUOUS
  5
C8
 10
52.76733
 20
56.384652
 30
0.0
 11
51.303418
 21
50.921232
 31
0.0
  0
ARC
  8
WHITE
  6
CONTINUOUS
  5
C9
 10
52.767317
 20
59.058741
 30
0.0
 40
8.268135
 50
-100.198157
 51
-79.801608
  0
LINE
  8
WHITE
  6
CONTINUOUS
  5
CA
 10
51.30342
 20
67.196289
 30
0.0
 11
52.767336
 21
61.732872
 31
0.0
  0
LINE
  8
WHITE
  6
CONTINUOUS
  5
CB
 10
52.767336
 20
61.732872
 30
0.0
 11
54.231255
 21
67.196286
 31
0.0
  0
ARC
  8
WHITE
  6
CONTINUOUS
  5
CC
 10
52.767337
 20
59.058737
 30
0.0
 40
8.268177
 50
79.801764
 51
100.198233
  0
LINE
  8
WHITE
  6
CONTINUOUS
  5
CD
 10
59.556578
 20
54.339803
 30
0.0
 11
54.658209
 21
57.167877
 31
0.0
  0
LINE
  8
WHITE
  6
CONTINUOUS
  5
CE
 10
54.658209
 20
57.167877
 30
0.0
 11
57.486283
 21
52.269514
 31
0.0
  0
ARC
  8
WHITE
  6
CONTINUOUS
  5
CF
 10
52.767334
 20
59.058772
 30
0.0
 40
8.268162
 50
-55.198338
 51
-34.801828
  0
LINE
  8
WHITE
  6
CONTINUOUS
  5
D0
 10
57.486295
 20
65.847997
 30
0.0
 11
54.658209
 21
60.949647
 31
0.0
  0
LINE
  8
WHITE
  6
CONTINUOUS
  5
D1
 10
54.658209
 20
60.949647
 30
0.0
 11
59.556572
 21
63.77772
 31
0.0
  0
ARC
  8
WHITE
  6
CONTINUOUS
  5
D2
 10
52.767305
 20
59.05873
 30
0.0
 40
8.268192
 50
34.801857
 51
55.198143
  0
LINE
  8
WHITE
  6
CONTINUOUS
  5
D3
 10
60.904848
 20
60.522674
 30
0.0
 11
55.441434
 21
59.058756
 31
0.0
  0
LINE
  8
WHITE
  6
CONTINUOUS
  5
D4
 10
55.441434
 20
59.058756
 30
0.0
 11
60.90486
 21
57.594843
 31
0.0
  0
ARC
  8
WHITE
  6
CONTINUOUS
  5
D5
 10
52.767292
 20
59.058725
 30
0.0
 40
8.26819
 50
-10.197971
 51
10.198441
  0
LINE
  8
WHITE
  6
CONTINUOUS
  5
D6
 10
175.355094
 20
57.595564
 30
0.0
 11
180.818508
 21
59.059483
 31
0.0
  0
LINE
  8
WHITE
  6
CONTINUOUS
  5
D7
 10
180.818508
 20
59.059483
 30
0.0
 11
175.355106
 21
60.523395
 31
0.0
  0
ARC
  8
WHITE
  6
CONTINUOUS
  5
D8
 10
183.492571
 20
59.059439
 30
0.0
 40
8.268101
 50
169.801397
 51
-169.801967
  0
LINE
  8
WHITE
  6
CONTINUOUS
  5
D9
 10
178.773659
 20
52.270241
 30
0.0
 11
181.601733
 21
57.168597
 31
0.0
  0
LINE
  8
WHITE
  6
CONTINUOUS
  5
DA
 10
181.601733
 20
57.168597
 30
0.0
 11
176.703364
 21
54.340524
 31
0.0
  0
ARC
  8
WHITE
  6
CONTINUOUS
  5
DB
 10
183.492556
 20
59.05946
 30
0.0
 40
8.268101
 50
-145.198151
 51
-124.801517
  0
LINE
  8
WHITE
  6
CONTINUOUS
  5
DC
 10
176.703364
 20
63.778447
 30
0.0
 11
181.601733
 21
60.950368
 31
0.0
  0
LINE
  8
WHITE
  6
CONTINUOUS
  5
DD
 10
181.601733
 20
60.950368
 30
0.0
 11
178.773659
 21
65.84873
 31
0.0
  0
ARC
  8
WHITE
  6
CONTINUOUS
  5
DE
 10
183.492604
 20
59.059462
 30
0.0
 40
8.268168
 50
124.801601
 51
145.198067
  0
LINE
  8
WHITE
  6
CONTINUOUS
  5
DF
 10
184.956542
 20
50.921952
 30
0.0
 11
183.49263
 21
56.385366
 31
0.0
  0
LINE
  8
WHITE
  6
CONTINUOUS
  5
E0
 10
183.49263
 20
56.385366
 30
0.0
 11
182.028714
 21
50.921949
 31
0.0
  0
ARC
  8
WHITE
  6
CONTINUOUS
  5
E1
 10
183.492628
 20
59.059429
 30
0.0
 40
8.268108
 50
-100.198297
 51
-79.801699
  0
LINE
  8
WHITE
  6
CONTINUOUS
  5
E2
 10
182.028714
 20
67.197003
 30
0.0
 11
183.49263
 21
61.733599
 31
0.0
  0
LINE
  8
WHITE
  6
CONTINUOUS
  5
E3
 10
183.49263
 20
61.733599
 30
0.0
 11
184.956546
 21
67.197003
 31
0.0
  0
ARC
  8
WHITE
  6
CONTINUOUS
  5
E4
 10
183.492628
 20
59.059429
 30
0.0
 40
8.268203
 50
79.801792
 51
100.198181
  0
LINE
  8
WHITE
  6
CONTINUOUS
  5
E5
 10
190.281847
 20
54.340518
 30
0.0
 11
185.383491
 21
57.168591
 31
0.0
  0
LINE
  8
WHITE
  6
CONTINUOUS
  5
E6
 10
185.383491
 20
57.168591
 30
0.0
 11
188.211576
 21
52.270235
 31
0.0
  0
ARC
  8
WHITE
  6
CONTINUOUS
  5
E7
 10
183.492597
 20
59.059457
 30
0.0
 40
8.26815
 50
-55.19803
 51
-34.801638
  0
LINE
  8
WHITE
  6
CONTINUOUS
  5
E8
 10
188.211584
 20
65.848723
 30
0.0
 11
185.383503
 21
60.950368
 31
0.0
  0
LINE
  8
WHITE
  6
CONTINUOUS
  5
E9
 10
185.383503
 20
60.950368
 30
0.0
 11
190.281871
 21
63.778441
 31
0.0
  0
ARC
  8
WHITE
  6
CONTINUOUS
  5
EA
 10
183.492582
 20
59.059423
 30
0.0
 40
8.268227
 50
34.801932
 51
55.198206
  0
LINE
  8
WHITE
  6
CONTINUOUS
  5
EB
 10
191.630142
 20
60.523401
 30
0.0
 11
186.166728
 21
59.059483
 31
0.0
  0
LINE
  8
WHITE
  6
CONTINUOUS
  5
EC
 10
186.166728
 20
59.059483
 30
0.0
 11
191.630157
 21
57.59556
 31
0.0
  0
ARC
  8
WHITE
  6
CONTINUOUS
  5
ED
 10
183.492571
 20
59.059439
 30
0.0
 40
8.268207
 50
-10.197926
 51
10.198514
  0
CIRCLE
  8
WHITE
  6
CONTINUOUS
  5
EE
 10
52.767295
 20
59.058745
 30
0.0
 40
1.604468
  0
CIRCLE
  8
WHITE
  6
CONTINUOUS
  5
EF
 10
183.492571
 20
59.059439
 30
0.0
 40
1.604468
  0
LINE
  8
WHITE
  6
CONTINUOUS
  5
F0
 10
21.740993
 20
59.036482
 30
0.0
 11
8.263848
 21
59.138644
 31
0.0
  0
LINE
  8
WHITE
  6
CONTINUOUS
  5
F1
 10
22.00733
 20
68.776846
 30
0.0
 11
22.80733
 21
68.720642
 31
0.0
  0
ARC
  8
WHITE
  6
CONTINUOUS
  5
F2
 10
53.320052
 20
62.078454
 30
0.0
 40
26.941194
 50
-6.621308
 51
97.910875
  0
ARC
  8
WHITE
  6
CONTINUOUS
  5
F3
 10
53.368228
 20
56.813003
 30
0.0
 40
32.17029
 50
96.705074
 51
163.010219
  0
LINE
  8
WHITE
  6
CONTINUOUS
  5
F4
 10
41.060341
 20
106.534643
 30
0.0
 11
23.579382
 21
110.826036
 31
0.0
  0
LINE
  8
WHITE
  6
CONTINUOUS
  5
F5
 10
27.007329
 20
66.195923
 30
0.0
 11
23.762469
 21
59.036476
 31
0.0
  0
LINE
  8
WHITE
  6
CONTINUOUS
  5
F6
 10
39.00733
 20
93.158207
 30
0.0
 11
25.444486
 21
97.896168
 31
0.0
  0
LINE
  8
WHITE
  6
CONTINUOUS
  5
F7
 10
26.00733
 20
78.423974
 30
0.0
 11
29.007331
 21
78.903759
 31
0.0
  0
LINE
  8
WHITE
  6
CONTINUOUS
  5
F8
 10
32.00733
 20
82.000003
 30
0.0
 11
33.09734
 21
83.943598
 31
0.0
  0
LINE
  8
WHITE
  6
CONTINUOUS
  5
F9
 10
33.09734
 20
83.943598
 30
0.0
 11
35.209218
 21
87.364804
 31
0.0
  0
LINE
  8
WHITE
  6
CONTINUOUS
  5
FA
 10
35.209218
 20
87.364804
 30
0.0
 11
40.089349
 21
90.999999
 31
0.0
  0
ARC
  8
WHITE
  6
CONTINUOUS
  5
FB
 10
52.767336
 20
59.058277
 30
0.0
 40
11.575368
 50
-175.002384
 51
-4.997607
  0
ARC
  8
WHITE
  6
CONTINUOUS
  5
FC
 10
52.767336
 20
59.058277
 30
0.0
 40
11.575458
 50
5.002391
 51
174.997604
  0
LINE
  8
WHITE
  6
CONTINUOUS
  5
FD
 10
41.735809
 20
92.724997
 30
0.0
 11
57.525809
 21
91.774994
 31
0.0
  0
LINE
  8
WHITE
  6
CONTINUOUS
  5
FE
 10
57.525809
 20
91.774994
 30
0.0
 11
59.875811
 21
92.404994
 31
0.0
  0
LINE
  8
WHITE
  6
CONTINUOUS
  5
FF
 10
61.695813
 20
92.404994
 30
0.0
 11
97.386839
 21
95.592966
 31
0.0
  0
LINE
  8
WHITE
  6
CONTINUOUS
  5
100
 10
81.991715
 20
58.972012
 30
0.0
 11
149.225693
 21
58.625291
 31
0.0
  0
LINE
  8
WHITE
  6
CONTINUOUS
  5
101
 10
98.984961
 20
94.131252
 30
0.0
 11
98.984961
 21
60.271624
 31
0.0
  0
LINE
  8
WHITE
  6
CONTINUOUS
  5
102
 10
98.984961
 20
95.73572
 30
0.0
 11
145.475667
 21
93.834243
 31
0.0
  0
LINE
  8
WHITE
  6
CONTINUOUS
  5
103
 10
134.065196
 20
97.660197
 30
0.0
 11
148.065165
 21
97.628725
 31
0.0
  0
LINE
  8
WHITE
  6
CONTINUOUS
  5
104
 10
148.065165
 20
97.628725
 30
0.0
 11
148.491133
 21
94.861312
 31
0.0
  0
LINE
  8
WHITE
  6
CONTINUOUS
  5
105
 10
136.228545
 20
117.848185
 30
0.0
 11
148.192532
 21
99.156133
 31
0.0
  0
LINE
  8
WHITE
  6
CONTINUOUS
  5
106
 10
148.669307
 20
93.703619
 30
0.0
 11
148.502893
 21
60.545033
 31
0.0
  0
LINE
  8
WHITE
  6
CONTINUOUS
  5
107
 10
156.29257
 20
93.938912
 30
0.0
 11
149.877748
 21
93.740917
 31
0.0
  0
ARC
  8
WHITE
  6
CONTINUOUS
  5
108
 10
180.197946
 20
25.344353
 30
0.0
 40
65.232503
 50
69.580281
 51
85.798989
  0
ARC
  8
WHITE
  6
CONTINUOUS
  5
109
 10
182.4503
 20
59.215154
 30
0.0
 40
31.288591
 50
85.36878
 51
-178.901371
  0
LINE
  8
WHITE
  6
CONTINUOUS
  5
10A
 10
156.946794
 20
100.12463
 30
0.0
 11
159.747022
 21
101.691794
 31
0.0
  0
LINE
  8
WHITE
  6
CONTINUOUS
  5
10B
 10
158.953418
 20
93.786657
 30
0.0
 11
180.309224
 21
91.300768
 31
0.0
  0
LINE
  8
WHITE
  6
CONTINUOUS
  5
10C
 10
161.479608
 20
97.472327
 30
0.0
 11
164.286087
 21
100.701872
 31
0.0
  0
ARC
  8
WHITE
  6
CONTINUOUS
  5
10D
 10
183.49263
 20
59.058763
 30
0.0
 40
11.575344
 50
-175.003538
 51
-4.996489
  0
ARC
  8
WHITE
  6
CONTINUOUS
  5
10E
 10
183.49263
 20
59.058763
 30
0.0
 40
11.575468
 50
5.003531
 51
174.996499
  0
LINE
  8
WHITE
  6
CONTINUOUS
  5
10F
 10
215.164061
 20
66.583896
 30
0.0
 11
207.676607
 21
66.621582
 31
0.0
  0
LINE
  8
WHITE
  6
CONTINUOUS
  5
110
 10
207.676607
 20
66.621582
 30
0.0
 11
209.1692
 21
62.06799
 31
0.0
  0
LINE
  8
WHITE
  6
CONTINUOUS
  5
111
 10
209.1692
 20
62.06799
 30
0.0
 11
212.912915
 21
62.049216
 31
0.0
  0
LINE
  8
WHITE
  6
CONTINUOUS
  5
112
 10
210.427214
 20
67.99694
 30
0.0
 11
208.994937
 21
71.190458
 31
0.0
  0
ARC
  8
WHITE
  6
CONTINUOUS
  5
113
 10
200.21891
 20
72.914796
 30
0.0
 40
17.31919
 50
9.154979
 51
20.052666
  0
POINT
  8
WHITE
  6
CONTINUOUS
 62
     1
  5
114
 10
8.263848
 20
59.138644
 30
0.0
  0
POINT
  8
WHITE
  6
CONTINUOUS
 62
     1
  5
115
 10
21.740993
 20
59.036482
 30
0.0
  0
POINT
  8
WHITE
  6
CONTINUOUS
 62
     1
  5
116
 10
22.00733
 20
68.776846
 30
0.0
  0
POINT
  8
WHITE
  6
CONTINUOUS
 62
     1
  5
117
 10
22.80733
 20
68.720642
 30
0.0
  0
POINT
  8
WHITE
  6
CONTINUOUS
 62
     1
  5
118
 10
22.60195
 20
66.213198
 30
0.0
  0
POINT
  8
WHITE
  6
CONTINUOUS
 62
     1
  5
119
 10
80.081547
 20
58.971957
 30
0.0
  0
POINT
  8
WHITE
  6
CONTINUOUS
 62
     1
  5
11A
 10
23.579382
 20
110.826036
 30
0.0
  0
POINT
  8
WHITE
  6
CONTINUOUS
 62
     1
  5
11B
 10
41.060341
 20
106.534643
 30
0.0
  0
POINT
  8
WHITE
  6
CONTINUOUS
 62
     1
  5
11C
 10
23.762469
 20
59.036476
 30
0.0
  0
POINT
  8
WHITE
  6
CONTINUOUS
 62
     1
  5
11D
 10
27.007329
 20
66.195923
 30
0.0
  0
POINT
  8
WHITE
  6
CONTINUOUS
 62
     1
  5
11E
 10
25.444486
 20
97.896168
 30
0.0
  0
POINT
  8
WHITE
  6
CONTINUOUS
 62
     1
  5
11F
 10
39.00733
 20
93.158207
 30
0.0
  0
POINT
  8
WHITE
  6
CONTINUOUS
 62
     1
  5
120
 10
26.00733
 20
78.423974
 30
0.0
  0
POINT
  8
WHITE
  6
CONTINUOUS
 62
     1
  5
121
 10
29.007331
 20
78.903759
 30
0.0
  0
POINT
  8
WHITE
  6
CONTINUOUS
 62
     1
  5
122
 10
32.00733
 20
82.000003
 30
0.0
  0
POINT
  8
WHITE
  6
CONTINUOUS
 62
     1
  5
123
 10
40.089349
 20
90.999999
 30
0.0
  0
POINT
  8
WHITE
  6
CONTINUOUS
 62
     1
  5
124
 10
41.235974
 20
58.049897
 30
0.0
  0
POINT
  8
WHITE
  6
CONTINUOUS
 62
     1
  5
125
 10
64.298698
 20
58.049899
 30
0.0
  0
POINT
  8
WHITE
  6
CONTINUOUS
 62
     1
  5
126
 10
41.235968
 20
60.067627
 30
0.0
  0
POINT
  8
WHITE
  6
CONTINUOUS
 62
     1
  5
127
 10
64.298704
 20
60.067626
 30
0.0
  0
POINT
  8
WHITE
  6
CONTINUOUS
 62
     1
  5
128
 10
41.735809
 20
92.724997
 30
0.0
  0
POINT
  8
WHITE
  6
CONTINUOUS
 62
     1
  5
129
 10
59.875811
 20
92.404994
 30
0.0
  0
POINT
  8
WHITE
  6
CONTINUOUS
 62
     1
  5
12A
 10
61.695813
 20
92.404994
 30
0.0
  0
POINT
  8
WHITE
  6
CONTINUOUS
 62
     1
  5
12B
 10
97.386839
 20
95.592966
 30
0.0
  0
POINT
  8
WHITE
  6
CONTINUOUS
 62
     1
  5
12C
 10
81.991715
 20
58.972012
 30
0.0
  0
POINT
  8
WHITE
  6
CONTINUOUS
 62
     1
  5
12D
 10
149.225693
 20
58.625291
 30
0.0
  0
POINT
  8
WHITE
  6
CONTINUOUS
 62
     1
  5
12E
 10
98.984961
 20
60.271624
 30
0.0
  0
POINT
  8
WHITE
  6
CONTINUOUS
 62
     1
  5
12F
 10
98.984961
 20
94.131252
 30
0.0
  0
POINT
  8
WHITE
  6
CONTINUOUS
 62
     1
  5
130
 10
98.984961
 20
95.73572
 30
0.0
  0
POINT
  8
WHITE
  6
CONTINUOUS
 62
     1
  5
131
 10
145.475667
 20
93.834243
 30
0.0
  0
POINT
  8
WHITE
  6
CONTINUOUS
 62
     1
  5
132
 10
134.065196
 20
97.660197
 30
0.0
  0
POINT
  8
WHITE
  6
CONTINUOUS
 62
     1
  5
133
 10
148.491133
 20
94.861312
 30
0.0
  0
POINT
  8
WHITE
  6
CONTINUOUS
 62
     1
  5
134
 10
136.228545
 20
117.848185
 30
0.0
  0
POINT
  8
WHITE
  6
CONTINUOUS
 62
     1
  5
135
 10
148.192532
 20
99.156133
 30
0.0
  0
POINT
  8
WHITE
  6
CONTINUOUS
 62
     1
  5
136
 10
148.502893
 20
60.545033
 30
0.0
  0
POINT
  8
WHITE
  6
CONTINUOUS
 62
     1
  5
137
 10
148.669307
 20
93.703619
 30
0.0
  0
POINT
  8
WHITE
  6
CONTINUOUS
 62
     1
  5
138
 10
149.877748
 20
93.740917
 30
0.0
  0
POINT
  8
WHITE
  6
CONTINUOUS
 62
     1
  5
139
 10
156.29257
 20
93.938912
 30
0.0
  0
POINT
  8
WHITE
  6
CONTINUOUS
 62
     1
  5
13A
 10
151.167461
 20
58.615242
 30
0.0
  0
POINT
  8
WHITE
  6
CONTINUOUS
 62
     1
  5
13B
 10
202.957214
 20
86.477774
 30
0.0
  0
POINT
  8
WHITE
  6
CONTINUOUS
 62
     1
  5
13C
 10
156.946794
 20
100.12463
 30
0.0
  0
POINT
  8
WHITE
  6
CONTINUOUS
 62
     1
  5
13D
 10
159.747022
 20
101.691794
 30
0.0
  0
POINT
  8
WHITE
  6
CONTINUOUS
 62
     1
  5
13E
 10
158.953418
 20
93.786657
 30
0.0
  0
POINT
  8
WHITE
  6
CONTINUOUS
 62
     1
  5
13F
 10
180.309224
 20
91.300768
 30
0.0
  0
POINT
  8
WHITE
  6
CONTINUOUS
 62
     1
  5
140
 10
161.479608
 20
97.472327
 30
0.0
  0
POINT
  8
WHITE
  6
CONTINUOUS
 62
     1
  5
141
 10
164.286087
 20
100.701872
 30
0.0
  0
POINT
  8
WHITE
  6
CONTINUOUS
 62
     1
  5
142
 10
171.961271
 20
58.050617
 30
0.0
  0
POINT
  8
WHITE
  6
CONTINUOUS
 62
     1
  5
143
 10
195.023988
 20
58.050612
 30
0.0
  0
POINT
  8
WHITE
  6
CONTINUOUS
 62
     1
  5
144
 10
171.961272
 20
60.068336
 30
0.0
  0
POINT
  8
WHITE
  6
CONTINUOUS
 62
     1
  5
145
 10
195.023988
 20
60.068342
 30
0.0
  0
POINT
  8
WHITE
  6
CONTINUOUS
 62
     1
  5
146
 10
212.912915
 20
62.049216
 30
0.0
  0
POINT
  8
WHITE
  6
CONTINUOUS
 62
     1
  5
147
 10
215.164061
 20
66.583896
 30
0.0
  0
POINT
  8
WHITE
  6
CONTINUOUS
 62
     1
  5
148
 10
208.994937
 20
71.190458
 30
0.0
  0
POINT
  8
WHITE
  6
CONTINUOUS
 62
     1
  5
149
 10
210.427214
 20
67.99694
 30
0.0
  0
POINT
  8
WHITE
  6
CONTINUOUS
 62
     1
  5
14A
 10
216.488173
 20
78.853265
 30
0.0
  0
POINT
  8
WHITE
  6
CONTINUOUS
 62
     1
  5
14B
 10
217.317481
 20
75.670374
 30
0.0
  0
ENDSEC
  0
EOF
