  0
SECTION
  2
HEADER
  9
$ACADVER
  1
AC1009
  9
$EXTMIN
 10
26.79653859
 20
20.11343942
 30
0.0
  9
$EXTMAX
 10
395.36733082
 20
279.74422114
 30
0.0
  0
ENDSEC
  0
SECTION
  2
TABLES
  0
TABLE
  2
LAYER
 70
1
 0
LAYER
 2
Pen Holder.cdr (1)
 70
0
 62
1
 6
CONTINUOUS
 0
ENDTAB
 0
ENDSEC
  0
SECTION
  2
ENTITIES
  0
POLYLINE
  8
Pen Holder.cdr (1)
 66
   1
 39
0.000000
 70
    1
  0
VERTEX
  8
0
 10
317.93290481
 20
276.76173198
  0
VERTEX
  8
0
 10
317.93290481
 20
260.35841198
  0
VERTEX
  8
0
 10
310.13291759
 20
260.35841198
  0
VERTEX
  8
0
 10
310.13291759
 20
257.37592281
  0
VERTEX
  8
0
 10
317.93290481
 20
257.37592281
  0
VERTEX
  8
0
 10
317.93290481
 20
238.58673142
  0
VERTEX
  8
0
 10
281.93288509
 20
238.58673142
  0
VERTEX
  8
0
 10
281.93288509
 20
241.56900892
  0
VERTEX
  8
0
 10
250.73290093
 20
241.56900892
  0
VERTEX
  8
0
 10
250.73290093
 20
238.58673142
  0
VERTEX
  8
0
 10
214.73291648
 20
238.58673142
  0
VERTEX
  8
0
 10
214.73291648
 20
248.72672892
  0
VERTEX
  8
0
 10
211.73271787
 20
248.72672892
  0
VERTEX
  8
0
 10
211.73271787
 20
238.58673142
  0
VERTEX
  8
0
 10
206.93271759
 20
238.58673142
  0
VERTEX
  8
0
 10
206.93271759
 20
262.44600975
  0
VERTEX
  8
0
 10
214.73291648
 20
262.44583337
  0
VERTEX
  8
0
 10
214.73291648
 20
276.76173198
  0
VERTEX
  8
0
 10
250.73290093
 20
276.76173198
  0
VERTEX
  8
0
 10
250.73290093
 20
279.74422114
  0
VERTEX
  8
0
 10
281.93288509
 20
279.74422114
  0
VERTEX
  8
0
 10
281.93288509
 20
276.76173198
  0
VERTEX
  8
0
 10
317.93290481
 20
276.76173198
  0
SEQEND
  0
POLYLINE
  8
Pen Holder.cdr (1)
 66
   1
 39
0.000000
 70
    1
  0
VERTEX
  8
0
 10
317.93290481
 20
233.27946309
  0
VERTEX
  8
0
 10
317.93290481
 20
216.87607253
  0
VERTEX
  8
0
 10
310.13291759
 20
216.87607253
  0
VERTEX
  8
0
 10
310.13291759
 20
213.89354809
  0
VERTEX
  8
0
 10
317.93290481
 20
213.89354809
  0
VERTEX
  8
0
 10
317.93290481
 20
195.10435670
  0
VERTEX
  8
0
 10
281.93288509
 20
195.10435670
  0
VERTEX
  8
0
 10
281.93288509
 20
198.08674003
  0
VERTEX
  8
0
 10
250.73290093
 20
198.08674003
  0
VERTEX
  8
0
 10
250.73290093
 20
195.10435670
  0
VERTEX
  8
0
 10
214.73291648
 20
195.10435670
  0
VERTEX
  8
0
 10
214.73291648
 20
205.24435420
  0
VERTEX
  8
0
 10
211.73271787
 20
205.24435420
  0
VERTEX
  8
0
 10
211.73271787
 20
195.10435670
  0
VERTEX
  8
0
 10
206.93271759
 20
195.10435670
  0
VERTEX
  8
0
 10
206.93271759
 20
218.96374086
  0
VERTEX
  8
0
 10
214.73291648
 20
218.96356448
  0
VERTEX
  8
0
 10
214.73291648
 20
233.27946309
  0
VERTEX
  8
0
 10
250.73290093
 20
233.27946309
  0
VERTEX
  8
0
 10
250.73290093
 20
236.26174059
  0
VERTEX
  8
0
 10
281.93288509
 20
236.26174059
  0
VERTEX
  8
0
 10
281.93288509
 20
233.27946309
  0
VERTEX
  8
0
 10
317.93290481
 20
233.27946309
  0
SEQEND
  0
POLYLINE
  8
Pen Holder.cdr (1)
 66
   1
 39
0.000000
 70
    1
  0
VERTEX
  8
0
 10
317.93290481
 20
188.73563470
  0
VERTEX
  8
0
 10
317.93290481
 20
172.33224414
  0
VERTEX
  8
0
 10
310.13291759
 20
172.33224414
  0
VERTEX
  8
0
 10
310.13291759
 20
169.34982553
  0
VERTEX
  8
0
 10
317.93290481
 20
169.34982553
  0
VERTEX
  8
0
 10
317.93290481
 20
150.56052831
  0
VERTEX
  8
0
 10
281.93288509
 20
150.56052831
  0
VERTEX
  8
0
 10
281.93288509
 20
153.54294692
  0
VERTEX
  8
0
 10
250.73290093
 20
153.54294692
  0
VERTEX
  8
0
 10
250.73290093
 20
150.56052831
  0
VERTEX
  8
0
 10
214.73291648
 20
150.56052831
  0
VERTEX
  8
0
 10
214.73291648
 20
160.70052581
  0
VERTEX
  8
0
 10
211.73271787
 20
160.70052581
  0
VERTEX
  8
0
 10
211.73271787
 20
150.56052831
  0
VERTEX
  8
0
 10
206.93271759
 20
150.56052831
  0
VERTEX
  8
0
 10
206.93271759
 20
174.41994775
  0
VERTEX
  8
0
 10
214.73291648
 20
174.41973609
  0
VERTEX
  8
0
 10
214.73291648
 20
188.73563470
  0
VERTEX
  8
0
 10
250.73290093
 20
188.73563470
  0
VERTEX
  8
0
 10
250.73290093
 20
191.71801803
  0
VERTEX
  8
0
 10
281.93288509
 20
191.71801803
  0
VERTEX
  8
0
 10
281.93288509
 20
188.73563470
  0
VERTEX
  8
0
 10
317.93290481
 20
188.73563470
  0
SEQEND
  0
POLYLINE
  8
Pen Holder.cdr (1)
 66
   1
 39
0.000000
 70
    1
  0
VERTEX
  8
0
 10
317.93290481
 20
145.25325997
  0
VERTEX
  8
0
 10
317.93290481
 20
128.84997525
  0
VERTEX
  8
0
 10
310.13291759
 20
128.84997525
  0
VERTEX
  8
0
 10
310.13291759
 20
125.86745081
  0
VERTEX
  8
0
 10
317.93290481
 20
125.86745081
  0
VERTEX
  8
0
 10
317.93290481
 20
107.07815359
  0
VERTEX
  8
0
 10
281.93288509
 20
107.07815359
  0
VERTEX
  8
0
 10
281.93288509
 20
110.06057220
  0
VERTEX
  8
0
 10
250.73290093
 20
110.06057220
  0
VERTEX
  8
0
 10
250.73290093
 20
107.07815359
  0
VERTEX
  8
0
 10
214.73291648
 20
107.07815359
  0
VERTEX
  8
0
 10
214.73291648
 20
117.21825692
  0
VERTEX
  8
0
 10
211.73271787
 20
117.21825692
  0
VERTEX
  8
0
 10
211.73271787
 20
107.07815359
  0
VERTEX
  8
0
 10
206.93271759
 20
107.07815359
  0
VERTEX
  8
0
 10
206.93271759
 20
130.93757303
  0
VERTEX
  8
0
 10
214.73291648
 20
130.93736136
  0
VERTEX
  8
0
 10
214.73291648
 20
145.25325997
  0
VERTEX
  8
0
 10
250.73290093
 20
145.25325997
  0
VERTEX
  8
0
 10
250.73290093
 20
148.23567859
  0
VERTEX
  8
0
 10
281.93288509
 20
148.23567859
  0
VERTEX
  8
0
 10
281.93288509
 20
145.25325997
  0
VERTEX
  8
0
 10
317.93290481
 20
145.25325997
  0
SEQEND
  0
POLYLINE
  8
Pen Holder.cdr (1)
 66
   1
 39
0.000000
 70
    1
  0
VERTEX
  8
0
 10
317.93290481
 20
101.77088525
  0
VERTEX
  8
0
 10
317.93290481
 20
85.36760053
  0
VERTEX
  8
0
 10
310.13291759
 20
85.36760053
  0
VERTEX
  8
0
 10
310.13291759
 20
82.38511136
  0
VERTEX
  8
0
 10
317.93290481
 20
82.38511136
  0
VERTEX
  8
0
 10
317.93290481
 20
63.59588470
  0
VERTEX
  8
0
 10
281.93288509
 20
63.59588470
  0
VERTEX
  8
0
 10
281.93288509
 20
66.57819747
  0
VERTEX
  8
0
 10
250.73290093
 20
66.57819747
  0
VERTEX
  8
0
 10
250.73290093
 20
63.59588470
  0
VERTEX
  8
0
 10
214.73291648
 20
63.59588470
  0
VERTEX
  8
0
 10
214.73291648
 20
73.73588220
  0
VERTEX
  8
0
 10
211.73271787
 20
73.73588220
  0
VERTEX
  8
0
 10
211.73271787
 20
63.59588470
  0
VERTEX
  8
0
 10
206.93271759
 20
63.59588470
  0
VERTEX
  8
0
 10
206.93271759
 20
87.45519831
  0
VERTEX
  8
0
 10
214.73291648
 20
87.45498664
  0
VERTEX
  8
0
 10
214.73291648
 20
101.77088525
  0
VERTEX
  8
0
 10
250.73290093
 20
101.77088525
  0
VERTEX
  8
0
 10
250.73290093
 20
104.75330386
  0
VERTEX
  8
0
 10
281.93288509
 20
104.75330386
  0
VERTEX
  8
0
 10
281.93288509
 20
101.77088525
  0
VERTEX
  8
0
 10
317.93290481
 20
101.77088525
  0
SEQEND
  0
POLYLINE
  8
Pen Holder.cdr (1)
 66
   1
 39
0.000000
 70
    1
  0
VERTEX
  8
0
 10
317.93290481
 20
58.28861636
  0
VERTEX
  8
0
 10
317.93290481
 20
41.88522581
  0
VERTEX
  8
0
 10
310.13291759
 20
41.88522581
  0
VERTEX
  8
0
 10
310.13291759
 20
38.90273664
  0
VERTEX
  8
0
 10
317.93290481
 20
38.90273664
  0
VERTEX
  8
0
 10
317.93290481
 20
20.11343942
  0
VERTEX
  8
0
 10
281.93288509
 20
20.11343942
  0
VERTEX
  8
0
 10
281.93288509
 20
23.09592858
  0
VERTEX
  8
0
 10
250.73290093
 20
23.09592858
  0
VERTEX
  8
0
 10
250.73290093
 20
20.11343942
  0
VERTEX
  8
0
 10
214.73291648
 20
20.11343942
  0
VERTEX
  8
0
 10
214.73291648
 20
30.25343692
  0
VERTEX
  8
0
 10
211.73271787
 20
30.25343692
  0
VERTEX
  8
0
 10
211.73271787
 20
20.11343942
  0
VERTEX
  8
0
 10
206.93271759
 20
20.11343942
  0
VERTEX
  8
0
 10
206.93271759
 20
43.97292942
  0
VERTEX
  8
0
 10
214.73291648
 20
43.97271775
  0
VERTEX
  8
0
 10
214.73291648
 20
58.28861636
  0
VERTEX
  8
0
 10
250.73290093
 20
58.28861636
  0
VERTEX
  8
0
 10
250.73290093
 20
61.27092914
  0
VERTEX
  8
0
 10
281.93288509
 20
61.27092914
  0
VERTEX
  8
0
 10
281.93288509
 20
58.28861636
  0
VERTEX
  8
0
 10
317.93290481
 20
58.28861636
  0
SEQEND
  0
POLYLINE
  8
Pen Holder.cdr (1)
 66
   1
 39
0.000000
 70
    1
  0
VERTEX
  8
0
 10
195.74421526
 20
258.71706731
  0
VERTEX
  8
0
 10
193.70413665
 20
258.71706731
  0
VERTEX
  8
0
 10
193.70413665
 20
239.51706620
  0
VERTEX
  8
0
 10
190.70411443
 20
239.51706620
  0
VERTEX
  8
0
 10
190.70411443
 20
258.71706731
  0
VERTEX
  8
0
 10
120.00021582
 20
258.71706731
  0
VERTEX
  8
0
 10
119.66716849
 20
258.69394756
  0
VERTEX
  8
0
 10
119.32964789
 20
258.62607441
  0
VERTEX
  8
0
 10
118.99329611
 20
258.51567704
  0
VERTEX
  8
0
 10
118.66375524
 20
258.36498461
  0
VERTEX
  8
0
 10
118.34666735
 20
258.17622629
  0
VERTEX
  8
0
 10
118.04767453
 20
257.95163124
  0
VERTEX
  8
0
 10
117.77241887
 20
257.69342863
  0
VERTEX
  8
0
 10
117.52654245
 20
257.40384762
  0
VERTEX
  8
0
 10
117.31568735
 20
257.08511739
  0
VERTEX
  8
0
 10
117.14549566
 20
256.73946709
  0
VERTEX
  8
0
 10
117.02160947
 20
256.36912589
  0
VERTEX
  8
0
 10
116.94967085
 20
255.97632297
  0
VERTEX
  8
0
 10
116.93494504
 20
255.77219498
  0
VERTEX
  8
0
 10
116.93532190
 20
255.56328749
  0
VERTEX
  8
0
 10
116.95150670
 20
255.34987915
  0
VERTEX
  8
0
 10
116.98420470
 20
255.13224860
  0
VERTEX
  8
0
 10
117.03412115
 20
254.91067450
  0
VERTEX
  8
0
 10
117.10196133
 20
254.68543549
  0
VERTEX
  8
0
 10
117.18843048
 20
254.45681021
  0
VERTEX
  8
0
 10
117.29423387
 20
254.22507731
  0
VERTEX
  8
0
 10
118.20898106
 20
252.35350734
  0
VERTEX
  8
0
 10
119.08923975
 20
250.49545381
  0
VERTEX
  8
0
 10
119.93536728
 20
248.65012750
  0
VERTEX
  8
0
 10
120.74772099
 20
246.81673915
  0
VERTEX
  8
0
 10
121.52665821
 20
244.99449953
  0
VERTEX
  8
0
 10
122.27253628
 20
243.18261939
  0
VERTEX
  8
0
 10
122.98571253
 20
241.38030949
  0
VERTEX
  8
0
 10
123.66654431
 20
239.58678060
  0
VERTEX
  8
0
 10
124.31538894
 20
237.80124346
  0
VERTEX
  8
0
 10
124.93260377
 20
236.02290885
  0
VERTEX
  8
0
 10
125.51854612
 20
234.25098751
  0
VERTEX
  8
0
 10
126.07357334
 20
232.48469021
  0
VERTEX
  8
0
 10
126.59804276
 20
230.72322770
  0
VERTEX
  8
0
 10
127.09231172
 20
228.96581075
  0
VERTEX
  8
0
 10
127.55673755
 20
227.21165011
  0
VERTEX
  8
0
 10
127.99167759
 20
225.45995654
  0
VERTEX
  8
0
 10
128.39748917
 20
223.70994081
  0
VERTEX
  8
0
 10
128.77452964
 20
221.96081366
  0
VERTEX
  8
0
 10
129.12315632
 20
220.21178586
  0
VERTEX
  8
0
 10
129.44372656
 20
218.46206817
  0
VERTEX
  8
0
 10
129.73659769
 20
216.71087134
  0
VERTEX
  8
0
 10
130.00212704
 20
214.95740613
  0
VERTEX
  8
0
 10
130.24067196
 20
213.20088331
  0
VERTEX
  8
0
 10
130.45258977
 20
211.44051364
  0
VERTEX
  8
0
 10
130.63823782
 20
209.67550786
  0
VERTEX
  8
0
 10
130.79797343
 20
207.90507674
  0
VERTEX
  8
0
 10
130.93215396
 20
206.12843104
  0
VERTEX
  8
0
 10
131.04113672
 20
204.34478151
  0
VERTEX
  8
0
 10
131.12527907
 20
202.55333893
  0
VERTEX
  8
0
 10
131.18493832
 20
200.75331403
  0
VERTEX
  8
0
 10
131.22047183
 20
198.94391759
  0
VERTEX
  8
0
 10
131.23223693
 20
197.12436036
  0
VERTEX
  8
0
 10
131.21619870
 20
195.01136737
  0
VERTEX
  8
0
 10
131.16875933
 20
192.90619086
  0
VERTEX
  8
0
 10
131.09093174
 20
190.80905329
  0
VERTEX
  8
0
 10
130.98372887
 20
188.72017713
  0
VERTEX
  8
0
 10
130.84816368
 20
186.63978486
  0
VERTEX
  8
0
 10
130.68524909
 20
184.56809893
  0
VERTEX
  8
0
 10
130.49599806
 20
182.50534183
  0
VERTEX
  8
0
 10
130.28142351
 20
180.45173601
  0
VERTEX
  8
0
 10
130.04253839
 20
178.40750395
  0
VERTEX
  8
0
 10
129.78035564
 20
176.37286811
  0
VERTEX
  8
0
 10
129.49588820
 20
174.34805096
  0
VERTEX
  8
0
 10
129.19014902
 20
172.33327498
  0
VERTEX
  8
0
 10
128.86415102
 20
170.32876263
  0
VERTEX
  8
0
 10
128.51890716
 20
168.33473637
  0
VERTEX
  8
0
 10
128.15543036
 20
166.35141869
  0
VERTEX
  8
0
 10
127.77473358
 20
164.37903204
  0
VERTEX
  8
0
 10
127.37782976
 20
162.41779889
  0
VERTEX
  8
0
 10
126.96573183
 20
160.46794173
  0
VERTEX
  8
0
 10
126.53945273
 20
158.52968300
  0
VERTEX
  8
0
 10
126.10000540
 20
156.60324518
  0
VERTEX
  8
0
 10
125.18565784
 20
152.78672216
  0
VERTEX
  8
0
 10
124.23079266
 20
149.02015240
  0
VERTEX
  8
0
 10
123.24351338
 20
145.30531567
  0
VERTEX
  8
0
 10
122.23192354
 20
141.64399170
  0
VERTEX
  8
0
 10
121.20412665
 20
138.03796024
  0
VERTEX
  8
0
 10
120.16822623
 20
134.48900106
  0
VERTEX
  8
0
 10
118.10452893
 20
127.56941848
  0
VERTEX
  8
0
 10
116.10565981
 20
120.89948195
  0
VERTEX
  8
0
 10
115.15079462
 20
117.66258033
  0
VERTEX
  8
0
 10
114.23644706
 20
114.49342947
  0
VERTEX
  8
0
 10
113.37072064
 20
111.39380912
  0
VERTEX
  8
0
 10
112.56171888
 20
108.36549904
  0
VERTEX
  8
0
 10
111.81754531
 20
105.41027896
  0
VERTEX
  8
0
 10
111.14630345
 20
102.52992863
  0
VERTEX
  8
0
 10
110.84056426
 20
101.11838580
  0
VERTEX
  8
0
 10
110.55609682
 20
99.72622782
  0
VERTEX
  8
0
 10
110.29391408
 20
98.35367715
  0
VERTEX
  8
0
 10
110.05502896
 20
97.00095626
  0
VERTEX
  8
0
 10
109.84045441
 20
95.66828763
  0
VERTEX
  8
0
 10
109.65120337
 20
94.35589371
  0
VERTEX
  8
0
 10
109.48828879
 20
93.06399698
  0
VERTEX
  8
0
 10
109.35272359
 20
91.79281992
  0
VERTEX
  8
0
 10
109.24552073
 20
90.54258497
  0
VERTEX
  8
0
 10
109.16769314
 20
89.31351462
  0
VERTEX
  8
0
 10
109.12025376
 20
88.10583134
  0
VERTEX
  8
0
 10
109.10421554
 20
86.91975759
  0
VERTEX
  8
0
 10
109.11683340
 20
85.40387149
  0
VERTEX
  8
0
 10
109.15428764
 20
83.91029231
  0
VERTEX
  8
0
 10
109.21597922
 20
82.43907015
  0
VERTEX
  8
0
 10
109.30130913
 20
80.99025509
  0
VERTEX
  8
0
 10
109.40967834
 20
79.56389723
  0
VERTEX
  8
0
 10
109.54048783
 20
78.16004665
  0
VERTEX
  8
0
 10
109.69313857
 20
76.77875345
  0
VERTEX
  8
0
 10
109.86703154
 20
75.42006771
  0
VERTEX
  8
0
 10
110.06156772
 20
74.08403954
  0
VERTEX
  8
0
 10
110.27614807
 20
72.77071901
  0
VERTEX
  8
0
 10
110.51017358
 20
71.48015622
  0
VERTEX
  8
0
 10
110.76304522
 20
70.21240126
  0
VERTEX
  8
0
 10
111.03416396
 20
68.96750422
  0
VERTEX
  8
0
 10
111.32293079
 20
67.74551519
  0
VERTEX
  8
0
 10
111.62874667
 20
66.54648426
  0
VERTEX
  8
0
 10
111.95101259
 20
65.37046153
  0
VERTEX
  8
0
 10
112.28912952
 20
64.21749707
  0
VERTEX
  8
0
 10
112.64249843
 20
63.08764099
  0
VERTEX
  8
0
 10
113.01052030
 20
61.98094338
  0
VERTEX
  8
0
 10
113.39259611
 20
60.89745431
  0
VERTEX
  8
0
 10
113.78812684
 20
59.83722389
  0
VERTEX
  8
0
 10
114.19651344
 20
58.80030221
  0
VERTEX
  8
0
 10
114.61715692
 20
57.78673936
  0
VERTEX
  8
0
 10
115.04945823
 20
56.79658542
  0
VERTEX
  8
0
 10
115.49281835
 20
55.82989049
  0
VERTEX
  8
0
 10
115.94663827
 20
54.88670465
  0
VERTEX
  8
0
 10
116.41031895
 20
53.96707801
  0
VERTEX
  8
0
 10
116.88326138
 20
53.07106064
  0
VERTEX
  8
0
 10
117.36486652
 20
52.19870264
  0
VERTEX
  8
0
 10
117.85453535
 20
51.35005411
  0
VERTEX
  8
0
 10
118.35166886
 20
50.52516512
  0
VERTEX
  8
0
 10
118.85566800
 20
49.72408578
  0
VERTEX
  8
0
 10
119.36593377
 20
48.94686617
  0
VERTEX
  8
0
 10
119.88186713
 20
48.19355638
  0
VERTEX
  8
0
 10
120.40286907
 20
47.46420651
  0
VERTEX
  8
0
 10
120.92834055
 20
46.75886664
  0
VERTEX
  8
0
 10
121.45768256
 20
46.07758686
  0
VERTEX
  8
0
 10
121.99029606
 20
45.42041727
  0
VERTEX
  8
0
 10
122.52558204
 20
44.78740795
  0
VERTEX
  8
0
 10
123.06294146
 20
44.17860901
  0
VERTEX
  8
0
 10
123.60177532
 20
43.59407052
  0
VERTEX
  8
0
 10
124.14148457
 20
43.03384257
  0
VERTEX
  8
0
 10
124.68147020
 20
42.49797527
  0
VERTEX
  8
0
 10
125.22113318
 20
41.98651869
  0
VERTEX
  8
0
 10
125.75987449
 20
41.49952294
  0
VERTEX
  8
0
 10
126.29709511
 20
41.03703809
  0
VERTEX
  8
0
 10
126.83219600
 20
40.59911425
  0
VERTEX
  8
0
 10
127.36457816
 20
40.18580149
  0
VERTEX
  8
0
 10
127.89364254
 20
39.79714992
  0
VERTEX
  8
0
 10
128.41879012
 20
39.43320962
  0
VERTEX
  8
0
 10
128.93942189
 20
39.09403069
  0
VERTEX
  8
0
 10
129.45493882
 20
38.77966320
  0
VERTEX
  8
0
 10
129.96474188
 20
38.49015727
  0
VERTEX
  8
0
 10
130.46823205
 20
38.22556296
  0
VERTEX
  8
0
 10
130.96481031
 20
37.98593039
  0
VERTEX
  8
0
 10
131.45387763
 20
37.77130963
  0
VERTEX
  8
0
 10
131.93483498
 20
37.58175077
  0
VERTEX
  8
0
 10
132.40708335
 20
37.41730392
  0
VERTEX
  8
0
 10
132.87002370
 20
37.27801915
  0
VERTEX
  8
0
 10
133.32305701
 20
37.16394656
  0
VERTEX
  8
0
 10
133.76558427
 20
37.07513624
  0
VERTEX
  8
0
 10
134.19700644
 20
37.01163828
  0
VERTEX
  8
0
 10
134.61672450
 20
36.97350278
  0
VERTEX
  8
0
 10
135.02413943
 20
36.96077981
  0
VERTEX
  8
0
 10
188.90424220
 20
36.96077981
  0
VERTEX
  8
0
 10
189.48859185
 20
36.97570565
  0
VERTEX
  8
0
 10
190.06553063
 20
37.01999551
  0
VERTEX
  8
0
 10
190.63432800
 20
37.09291788
  0
VERTEX
  8
0
 10
191.19425340
 20
37.19374123
  0
VERTEX
  8
0
 10
191.74457628
 20
37.32173406
  0
VERTEX
  8
0
 10
192.28456611
 20
37.47616486
  0
VERTEX
  8
0
 10
192.81349231
 20
37.65630211
  0
VERTEX
  8
0
 10
193.33062436
 20
37.86141431
  0
VERTEX
  8
0
 10
193.83523169
 20
38.09076993
  0
VERTEX
  8
0
 10
194.32658375
 20
38.34363748
  0
VERTEX
  8
0
 10
194.80395001
 20
38.61928542
  0
VERTEX
  8
0
 10
195.26659990
 20
38.91698226
  0
VERTEX
  8
0
 10
195.71380288
 20
39.23599649
  0
VERTEX
  8
0
 10
196.14482840
 20
39.57559658
  0
VERTEX
  8
0
 10
196.55894590
 20
39.93505102
  0
VERTEX
  8
0
 10
196.95542484
 20
40.31362831
  0
VERTEX
  8
0
 10
197.33353468
 20
40.71059694
  0
VERTEX
  8
0
 10
197.69254485
 20
41.12522538
  0
VERTEX
  8
0
 10
198.03172481
 20
41.55678213
  0
VERTEX
  8
0
 10
198.35034401
 20
42.00453568
  0
VERTEX
  8
0
 10
198.64767190
 20
42.46775451
  0
VERTEX
  8
0
 10
198.92297792
 20
42.94570711
  0
VERTEX
  8
0
 10
199.17553154
 20
43.43766197
  0
VERTEX
  8
0
 10
199.40460220
 20
43.94288758
  0
VERTEX
  8
0
 10
199.60945936
 20
44.46065242
  0
VERTEX
  8
0
 10
199.78937245
 20
44.99022499
  0
VERTEX
  8
0
 10
199.94361093
 20
45.53087376
  0
VERTEX
  8
0
 10
200.07144426
 20
46.08186724
  0
VERTEX
  8
0
 10
200.17214188
 20
46.64247389
  0
VERTEX
  8
0
 10
200.24497323
 20
47.21196223
  0
VERTEX
  8
0
 10
200.28920779
 20
47.78960072
  0
VERTEX
  8
0
 10
200.30411498
 20
48.37465786
  0
VERTEX
  8
0
 10
200.30411498
 20
254.15138203
  0
VERTEX
  8
0
 10
200.28045349
 20
254.61650365
  0
VERTEX
  8
0
 10
200.21102885
 20
255.06857697
  0
VERTEX
  8
0
 10
200.09818081
 20
255.50526187
  0
VERTEX
  8
0
 10
199.94424913
 20
255.92421825
  0
VERTEX
  8
0
 10
199.75157356
 20
256.32310597
  0
VERTEX
  8
0
 10
199.52249385
 20
256.69958494
  0
VERTEX
  8
0
 10
199.25934977
 20
257.05131503
  0
VERTEX
  8
0
 10
198.96448106
 20
257.37595613
  0
VERTEX
  8
0
 10
198.64022747
 20
257.67116812
  0
VERTEX
  8
0
 10
198.28892877
 20
257.93461088
  0
VERTEX
  8
0
 10
197.91292470
 20
258.16394431
  0
VERTEX
  8
0
 10
197.51455502
 20
258.35682828
  0
VERTEX
  8
0
 10
197.09615948
 20
258.51092268
  0
VERTEX
  8
0
 10
196.66007784
 20
258.62388740
  0
VERTEX
  8
0
 10
196.20864985
 20
258.69338231
  0
VERTEX
  8
0
 10
195.74421526
 20
258.71706731
  0
SEQEND
  0
POLYLINE
  8
Pen Holder.cdr (1)
 66
   1
 39
0.000000
 70
    1
  0
VERTEX
  8
0
 10
182.30412276
 20
239.51706620
  0
VERTEX
  8
0
 10
179.30413582
 20
239.51706620
  0
VERTEX
  8
0
 10
179.30413582
 20
251.51708453
  0
VERTEX
  8
0
 10
182.30412276
 20
251.51708453
  0
VERTEX
  8
0
 10
182.30412276
 20
239.51706620
  0
SEQEND
  0
POLYLINE
  8
Pen Holder.cdr (1)
 66
   1
 39
0.000000
 70
    1
  0
VERTEX
  8
0
 10
182.30412276
 20
210.56706342
  0
VERTEX
  8
0
 10
179.30413582
 20
210.56706342
  0
VERTEX
  8
0
 10
179.30413582
 20
222.56708175
  0
VERTEX
  8
0
 10
182.30412276
 20
222.56708175
  0
VERTEX
  8
0
 10
182.30412276
 20
210.56706342
  0
SEQEND
  0
POLYLINE
  8
Pen Holder.cdr (1)
 66
   1
 39
0.000000
 70
    1
  0
VERTEX
  8
0
 10
182.30412276
 20
152.66705786
  0
VERTEX
  8
0
 10
179.30413582
 20
152.66705786
  0
VERTEX
  8
0
 10
179.30413582
 20
164.66707620
  0
VERTEX
  8
0
 10
182.30412276
 20
164.66707620
  0
VERTEX
  8
0
 10
182.30412276
 20
152.66705786
  0
SEQEND
  0
POLYLINE
  8
Pen Holder.cdr (1)
 66
   1
 39
0.000000
 70
    1
  0
VERTEX
  8
0
 10
182.30412276
 20
181.61706064
  0
VERTEX
  8
0
 10
179.30413582
 20
181.61706064
  0
VERTEX
  8
0
 10
179.30413582
 20
193.61707897
  0
VERTEX
  8
0
 10
182.30412276
 20
193.61707897
  0
VERTEX
  8
0
 10
182.30412276
 20
181.61706064
  0
SEQEND
  0
POLYLINE
  8
Pen Holder.cdr (1)
 66
   1
 39
0.000000
 70
    1
  0
VERTEX
  8
0
 10
182.30412276
 20
123.71709036
  0
VERTEX
  8
0
 10
179.30413582
 20
123.71709036
  0
VERTEX
  8
0
 10
179.30413582
 20
135.71707342
  0
VERTEX
  8
0
 10
182.30412276
 20
135.71707342
  0
VERTEX
  8
0
 10
182.30412276
 20
123.71709036
  0
SEQEND
  0
POLYLINE
  8
Pen Holder.cdr (1)
 66
   1
 39
0.000000
 70
    1
  0
VERTEX
  8
0
 10
190.70411443
 20
138.66717759
  0
VERTEX
  8
0
 10
193.70413665
 20
138.66717759
  0
VERTEX
  8
0
 10
193.70413665
 20
118.56716981
  0
VERTEX
  8
0
 10
190.70411443
 20
118.56716981
  0
VERTEX
  8
0
 10
190.70411443
 20
138.66717759
  0
SEQEND
  0
POLYLINE
  8
Pen Holder.cdr (1)
 66
   1
 39
0.000000
 70
    1
  0
VERTEX
  8
0
 10
140.05372748
 20
231.66007009
  0
VERTEX
  8
0
 10
143.05371443
 20
231.66007009
  0
VERTEX
  8
0
 10
143.05371443
 20
222.06006953
  0
VERTEX
  8
0
 10
140.05372748
 20
222.06006953
  0
VERTEX
  8
0
 10
140.05372748
 20
231.66007009
  0
SEQEND
  0
POLYLINE
  8
Pen Holder.cdr (1)
 66
   1
 39
0.000000
 70
    1
  0
VERTEX
  8
0
 10
140.05372748
 20
162.88688897
  0
VERTEX
  8
0
 10
143.05371443
 20
162.88688897
  0
VERTEX
  8
0
 10
143.05371443
 20
153.28688842
  0
VERTEX
  8
0
 10
140.05372748
 20
153.28688842
  0
VERTEX
  8
0
 10
140.05372748
 20
162.88688897
  0
SEQEND
  0
POLYLINE
  8
Pen Holder.cdr (1)
 66
   1
 39
0.000000
 70
    1
  0
VERTEX
  8
0
 10
190.16302387
 20
94.11296703
  0
VERTEX
  8
0
 10
193.16364582
 20
94.11296703
  0
VERTEX
  8
0
 10
193.16353998
 20
70.11307147
  0
VERTEX
  8
0
 10
190.16372943
 20
70.11317731
  0
VERTEX
  8
0
 10
190.16302387
 20
94.11296703
  0
SEQEND
  0
POLYLINE
  8
Pen Holder.cdr (1)
 66
   1
 39
0.000000
 70
    1
  0
VERTEX
  8
0
 10
124.80332054
 20
90.31796009
  0
VERTEX
  8
0
 10
127.80313109
 20
90.31788953
  0
VERTEX
  8
0
 10
127.80383665
 20
66.31806453
  0
VERTEX
  8
0
 10
124.80321470
 20
66.31806453
  0
VERTEX
  8
0
 10
124.80332054
 20
90.31796009
  0
SEQEND
  0
POLYLINE
  8
Pen Holder.cdr (1)
 66
   1
 39
0.000000
 70
    1
  0
VERTEX
  8
0
 10
162.53773693
 20
114.16647870
  0
VERTEX
  8
0
 10
164.03792443
 20
116.76507509
  0
VERTEX
  8
0
 10
184.82242693
 20
104.76509203
  0
VERTEX
  8
0
 10
183.32241582
 20
102.16737759
  0
VERTEX
  8
0
 10
162.53773693
 20
114.16647870
  0
SEQEND
  0
POLYLINE
  8
Pen Holder.cdr (1)
 66
   1
 39
0.000000
 70
    1
  0
VERTEX
  8
0
 10
133.14443359
 20
55.66586897
  0
VERTEX
  8
0
 10
134.64444470
 20
58.26368925
  0
VERTEX
  8
0
 10
155.42912359
 20
46.26448231
  0
VERTEX
  8
0
 10
153.92893609
 20
43.66588592
  0
VERTEX
  8
0
 10
133.14443359
 20
55.66586897
  0
SEQEND
  0
POLYLINE
  8
Pen Holder.cdr (1)
 66
   1
 39
0.000000
 70
    1
  0
VERTEX
  8
0
 10
131.35814332
 20
100.26908036
  0
VERTEX
  8
0
 10
129.85774415
 20
102.86767675
  0
VERTEX
  8
0
 10
150.64231720
 20
114.86758925
  0
VERTEX
  8
0
 10
152.14211665
 20
112.26966314
  0
VERTEX
  8
0
 10
131.35814332
 20
100.26908036
  0
SEQEND
  0
POLYLINE
  8
Pen Holder.cdr (1)
 66
   1
 39
0.000000
 70
    1
  0
VERTEX
  8
0
 10
167.32454332
 20
45.56347759
  0
VERTEX
  8
0
 10
165.82474387
 20
48.16136842
  0
VERTEX
  8
0
 10
186.60871720
 20
60.16198647
  0
VERTEX
  8
0
 10
188.10911637
 20
57.56339009
  0
VERTEX
  8
0
 10
167.32454332
 20
45.56347759
  0
SEQEND
  0
POLYLINE
  8
Pen Holder.cdr (1)
 66
   1
 39
0.000000
 70
    1
  0
VERTEX
  8
0
 10
31.95654859
 20
237.28987425
  0
VERTEX
  8
0
 10
73.23652276
 20
237.28987425
  0
VERTEX
  8
0
 10
73.76217610
 20
237.26324266
  0
VERTEX
  8
0
 10
74.27308626
 20
237.18510221
  0
VERTEX
  8
0
 10
74.76660813
 20
237.05808445
  0
VERTEX
  8
0
 10
75.24009659
 20
236.88482087
  0
VERTEX
  8
0
 10
75.69090654
 20
236.66794301
  0
VERTEX
  8
0
 10
76.11639287
 20
236.41008237
  0
VERTEX
  8
0
 10
76.51391046
 20
236.11387049
  0
VERTEX
  8
0
 10
76.88081422
 20
235.78193887
  0
VERTEX
  8
0
 10
77.21445902
 20
235.41691904
  0
VERTEX
  8
0
 10
77.51219976
 20
235.02144252
  0
VERTEX
  8
0
 10
77.77139133
 20
234.59814082
  0
VERTEX
  8
0
 10
77.98938862
 20
234.14964546
  0
VERTEX
  8
0
 10
78.16354652
 20
233.67858797
  0
VERTEX
  8
0
 10
78.29121991
 20
233.18759986
  0
VERTEX
  8
0
 10
78.36976370
 20
232.67931265
  0
VERTEX
  8
0
 10
78.39653276
 20
232.15635786
  0
VERTEX
  8
0
 10
78.39653276
 20
220.00587981
  0
VERTEX
  8
0
 10
81.39651970
 20
220.00587981
  0
VERTEX
  8
0
 10
81.39651970
 20
229.80368286
  0
VERTEX
  8
0
 10
84.37622193
 20
229.80368286
  0
VERTEX
  8
0
 10
84.56211974
 20
229.78775987
  0
VERTEX
  8
0
 10
84.74269727
 20
229.74173701
  0
VERTEX
  8
0
 10
84.91703372
 20
229.66823346
  0
VERTEX
  8
0
 10
85.08420834
 20
229.56986837
  0
VERTEX
  8
0
 10
85.24330035
 20
229.44926091
  0
VERTEX
  8
0
 10
85.39338899
 20
229.30903027
  0
VERTEX
  8
0
 10
85.53355347
 20
229.15179559
  0
VERTEX
  8
0
 10
85.66287304
 20
228.98017606
  0
VERTEX
  8
0
 10
85.78042691
 20
228.79679083
  0
VERTEX
  8
0
 10
85.88529433
 20
228.60425909
  0
VERTEX
  8
0
 10
86.05328669
 20
228.20223271
  0
VERTEX
  8
0
 10
86.11457010
 20
227.99797641
  0
VERTEX
  8
0
 10
86.15948397
 20
227.79505026
  0
VERTEX
  8
0
 10
86.18710752
 20
227.59607343
  0
VERTEX
  8
0
 10
86.19651998
 20
227.40366509
  0
VERTEX
  8
0
 10
86.19651998
 20
210.00367731
  0
VERTEX
  8
0
 10
78.39653276
 20
210.00367731
  0
VERTEX
  8
0
 10
78.39653276
 20
99.03908536
  0
VERTEX
  8
0
 10
81.39651970
 20
99.03908536
  0
VERTEX
  8
0
 10
81.39651970
 20
110.78968981
  0
VERTEX
  8
0
 10
84.47612859
 20
110.78968981
  0
VERTEX
  8
0
 10
84.65766042
 20
110.77355016
  0
VERTEX
  8
0
 10
84.83265932
 20
110.72693512
  0
VERTEX
  8
0
 10
85.00041070
 20
110.65255050
  0
VERTEX
  8
0
 10
85.16019998
 20
110.55310215
  0
VERTEX
  8
0
 10
85.31131258
 20
110.43129588
  0
VERTEX
  8
0
 10
85.45303393
 20
110.28983753
  0
VERTEX
  8
0
 10
85.58464942
 20
110.13143292
  0
VERTEX
  8
0
 10
85.70544450
 20
109.95878790
  0
VERTEX
  8
0
 10
85.81470456
 20
109.77460828
  0
VERTEX
  8
0
 10
85.91171504
 20
109.58159990
  0
VERTEX
  8
0
 10
86.06612891
 20
109.17992016
  0
VERTEX
  8
0
 10
86.16296944
 20
108.77539532
  0
VERTEX
  8
0
 10
86.18801325
 20
108.57883057
  0
VERTEX
  8
0
 10
86.19651998
 20
108.38967203
  0
VERTEX
  8
0
 10
86.19651998
 20
80.08987397
  0
VERTEX
  8
0
 10
31.95654859
 20
80.08987397
  0
VERTEX
  8
0
 10
31.43090688
 20
80.11650557
  0
VERTEX
  8
0
 10
30.92000535
 20
80.19464601
  0
VERTEX
  8
0
 10
30.42648943
 20
80.32166378
  0
VERTEX
  8
0
 10
29.95300453
 20
80.49492736
  0
VERTEX
  8
0
 10
29.50219608
 20
80.71180522
  0
VERTEX
  8
0
 10
29.07670949
 20
80.96966585
  0
VERTEX
  8
0
 10
28.67919019
 20
81.26587774
  0
VERTEX
  8
0
 10
28.31228359
 20
81.59780936
  0
VERTEX
  8
0
 10
27.97863512
 20
81.96282919
  0
VERTEX
  8
0
 10
27.68089020
 20
82.35830571
  0
VERTEX
  8
0
 10
27.42169423
 20
82.78160741
  0
VERTEX
  8
0
 10
27.20369266
 20
83.23010276
  0
VERTEX
  8
0
 10
27.02953088
 20
83.70116026
  0
VERTEX
  8
0
 10
26.90185434
 20
84.19214837
  0
VERTEX
  8
0
 10
26.82330843
 20
84.70043557
  0
VERTEX
  8
0
 10
26.79653859
 20
85.22339036
  0
VERTEX
  8
0
 10
26.79653859
 20
232.15635786
  0
VERTEX
  8
0
 10
26.82330649
 20
232.67931265
  0
VERTEX
  8
0
 10
26.90184710
 20
233.18759986
  0
VERTEX
  8
0
 10
27.02951577
 20
233.67858797
  0
VERTEX
  8
0
 10
27.20366785
 20
234.14964546
  0
VERTEX
  8
0
 10
27.42165871
 20
234.59814082
  0
VERTEX
  8
0
 10
27.68084369
 20
235.02144252
  0
VERTEX
  8
0
 10
27.97857815
 20
235.41691904
  0
VERTEX
  8
0
 10
28.31221745
 20
235.78193887
  0
VERTEX
  8
0
 10
28.67911694
 20
236.11387049
  0
VERTEX
  8
0
 10
29.07663198
 20
236.41008237
  0
VERTEX
  8
0
 10
29.50211792
 20
236.66794301
  0
VERTEX
  8
0
 10
29.95293012
 20
236.88482087
  0
VERTEX
  8
0
 10
30.42642393
 20
237.05808445
  0
VERTEX
  8
0
 10
30.91995471
 20
237.18510221
  0
VERTEX
  8
0
 10
31.43087781
 20
237.26324266
  0
VERTEX
  8
0
 10
31.95654859
 20
237.28987425
  0
SEQEND
  0
POLYLINE
  8
Pen Holder.cdr (1)
 66
   1
 39
0.000000
 70
    1
  0
VERTEX
  8
0
 10
34.03313970
 20
225.47227731
  0
VERTEX
  8
0
 10
48.43314054
 20
225.47227731
  0
VERTEX
  8
0
 10
48.43314054
 20
166.67226509
  0
VERTEX
  8
0
 10
34.03313970
 20
166.67226509
  0
VERTEX
  8
0
 10
34.03313970
 20
225.47227731
  0
SEQEND
  0
POLYLINE
  8
Pen Holder.cdr (1)
 66
   1
 39
0.000000
 70
    1
  0
VERTEX
  8
0
 10
56.75993082
 20
225.47227731
  0
VERTEX
  8
0
 10
71.15993165
 20
225.47227731
  0
VERTEX
  8
0
 10
71.15993165
 20
166.67226509
  0
VERTEX
  8
0
 10
56.75993082
 20
166.67226509
  0
VERTEX
  8
0
 10
56.75993082
 20
225.47227731
  0
SEQEND
  0
POLYLINE
  8
Pen Holder.cdr (1)
 66
   1
 39
0.000000
 70
    1
  0
VERTEX
  8
0
 10
34.03313970
 20
150.70748314
  0
VERTEX
  8
0
 10
48.43314054
 20
150.70748314
  0
VERTEX
  8
0
 10
48.43314054
 20
91.90747092
  0
VERTEX
  8
0
 10
34.03313970
 20
91.90747092
  0
VERTEX
  8
0
 10
34.03313970
 20
150.70748314
  0
SEQEND
  0
POLYLINE
  8
Pen Holder.cdr (1)
 66
   1
 39
0.000000
 70
    1
  0
VERTEX
  8
0
 10
56.75993082
 20
150.70748314
  0
VERTEX
  8
0
 10
71.15993165
 20
150.70748314
  0
VERTEX
  8
0
 10
71.15993165
 20
91.90747092
  0
VERTEX
  8
0
 10
56.75993082
 20
91.90747092
  0
VERTEX
  8
0
 10
56.75993082
 20
150.70748314
  0
SEQEND
  0
POLYLINE
  8
Pen Holder.cdr (1)
 66
   1
 39
0.000000
 70
    1
  0
VERTEX
  8
0
 10
26.84134137
 20
74.01535814
  0
VERTEX
  8
0
 10
62.24132137
 20
74.01535814
  0
VERTEX
  8
0
 10
62.24132137
 20
69.21535786
  0
VERTEX
  8
0
 10
68.24133054
 20
69.21535786
  0
VERTEX
  8
0
 10
68.24133054
 20
74.01535814
  0
VERTEX
  8
0
 10
103.64134582
 20
74.01535814
  0
VERTEX
  8
0
 10
103.64134582
 20
59.01538814
  0
VERTEX
  8
0
 10
98.82151943
 20
59.01538814
  0
VERTEX
  8
0
 10
98.82151943
 20
68.61538870
  0
VERTEX
  8
0
 10
95.82153248
 20
68.61538870
  0
VERTEX
  8
0
 10
95.82153248
 20
59.01538814
  0
VERTEX
  8
0
 10
68.24133054
 20
59.01538814
  0
VERTEX
  8
0
 10
68.24133054
 20
63.81538842
  0
VERTEX
  8
0
 10
62.24132137
 20
63.81538842
  0
VERTEX
  8
0
 10
62.24132137
 20
59.01538814
  0
VERTEX
  8
0
 10
34.66111943
 20
59.01538814
  0
VERTEX
  8
0
 10
34.66111943
 20
68.61538870
  0
VERTEX
  8
0
 10
31.66113248
 20
68.61538870
  0
VERTEX
  8
0
 10
31.66113248
 20
59.01538814
  0
VERTEX
  8
0
 10
26.84134137
 20
59.01538814
  0
VERTEX
  8
0
 10
26.84134137
 20
74.01535814
  0
SEQEND
  0
POLYLINE
  8
Pen Holder.cdr (1)
 66
   1
 39
0.000000
 70
    1
  0
VERTEX
  8
0
 10
26.84134137
 20
50.70948231
  0
VERTEX
  8
0
 10
31.66113248
 20
50.70948231
  0
VERTEX
  8
0
 10
31.66113248
 20
41.10948175
  0
VERTEX
  8
0
 10
34.66111943
 20
41.10948175
  0
VERTEX
  8
0
 10
34.66111943
 20
50.70948231
  0
VERTEX
  8
0
 10
62.24132137
 20
50.70948231
  0
VERTEX
  8
0
 10
62.24132137
 20
41.10948175
  0
VERTEX
  8
0
 10
68.24133054
 20
41.10948175
  0
VERTEX
  8
0
 10
68.24133054
 20
50.70948231
  0
VERTEX
  8
0
 10
95.82153248
 20
50.70948231
  0
VERTEX
  8
0
 10
95.82153248
 20
41.10948175
  0
VERTEX
  8
0
 10
98.82151943
 20
41.10948175
  0
VERTEX
  8
0
 10
98.82151943
 20
50.70948231
  0
VERTEX
  8
0
 10
103.64134582
 20
50.70948231
  0
VERTEX
  8
0
 10
103.64134582
 20
35.70947703
  0
VERTEX
  8
0
 10
26.84134137
 20
35.70947703
  0
VERTEX
  8
0
 10
26.84134137
 20
50.70948231
  0
SEQEND
  0
POLYLINE
  8
Pen Holder.cdr (1)
 66
   1
 39
0.000000
 70
    1
  0
VERTEX
  8
0
 10
34.66111943
 20
243.31898759
  0
VERTEX
  8
0
 10
34.66111943
 20
252.91898814
  0
VERTEX
  8
0
 10
31.66113248
 20
252.91898814
  0
VERTEX
  8
0
 10
31.66113248
 20
243.31898759
  0
VERTEX
  8
0
 10
26.84134137
 20
243.31898759
  0
VERTEX
  8
0
 10
26.84134137
 20
258.31895759
  0
VERTEX
  8
0
 10
62.24132137
 20
258.31895759
  0
VERTEX
  8
0
 10
62.24132137
 20
248.71895703
  0
VERTEX
  8
0
 10
68.24133054
 20
248.71895703
  0
VERTEX
  8
0
 10
68.24133054
 20
258.31895759
  0
VERTEX
  8
0
 10
103.64134582
 20
258.31895759
  0
VERTEX
  8
0
 10
103.64134582
 20
243.31898759
  0
VERTEX
  8
0
 10
98.82151943
 20
243.31898759
  0
VERTEX
  8
0
 10
98.82151943
 20
252.91898814
  0
VERTEX
  8
0
 10
95.82153248
 20
252.91898814
  0
VERTEX
  8
0
 10
95.82153248
 20
243.31898759
  0
VERTEX
  8
0
 10
34.66111943
 20
243.31898759
  0
SEQEND
  0
POLYLINE
  8
Pen Holder.cdr (1)
 66
   1
 39
0.000000
 70
    1
  0
VERTEX
  8
0
 10
334.40962387
 20
60.29417231
  0
VERTEX
  8
0
 10
339.50952054
 20
60.29417231
  0
VERTEX
  8
0
 10
339.76931875
 20
60.28095207
  0
VERTEX
  8
0
 10
340.02182429
 20
60.24216218
  0
VERTEX
  8
0
 10
340.26573066
 20
60.17910887
  0
VERTEX
  8
0
 10
340.49973138
 20
60.09309834
  0
VERTEX
  8
0
 10
340.72251997
 20
59.98543685
  0
VERTEX
  8
0
 10
340.93278994
 20
59.85743059
  0
VERTEX
  8
0
 10
341.12923482
 20
59.71038581
  0
VERTEX
  8
0
 10
341.31054811
 20
59.54560873
  0
VERTEX
  8
0
 10
341.47542333
 20
59.36440557
  0
VERTEX
  8
0
 10
341.62255401
 20
59.16808256
  0
VERTEX
  8
0
 10
341.75063365
 20
58.95794592
  0
VERTEX
  8
0
 10
341.85835577
 20
58.73530188
  0
VERTEX
  8
0
 10
341.94441390
 20
58.50145666
  0
VERTEX
  8
0
 10
342.00750154
 20
58.25771649
  0
VERTEX
  8
0
 10
342.04631221
 20
58.00538759
  0
VERTEX
  8
0
 10
342.05953943
 20
57.74577620
  0
VERTEX
  8
0
 10
342.05953943
 20
56.79507536
  0
VERTEX
  8
0
 10
336.82883276
 20
55.87277314
  0
VERTEX
  8
0
 10
337.34963859
 20
52.91836509
  0
VERTEX
  8
0
 10
342.05953943
 20
53.74887453
  0
VERTEX
  8
0
 10
342.05953943
 20
41.03949064
  0
VERTEX
  8
0
 10
337.34963859
 20
41.86996481
  0
VERTEX
  8
0
 10
336.82872693
 20
38.91559203
  0
VERTEX
  8
0
 10
342.05953943
 20
37.99328981
  0
VERTEX
  8
0
 10
342.05953943
 20
37.04265953
  0
VERTEX
  8
0
 10
342.04631221
 20
36.78302950
  0
VERTEX
  8
0
 10
342.00750154
 20
36.53068430
  0
VERTEX
  8
0
 10
341.94441390
 20
36.28693000
  0
VERTEX
  8
0
 10
341.85835577
 20
36.05307266
  0
VERTEX
  8
0
 10
341.75063365
 20
35.83041836
  0
VERTEX
  8
0
 10
341.62255401
 20
35.62027317
  0
VERTEX
  8
0
 10
341.47542333
 20
35.42394316
  0
VERTEX
  8
0
 10
341.31054811
 20
35.24273439
  0
VERTEX
  8
0
 10
341.12923482
 20
35.07795294
  0
VERTEX
  8
0
 10
340.93278994
 20
34.93090488
  0
VERTEX
  8
0
 10
340.72251997
 20
34.80289628
  0
VERTEX
  8
0
 10
340.49973138
 20
34.69523320
  0
VERTEX
  8
0
 10
340.26573066
 20
34.60922172
  0
VERTEX
  8
0
 10
340.02182429
 20
34.54616792
  0
VERTEX
  8
0
 10
339.76931875
 20
34.50737785
  0
VERTEX
  8
0
 10
339.50952054
 20
34.49415759
  0
VERTEX
  8
0
 10
334.40962387
 20
34.49415759
  0
VERTEX
  8
0
 10
334.14983068
 20
34.50737785
  0
VERTEX
  8
0
 10
333.89732722
 20
34.54616792
  0
VERTEX
  8
0
 10
333.65342034
 20
34.60922172
  0
VERTEX
  8
0
 10
333.41941689
 20
34.69523320
  0
VERTEX
  8
0
 10
333.19662371
 20
34.80289628
  0
VERTEX
  8
0
 10
332.98634765
 20
34.93090488
  0
VERTEX
  8
0
 10
332.78989555
 20
35.07795294
  0
VERTEX
  8
0
 10
332.60857425
 20
35.24273439
  0
VERTEX
  8
0
 10
332.44369061
 20
35.42394316
  0
VERTEX
  8
0
 10
332.29655147
 20
35.62027317
  0
VERTEX
  8
0
 10
332.16846368
 20
35.83041836
  0
VERTEX
  8
0
 10
332.06073407
 20
36.05307266
  0
VERTEX
  8
0
 10
331.97466949
 20
36.28693000
  0
VERTEX
  8
0
 10
331.91157680
 20
36.53068430
  0
VERTEX
  8
0
 10
331.87276283
 20
36.78302950
  0
VERTEX
  8
0
 10
331.85953443
 20
37.04265953
  0
VERTEX
  8
0
 10
331.85953443
 20
57.74577620
  0
VERTEX
  8
0
 10
331.87276283
 20
58.00538759
  0
VERTEX
  8
0
 10
331.91157680
 20
58.25771649
  0
VERTEX
  8
0
 10
331.97466949
 20
58.50145666
  0
VERTEX
  8
0
 10
332.06073407
 20
58.73530188
  0
VERTEX
  8
0
 10
332.16846368
 20
58.95794592
  0
VERTEX
  8
0
 10
332.29655147
 20
59.16808256
  0
VERTEX
  8
0
 10
332.44369061
 20
59.36440557
  0
VERTEX
  8
0
 10
332.60857425
 20
59.54560873
  0
VERTEX
  8
0
 10
332.78989555
 20
59.71038581
  0
VERTEX
  8
0
 10
332.98634765
 20
59.85743059
  0
VERTEX
  8
0
 10
333.19662371
 20
59.98543685
  0
VERTEX
  8
0
 10
333.41941689
 20
60.09309834
  0
VERTEX
  8
0
 10
333.65342034
 20
60.17910887
  0
VERTEX
  8
0
 10
333.89732722
 20
60.24216218
  0
VERTEX
  8
0
 10
334.14983068
 20
60.28095207
  0
VERTEX
  8
0
 10
334.40962387
 20
60.29417231
  0
SEQEND
  0
POLYLINE
  8
Pen Holder.cdr (1)
 66
   1
 39
0.000000
 70
    1
  0
VERTEX
  8
0
 10
390.36254304
 20
113.01977453
  0
VERTEX
  8
0
 10
384.66264193
 20
113.01977453
  0
VERTEX
  8
0
 10
384.37686150
 20
113.01147798
  0
VERTEX
  8
0
 10
384.10539601
 20
112.98701622
  0
VERTEX
  8
0
 10
383.84790166
 20
112.94703106
  0
VERTEX
  8
0
 10
383.60403464
 20
112.89216433
  0
VERTEX
  8
0
 10
383.37345115
 20
112.82305786
  0
VERTEX
  8
0
 10
383.15580739
 20
112.74035345
  0
VERTEX
  8
0
 10
382.95075955
 20
112.64469293
  0
VERTEX
  8
0
 10
382.75796384
 20
112.53671812
  0
VERTEX
  8
0
 10
382.57707644
 20
112.41707085
  0
VERTEX
  8
0
 10
382.40775355
 20
112.28639294
  0
VERTEX
  8
0
 10
382.10242611
 20
111.99451246
  0
VERTEX
  8
0
 10
381.83923108
 20
111.66621126
  0
VERTEX
  8
0
 10
381.61541804
 20
111.30662390
  0
VERTEX
  8
0
 10
381.42823656
 20
110.92088497
  0
VERTEX
  8
0
 10
381.27493622
 20
110.51412902
  0
VERTEX
  8
0
 10
381.15276659
 20
110.09149063
  0
VERTEX
  8
0
 10
381.05897724
 20
109.65810437
  0
VERTEX
  8
0
 10
380.99081775
 20
109.21910481
  0
VERTEX
  8
0
 10
380.94553769
 20
108.77962652
  0
VERTEX
  8
0
 10
380.92038663
 20
108.34480407
  0
VERTEX
  8
0
 10
380.91261415
 20
107.91977203
  0
VERTEX
  8
0
 10
386.91251748
 20
107.91977203
  0
VERTEX
  8
0
 10
386.91251748
 20
104.91978509
  0
VERTEX
  8
0
 10
380.91261415
 20
104.91978509
  0
VERTEX
  8
0
 10
380.91261415
 20
94.71978009
  0
VERTEX
  8
0
 10
386.91251748
 20
94.71978009
  0
VERTEX
  8
0
 10
386.91251748
 20
91.71975786
  0
VERTEX
  8
0
 10
380.91261415
 20
91.71975786
  0
VERTEX
  8
0
 10
380.92038663
 20
91.29474366
  0
VERTEX
  8
0
 10
380.94553769
 20
90.85993527
  0
VERTEX
  8
0
 10
380.99081775
 20
90.42046764
  0
VERTEX
  8
0
 10
381.05897724
 20
89.98147568
  0
VERTEX
  8
0
 10
381.15276659
 20
89.54809434
  0
VERTEX
  8
0
 10
381.27493622
 20
89.12545854
  0
VERTEX
  8
0
 10
381.42823656
 20
88.71870322
  0
VERTEX
  8
0
 10
381.61541804
 20
88.33296331
  0
VERTEX
  8
0
 10
381.83923108
 20
87.97337375
  0
VERTEX
  8
0
 10
382.10242611
 20
87.64506945
  0
VERTEX
  8
0
 10
382.40775355
 20
87.35318537
  0
VERTEX
  8
0
 10
382.57707644
 20
87.22250557
  0
VERTEX
  8
0
 10
382.75796384
 20
87.10285642
  0
VERTEX
  8
0
 10
382.95075955
 20
86.99487979
  0
VERTEX
  8
0
 10
383.15580739
 20
86.89921754
  0
VERTEX
  8
0
 10
383.37345115
 20
86.81651154
  0
VERTEX
  8
0
 10
383.60403464
 20
86.74740366
  0
VERTEX
  8
0
 10
383.84790166
 20
86.69253576
  0
VERTEX
  8
0
 10
384.10539601
 20
86.65254972
  0
VERTEX
  8
0
 10
384.37686150
 20
86.62808739
  0
VERTEX
  8
0
 10
384.66264193
 20
86.61979064
  0
VERTEX
  8
0
 10
390.36254304
 20
86.61979064
  0
VERTEX
  8
0
 10
390.68344215
 20
86.63568057
  0
VERTEX
  8
0
 10
390.99533907
 20
86.68230376
  0
VERTEX
  8
0
 10
391.29661928
 20
86.75809034
  0
VERTEX
  8
0
 10
391.58566824
 20
86.86147043
  0
VERTEX
  8
0
 10
391.86087144
 20
86.99087415
  0
VERTEX
  8
0
 10
392.12061433
 20
87.14473162
  0
VERTEX
  8
0
 10
392.36328241
 20
87.32147297
  0
VERTEX
  8
0
 10
392.58726113
 20
87.51952831
  0
VERTEX
  8
0
 10
392.79093597
 20
87.73732778
  0
VERTEX
  8
0
 10
392.97269242
 20
87.97330148
  0
VERTEX
  8
0
 10
393.13091593
 20
88.22587954
  0
VERTEX
  8
0
 10
393.26399198
 20
88.49349209
  0
VERTEX
  8
0
 10
393.37030605
 20
88.77456924
  0
VERTEX
  8
0
 10
393.44824361
 20
89.06754111
  0
VERTEX
  8
0
 10
393.49619014
 20
89.37083784
  0
VERTEX
  8
0
 10
393.51253109
 20
89.68288953
  0
VERTEX
  8
0
 10
393.51253109
 20
98.31977147
  0
VERTEX
  8
0
 10
387.51252193
 20
98.31977147
  0
VERTEX
  8
0
 10
387.51252193
 20
101.31975842
  0
VERTEX
  8
0
 10
393.51253109
 20
101.31975842
  0
VERTEX
  8
0
 10
393.51253109
 20
109.95656981
  0
VERTEX
  8
0
 10
393.49618781
 20
110.26861688
  0
VERTEX
  8
0
 10
393.44823493
 20
110.57191264
  0
VERTEX
  8
0
 10
393.37028792
 20
110.86488677
  0
VERTEX
  8
0
 10
393.26396222
 20
111.14596890
  0
VERTEX
  8
0
 10
393.13087330
 20
111.41358871
  0
VERTEX
  8
0
 10
392.97263661
 20
111.66617584
  0
VERTEX
  8
0
 10
392.79086761
 20
111.90215996
  0
VERTEX
  8
0
 10
392.58718175
 20
112.11997071
  0
VERTEX
  8
0
 10
392.36319450
 20
112.31803776
  0
VERTEX
  8
0
 10
392.12052131
 20
112.49479076
  0
VERTEX
  8
0
 10
391.86077764
 20
112.64865937
  0
VERTEX
  8
0
 10
391.58557895
 20
112.77807325
  0
VERTEX
  8
0
 10
391.29654068
 20
112.88146204
  0
VERTEX
  8
0
 10
390.99527830
 20
112.95725542
  0
VERTEX
  8
0
 10
390.68340727
 20
113.00388303
  0
VERTEX
  8
0
 10
390.36254304
 20
113.01977453
  0
SEQEND
  0
POLYLINE
  8
Pen Holder.cdr (1)
 66
   1
 39
0.000000
 70
    1
  0
VERTEX
  8
0
 10
383.02691720
 20
50.21037231
  0
VERTEX
  8
0
 10
385.72693720
 20
50.21037231
  0
VERTEX
  8
0
 10
385.72693720
 20
45.41026620
  0
VERTEX
  8
0
 10
388.72692415
 20
45.41026620
  0
VERTEX
  8
0
 10
388.72692415
 20
50.21037231
  0
VERTEX
  8
0
 10
391.42694415
 20
50.21037231
  0
VERTEX
  8
0
 10
391.42694415
 20
43.38906120
  0
VERTEX
  8
0
 10
391.69541722
 20
43.22108918
  0
VERTEX
  8
0
 10
391.95085015
 20
43.04310485
  0
VERTEX
  8
0
 10
392.19265229
 20
42.85553206
  0
VERTEX
  8
0
 10
392.42023298
 20
42.65879466
  0
VERTEX
  8
0
 10
392.63300154
 20
42.45331650
  0
VERTEX
  8
0
 10
392.83036732
 20
42.23952144
  0
VERTEX
  8
0
 10
393.01173966
 20
42.01783332
  0
VERTEX
  8
0
 10
393.17652790
 20
41.78867599
  0
VERTEX
  8
0
 10
393.32414137
 20
41.55247330
  0
VERTEX
  8
0
 10
393.45398941
 20
41.30964910
  0
VERTEX
  8
0
 10
393.56548137
 20
41.06062725
  0
VERTEX
  8
0
 10
393.65802657
 20
40.80583159
  0
VERTEX
  8
0
 10
393.73103436
 20
40.54568597
  0
VERTEX
  8
0
 10
393.78391408
 20
40.28061424
  0
VERTEX
  8
0
 10
393.81607506
 20
40.01104026
  0
VERTEX
  8
0
 10
393.82692665
 20
39.73738786
  0
VERTEX
  8
0
 10
393.81833682
 20
39.49380161
  0
VERTEX
  8
0
 10
393.79284403
 20
39.25340840
  0
VERTEX
  8
0
 10
393.75086333
 20
39.01650595
  0
VERTEX
  8
0
 10
393.69280977
 20
38.78339200
  0
VERTEX
  8
0
 10
393.61909841
 20
38.55436426
  0
VERTEX
  8
0
 10
393.53014430
 20
38.32972045
  0
VERTEX
  8
0
 10
393.42636249
 20
38.10975829
  0
VERTEX
  8
0
 10
393.30816803
 20
37.89477551
  0
VERTEX
  8
0
 10
393.03020138
 20
37.48093894
  0
VERTEX
  8
0
 10
392.69956476
 20
37.09059252
  0
VERTEX
  8
0
 10
392.31957860
 20
36.72611801
  0
VERTEX
  8
0
 10
391.89356332
 20
36.38989717
  0
VERTEX
  8
0
 10
391.42483932
 20
36.08431177
  0
VERTEX
  8
0
 10
390.91672702
 20
35.81174359
  0
VERTEX
  8
0
 10
390.37254685
 20
35.57457438
  0
VERTEX
  8
0
 10
389.79561923
 20
35.37518591
  0
VERTEX
  8
0
 10
389.18926456
 20
35.21595995
  0
VERTEX
  8
0
 10
388.55680327
 20
35.09927827
  0
VERTEX
  8
0
 10
387.90155577
 20
35.02752263
  0
VERTEX
  8
0
 10
387.22684248
 20
35.00307481
  0
VERTEX
  8
0
 10
386.55214280
 20
35.02752263
  0
VERTEX
  8
0
 10
385.89690953
 20
35.09927827
  0
VERTEX
  8
0
 10
385.26446288
 20
35.21595995
  0
VERTEX
  8
0
 10
384.65812306
 20
35.37518591
  0
VERTEX
  8
0
 10
384.08121028
 20
35.57457438
  0
VERTEX
  8
0
 10
383.53704476
 20
35.81174359
  0
VERTEX
  8
0
 10
383.02894669
 20
36.08431177
  0
VERTEX
  8
0
 10
382.56023630
 20
36.38989717
  0
VERTEX
  8
0
 10
382.13423379
 20
36.72611801
  0
VERTEX
  8
0
 10
381.75425938
 20
37.09059252
  0
VERTEX
  8
0
 10
381.42363328
 20
37.48093894
  0
VERTEX
  8
0
 10
381.14567569
 20
37.89477551
  0
VERTEX
  8
0
 10
381.02748515
 20
38.10975829
  0
VERTEX
  8
0
 10
380.92370682
 20
38.32972045
  0
VERTEX
  8
0
 10
380.83475573
 20
38.55436426
  0
VERTEX
  8
0
 10
380.76104690
 20
38.78339200
  0
VERTEX
  8
0
 10
380.70299535
 20
39.01650595
  0
VERTEX
  8
0
 10
380.66101612
 20
39.25340840
  0
VERTEX
  8
0
 10
380.63552423
 20
39.49380161
  0
VERTEX
  8
0
 10
380.62693470
 20
39.73738786
  0
VERTEX
  8
0
 10
380.63778513
 20
40.01105542
  0
VERTEX
  8
0
 10
380.66994293
 20
40.28064793
  0
VERTEX
  8
0
 10
380.72281792
 20
40.54574077
  0
VERTEX
  8
0
 10
380.79581990
 20
40.80590931
  0
VERTEX
  8
0
 10
380.88835867
 20
41.06072892
  0
VERTEX
  8
0
 10
380.99984404
 20
41.30977499
  0
VERTEX
  8
0
 10
381.12968580
 20
41.55262288
  0
VERTEX
  8
0
 10
381.27729377
 20
41.78884797
  0
VERTEX
  8
0
 10
381.44207774
 20
42.01802563
  0
VERTEX
  8
0
 10
381.62344752
 20
42.23973125
  0
VERTEX
  8
0
 10
381.82081292
 20
42.45354019
  0
VERTEX
  8
0
 10
382.03358373
 20
42.65902782
  0
VERTEX
  8
0
 10
382.26116976
 20
42.85576954
  0
VERTEX
  8
0
 10
382.50298081
 20
43.04334070
  0
VERTEX
  8
0
 10
382.75842669
 20
43.22131668
  0
VERTEX
  8
0
 10
383.02691720
 20
43.38927286
  0
VERTEX
  8
0
 10
383.02691720
 20
50.21037231
  0
SEQEND
  0
POLYLINE
  8
Pen Holder.cdr (1)
 66
   1
 39
0.000000
 70
    1
  0
VERTEX
  8
0
 10
359.19123970
 20
185.56196286
  0
VERTEX
  8
0
 10
370.86483276
 20
183.76198481
  0
VERTEX
  8
0
 10
370.86483276
 20
164.56198370
  0
VERTEX
  8
0
 10
359.19123970
 20
162.76197036
  0
VERTEX
  8
0
 10
359.19123970
 20
168.16197509
  0
VERTEX
  8
0
 10
356.19121748
 20
168.16197509
  0
VERTEX
  8
0
 10
356.19121748
 20
180.16195814
  0
VERTEX
  8
0
 10
359.19123970
 20
180.16195814
  0
VERTEX
  8
0
 10
359.19123970
 20
185.56196286
  0
SEQEND
  0
POLYLINE
  8
Pen Holder.cdr (1)
 66
   1
 39
0.000000
 70
    1
  0
VERTEX
  8
0
 10
96.53971748
 20
220.45006231
  0
VERTEX
  8
0
 10
94.23854804
 20
232.03517870
  0
VERTEX
  8
0
 10
112.28094415
 20
238.60189009
  0
VERTEX
  8
0
 10
117.96454693
 20
228.24807397
  0
VERTEX
  8
0
 10
112.89022665
 20
226.40128231
  0
VERTEX
  8
0
 10
113.91631609
 20
223.58188231
  0
VERTEX
  8
0
 10
102.63963332
 20
219.47787731
  0
VERTEX
  8
0
 10
101.61372026
 20
222.29667759
  0
VERTEX
  8
0
 10
96.53971748
 20
220.45006231
  0
SEQEND
  0
POLYLINE
  8
Pen Holder.cdr (1)
 66
   1
 39
0.000000
 70
    1
  0
VERTEX
  8
0
 10
338.91434915
 20
214.61536481
  0
VERTEX
  8
0
 10
350.58794220
 20
212.81538675
  0
VERTEX
  8
0
 10
350.58794220
 20
193.61538564
  0
VERTEX
  8
0
 10
338.91434915
 20
191.81537231
  0
VERTEX
  8
0
 10
338.91434915
 20
197.21537703
  0
VERTEX
  8
0
 10
335.91432693
 20
197.21537703
  0
VERTEX
  8
0
 10
335.91432693
 20
209.21536009
  0
VERTEX
  8
0
 10
338.91434915
 20
209.21536009
  0
VERTEX
  8
0
 10
338.91434915
 20
214.61536481
  0
SEQEND
  0
POLYLINE
  8
Pen Holder.cdr (1)
 66
   1
 39
0.000000
 70
    1
  0
VERTEX
  8
0
 10
368.91961609
 20
216.02478259
  0
VERTEX
  8
0
 10
371.91963832
 20
216.02478259
  0
VERTEX
  8
0
 10
371.91963832
 20
204.02476425
  0
VERTEX
  8
0
 10
368.91961609
 20
204.02476425
  0
VERTEX
  8
0
 10
368.91961609
 20
198.62475953
  0
VERTEX
  8
0
 10
357.24602304
 20
200.42477286
  0
VERTEX
  8
0
 10
357.24602304
 20
219.62477397
  0
VERTEX
  8
0
 10
368.91961609
 20
221.42478731
  0
VERTEX
  8
0
 10
368.91961609
 20
216.02478259
  0
SEQEND
  0
POLYLINE
  8
Pen Holder.cdr (1)
 66
   1
 39
0.000000
 70
    1
  0
VERTEX
  8
0
 10
381.19924609
 20
201.34457036
  0
VERTEX
  8
0
 10
391.39921582
 20
201.34457036
  0
VERTEX
  8
0
 10
391.39921582
 20
198.34458342
  0
VERTEX
  8
0
 10
381.19924609
 20
198.34458342
  0
VERTEX
  8
0
 10
381.19924609
 20
201.34457036
  0
SEQEND
  0
POLYLINE
  8
Pen Holder.cdr (1)
 66
   1
 39
0.000000
 70
    1
  0
VERTEX
  8
0
 10
386.36733470
 20
226.01287397
  0
VERTEX
  8
0
 10
386.79953718
 20
226.00194140
  0
VERTEX
  8
0
 10
387.22607394
 20
225.96949587
  0
VERTEX
  8
0
 10
387.64641676
 20
225.91606567
  0
VERTEX
  8
0
 10
388.06003738
 20
225.84217907
  0
VERTEX
  8
0
 10
388.46640756
 20
225.74836436
  0
VERTEX
  8
0
 10
388.86499907
 20
225.63514982
  0
VERTEX
  8
0
 10
389.25528366
 20
225.50306373
  0
VERTEX
  8
0
 10
389.63673308
 20
225.35263438
  0
VERTEX
  8
0
 10
390.00881909
 20
225.18439004
  0
VERTEX
  8
0
 10
390.37101345
 20
224.99885900
  0
VERTEX
  8
0
 10
390.72278792
 20
224.79656953
  0
VERTEX
  8
0
 10
391.06361425
 20
224.57804993
  0
VERTEX
  8
0
 10
391.39296420
 20
224.34382846
  0
VERTEX
  8
0
 10
391.71030953
 20
224.09443343
  0
VERTEX
  8
0
 10
392.01512200
 20
223.83039309
  0
VERTEX
  8
0
 10
392.30687335
 20
223.55223575
  0
VERTEX
  8
0
 10
392.58503535
 20
223.26048967
  0
VERTEX
  8
0
 10
392.84907976
 20
222.95568314
  0
VERTEX
  8
0
 10
393.09847834
 20
222.63834444
  0
VERTEX
  8
0
 10
393.33270283
 20
222.30900186
  0
VERTEX
  8
0
 10
393.55122500
 20
221.96818368
  0
VERTEX
  8
0
 10
393.75351660
 20
221.61641817
  0
VERTEX
  8
0
 10
393.93904939
 20
221.25423362
  0
VERTEX
  8
0
 10
394.10729513
 20
220.88215831
  0
VERTEX
  8
0
 10
394.25772558
 20
220.50072052
  0
VERTEX
  8
0
 10
394.38981249
 20
220.11044854
  0
VERTEX
  8
0
 10
394.50302762
 20
219.71187064
  0
VERTEX
  8
0
 10
394.59684272
 20
219.30551512
  0
VERTEX
  8
0
 10
394.67072956
 20
218.89191024
  0
VERTEX
  8
0
 10
394.72415988
 20
218.47158429
  0
VERTEX
  8
0
 10
394.75660546
 20
218.04506555
  0
VERTEX
  8
0
 10
394.76753804
 20
217.61288231
  0
VERTEX
  8
0
 10
394.74455204
 20
216.98696767
  0
VERTEX
  8
0
 10
394.67667426
 20
216.37352788
  0
VERTEX
  8
0
 10
394.56552502
 20
215.77417911
  0
VERTEX
  8
0
 10
394.41272462
 20
215.19053756
  0
VERTEX
  8
0
 10
394.21989339
 20
214.62421938
  0
VERTEX
  8
0
 10
393.98865163
 20
214.07684078
  0
VERTEX
  8
0
 10
393.72061966
 20
213.55001792
  0
VERTEX
  8
0
 10
393.41741779
 20
213.04536700
  0
VERTEX
  8
0
 10
393.08066635
 20
212.56450418
  0
VERTEX
  8
0
 10
392.71198564
 20
212.10904565
  0
VERTEX
  8
0
 10
392.31299598
 20
211.68060759
  0
VERTEX
  8
0
 10
391.88531769
 20
211.28080617
  0
VERTEX
  8
0
 10
391.43057107
 20
210.91125759
  0
VERTEX
  8
0
 10
390.95037644
 20
210.57357803
  0
VERTEX
  8
0
 10
390.44635412
 20
210.26938365
  0
VERTEX
  8
0
 10
389.92012443
 20
210.00029064
  0
VERTEX
  8
0
 10
389.92012443
 20
206.93606286
  0
VERTEX
  8
0
 10
390.50917386
 20
206.65679427
  0
VERTEX
  8
0
 10
391.07385921
 20
206.33706556
  0
VERTEX
  8
0
 10
391.61229850
 20
205.97875657
  0
VERTEX
  8
0
 10
392.12260980
 20
205.58374713
  0
VERTEX
  8
0
 10
392.60291115
 20
205.15391708
  0
VERTEX
  8
0
 10
393.05132059
 20
204.69114625
  0
VERTEX
  8
0
 10
393.46595618
 20
204.19731447
  0
VERTEX
  8
0
 10
393.84493595
 20
203.67430158
  0
VERTEX
  8
0
 10
394.18637797
 20
203.12398741
  0
VERTEX
  8
0
 10
394.48840028
 20
202.54825179
  0
VERTEX
  8
0
 10
394.74912092
 20
201.94897456
  0
VERTEX
  8
0
 10
394.96665794
 20
201.32803556
  0
VERTEX
  8
0
 10
395.13912940
 20
200.68731461
  0
VERTEX
  8
0
 10
395.26465333
 20
200.02869154
  0
VERTEX
  8
0
 10
395.34134778
 20
199.35404620
  0
VERTEX
  8
0
 10
395.36733082
 20
198.66525842
  0
VERTEX
  8
0
 10
394.76753804
 20
170.61928397
  0
VERTEX
  8
0
 10
394.75738641
 20
170.21796046
  0
VERTEX
  8
0
 10
394.72725852
 20
169.82189799
  0
VERTEX
  8
0
 10
394.67764486
 20
169.43158708
  0
VERTEX
  8
0
 10
394.60903595
 20
169.04751821
  0
VERTEX
  8
0
 10
394.52192227
 20
168.67018187
  0
VERTEX
  8
0
 10
394.41679433
 20
168.30006856
  0
VERTEX
  8
0
 10
394.29414263
 20
167.93766877
  0
VERTEX
  8
0
 10
394.15445766
 20
167.58347300
  0
VERTEX
  8
0
 10
393.99822994
 20
167.23797173
  0
VERTEX
  8
0
 10
393.82594995
 20
166.90165547
  0
VERTEX
  8
0
 10
393.63810819
 20
166.57501470
  0
VERTEX
  8
0
 10
393.43519518
 20
166.25853992
  0
VERTEX
  8
0
 10
393.21770140
 20
165.95272162
  0
VERTEX
  8
0
 10
392.98611735
 20
165.65805029
  0
VERTEX
  8
0
 10
392.74093354
 20
165.37501643
  0
VERTEX
  8
0
 10
392.48264047
 20
165.10411054
  0
VERTEX
  8
0
 10
392.21172863
 20
164.84582309
  0
VERTEX
  8
0
 10
391.92868853
 20
164.60064460
  0
VERTEX
  8
0
 10
391.63401066
 20
164.36906555
  0
VERTEX
  8
0
 10
391.32818553
 20
164.15157643
  0
VERTEX
  8
0
 10
391.01170363
 20
163.94866774
  0
VERTEX
  8
0
 10
390.68505546
 20
163.76082997
  0
VERTEX
  8
0
 10
390.34873153
 20
163.58855362
  0
VERTEX
  8
0
 10
390.00322233
 20
163.43232917
  0
VERTEX
  8
0
 10
389.64901837
 20
163.29264712
  0
VERTEX
  8
0
 10
389.28661014
 20
163.16999797
  0
VERTEX
  8
0
 10
388.91648814
 20
163.06487221
  0
VERTEX
  8
0
 10
388.53914288
 20
162.97776033
  0
VERTEX
  8
0
 10
388.15506485
 20
162.90915282
  0
VERTEX
  8
0
 10
387.76474455
 20
162.85954018
  0
VERTEX
  8
0
 10
387.36867248
 20
162.82941290
  0
VERTEX
  8
0
 10
386.96733915
 20
162.81926147
  0
VERTEX
  8
0
 10
386.34469963
 20
162.84376733
  0
VERTEX
  8
0
 10
385.73547470
 20
162.91604992
  0
VERTEX
  8
0
 10
385.14151664
 20
163.03425672
  0
VERTEX
  8
0
 10
384.56467774
 20
163.19653526
  0
VERTEX
  8
0
 10
384.00681030
 20
163.40103303
  0
VERTEX
  8
0
 10
383.46976659
 20
163.64589753
  0
VERTEX
  8
0
 10
382.95539892
 20
163.92927627
  0
VERTEX
  8
0
 10
382.46555957
 20
164.24931675
  0
VERTEX
  8
0
 10
382.00210083
 20
164.60416648
  0
VERTEX
  8
0
 10
381.56687499
 20
164.99197295
  0
VERTEX
  8
0
 10
381.16173434
 20
165.41088368
  0
VERTEX
  8
0
 10
380.78853118
 20
165.85904616
  0
VERTEX
  8
0
 10
380.44911779
 20
166.33460790
  0
VERTEX
  8
0
 10
380.14534646
 20
166.83571640
  0
VERTEX
  8
0
 10
379.87906948
 20
167.36051916
  0
VERTEX
  8
0
 10
379.65213915
 20
167.90716370
  0
VERTEX
  8
0
 10
386.72554526
 20
170.54707036
  0
VERTEX
  8
0
 10
385.67673693
 20
173.35828592
  0
VERTEX
  8
0
 10
379.14801970
 20
170.92168509
  0
VERTEX
  8
0
 10
377.36733859
 20
198.66525842
  0
VERTEX
  8
0
 10
377.39281527
 20
199.34731519
  0
VERTEX
  8
0
 10
377.46802737
 20
200.01552315
  0
VERTEX
  8
0
 10
377.59114796
 20
200.66805795
  0
VERTEX
  8
0
 10
377.76035013
 20
201.30309527
  0
VERTEX
  8
0
 10
377.97380696
 20
201.91881077
  0
VERTEX
  8
0
 10
378.22969154
 20
202.51338012
  0
VERTEX
  8
0
 10
378.52617695
 20
203.08497899
  0
VERTEX
  8
0
 10
378.86143627
 20
203.63178304
  0
VERTEX
  8
0
 10
379.23364258
 20
204.15196793
  0
VERTEX
  8
0
 10
379.64096898
 20
204.64370935
  0
VERTEX
  8
0
 10
380.08158853
 20
205.10518295
  0
VERTEX
  8
0
 10
380.55367434
 20
205.53456440
  0
VERTEX
  8
0
 10
381.05539946
 20
205.93002936
  0
VERTEX
  8
0
 10
381.58493700
 20
206.28975351
  0
VERTEX
  8
0
 10
382.14046004
 20
206.61191251
  0
VERTEX
  8
0
 10
382.72014165
 20
206.89468203
  0
VERTEX
  8
0
 10
382.72014165
 20
210.04467009
  0
VERTEX
  8
0
 10
382.20335971
 20
210.31685827
  0
VERTEX
  8
0
 10
381.70856811
 20
210.62312318
  0
VERTEX
  8
0
 10
381.23733301
 20
210.96190053
  0
VERTEX
  8
0
 10
380.79122056
 20
211.33162602
  0
VERTEX
  8
0
 10
380.37179692
 20
211.73073534
  0
VERTEX
  8
0
 10
379.98062825
 20
212.15766421
  0
VERTEX
  8
0
 10
379.61928070
 20
212.61084832
  0
VERTEX
  8
0
 10
379.28932043
 20
213.08872338
  0
VERTEX
  8
0
 10
378.99231361
 20
213.58972509
  0
VERTEX
  8
0
 10
378.72982638
 20
214.11228916
  0
VERTEX
  8
0
 10
378.50342492
 20
214.65485128
  0
VERTEX
  8
0
 10
378.31467536
 20
215.21584716
  0
VERTEX
  8
0
 10
378.16514388
 20
215.79371249
  0
VERTEX
  8
0
 10
378.05639662
 20
216.38688300
  0
VERTEX
  8
0
 10
377.98999975
 20
216.99379437
  0
VERTEX
  8
0
 10
377.96751943
 20
217.61288231
  0
VERTEX
  8
0
 10
377.97845149
 20
218.04506555
  0
VERTEX
  8
0
 10
378.01089555
 20
218.47158429
  0
VERTEX
  8
0
 10
378.06432337
 20
218.89191024
  0
VERTEX
  8
0
 10
378.13820675
 20
219.30551512
  0
VERTEX
  8
0
 10
378.23201747
 20
219.71187064
  0
VERTEX
  8
0
 10
378.34522730
 20
220.11044854
  0
VERTEX
  8
0
 10
378.47730804
 20
220.50072052
  0
VERTEX
  8
0
 10
378.62773146
 20
220.88215831
  0
VERTEX
  8
0
 10
378.79596935
 20
221.25423362
  0
VERTEX
  8
0
 10
378.98149350
 20
221.61641817
  0
VERTEX
  8
0
 10
379.18377567
 20
221.96818368
  0
VERTEX
  8
0
 10
379.40228766
 20
222.30900186
  0
VERTEX
  8
0
 10
379.63650126
 20
222.63834444
  0
VERTEX
  8
0
 10
379.88588823
 20
222.95568314
  0
VERTEX
  8
0
 10
380.14992037
 20
223.26048967
  0
VERTEX
  8
0
 10
380.42806946
 20
223.55223575
  0
VERTEX
  8
0
 10
380.71980728
 20
223.83039309
  0
VERTEX
  8
0
 10
381.02460562
 20
224.09443343
  0
VERTEX
  8
0
 10
381.34193625
 20
224.34382846
  0
VERTEX
  8
0
 10
381.67127096
 20
224.57804993
  0
VERTEX
  8
0
 10
382.01208153
 20
224.79656953
  0
VERTEX
  8
0
 10
382.36383975
 20
224.99885900
  0
VERTEX
  8
0
 10
382.72601740
 20
225.18439004
  0
VERTEX
  8
0
 10
383.09808626
 20
225.35263438
  0
VERTEX
  8
0
 10
383.47951812
 20
225.50306373
  0
VERTEX
  8
0
 10
383.86978475
 20
225.63514982
  0
VERTEX
  8
0
 10
384.26835794
 20
225.74836436
  0
VERTEX
  8
0
 10
384.67470948
 20
225.84217907
  0
VERTEX
  8
0
 10
385.08831114
 20
225.91606567
  0
VERTEX
  8
0
 10
385.50863471
 20
225.96949587
  0
VERTEX
  8
0
 10
385.93515197
 20
226.00194140
  0
VERTEX
  8
0
 10
386.36733470
 20
226.01287397
  0
SEQEND
  0
POLYLINE
  8
Pen Holder.cdr (1)
 66
   1
 39
0.000000
 70
    1
  0
VERTEX
  8
0
 10
365.18814443
 20
87.46705703
  0
VERTEX
  8
0
 10
366.06449329
 20
87.44856349
  0
VERTEX
  8
0
 10
366.93140856
 20
87.39357903
  0
VERTEX
  8
0
 10
367.78814658
 20
87.30284787
  0
VERTEX
  8
0
 10
368.63396366
 20
87.17711421
  0
VERTEX
  8
0
 10
369.46811613
 20
87.01712228
  0
VERTEX
  8
0
 10
370.28986031
 20
86.82361630
  0
VERTEX
  8
0
 10
371.09845253
 20
86.59734049
  0
VERTEX
  8
0
 10
371.89314911
 20
86.33903906
  0
VERTEX
  8
0
 10
372.67320638
 20
86.04945623
  0
VERTEX
  8
0
 10
373.43788067
 20
85.72933622
  0
VERTEX
  8
0
 10
374.18642828
 20
85.37942326
  0
VERTEX
  8
0
 10
374.91810556
 20
85.00046154
  0
VERTEX
  8
0
 10
375.63216882
 20
84.59319530
  0
VERTEX
  8
0
 10
376.32787439
 20
84.15836876
  0
VERTEX
  8
0
 10
377.00447860
 20
83.69672612
  0
VERTEX
  8
0
 10
377.66123776
 20
83.20901161
  0
VERTEX
  8
0
 10
378.29740821
 20
82.69596945
  0
VERTEX
  8
0
 10
378.91224626
 20
82.15834386
  0
VERTEX
  8
0
 10
379.50500824
 20
81.59687905
  0
VERTEX
  8
0
 10
380.07495048
 20
81.01231924
  0
VERTEX
  8
0
 10
380.62132930
 20
80.40540865
  0
VERTEX
  8
0
 10
381.14340103
 20
79.77689149
  0
VERTEX
  8
0
 10
381.64042198
 20
79.12751200
  0
VERTEX
  8
0
 10
382.11164849
 20
78.45801437
  0
VERTEX
  8
0
 10
382.55633688
 20
77.76914284
  0
VERTEX
  8
0
 10
382.97374346
 20
77.06164162
  0
VERTEX
  8
0
 10
383.36312458
 20
76.33625493
  0
VERTEX
  8
0
 10
383.72373655
 20
75.59372698
  0
VERTEX
  8
0
 10
384.05483569
 20
74.83480200
  0
VERTEX
  8
0
 10
384.35567834
 20
74.06022421
  0
VERTEX
  8
0
 10
384.62552081
 20
73.27073781
  0
VERTEX
  8
0
 10
384.86361943
 20
72.46708703
  0
VERTEX
  8
0
 10
392.18813276
 20
72.46708703
  0
VERTEX
  8
0
 10
392.18813276
 20
62.86708647
  0
VERTEX
  8
0
 10
388.58792970
 20
62.86708647
  0
VERTEX
  8
0
 10
388.58792970
 20
67.66708675
  0
VERTEX
  8
0
 10
385.57834720
 20
67.66708675
  0
VERTEX
  8
0
 10
385.58794276
 20
67.06697647
  0
VERTEX
  8
0
 10
385.56139383
 20
66.01734581
  0
VERTEX
  8
0
 10
385.48260219
 20
64.98147767
  0
VERTEX
  8
0
 10
385.35285051
 20
63.96065474
  0
VERTEX
  8
0
 10
385.17342150
 20
62.95615969
  0
VERTEX
  8
0
 10
384.94559784
 20
61.96927520
  0
VERTEX
  8
0
 10
384.67066224
 20
61.00128393
  0
VERTEX
  8
0
 10
384.34989738
 20
60.05346856
  0
VERTEX
  8
0
 10
383.98458595
 20
59.12711176
  0
VERTEX
  8
0
 10
383.57601065
 20
58.22349621
  0
VERTEX
  8
0
 10
383.12545418
 20
57.34390459
  0
VERTEX
  8
0
 10
382.63419922
 20
56.48961955
  0
VERTEX
  8
0
 10
382.10352847
 20
55.66192379
  0
VERTEX
  8
0
 10
381.53472462
 20
54.86209997
  0
VERTEX
  8
0
 10
380.92907036
 20
54.09143076
  0
VERTEX
  8
0
 10
380.28784839
 20
53.35119884
  0
VERTEX
  8
0
 10
379.61234141
 20
52.64268689
  0
VERTEX
  8
0
 10
378.90383209
 20
51.96717757
  0
VERTEX
  8
0
 10
378.16360314
 20
51.32595357
  0
VERTEX
  8
0
 10
377.39293725
 20
50.72029755
  0
VERTEX
  8
0
 10
376.59311712
 20
50.15149218
  0
VERTEX
  8
0
 10
375.76542543
 20
49.62082015
  0
VERTEX
  8
0
 10
374.91114487
 20
49.12956412
  0
VERTEX
  8
0
 10
374.03155815
 20
48.67900677
  0
VERTEX
  8
0
 10
373.12794796
 20
48.27043077
  0
VERTEX
  8
0
 10
372.20159698
 20
47.90511880
  0
VERTEX
  8
0
 10
371.25378791
 20
47.58435353
  0
VERTEX
  8
0
 10
370.28580344
 20
47.30941763
  0
VERTEX
  8
0
 10
369.29892627
 20
47.08159378
  0
VERTEX
  8
0
 10
368.29443910
 20
46.90216464
  0
VERTEX
  8
0
 10
367.27362460
 20
46.77241291
  0
VERTEX
  8
0
 10
366.23776548
 20
46.69362124
  0
VERTEX
  8
0
 10
365.18814443
 20
46.66707231
  0
VERTEX
  8
0
 10
364.13848491
 20
46.69362124
  0
VERTEX
  8
0
 10
363.10258974
 20
46.77241291
  0
VERTEX
  8
0
 10
362.08174151
 20
46.90216464
  0
VERTEX
  8
0
 10
361.07722285
 20
47.08159378
  0
VERTEX
  8
0
 10
360.09031636
 20
47.30941763
  0
VERTEX
  8
0
 10
359.12230468
 20
47.58435353
  0
VERTEX
  8
0
 10
358.17447041
 20
47.90511880
  0
VERTEX
  8
0
 10
357.24809616
 20
48.27043077
  0
VERTEX
  8
0
 10
356.34446455
 20
48.67900677
  0
VERTEX
  8
0
 10
355.46485821
 20
49.12956412
  0
VERTEX
  8
0
 10
354.61055974
 20
49.62082015
  0
VERTEX
  8
0
 10
353.78285176
 20
50.15149218
  0
VERTEX
  8
0
 10
352.98301688
 20
50.72029755
  0
VERTEX
  8
0
 10
352.21233772
 20
51.32595357
  0
VERTEX
  8
0
 10
351.47209690
 20
51.96717757
  0
VERTEX
  8
0
 10
350.76357703
 20
52.64268689
  0
VERTEX
  8
0
 10
350.08806073
 20
53.35119884
  0
VERTEX
  8
0
 10
349.44683061
 20
54.09143076
  0
VERTEX
  8
0
 10
348.84116929
 20
54.86209997
  0
VERTEX
  8
0
 10
348.27235938
 20
55.66192379
  0
VERTEX
  8
0
 10
347.74168350
 20
56.48961955
  0
VERTEX
  8
0
 10
347.25042426
 20
57.34390459
  0
VERTEX
  8
0
 10
346.79986428
 20
58.22349621
  0
VERTEX
  8
0
 10
346.39128618
 20
59.12711176
  0
VERTEX
  8
0
 10
346.02597258
 20
60.05346856
  0
VERTEX
  8
0
 10
345.70520607
 20
61.00128393
  0
VERTEX
  8
0
 10
345.43026929
 20
61.96927520
  0
VERTEX
  8
0
 10
345.20244485
 20
62.95615969
  0
VERTEX
  8
0
 10
345.02301536
 20
63.96065474
  0
VERTEX
  8
0
 10
344.89326344
 20
64.98147767
  0
VERTEX
  8
0
 10
344.81447170
 20
66.01734581
  0
VERTEX
  8
0
 10
344.78792276
 20
67.06697647
  0
VERTEX
  8
0
 10
344.78894582
 20
67.13696759
  0
VERTEX
  8
0
 10
341.31373193
 20
68.02667314
  0
VERTEX
  8
0
 10
340.87650951
 20
68.15815229
  0
VERTEX
  8
0
 10
340.45876802
 20
68.32273727
  0
VERTEX
  8
0
 10
340.06106986
 20
68.51872799
  0
VERTEX
  8
0
 10
339.68397742
 20
68.74442433
  0
VERTEX
  8
0
 10
339.32805309
 20
68.99812620
  0
VERTEX
  8
0
 10
338.99385927
 20
69.27813350
  0
VERTEX
  8
0
 10
338.68195835
 20
69.58274611
  0
VERTEX
  8
0
 10
338.39291273
 20
69.91026394
  0
VERTEX
  8
0
 10
338.12728480
 20
70.25898688
  0
VERTEX
  8
0
 10
337.88563695
 20
70.62721484
  0
VERTEX
  8
0
 10
337.66853159
 20
71.01324770
  0
VERTEX
  8
0
 10
337.47653111
 20
71.41538537
  0
VERTEX
  8
0
 10
337.31019789
 20
71.83192774
  0
VERTEX
  8
0
 10
337.17009434
 20
72.26117471
  0
VERTEX
  8
0
 10
337.05678285
 20
72.70142617
  0
VERTEX
  8
0
 10
336.97082582
 20
73.15098203
  0
VERTEX
  8
0
 10
343.78494026
 20
71.32507481
  0
VERTEX
  8
0
 10
344.56133359
 20
74.22226231
  0
VERTEX
  8
0
 10
336.87924470
 20
76.28068536
  0
VERTEX
  8
0
 10
336.87913887
 20
113.84957842
  0
VERTEX
  8
0
 10
326.42453415
 20
116.65088092
  0
VERTEX
  8
0
 10
326.42453415
 20
127.94347397
  0
VERTEX
  8
0
 10
329.42452109
 20
127.94347397
  0
VERTEX
  8
0
 10
329.42452109
 20
123.14347370
  0
VERTEX
  8
0
 10
332.42454332
 20
123.14347370
  0
VERTEX
  8
0
 10
332.42454332
 20
127.94347397
  0
VERTEX
  8
0
 10
335.31654498
 20
127.94347397
  0
VERTEX
  8
0
 10
339.18051998
 20
118.82335703
  0
VERTEX
  8
0
 10
339.33934054
 20
118.78077675
  0
VERTEX
  8
0
 10
347.10842443
 20
126.34796592
  0
VERTEX
  8
0
 10
346.83822203
 20
126.88242345
  0
VERTEX
  8
0
 10
346.58336562
 20
127.42573807
  0
VERTEX
  8
0
 10
346.34414309
 20
127.97762466
  0
VERTEX
  8
0
 10
346.12084233
 20
128.53779815
  0
VERTEX
  8
0
 10
345.91375122
 20
129.10597341
  0
VERTEX
  8
0
 10
345.72315766
 20
129.68186537
  0
VERTEX
  8
0
 10
345.54934954
 20
130.26518891
  0
VERTEX
  8
0
 10
345.39261474
 20
130.85565894
  0
VERTEX
  8
0
 10
345.25324115
 20
131.45299036
  0
VERTEX
  8
0
 10
345.13151667
 20
132.05689807
  0
VERTEX
  8
0
 10
345.02772918
 20
132.66709698
  0
VERTEX
  8
0
 10
344.94216658
 20
133.28330197
  0
VERTEX
  8
0
 10
344.87511674
 20
133.90522797
  0
VERTEX
  8
0
 10
344.82686757
 20
134.53258985
  0
VERTEX
  8
0
 10
344.79770694
 20
135.16510254
  0
VERTEX
  8
0
 10
344.78792276
 20
135.80248092
  0
VERTEX
  8
0
 10
344.81447170
 20
136.85212761
  0
VERTEX
  8
0
 10
344.89326344
 20
137.88801077
  0
VERTEX
  8
0
 10
345.02301536
 20
138.90884775
  0
VERTEX
  8
0
 10
345.20244485
 20
139.91335592
  0
VERTEX
  8
0
 10
345.43026929
 20
140.90025263
  0
VERTEX
  8
0
 10
345.70520607
 20
141.86825524
  0
VERTEX
  8
0
 10
346.02597258
 20
142.81608112
  0
VERTEX
  8
0
 10
346.39128618
 20
143.74244761
  0
VERTEX
  8
0
 10
346.79986428
 20
144.64607208
  0
VERTEX
  8
0
 10
347.25042426
 20
145.52567188
  0
VERTEX
  8
0
 10
347.74168350
 20
146.37996438
  0
VERTEX
  8
0
 10
348.27235938
 20
147.20766693
  0
VERTEX
  8
0
 10
348.84116929
 20
148.00749689
  0
VERTEX
  8
0
 10
349.44683061
 20
148.77817163
  0
VERTEX
  8
0
 10
350.08806073
 20
149.51840849
  0
VERTEX
  8
0
 10
350.76357703
 20
150.22692484
  0
VERTEX
  8
0
 10
351.47209690
 20
150.90243804
  0
VERTEX
  8
0
 10
352.21233772
 20
151.54366544
  0
VERTEX
  8
0
 10
352.98301688
 20
152.14932441
  0
VERTEX
  8
0
 10
353.78285176
 20
152.71813230
  0
VERTEX
  8
0
 10
354.61055974
 20
153.24880647
  0
VERTEX
  8
0
 10
355.46485821
 20
153.74006428
  0
VERTEX
  8
0
 10
356.34446455
 20
154.19062309
  0
VERTEX
  8
0
 10
357.24809616
 20
154.59920025
  0
VERTEX
  8
0
 10
358.17447041
 20
154.96451314
  0
VERTEX
  8
0
 10
359.12230468
 20
155.28527909
  0
VERTEX
  8
0
 10
360.09031636
 20
155.56021548
  0
VERTEX
  8
0
 10
361.07722285
 20
155.78803966
  0
VERTEX
  8
0
 10
362.08174151
 20
155.96746899
  0
VERTEX
  8
0
 10
363.10258974
 20
156.09722083
  0
VERTEX
  8
0
 10
364.13848491
 20
156.17601254
  0
VERTEX
  8
0
 10
365.18814443
 20
156.20256147
  0
VERTEX
  8
0
 10
366.06449329
 20
156.18406794
  0
VERTEX
  8
0
 10
366.93140856
 20
156.12908348
  0
VERTEX
  8
0
 10
367.78814658
 20
156.03835231
  0
VERTEX
  8
0
 10
368.63396366
 20
155.91261866
  0
VERTEX
  8
0
 10
369.46811613
 20
155.75262673
  0
VERTEX
  8
0
 10
370.28986031
 20
155.55912075
  0
VERTEX
  8
0
 10
371.09845253
 20
155.33284494
  0
VERTEX
  8
0
 10
371.89314911
 20
155.07454351
  0
VERTEX
  8
0
 10
372.67320638
 20
154.78496068
  0
VERTEX
  8
0
 10
373.43788067
 20
154.46484067
  0
VERTEX
  8
0
 10
374.18642828
 20
154.11492770
  0
VERTEX
  8
0
 10
374.91810556
 20
153.73596599
  0
VERTEX
  8
0
 10
375.63216882
 20
153.32869975
  0
VERTEX
  8
0
 10
376.32787439
 20
152.89387320
  0
VERTEX
  8
0
 10
377.00447860
 20
152.43223056
  0
VERTEX
  8
0
 10
377.66123776
 20
151.94451606
  0
VERTEX
  8
0
 10
378.29740821
 20
151.43147390
  0
VERTEX
  8
0
 10
378.91224626
 20
150.89384830
  0
VERTEX
  8
0
 10
379.50500824
 20
150.33238349
  0
VERTEX
  8
0
 10
380.07495048
 20
149.74782368
  0
VERTEX
  8
0
 10
380.62132930
 20
149.14091309
  0
VERTEX
  8
0
 10
381.14340103
 20
148.51239594
  0
VERTEX
  8
0
 10
381.64042198
 20
147.86301644
  0
VERTEX
  8
0
 10
382.11164849
 20
147.19351882
  0
VERTEX
  8
0
 10
382.55633688
 20
146.50464729
  0
VERTEX
  8
0
 10
382.97374346
 20
145.79714607
  0
VERTEX
  8
0
 10
383.36312458
 20
145.07175937
  0
VERTEX
  8
0
 10
383.72373655
 20
144.32923143
  0
VERTEX
  8
0
 10
384.05483569
 20
143.57030645
  0
VERTEX
  8
0
 10
384.35567834
 20
142.79572865
  0
VERTEX
  8
0
 10
384.62552081
 20
142.00624225
  0
VERTEX
  8
0
 10
384.86361943
 20
141.20259147
  0
VERTEX
  8
0
 10
392.18813276
 20
141.20259147
  0
VERTEX
  8
0
 10
392.18813276
 20
131.60259092
  0
VERTEX
  8
0
 10
388.58792970
 20
131.60259092
  0
VERTEX
  8
0
 10
388.58792970
 20
136.40259120
  0
VERTEX
  8
0
 10
385.57834720
 20
136.40259120
  0
VERTEX
  8
0
 10
385.58794276
 20
135.80248092
  0
VERTEX
  8
0
 10
385.57347376
 20
135.02720628
  0
VERTEX
  8
0
 10
385.53040983
 20
134.25923460
  0
VERTEX
  8
0
 10
385.45926559
 20
133.49907998
  0
VERTEX
  8
0
 10
385.36055564
 20
132.74725655
  0
VERTEX
  8
0
 10
385.23479461
 20
132.00427842
  0
VERTEX
  8
0
 10
385.08249710
 20
131.27065971
  0
VERTEX
  8
0
 10
384.90417773
 20
130.54691452
  0
VERTEX
  8
0
 10
384.70035112
 20
129.83355699
  0
VERTEX
  8
0
 10
384.47153186
 20
129.13110121
  0
VERTEX
  8
0
 10
384.21823459
 20
128.44006132
  0
VERTEX
  8
0
 10
383.94097391
 20
127.76095142
  0
VERTEX
  8
0
 10
383.64026443
 20
127.09428564
  0
VERTEX
  8
0
 10
383.31662078
 20
126.44057808
  0
VERTEX
  8
0
 10
382.97055755
 20
125.80034286
  0
VERTEX
  8
0
 10
382.60258937
 20
125.17409410
  0
VERTEX
  8
0
 10
382.21323085
 20
124.56234592
  0
VERTEX
  8
0
 10
381.80299660
 20
123.96561243
  0
VERTEX
  8
0
 10
381.37240123
 20
123.38440774
  0
VERTEX
  8
0
 10
380.92195937
 20
122.81924598
  0
VERTEX
  8
0
 10
380.45218561
 20
122.27064125
  0
VERTEX
  8
0
 10
379.96359458
 20
121.73910768
  0
VERTEX
  8
0
 10
379.45670089
 20
121.22515938
  0
VERTEX
  8
0
 10
378.93201915
 20
120.72931047
  0
VERTEX
  8
0
 10
378.39006397
 20
120.25207506
  0
VERTEX
  8
0
 10
377.83134997
 20
119.79396727
  0
VERTEX
  8
0
 10
377.25639177
 20
119.35550121
  0
VERTEX
  8
0
 10
376.66570396
 20
118.93719100
  0
VERTEX
  8
0
 10
376.05980118
 20
118.53955075
  0
VERTEX
  8
0
 10
375.43919802
 20
118.16309459
  0
VERTEX
  8
0
 10
374.80440911
 20
117.80833663
  0
VERTEX
  8
0
 10
374.15594906
 20
117.47579097
  0
VERTEX
  8
0
 10
373.49433248
 20
117.16597175
  0
VERTEX
  8
0
 10
374.91842582
 20
109.73717731
  0
VERTEX
  8
0
 10
375.01913214
 20
109.10687122
  0
VERTEX
  8
0
 10
375.07971678
 20
108.47955016
  0
VERTEX
  8
0
 10
375.10086011
 20
107.85705982
  0
VERTEX
  8
0
 10
375.08324249
 20
107.24124587
  0
VERTEX
  8
0
 10
375.02754431
 20
106.63395398
  0
VERTEX
  8
0
 10
374.93444592
 20
106.03702983
  0
VERTEX
  8
0
 10
374.80462771
 20
105.45231909
  0
VERTEX
  8
0
 10
374.63877005
 20
104.88166745
  0
VERTEX
  8
0
 10
374.43755331
 20
104.32692057
  0
VERTEX
  8
0
 10
374.20165785
 20
103.78992413
  0
VERTEX
  8
0
 10
373.93176406
 20
103.27252381
  0
VERTEX
  8
0
 10
373.62855230
 20
102.77656528
  0
VERTEX
  8
0
 10
373.29270295
 20
102.30389421
  0
VERTEX
  8
0
 10
372.92489637
 20
101.85635629
  0
VERTEX
  8
0
 10
372.52581294
 20
101.43579719
  0
VERTEX
  8
0
 10
372.09613304
 20
101.04406259
  0
VERTEX
  8
0
 10
367.66933637
 20
107.36626370
  0
VERTEX
  8
0
 10
365.21213332
 20
105.64548425
  0
VERTEX
  8
0
 10
369.46804443
 20
99.56726425
  0
VERTEX
  8
0
 10
368.79507451
 20
99.37229059
  0
VERTEX
  8
0
 10
368.09005033
 20
99.22979703
  0
VERTEX
  8
0
 10
367.72579901
 20
99.17904471
  0
VERTEX
  8
0
 10
367.35387146
 20
99.14238972
  0
VERTEX
  8
0
 10
366.97438013
 20
99.12015783
  0
VERTEX
  8
0
 10
366.58743748
 20
99.11267481
  0
VERTEX
  8
0
 10
366.08824370
 20
99.12471004
  0
VERTEX
  8
0
 10
365.60331095
 20
99.16035272
  0
VERTEX
  8
0
 10
365.13261279
 20
99.21890832
  0
VERTEX
  8
0
 10
364.67612276
 20
99.29968231
  0
VERTEX
  8
0
 10
343.15643137
 20
79.51826814
  0
VERTEX
  8
0
 10
348.08293776
 20
78.18406259
  0
VERTEX
  8
0
 10
348.43187510
 20
78.70232116
  0
VERTEX
  8
0
 10
348.79608064
 20
79.20915992
  0
VERTEX
  8
0
 10
349.17522498
 20
79.70424882
  0
VERTEX
  8
0
 10
349.56897873
 20
80.18725780
  0
VERTEX
  8
0
 10
349.97701249
 20
80.65785681
  0
VERTEX
  8
0
 10
350.39899686
 20
81.11571581
  0
VERTEX
  8
0
 10
350.83460243
 20
81.56050474
  0
VERTEX
  8
0
 10
351.28349982
 20
81.99189355
  0
VERTEX
  8
0
 10
351.74535962
 20
82.40955220
  0
VERTEX
  8
0
 10
352.21985243
 20
82.81315062
  0
VERTEX
  8
0
 10
352.70664886
 20
83.20235877
  0
VERTEX
  8
0
 10
353.20541951
 20
83.57684659
  0
VERTEX
  8
0
 10
353.71583497
 20
83.93628405
  0
VERTEX
  8
0
 10
354.23756586
 20
84.28034108
  0
VERTEX
  8
0
 10
354.77028277
 20
84.60868763
  0
VERTEX
  8
0
 10
355.31365630
 20
84.92099366
  0
VERTEX
  8
0
 10
355.86735706
 20
85.21692911
  0
VERTEX
  8
0
 10
356.43105564
 20
85.49616394
  0
VERTEX
  8
0
 10
357.00442265
 20
85.75836808
  0
VERTEX
  8
0
 10
357.58712869
 20
86.00321150
  0
VERTEX
  8
0
 10
358.17884437
 20
86.23036413
  0
VERTEX
  8
0
 10
358.77924027
 20
86.43949594
  0
VERTEX
  8
0
 10
359.38798701
 20
86.63027686
  0
VERTEX
  8
0
 10
360.00475518
 20
86.80237684
  0
VERTEX
  8
0
 10
360.62921539
 20
86.95546585
  0
VERTEX
  8
0
 10
361.26103824
 20
87.08921381
  0
VERTEX
  8
0
 10
361.89989433
 20
87.20329070
  0
VERTEX
  8
0
 10
362.54545426
 20
87.29736644
  0
VERTEX
  8
0
 10
363.19738863
 20
87.37111100
  0
VERTEX
  8
0
 10
363.85536805
 20
87.42419431
  0
VERTEX
  8
0
 10
364.51906312
 20
87.45628634
  0
VERTEX
  8
0
 10
365.18814443
 20
87.46705703
  0
SEQEND
  0
POLYLINE
  8
Pen Holder.cdr (1)
 66
   1
 39
0.000000
 70
    1
  0
VERTEX
  8
0
 10
350.51604609
 20
129.66718147
  0
VERTEX
  8
0
 10
361.14792165
 20
140.02276147
  0
VERTEX
  8
0
 10
361.26058334
 20
140.33637679
  0
VERTEX
  8
0
 10
361.39685522
 20
140.63791393
  0
VERTEX
  8
0
 10
361.55561390
 20
140.92624764
  0
VERTEX
  8
0
 10
361.73573597
 20
141.20025267
  0
VERTEX
  8
0
 10
361.93609804
 20
141.45880375
  0
VERTEX
  8
0
 10
362.15557673
 20
141.70077564
  0
VERTEX
  8
0
 10
362.39304864
 20
141.92504308
  0
VERTEX
  8
0
 10
362.64739036
 20
142.13048081
  0
VERTEX
  8
0
 10
362.91747852
 20
142.31596359
  0
VERTEX
  8
0
 10
363.20218971
 20
142.48036616
  0
VERTEX
  8
0
 10
363.50040055
 20
142.62256326
  0
VERTEX
  8
0
 10
363.81098763
 20
142.74142964
  0
VERTEX
  8
0
 10
364.13282756
 20
142.83584004
  0
VERTEX
  8
0
 10
364.46479695
 20
142.90466922
  0
VERTEX
  8
0
 10
364.80577241
 20
142.94679191
  0
VERTEX
  8
0
 10
365.15463054
 20
142.96108286
  0
VERTEX
  8
0
 10
365.58399025
 20
142.93939556
  0
VERTEX
  8
0
 10
366.00096213
 20
142.87574192
  0
VERTEX
  8
0
 10
366.40343330
 20
142.77223439
  0
VERTEX
  8
0
 10
366.78929086
 20
142.63098539
  0
VERTEX
  8
0
 10
367.15642192
 20
142.45410735
  0
VERTEX
  8
0
 10
367.50271357
 20
142.24371270
  0
VERTEX
  8
0
 10
367.82605293
 20
142.00191386
  0
VERTEX
  8
0
 10
368.12432710
 20
141.73082328
  0
VERTEX
  8
0
 10
368.39542319
 20
141.43255337
  0
VERTEX
  8
0
 10
368.63722830
 20
141.10921657
  0
VERTEX
  8
0
 10
368.84762954
 20
140.76292530
  0
VERTEX
  8
0
 10
369.02451401
 20
140.39579200
  0
VERTEX
  8
0
 10
369.16576883
 20
140.00992910
  0
VERTEX
  8
0
 10
369.26928109
 20
139.60744901
  0
VERTEX
  8
0
 10
369.33293790
 20
139.19046418
  0
VERTEX
  8
0
 10
369.35462637
 20
138.76108703
  0
VERTEX
  8
0
 10
372.61693887
 20
121.74308703
  0
VERTEX
  8
0
 10
373.08445792
 20
122.00084274
  0
VERTEX
  8
0
 10
373.54224250
 20
122.27365903
  0
VERTEX
  8
0
 10
373.98995766
 20
122.56120146
  0
VERTEX
  8
0
 10
374.42726847
 20
122.86313560
  0
VERTEX
  8
0
 10
374.85383999
 20
123.17912699
  0
VERTEX
  8
0
 10
375.26933728
 20
123.50884119
  0
VERTEX
  8
0
 10
375.67342539
 20
123.85194376
  0
VERTEX
  8
0
 10
376.06576939
 20
124.20810025
  0
VERTEX
  8
0
 10
376.44603433
 20
124.57697623
  0
VERTEX
  8
0
 10
376.81388528
 20
124.95823725
  0
VERTEX
  8
0
 10
377.16898729
 20
125.35154886
  0
VERTEX
  8
0
 10
377.51100541
 20
125.75657662
  0
VERTEX
  8
0
 10
377.83960472
 20
126.17298610
  0
VERTEX
  8
0
 10
378.15445027
 20
126.60044283
  0
VERTEX
  8
0
 10
378.45520712
 20
127.03861239
  0
VERTEX
  8
0
 10
378.74154033
 20
127.48716033
  0
VERTEX
  8
0
 10
379.01311495
 20
127.94575220
  0
VERTEX
  8
0
 10
379.26959606
 20
128.41405356
  0
VERTEX
  8
0
 10
379.51064869
 20
128.89172997
  0
VERTEX
  8
0
 10
379.73593793
 20
129.37844699
  0
VERTEX
  8
0
 10
379.94512881
 20
129.87387016
  0
VERTEX
  8
0
 10
380.13788642
 20
130.37766506
  0
VERTEX
  8
0
 10
380.31387579
 20
130.88949723
  0
VERTEX
  8
0
 10
380.47276200
 20
131.40903223
  0
VERTEX
  8
0
 10
380.61421009
 20
131.93593561
  0
VERTEX
  8
0
 10
380.73788514
 20
132.46987294
  0
VERTEX
  8
0
 10
380.84345220
 20
133.01050977
  0
VERTEX
  8
0
 10
380.93057633
 20
133.55751166
  0
VERTEX
  8
0
 10
380.99892258
 20
134.11054416
  0
VERTEX
  8
0
 10
381.04815602
 20
134.66927284
  0
VERTEX
  8
0
 10
381.07794171
 20
135.23336324
  0
VERTEX
  8
0
 10
381.08794470
 20
135.80248092
  0
VERTEX
  8
0
 10
381.06725224
 20
136.62059211
  0
VERTEX
  8
0
 10
381.00584134
 20
137.42797542
  0
VERTEX
  8
0
 10
380.90471173
 20
138.22363117
  0
VERTEX
  8
0
 10
380.76486317
 20
139.00655966
  0
VERTEX
  8
0
 10
380.58729538
 20
139.77576121
  0
VERTEX
  8
0
 10
380.37300811
 20
140.53023614
  0
VERTEX
  8
0
 10
380.12300110
 20
141.26898475
  0
VERTEX
  8
0
 10
379.83827408
 20
141.99100736
  0
VERTEX
  8
0
 10
379.51982679
 20
142.69530429
  0
VERTEX
  8
0
 10
379.16865897
 20
143.38087584
  0
VERTEX
  8
0
 10
378.78577036
 20
144.04672232
  0
VERTEX
  8
0
 10
378.37216071
 20
144.69184406
  0
VERTEX
  8
0
 10
377.92882974
 20
145.31524136
  0
VERTEX
  8
0
 10
377.45677719
 20
145.91591454
  0
VERTEX
  8
0
 10
376.95700281
 20
146.49286390
  0
VERTEX
  8
0
 10
376.43050634
 20
147.04508977
  0
VERTEX
  8
0
 10
375.87828750
 20
147.57159246
  0
VERTEX
  8
0
 10
375.30134605
 20
148.07137227
  0
VERTEX
  8
0
 10
374.70068172
 20
148.54342953
  0
VERTEX
  8
0
 10
374.07729425
 20
148.98676454
  0
VERTEX
  8
0
 10
373.43218337
 20
149.40037761
  0
VERTEX
  8
0
 10
372.76634883
 20
149.78326907
  0
VERTEX
  8
0
 10
372.08079036
 20
150.13443922
  0
VERTEX
  8
0
 10
371.37650771
 20
150.45288838
  0
VERTEX
  8
0
 10
370.65450061
 20
150.73761686
  0
VERTEX
  8
0
 10
369.91576880
 20
150.98762496
  0
VERTEX
  8
0
 10
369.16131202
 20
151.20191302
  0
VERTEX
  8
0
 10
368.39213001
 20
151.37948133
  0
VERTEX
  8
0
 10
367.60922251
 20
151.51933021
  0
VERTEX
  8
0
 10
366.81358925
 20
151.62045998
  0
VERTEX
  8
0
 10
366.00622998
 20
151.68187094
  0
VERTEX
  8
0
 10
365.18814443
 20
151.70256342
  0
VERTEX
  8
0
 10
364.37002973
 20
151.68187094
  0
VERTEX
  8
0
 10
363.56264253
 20
151.62045998
  0
VERTEX
  8
0
 10
362.76698254
 20
151.51933021
  0
VERTEX
  8
0
 10
361.98404949
 20
151.37948133
  0
VERTEX
  8
0
 10
361.21484310
 20
151.20191302
  0
VERTEX
  8
0
 10
360.46036308
 20
150.98762496
  0
VERTEX
  8
0
 10
359.72160916
 20
150.73761686
  0
VERTEX
  8
0
 10
358.99958105
 20
150.45288838
  0
VERTEX
  8
0
 10
358.29527847
 20
150.13443922
  0
VERTEX
  8
0
 10
357.60970115
 20
149.78326907
  0
VERTEX
  8
0
 10
356.94384880
 20
149.40037761
  0
VERTEX
  8
0
 10
356.29872114
 20
148.98676454
  0
VERTEX
  8
0
 10
355.67531788
 20
148.54342953
  0
VERTEX
  8
0
 10
355.07463876
 20
148.07137227
  0
VERTEX
  8
0
 10
354.49768349
 20
147.57159246
  0
VERTEX
  8
0
 10
353.94545179
 20
147.04508977
  0
VERTEX
  8
0
 10
353.41894337
 20
146.49286390
  0
VERTEX
  8
0
 10
352.91915796
 20
145.91591454
  0
VERTEX
  8
0
 10
352.44709528
 20
145.31524136
  0
VERTEX
  8
0
 10
352.00375504
 20
144.69184406
  0
VERTEX
  8
0
 10
351.59013697
 20
144.04672232
  0
VERTEX
  8
0
 10
351.20724079
 20
143.38087584
  0
VERTEX
  8
0
 10
350.85606620
 20
142.69530429
  0
VERTEX
  8
0
 10
350.53761294
 20
141.99100736
  0
VERTEX
  8
0
 10
350.25288072
 20
141.26898475
  0
VERTEX
  8
0
 10
350.00286927
 20
140.53023614
  0
VERTEX
  8
0
 10
349.78857829
 20
139.77576121
  0
VERTEX
  8
0
 10
349.61100752
 20
139.00655966
  0
VERTEX
  8
0
 10
349.47115667
 20
138.22363117
  0
VERTEX
  8
0
 10
349.37002545
 20
137.42797542
  0
VERTEX
  8
0
 10
349.30861359
 20
136.62059211
  0
VERTEX
  8
0
 10
349.28792082
 20
135.80248092
  0
VERTEX
  8
0
 10
349.30826011
 20
134.99193746
  0
VERTEX
  8
0
 10
349.36862094
 20
134.19190374
  0
VERTEX
  8
0
 10
349.46801773
 20
133.40335790
  0
VERTEX
  8
0
 10
349.60546491
 20
132.62727807
  0
VERTEX
  8
0
 10
349.77997691
 20
131.86464238
  0
VERTEX
  8
0
 10
349.99056816
 20
131.11642897
  0
VERTEX
  8
0
 10
350.23625308
 20
130.38361595
  0
VERTEX
  8
0
 10
350.51604609
 20
129.66718147
  0
SEQEND
  0
POLYLINE
  8
Pen Holder.cdr (1)
 66
   1
 39
0.000000
 70
    1
  0
VERTEX
  8
0
 10
359.20132915
 20
121.06977536
  0
VERTEX
  8
0
 10
358.68956808
 20
121.28856855
  0
VERTEX
  8
0
 10
358.18720059
 20
121.52455546
  0
VERTEX
  8
0
 10
357.69459716
 20
121.77736481
  0
VERTEX
  8
0
 10
357.21212826
 20
122.04662530
  0
VERTEX
  8
0
 10
356.74016435
 20
122.33196563
  0
VERTEX
  8
0
 10
356.27907589
 20
122.63301452
  0
VERTEX
  8
0
 10
355.82923337
 20
122.94940066
  0
VERTEX
  8
0
 10
355.39100724
 20
123.28075276
  0
VERTEX
  8
0
 10
354.96476798
 20
123.62669952
  0
VERTEX
  8
0
 10
354.55088605
 20
123.98686966
  0
VERTEX
  8
0
 10
354.14973192
 20
124.36089187
  0
VERTEX
  8
0
 10
353.76167606
 20
124.74839486
  0
VERTEX
  8
0
 10
353.38708894
 20
125.14900733
  0
VERTEX
  8
0
 10
353.02634103
 20
125.56235799
  0
VERTEX
  8
0
 10
352.67980280
 20
125.98807554
  0
VERTEX
  8
0
 10
352.34784470
 20
126.42578870
  0
VERTEX
  8
0
 10
360.52103554
 20
134.38678370
  0
VERTEX
  8
0
 10
359.20132915
 20
121.06977536
  0
SEQEND
  0
POLYLINE
  8
Pen Holder.cdr (1)
 66
   1
 39
0.000000
 70
    1
  0
VERTEX
  8
0
 10
349.09953748
 20
123.26186592
  0
VERTEX
  8
0
 10
343.38573693
 20
117.69658481
  0
VERTEX
  8
0
 10
358.46652832
 20
113.65569175
  0
VERTEX
  8
0
 10
358.74271804
 20
116.44288314
  0
VERTEX
  8
0
 10
358.02625075
 20
116.69642558
  0
VERTEX
  8
0
 10
357.32232543
 20
116.97562403
  0
VERTEX
  8
0
 10
356.63150504
 20
117.27991344
  0
VERTEX
  8
0
 10
355.95435256
 20
117.60872881
  0
VERTEX
  8
0
 10
355.29143094
 20
117.96150509
  0
VERTEX
  8
0
 10
354.64330315
 20
118.33767725
  0
VERTEX
  8
0
 10
354.01053214
 20
118.73668027
  0
VERTEX
  8
0
 10
353.39368089
 20
119.15794911
  0
VERTEX
  8
0
 10
352.79331235
 20
119.60091875
  0
VERTEX
  8
0
 10
352.20998948
 20
120.06502415
  0
VERTEX
  8
0
 10
351.64427526
 20
120.54970029
  0
VERTEX
  8
0
 10
351.09673265
 20
121.05438213
  0
VERTEX
  8
0
 10
350.56792460
 20
121.57850464
  0
VERTEX
  8
0
 10
350.05841408
 20
122.12150279
  0
VERTEX
  8
0
 10
349.56876405
 20
122.68281157
  0
VERTEX
  8
0
 10
349.09953748
 20
123.26186592
  0
SEQEND
  0
POLYLINE
  8
Pen Holder.cdr (1)
 66
   1
 39
0.000000
 70
    1
  0
VERTEX
  8
0
 10
358.00812887
 20
108.18827120
  0
VERTEX
  8
0
 10
342.27903776
 20
112.40276620
  0
VERTEX
  8
0
 10
342.27914359
 20
86.04656203
  0
VERTEX
  8
0
 10
359.92921554
 20
102.27105897
  0
VERTEX
  8
0
 10
359.70601361
 20
102.57989918
  0
VERTEX
  8
0
 10
359.49626915
 20
102.89931492
  0
VERTEX
  8
0
 10
359.30004510
 20
103.22878245
  0
VERTEX
  8
0
 10
359.11740442
 20
103.56777803
  0
VERTEX
  8
0
 10
358.94841003
 20
103.91577792
  0
VERTEX
  8
0
 10
358.79312488
 20
104.27225837
  0
VERTEX
  8
0
 10
358.65161192
 20
104.63669566
  0
VERTEX
  8
0
 10
358.52393408
 20
105.00856602
  0
VERTEX
  8
0
 10
358.41015431
 20
105.38734574
  0
VERTEX
  8
0
 10
358.31033554
 20
105.77251105
  0
VERTEX
  8
0
 10
358.15283280
 20
106.55990354
  0
VERTEX
  8
0
 10
358.05192940
 20
107.36655357
  0
VERTEX
  8
0
 10
358.00812887
 20
108.18827120
  0
SEQEND
  0
POLYLINE
  8
Pen Holder.cdr (1)
 66
   1
 39
0.000000
 70
    1
  0
VERTEX
  8
0
 10
352.71674443
 20
76.92898509
  0
VERTEX
  8
0
 10
364.60532026
 20
73.70897064
  0
VERTEX
  8
0
 10
364.94041513
 20
73.60913126
  0
VERTEX
  8
0
 10
365.25928782
 20
73.49582025
  0
VERTEX
  8
0
 10
365.56218127
 20
73.36940473
  0
VERTEX
  8
0
 10
365.84933845
 20
73.23025182
  0
VERTEX
  8
0
 10
366.12100231
 20
73.07872862
  0
VERTEX
  8
0
 10
366.37741581
 20
72.91520227
  0
VERTEX
  8
0
 10
366.61882191
 20
72.74003987
  0
VERTEX
  8
0
 10
366.84546356
 20
72.55360854
  0
VERTEX
  8
0
 10
367.05758372
 20
72.35627539
  0
VERTEX
  8
0
 10
367.25542534
 20
72.14840754
  0
VERTEX
  8
0
 10
367.43923139
 20
71.93037211
  0
VERTEX
  8
0
 10
367.60924481
 20
71.70253621
  0
VERTEX
  8
0
 10
367.76570857
 20
71.46526696
  0
VERTEX
  8
0
 10
367.90886563
 20
71.21893148
  0
VERTEX
  8
0
 10
368.03895893
 20
70.96389687
  0
VERTEX
  8
0
 10
368.15623144
 20
70.70053026
  0
VERTEX
  8
0
 10
368.35328591
 20
70.15026949
  0
VERTEX
  8
0
 10
368.50197268
 20
69.57108609
  0
VERTEX
  8
0
 10
368.60423541
 20
68.96591699
  0
VERTEX
  8
0
 10
368.66201776
 20
68.33769912
  0
VERTEX
  8
0
 10
368.67726338
 20
67.68936940
  0
VERTEX
  8
0
 10
368.65191591
 20
67.02386476
  0
VERTEX
  8
0
 10
368.58791903
 20
66.34412212
  0
VERTEX
  8
0
 10
368.48721637
 20
65.65307842
  0
VERTEX
  8
0
 10
368.44889908
 20
65.50540910
  0
VERTEX
  8
0
 10
368.38759170
 20
65.37116373
  0
VERTEX
  8
0
 10
368.30490194
 20
65.25009496
  0
VERTEX
  8
0
 10
368.20243747
 20
65.14195544
  0
VERTEX
  8
0
 10
368.08180601
 20
65.04649780
  0
VERTEX
  8
0
 10
367.94461523
 20
64.96347470
  0
VERTEX
  8
0
 10
367.79247283
 20
64.89263877
  0
VERTEX
  8
0
 10
367.62698650
 20
64.83374266
  0
VERTEX
  8
0
 10
367.26241284
 20
64.75078048
  0
VERTEX
  8
0
 10
366.86375578
 20
64.71260931
  0
VERTEX
  8
0
 10
366.44387686
 20
64.71725031
  0
VERTEX
  8
0
 10
366.01563762
 20
64.76272463
  0
VERTEX
  8
0
 10
365.59189961
 20
64.84705343
  0
VERTEX
  8
0
 10
365.18552436
 20
64.96825786
  0
VERTEX
  8
0
 10
364.80937342
 20
65.12435907
  0
VERTEX
  8
0
 10
364.47630832
 20
65.31337822
  0
VERTEX
  8
0
 10
364.32995220
 20
65.41961364
  0
VERTEX
  8
0
 10
364.19919061
 20
65.53333647
  0
VERTEX
  8
0
 10
364.08563126
 20
65.65429936
  0
VERTEX
  8
0
 10
363.99088183
 20
65.78225496
  0
VERTEX
  8
0
 10
363.91655002
 20
65.91695591
  0
VERTEX
  8
0
 10
363.86424351
 20
66.05815486
  0
VERTEX
  8
0
 10
363.83557001
 20
66.20560444
  0
VERTEX
  8
0
 10
363.83213720
 20
66.35905731
  0
VERTEX
  8
0
 10
363.84834081
 20
66.75689612
  0
VERTEX
  8
0
 10
363.84431589
 20
67.12706459
  0
VERTEX
  8
0
 10
363.81794381
 20
67.47110400
  0
VERTEX
  8
0
 10
363.76710593
 20
67.79055567
  0
VERTEX
  8
0
 10
363.68968363
 20
68.08696088
  0
VERTEX
  8
0
 10
363.58355827
 20
68.36186095
  0
VERTEX
  8
0
 10
363.44661123
 20
68.61679717
  0
VERTEX
  8
0
 10
363.27672387
 20
68.85331085
  0
VERTEX
  8
0
 10
363.07177757
 20
69.07294328
  0
VERTEX
  8
0
 10
362.82965369
 20
69.27723577
  0
VERTEX
  8
0
 10
362.54823361
 20
69.46772962
  0
VERTEX
  8
0
 10
362.22539869
 20
69.64596614
  0
VERTEX
  8
0
 10
361.85903030
 20
69.81348661
  0
VERTEX
  8
0
 10
361.44700982
 20
69.97183234
  0
VERTEX
  8
0
 10
360.98721861
 20
70.12254464
  0
VERTEX
  8
0
 10
360.47753804
 20
70.26716481
  0
VERTEX
  8
0
 10
350.40873109
 20
72.93966814
  0
VERTEX
  8
0
 10
350.15299614
 20
72.25075805
  0
VERTEX
  8
0
 10
349.92859613
 20
71.54724874
  0
VERTEX
  8
0
 10
349.73638268
 20
70.82998606
  0
VERTEX
  8
0
 10
349.57720741
 20
70.09981585
  0
VERTEX
  8
0
 10
349.45192197
 20
69.35758394
  0
VERTEX
  8
0
 10
349.36137797
 20
68.60413619
  0
VERTEX
  8
0
 10
349.30642704
 20
67.84031842
  0
VERTEX
  8
0
 10
349.28792082
 20
67.06697647
  0
VERTEX
  8
0
 10
349.30861359
 20
66.24889062
  0
VERTEX
  8
0
 10
349.37002545
 20
65.44153046
  0
VERTEX
  8
0
 10
349.47115667
 20
64.64589578
  0
VERTEX
  8
0
 10
349.61100752
 20
63.86298634
  0
VERTEX
  8
0
 10
349.78857829
 20
63.09380193
  0
VERTEX
  8
0
 10
350.00286927
 20
62.33934233
  0
VERTEX
  8
0
 10
350.25288072
 20
61.60060731
  0
VERTEX
  8
0
 10
350.53761294
 20
60.87859665
  0
VERTEX
  8
0
 10
350.85606620
 20
60.17431013
  0
VERTEX
  8
0
 10
351.20724079
 20
59.48874752
  0
VERTEX
  8
0
 10
351.59013697
 20
58.82290861
  0
VERTEX
  8
0
 10
352.00375504
 20
58.17779317
  0
VERTEX
  8
0
 10
352.44709528
 20
57.55440097
  0
VERTEX
  8
0
 10
352.91915796
 20
56.95373180
  0
VERTEX
  8
0
 10
353.41894337
 20
56.37678544
  0
VERTEX
  8
0
 10
353.94545179
 20
55.82456165
  0
VERTEX
  8
0
 10
354.49768349
 20
55.29806022
  0
VERTEX
  8
0
 10
355.07463876
 20
54.79828092
  0
VERTEX
  8
0
 10
355.67531788
 20
54.32622354
  0
VERTEX
  8
0
 10
356.29872114
 20
53.88288785
  0
VERTEX
  8
0
 10
356.94384880
 20
53.46927362
  0
VERTEX
  8
0
 10
357.60970115
 20
53.08638064
  0
VERTEX
  8
0
 10
358.29527847
 20
52.73520869
  0
VERTEX
  8
0
 10
358.99958105
 20
52.41675753
  0
VERTEX
  8
0
 10
359.72160916
 20
52.13202695
  0
VERTEX
  8
0
 10
360.46036308
 20
51.88201672
  0
VERTEX
  8
0
 10
361.21484310
 20
51.66772663
  0
VERTEX
  8
0
 10
361.98404949
 20
51.49015645
  0
VERTEX
  8
0
 10
362.76698254
 20
51.35030595
  0
VERTEX
  8
0
 10
363.56264253
 20
51.24917492
  0
VERTEX
  8
0
 10
364.37002973
 20
51.18776313
  0
VERTEX
  8
0
 10
365.18814443
 20
51.16707036
  0
VERTEX
  8
0
 10
366.00622998
 20
51.18776313
  0
VERTEX
  8
0
 10
366.81358925
 20
51.24917492
  0
VERTEX
  8
0
 10
367.60922251
 20
51.35030595
  0
VERTEX
  8
0
 10
368.39213001
 20
51.49015645
  0
VERTEX
  8
0
 10
369.16131202
 20
51.66772663
  0
VERTEX
  8
0
 10
369.91576880
 20
51.88201672
  0
VERTEX
  8
0
 10
370.65450061
 20
52.13202695
  0
VERTEX
  8
0
 10
371.37650771
 20
52.41675753
  0
VERTEX
  8
0
 10
372.08079036
 20
52.73520869
  0
VERTEX
  8
0
 10
372.76634883
 20
53.08638064
  0
VERTEX
  8
0
 10
373.43218337
 20
53.46927362
  0
VERTEX
  8
0
 10
374.07729425
 20
53.88288785
  0
VERTEX
  8
0
 10
374.70068172
 20
54.32622354
  0
VERTEX
  8
0
 10
375.30134605
 20
54.79828092
  0
VERTEX
  8
0
 10
375.87828750
 20
55.29806022
  0
VERTEX
  8
0
 10
376.43050634
 20
55.82456165
  0
VERTEX
  8
0
 10
376.95700281
 20
56.37678544
  0
VERTEX
  8
0
 10
377.45677719
 20
56.95373180
  0
VERTEX
  8
0
 10
377.92882974
 20
57.55440097
  0
VERTEX
  8
0
 10
378.37216071
 20
58.17779317
  0
VERTEX
  8
0
 10
378.78577036
 20
58.82290861
  0
VERTEX
  8
0
 10
379.16865897
 20
59.48874752
  0
VERTEX
  8
0
 10
379.51982679
 20
60.17431013
  0
VERTEX
  8
0
 10
379.83827408
 20
60.87859665
  0
VERTEX
  8
0
 10
380.12300110
 20
61.60060731
  0
VERTEX
  8
0
 10
380.37300811
 20
62.33934233
  0
VERTEX
  8
0
 10
380.58729538
 20
63.09380193
  0
VERTEX
  8
0
 10
380.76486317
 20
63.86298634
  0
VERTEX
  8
0
 10
380.90471173
 20
64.64589578
  0
VERTEX
  8
0
 10
381.00584134
 20
65.44153046
  0
VERTEX
  8
0
 10
381.06725224
 20
66.24889062
  0
VERTEX
  8
0
 10
381.08794470
 20
67.06697647
  0
VERTEX
  8
0
 10
381.06725224
 20
67.88509077
  0
VERTEX
  8
0
 10
381.00584134
 20
68.69247679
  0
VERTEX
  8
0
 10
380.90471173
 20
69.48813487
  0
VERTEX
  8
0
 10
380.76486317
 20
70.27106534
  0
VERTEX
  8
0
 10
380.58729538
 20
71.04026854
  0
VERTEX
  8
0
 10
380.37300811
 20
71.79474480
  0
VERTEX
  8
0
 10
380.12300110
 20
72.53349444
  0
VERTEX
  8
0
 10
379.83827408
 20
73.25551780
  0
VERTEX
  8
0
 10
379.51982679
 20
73.95981522
  0
VERTEX
  8
0
 10
379.16865897
 20
74.64538702
  0
VERTEX
  8
0
 10
378.78577036
 20
75.31123354
  0
VERTEX
  8
0
 10
378.37216071
 20
75.95635512
  0
VERTEX
  8
0
 10
377.92882974
 20
76.57975207
  0
VERTEX
  8
0
 10
377.45677719
 20
77.18042474
  0
VERTEX
  8
0
 10
376.95700281
 20
77.75737346
  0
VERTEX
  8
0
 10
376.43050634
 20
78.30959856
  0
VERTEX
  8
0
 10
375.87828750
 20
78.83610037
  0
VERTEX
  8
0
 10
375.30134605
 20
79.33587922
  0
VERTEX
  8
0
 10
374.70068172
 20
79.80793545
  0
VERTEX
  8
0
 10
374.07729425
 20
80.25126939
  0
VERTEX
  8
0
 10
373.43218337
 20
80.66488138
  0
VERTEX
  8
0
 10
372.76634883
 20
81.04777173
  0
VERTEX
  8
0
 10
372.08079036
 20
81.39894080
  0
VERTEX
  8
0
 10
371.37650771
 20
81.71738890
  0
VERTEX
  8
0
 10
370.65450061
 20
82.00211637
  0
VERTEX
  8
0
 10
369.91576880
 20
82.25212354
  0
VERTEX
  8
0
 10
369.16131202
 20
82.46641075
  0
VERTEX
  8
0
 10
368.39213001
 20
82.64397833
  0
VERTEX
  8
0
 10
367.60922251
 20
82.78382661
  0
VERTEX
  8
0
 10
366.81358925
 20
82.88495592
  0
VERTEX
  8
0
 10
366.00622998
 20
82.94636660
  0
VERTEX
  8
0
 10
365.18814443
 20
82.96705897
  0
VERTEX
  8
0
 10
364.24704024
 20
82.93965735
  0
VERTEX
  8
0
 10
363.32037730
 20
82.85846991
  0
VERTEX
  8
0
 10
362.40967937
 20
82.72502282
  0
VERTEX
  8
0
 10
361.51647025
 20
82.54084223
  0
VERTEX
  8
0
 10
360.64227371
 20
82.30745432
  0
VERTEX
  8
0
 10
359.78861354
 20
82.02638523
  0
VERTEX
  8
0
 10
358.95701353
 20
81.69916113
  0
VERTEX
  8
0
 10
358.14899745
 20
81.32730818
  0
VERTEX
  8
0
 10
357.36608909
 20
80.91235253
  0
VERTEX
  8
0
 10
356.60981222
 20
80.45582035
  0
VERTEX
  8
0
 10
355.88169065
 20
79.95923781
  0
VERTEX
  8
0
 10
355.18324814
 20
79.42413104
  0
VERTEX
  8
0
 10
354.51600848
 20
78.85202623
  0
VERTEX
  8
0
 10
353.88149545
 20
78.24444953
  0
VERTEX
  8
0
 10
353.28123284
 20
77.60292709
  0
VERTEX
  8
0
 10
352.71674443
 20
76.92898509
  0
SEQEND
  0
POLYLINE
  8
Pen Holder.cdr (1)
 66
   1
 39
0.000000
 70
    1
  0
VERTEX
  8
0
 10
105.58853804
 20
164.54519147
  0
VERTEX
  8
0
 10
117.26213109
 20
162.74517814
  0
VERTEX
  8
0
 10
117.26213109
 20
143.54517703
  0
VERTEX
  8
0
 10
105.58853804
 20
141.74516370
  0
VERTEX
  8
0
 10
105.58853804
 20
147.14516842
  0
VERTEX
  8
0
 10
102.58851582
 20
147.14516842
  0
VERTEX
  8
0
 10
102.58851582
 20
159.14518675
  0
VERTEX
  8
0
 10
105.58853804
 20
159.14518675
  0
VERTEX
  8
0
 10
105.58853804
 20
164.54519147
  0
SEQEND
  0
POLYLINE
  8
Pen Holder.cdr (1)
 66
   1
 39
0.000000
 70
    1
  0
VERTEX
  8
0
 10
115.57864026
 20
205.96606509
  0
VERTEX
  8
0
 10
121.03452498
 20
209.11608842
  0
VERTEX
  8
0
 10
122.83453832
 20
205.99837953
  0
VERTEX
  8
0
 10
118.67761665
 20
203.59836175
  0
VERTEX
  8
0
 10
120.17762776
 20
201.00036509
  0
VERTEX
  8
0
 10
124.33451415
 20
203.40038286
  0
VERTEX
  8
0
 10
126.13452748
 20
200.28267397
  0
VERTEX
  8
0
 10
120.67864276
 20
197.13268592
  0
VERTEX
  8
0
 10
120.48773332
 20
197.03550528
  0
VERTEX
  8
0
 10
120.29111120
 20
196.96021390
  0
VERTEX
  8
0
 10
120.09026619
 20
196.90638508
  0
VERTEX
  8
0
 10
119.88668807
 20
196.87359214
  0
VERTEX
  8
0
 10
119.68186661
 20
196.86140838
  0
VERTEX
  8
0
 10
119.47729159
 20
196.86940711
  0
VERTEX
  8
0
 10
119.27445280
 20
196.89716163
  0
VERTEX
  8
0
 10
119.07484002
 20
196.94424526
  0
VERTEX
  8
0
 10
118.87994302
 20
197.01023130
  0
VERTEX
  8
0
 10
118.69125158
 20
197.09469306
  0
VERTEX
  8
0
 10
118.51025549
 20
197.19720385
  0
VERTEX
  8
0
 10
118.33844452
 20
197.31733697
  0
VERTEX
  8
0
 10
118.17730845
 20
197.45466574
  0
VERTEX
  8
0
 10
118.02833707
 20
197.60876346
  0
VERTEX
  8
0
 10
117.89302016
 20
197.77920343
  0
VERTEX
  8
0
 10
117.77284748
 20
197.96555897
  0
VERTEX
  8
0
 10
117.50992220
 20
198.42095981
  0
VERTEX
  8
0
 10
107.70742720
 20
192.76155759
  0
VERTEX
  8
0
 10
108.03551385
 20
192.27121914
  0
VERTEX
  8
0
 10
108.36614049
 20
191.85670739
  0
VERTEX
  8
0
 10
108.53623553
 20
191.67911242
  0
VERTEX
  8
0
 10
108.71156064
 20
191.52194519
  0
VERTEX
  8
0
 10
108.89364751
 20
191.38569606
  0
VERTEX
  8
0
 10
109.08402783
 20
191.27085540
  0
VERTEX
  8
0
 10
109.28423328
 20
191.17791355
  0
VERTEX
  8
0
 10
109.49579556
 20
191.10736088
  0
VERTEX
  8
0
 10
109.72024636
 20
191.05968774
  0
VERTEX
  8
0
 10
109.95911736
 20
191.03538450
  0
VERTEX
  8
0
 10
110.21394026
 20
191.03494150
  0
VERTEX
  8
0
 10
110.48624674
 20
191.05884911
  0
VERTEX
  8
0
 10
110.77756849
 20
191.10759769
  0
VERTEX
  8
0
 10
111.08943720
 20
191.18167759
  0
VERTEX
  8
0
 10
116.70544776
 20
192.69368314
  0
VERTEX
  8
0
 10
117.02111500
 20
192.75855392
  0
VERTEX
  8
0
 10
117.34682835
 20
192.78716794
  0
VERTEX
  8
0
 10
117.67950148
 20
192.78061853
  0
VERTEX
  8
0
 10
118.01604807
 20
192.73999900
  0
VERTEX
  8
0
 10
118.35338180
 20
192.66640268
  0
VERTEX
  8
0
 10
118.68841633
 20
192.56092287
  0
VERTEX
  8
0
 10
119.01806536
 20
192.42465290
  0
VERTEX
  8
0
 10
119.33924255
 20
192.25868609
  0
VERTEX
  8
0
 10
119.64886159
 20
192.06411576
  0
VERTEX
  8
0
 10
119.94383614
 20
191.84203521
  0
VERTEX
  8
0
 10
120.22107989
 20
191.59353778
  0
VERTEX
  8
0
 10
120.47750651
 20
191.31971677
  0
VERTEX
  8
0
 10
120.71002968
 20
191.02166552
  0
VERTEX
  8
0
 10
120.91556308
 20
190.70047733
  0
VERTEX
  8
0
 10
121.09102038
 20
190.35724552
  0
VERTEX
  8
0
 10
121.23331526
 20
189.99306342
  0
VERTEX
  8
0
 10
122.07924109
 20
187.45338092
  0
VERTEX
  8
0
 10
122.16338289
 20
187.14550542
  0
VERTEX
  8
0
 10
122.21543171
 20
186.82737241
  0
VERTEX
  8
0
 10
122.23642786
 20
186.50214867
  0
VERTEX
  8
0
 10
122.22741162
 20
186.17300098
  0
VERTEX
  8
0
 10
122.18942330
 20
185.84309613
  0
VERTEX
  8
0
 10
122.12350320
 20
185.51560090
  0
VERTEX
  8
0
 10
122.03069161
 20
185.19368208
  0
VERTEX
  8
0
 10
121.91202884
 20
184.88050644
  0
VERTEX
  8
0
 10
121.76855517
 20
184.57924077
  0
VERTEX
  8
0
 10
121.60131092
 20
184.29305186
  0
VERTEX
  8
0
 10
121.41133637
 20
184.02510648
  0
VERTEX
  8
0
 10
121.19967184
 20
183.77857143
  0
VERTEX
  8
0
 10
120.96735760
 20
183.55661348
  0
VERTEX
  8
0
 10
120.71543397
 20
183.36239941
  0
VERTEX
  8
0
 10
120.44494124
 20
183.19909602
  0
VERTEX
  8
0
 10
120.15691970
 20
183.06987009
  0
VERTEX
  8
0
 10
118.17751887
 20
182.32819009
  0
VERTEX
  8
0
 10
117.87770380
 20
182.23053605
  0
VERTEX
  8
0
 10
117.58025355
 20
182.16330637
  0
VERTEX
  8
0
 10
117.28614305
 20
182.12698198
  0
VERTEX
  8
0
 10
116.99634721
 20
182.12204384
  0
VERTEX
  8
0
 10
116.71184098
 20
182.14897290
  0
VERTEX
  8
0
 10
116.43359927
 20
182.20825012
  0
VERTEX
  8
0
 10
116.16259702
 20
182.30035644
  0
VERTEX
  8
0
 10
115.89980915
 20
182.42577283
  0
VERTEX
  8
0
 10
115.64621059
 20
182.58498023
  0
VERTEX
  8
0
 10
115.40277627
 20
182.77845959
  0
VERTEX
  8
0
 10
115.17048111
 20
183.00669187
  0
VERTEX
  8
0
 10
114.95030004
 20
183.27015802
  0
VERTEX
  8
0
 10
114.74320800
 20
183.56933899
  0
VERTEX
  8
0
 10
114.55017990
 20
183.90471573
  0
VERTEX
  8
0
 10
114.37219068
 20
184.27676921
  0
VERTEX
  8
0
 10
114.21021526
 20
184.68598036
  0
VERTEX
  8
0
 10
118.54433720
 20
186.26346147
  0
VERTEX
  8
0
 10
117.51814193
 20
189.08247342
  0
VERTEX
  8
0
 10
112.88183054
 20
187.50418092
  0
VERTEX
  8
0
 10
112.24773529
 20
187.30241050
  0
VERTEX
  8
0
 10
111.63434823
 20
187.13827540
  0
VERTEX
  8
0
 10
111.04068835
 20
187.01490598
  0
VERTEX
  8
0
 10
110.46577460
 20
186.93543259
  0
VERTEX
  8
0
 10
109.90862597
 20
186.90298557
  0
VERTEX
  8
0
 10
109.36826144
 20
186.92069529
  0
VERTEX
  8
0
 10
108.84369997
 20
186.99169210
  0
VERTEX
  8
0
 10
108.58703881
 20
187.04815139
  0
VERTEX
  8
0
 10
108.33396054
 20
187.11910634
  0
VERTEX
  8
0
 10
108.08434252
 20
187.20494823
  0
VERTEX
  8
0
 10
107.83806212
 20
187.30606836
  0
VERTEX
  8
0
 10
107.59499673
 20
187.42285803
  0
VERTEX
  8
0
 10
107.35502370
 20
187.55570852
  0
VERTEX
  8
0
 10
107.11802042
 20
187.70501114
  0
VERTEX
  8
0
 10
106.88386424
 20
187.87115718
  0
VERTEX
  8
0
 10
106.65243256
 20
188.05453792
  0
VERTEX
  8
0
 10
106.42360273
 20
188.25554467
  0
VERTEX
  8
0
 10
105.97325812
 20
188.71200135
  0
VERTEX
  8
0
 10
105.53184941
 20
189.24365759
  0
VERTEX
  8
0
 10
105.09839555
 20
189.85364371
  0
VERTEX
  8
0
 10
104.67191554
 20
190.54509009
  0
VERTEX
  8
0
 10
101.87011915
 20
195.39786592
  0
VERTEX
  8
0
 10
101.48457366
 20
196.11289921
  0
VERTEX
  8
0
 10
101.17305761
 20
196.79324810
  0
VERTEX
  8
0
 10
100.93335082
 20
197.44132692
  0
VERTEX
  8
0
 10
100.76323312
 20
198.05955000
  0
VERTEX
  8
0
 10
100.70357637
 20
198.35822011
  0
VERTEX
  8
0
 10
100.66048433
 20
198.65033165
  0
VERTEX
  8
0
 10
100.63367947
 20
198.93618641
  0
VERTEX
  8
0
 10
100.62288427
 20
199.21608619
  0
VERTEX
  8
0
 10
100.62782121
 20
199.49033278
  0
VERTEX
  8
0
 10
100.64821278
 20
199.75922796
  0
VERTEX
  8
0
 10
100.68378144
 20
200.02307352
  0
VERTEX
  8
0
 10
100.73424967
 20
200.28217127
  0
VERTEX
  8
0
 10
100.79933996
 20
200.53682297
  0
VERTEX
  8
0
 10
100.87877478
 20
200.78733044
  0
VERTEX
  8
0
 10
101.07956792
 20
201.27711980
  0
VERTEX
  8
0
 10
101.33440893
 20
201.75395368
  0
VERTEX
  8
0
 10
101.64107763
 20
202.22024639
  0
VERTEX
  8
0
 10
101.99735384
 20
202.67841225
  0
VERTEX
  8
0
 10
102.40101739
 20
203.13086560
  0
VERTEX
  8
0
 10
102.84984811
 20
203.58002075
  0
VERTEX
  8
0
 10
103.34162582
 20
204.02829203
  0
VERTEX
  8
0
 10
107.02674248
 20
207.25416259
  0
VERTEX
  8
0
 10
105.09842387
 20
209.55226286
  0
VERTEX
  8
0
 10
101.56524859
 20
206.58765953
  0
VERTEX
  8
0
 10
101.29184290
 20
206.93253539
  0
VERTEX
  8
0
 10
101.05862319
 20
207.27270512
  0
VERTEX
  8
0
 10
100.86468562
 20
207.60756449
  0
VERTEX
  8
0
 10
100.70912638
 20
207.93650922
  0
VERTEX
  8
0
 10
100.59104165
 20
208.25893508
  0
VERTEX
  8
0
 10
100.50952761
 20
208.57423781
  0
VERTEX
  8
0
 10
100.46368043
 20
208.88181315
  0
VERTEX
  8
0
 10
100.45259630
 20
209.18105686
  0
VERTEX
  8
0
 10
100.47537140
 20
209.47136467
  0
VERTEX
  8
0
 10
100.53110190
 20
209.75213235
  0
VERTEX
  8
0
 10
100.61888398
 20
210.02275563
  0
VERTEX
  8
0
 10
100.73781383
 20
210.28263027
  0
VERTEX
  8
0
 10
100.88698762
 20
210.53115201
  0
VERTEX
  8
0
 10
101.06550153
 20
210.76771660
  0
VERTEX
  8
0
 10
101.27245174
 20
210.99171978
  0
VERTEX
  8
0
 10
101.50693443
 20
211.20255731
  0
VERTEX
  8
0
 10
103.13902554
 20
212.54568814
  0
VERTEX
  8
0
 10
103.39493191
 20
212.73054824
  0
VERTEX
  8
0
 10
103.67159148
 20
212.88317955
  0
VERTEX
  8
0
 10
103.96574074
 20
213.00426581
  0
VERTEX
  8
0
 10
104.27411615
 20
213.09449075
  0
VERTEX
  8
0
 10
104.59345420
 20
213.15453810
  0
VERTEX
  8
0
 10
104.92049137
 20
213.18509159
  0
VERTEX
  8
0
 10
105.25196414
 20
213.18683496
  0
VERTEX
  8
0
 10
105.58460898
 20
213.16045193
  0
VERTEX
  8
0
 10
105.91516236
 20
213.10662623
  0
VERTEX
  8
0
 10
106.24036078
 20
213.02604159
  0
VERTEX
  8
0
 10
106.55694071
 20
212.91938176
  0
VERTEX
  8
0
 10
106.86163862
 20
212.78733045
  0
VERTEX
  8
0
 10
107.15119100
 20
212.63057139
  0
VERTEX
  8
0
 10
107.42233432
 20
212.44978833
  0
VERTEX
  8
0
 10
107.67180506
 20
212.24566498
  0
VERTEX
  8
0
 10
107.89633970
 20
212.01888509
  0
VERTEX
  8
0
 10
109.67282276
 20
210.01648314
  0
VERTEX
  8
0
 10
109.91706645
 20
209.71112862
  0
VERTEX
  8
0
 10
110.12658476
 20
209.38753604
  0
VERTEX
  8
0
 10
110.30197420
 20
209.04892422
  0
VERTEX
  8
0
 10
110.44383127
 20
208.69851198
  0
VERTEX
  8
0
 10
110.55275247
 20
208.33951815
  0
VERTEX
  8
0
 10
110.62933430
 20
207.97516154
  0
VERTEX
  8
0
 10
110.67417326
 20
207.60866098
  0
VERTEX
  8
0
 10
110.68786585
 20
207.24323529
  0
VERTEX
  8
0
 10
110.67100858
 20
206.88210330
  0
VERTEX
  8
0
 10
110.62419794
 20
206.52848381
  0
VERTEX
  8
0
 10
110.54803043
 20
206.18559566
  0
VERTEX
  8
0
 10
110.44310256
 20
205.85665767
  0
VERTEX
  8
0
 10
110.31001083
 20
205.54488866
  0
VERTEX
  8
0
 10
110.14935174
 20
205.25350744
  0
VERTEX
  8
0
 10
109.96172179
 20
204.98573285
  0
VERTEX
  8
0
 10
109.74771748
 20
204.74478370
  0
VERTEX
  8
0
 10
105.63023637
 20
200.63718036
  0
VERTEX
  8
0
 10
105.41012758
 20
200.40408779
  0
VERTEX
  8
0
 10
105.22222861
 20
200.17614363
  0
VERTEX
  8
0
 10
105.06534977
 20
199.95226372
  0
VERTEX
  8
0
 10
104.93830135
 20
199.73136389
  0
VERTEX
  8
0
 10
104.83989366
 20
199.51235996
  0
VERTEX
  8
0
 10
104.76893701
 20
199.29416777
  0
VERTEX
  8
0
 10
104.72424170
 20
199.07570313
  0
VERTEX
  8
0
 10
104.70461804
 20
198.85588189
  0
VERTEX
  8
0
 10
104.70887633
 20
198.63361987
  0
VERTEX
  8
0
 10
104.73582688
 20
198.40783289
  0
VERTEX
  8
0
 10
104.78428000
 20
198.17743679
  0
VERTEX
  8
0
 10
104.85304598
 20
197.94134739
  0
VERTEX
  8
0
 10
105.04675777
 20
197.44775203
  0
VERTEX
  8
0
 10
105.30744470
 20
196.91837342
  0
VERTEX
  8
0
 10
115.10993970
 20
202.57788147
  0
VERTEX
  8
0
 10
114.84694387
 20
203.03328231
  0
VERTEX
  8
0
 10
114.74565428
 20
203.23053361
  0
VERTEX
  8
0
 10
114.66571703
 20
203.43294274
  0
VERTEX
  8
0
 10
114.60675721
 20
203.63900580
  0
VERTEX
  8
0
 10
114.56839991
 20
203.84721891
  0
VERTEX
  8
0
 10
114.55027021
 20
204.05607819
  0
VERTEX
  8
0
 10
114.55199319
 20
204.26407974
  0
VERTEX
  8
0
 10
114.57319396
 20
204.46971968
  0
VERTEX
  8
0
 10
114.61349759
 20
204.67149411
  0
VERTEX
  8
0
 10
114.67252917
 20
204.86789916
  0
VERTEX
  8
0
 10
114.74991379
 20
205.05743094
  0
VERTEX
  8
0
 10
114.84527654
 20
205.23858555
  0
VERTEX
  8
0
 10
114.95824250
 20
205.40985910
  0
VERTEX
  8
0
 10
115.08843677
 20
205.56974773
  0
VERTEX
  8
0
 10
115.23548443
 20
205.71674752
  0
VERTEX
  8
0
 10
115.39901056
 20
205.84935460
  0
VERTEX
  8
0
 10
115.57864026
 20
205.96606509
  0
SEQEND
  0
POLYLINE
  8
Pen Holder.cdr (1)
 66
   1
 39
0.000000
 70
    1
  0
VERTEX
  8
0
 10
90.72124776
 20
183.86898231
  0
VERTEX
  8
0
 10
93.62824248
 20
183.12797259
  0
VERTEX
  8
0
 10
94.63591693
 20
187.08158842
  0
VERTEX
  8
0
 10
98.70591415
 20
186.04417481
  0
VERTEX
  8
0
 10
95.50293887
 20
173.47875953
  0
VERTEX
  8
0
 10
101.89851776
 20
171.84857342
  0
VERTEX
  8
0
 10
99.82372582
 20
163.70886120
  0
VERTEX
  8
0
 10
89.35832609
 20
166.37646092
  0
VERTEX
  8
0
 10
92.44273276
 20
178.47677397
  0
VERTEX
  8
0
 10
85.46584665
 20
180.25516203
  0
VERTEX
  8
0
 10
88.66864554
 20
192.82057731
  0
VERTEX
  8
0
 10
82.27313720
 20
194.45076342
  0
VERTEX
  8
0
 10
84.34792915
 20
202.59047564
  0
VERTEX
  8
0
 10
94.81332887
 20
199.92287592
  0
VERTEX
  8
0
 10
90.72124776
 20
183.86898231
  0
SEQEND
  0
POLYLINE
  8
Pen Holder.cdr (1)
 66
   1
 39
0.000000
 70
    1
  0
VERTEX
  8
0
 10
103.37132970
 20
104.15849064
  0
VERTEX
  8
0
 10
103.66316627
 20
103.88322867
  0
VERTEX
  8
0
 10
103.94056511
 20
103.59342822
  0
VERTEX
  8
0
 10
104.20292042
 20
103.28969321
  0
VERTEX
  8
0
 10
104.44962640
 20
102.97262759
  0
VERTEX
  8
0
 10
104.68007725
 20
102.64283531
  0
VERTEX
  8
0
 10
104.89366717
 20
102.30092030
  0
VERTEX
  8
0
 10
105.08979035
 20
101.94748652
  0
VERTEX
  8
0
 10
105.26784099
 20
101.58313790
  0
VERTEX
  8
0
 10
105.42721329
 20
101.20847838
  0
VERTEX
  8
0
 10
105.56730144
 20
100.82411191
  0
VERTEX
  8
0
 10
105.68749964
 20
100.43064243
  0
VERTEX
  8
0
 10
105.78720209
 20
100.02867388
  0
VERTEX
  8
0
 10
105.86580298
 20
99.61881021
  0
VERTEX
  8
0
 10
105.92269652
 20
99.20165535
  0
VERTEX
  8
0
 10
105.95727690
 20
98.77781326
  0
VERTEX
  8
0
 10
105.96893832
 20
98.34788786
  0
VERTEX
  8
0
 10
105.95342788
 20
97.85242188
  0
VERTEX
  8
0
 10
105.90752136
 20
97.36520056
  0
VERTEX
  8
0
 10
105.83215597
 20
96.88714292
  0
VERTEX
  8
0
 10
105.72826891
 20
96.41916797
  0
VERTEX
  8
0
 10
105.59679738
 20
95.96219472
  0
VERTEX
  8
0
 10
105.43867859
 20
95.51714220
  0
VERTEX
  8
0
 10
105.25484974
 20
95.08492941
  0
VERTEX
  8
0
 10
105.04624804
 20
94.66647536
  0
VERTEX
  8
0
 10
99.65993109
 20
100.05286286
  0
VERTEX
  8
0
 10
97.53843137
 20
97.93157481
  0
VERTEX
  8
0
 10
103.13581526
 20
92.33419092
  0
VERTEX
  8
0
 10
102.61245344
 20
91.93709812
  0
VERTEX
  8
0
 10
102.05594925
 20
91.58437884
  0
VERTEX
  8
0
 10
101.46894522
 20
91.27867519
  0
VERTEX
  8
0
 10
100.85408387
 20
91.02262929
  0
VERTEX
  8
0
 10
100.21400773
 20
90.81888324
  0
VERTEX
  8
0
 10
99.55135932
 20
90.67007916
  0
VERTEX
  8
0
 10
99.21239631
 20
90.61710602
  0
VERTEX
  8
0
 10
98.86878118
 20
90.57885916
  0
VERTEX
  8
0
 10
98.52084424
 20
90.55566886
  0
VERTEX
  8
0
 10
98.16891582
 20
90.54786536
  0
VERTEX
  8
0
 10
97.76759240
 20
90.55801649
  0
VERTEX
  8
0
 10
97.37153023
 20
90.58814290
  0
VERTEX
  8
0
 10
96.98121979
 20
90.63775418
  0
VERTEX
  8
0
 10
96.59715156
 20
90.70635987
  0
VERTEX
  8
0
 10
96.21981603
 20
90.79346956
  0
VERTEX
  8
0
 10
95.84970366
 20
90.89859279
  0
VERTEX
  8
0
 10
95.48730494
 20
91.02123914
  0
VERTEX
  8
0
 10
95.13311035
 20
91.16091818
  0
VERTEX
  8
0
 10
94.78761038
 20
91.31713945
  0
VERTEX
  8
0
 10
94.45129549
 20
91.48941254
  0
VERTEX
  8
0
 10
94.12465618
 20
91.67724701
  0
VERTEX
  8
0
 10
93.80818292
 20
91.88015241
  0
VERTEX
  8
0
 10
93.50236619
 20
92.09763832
  0
VERTEX
  8
0
 10
93.20769648
 20
92.32921431
  0
VERTEX
  8
0
 10
92.92466426
 20
92.57438992
  0
VERTEX
  8
0
 10
92.65376002
 20
92.83267474
  0
VERTEX
  8
0
 10
92.39547423
 20
93.10357832
  0
VERTEX
  8
0
 10
92.15029737
 20
93.38661023
  0
VERTEX
  8
0
 10
91.91871993
 20
93.68128003
  0
VERTEX
  8
0
 10
91.70123239
 20
93.98709730
  0
VERTEX
  8
0
 10
91.49832522
 20
94.30357158
  0
VERTEX
  8
0
 10
91.31048891
 20
94.63021246
  0
VERTEX
  8
0
 10
91.13821393
 20
94.96652949
  0
VERTEX
  8
0
 10
90.98199078
 20
95.31203224
  0
VERTEX
  8
0
 10
90.84230992
 20
95.66623027
  0
VERTEX
  8
0
 10
90.71966184
 20
96.02863315
  0
VERTEX
  8
0
 10
90.61453701
 20
96.39875044
  0
VERTEX
  8
0
 10
90.52742593
 20
96.77609171
  0
VERTEX
  8
0
 10
90.45881907
 20
97.16016652
  0
VERTEX
  8
0
 10
90.40920690
 20
97.55048444
  0
VERTEX
  8
0
 10
90.37907992
 20
97.94655503
  0
VERTEX
  8
0
 10
90.36892859
 20
98.34788786
  0
VERTEX
  8
0
 10
90.39181085
 20
98.85881661
  0
VERTEX
  8
0
 10
90.45338304
 20
99.57888277
  0
VERTEX
  8
0
 10
90.65014981
 20
101.36322064
  0
VERTEX
  8
0
 10
90.87433402
 20
103.13448810
  0
VERTEX
  8
0
 10
91.04104082
 20
104.32627175
  0
VERTEX
  8
0
 10
94.48612748
 20
126.74106620
  0
VERTEX
  8
0
 10
82.48734387
 20
148.95668231
  0
VERTEX
  8
0
 10
85.81372082
 20
160.48027425
  0
VERTEX
  8
0
 10
86.20947116
 20
160.60973637
  0
VERTEX
  8
0
 10
86.60758850
 20
160.72032609
  0
VERTEX
  8
0
 10
87.00495632
 20
160.80772147
  0
VERTEX
  8
0
 10
87.39845812
 20
160.86760055
  0
VERTEX
  8
0
 10
87.78497741
 20
160.89564136
  0
VERTEX
  8
0
 10
88.16139767
 20
160.88752195
  0
VERTEX
  8
0
 10
88.52460241
 20
160.83892036
  0
VERTEX
  8
0
 10
88.87147512
 20
160.74551463
  0
VERTEX
  8
0
 10
89.19889930
 20
160.60298281
  0
VERTEX
  8
0
 10
89.35434429
 20
160.51194400
  0
VERTEX
  8
0
 10
89.50375846
 20
160.40700293
  0
VERTEX
  8
0
 10
89.64675224
 20
160.28761935
  0
VERTEX
  8
0
 10
89.78293608
 20
160.15325303
  0
VERTEX
  8
0
 10
89.91192040
 20
160.00336372
  0
VERTEX
  8
0
 10
90.03331566
 20
159.83741117
  0
VERTEX
  8
0
 10
90.14673228
 20
159.65485513
  0
VERTEX
  8
0
 10
90.25178071
 20
159.45515537
  0
VERTEX
  8
0
 10
90.34807137
 20
159.23777163
  0
VERTEX
  8
0
 10
90.43521471
 20
159.00216368
  0
VERTEX
  8
0
 10
90.58050117
 20
158.47411415
  0
VERTEX
  8
0
 10
90.68452359
 20
157.86668481
  0
VERTEX
  8
0
 10
90.73304627
 20
157.39760313
  0
VERTEX
  8
0
 10
90.76086050
 20
156.92625952
  0
VERTEX
  8
0
 10
90.76953244
 20
156.45317597
  0
VERTEX
  8
0
 10
90.76062823
 20
155.97887446
  0
VERTEX
  8
0
 10
90.69635605
 20
155.02870548
  0
VERTEX
  8
0
 10
90.58057321
 20
154.07992845
  0
VERTEX
  8
0
 10
90.42580898
 20
153.13671926
  0
VERTEX
  8
0
 10
90.24459262
 20
152.20325375
  0
VERTEX
  8
0
 10
89.85292054
 20
150.38225731
  0
VERTEX
  8
0
 10
102.44574665
 20
133.98786259
  0
VERTEX
  8
0
 10
102.82985971
 20
133.46359778
  0
VERTEX
  8
0
 10
103.18565284
 20
132.92803139
  0
VERTEX
  8
0
 10
103.51309917
 20
132.38159280
  0
VERTEX
  8
0
 10
103.81217184
 20
131.82471138
  0
VERTEX
  8
0
 10
104.08284397
 20
131.25781652
  0
VERTEX
  8
0
 10
104.32508868
 20
130.68133759
  0
VERTEX
  8
0
 10
104.53887911
 20
130.09570397
  0
VERTEX
  8
0
 10
104.72418839
 20
129.50134505
  0
VERTEX
  8
0
 10
104.88098963
 20
128.89869020
  0
VERTEX
  8
0
 10
105.00925598
 20
128.28816880
  0
VERTEX
  8
0
 10
105.10896056
 20
127.67021023
  0
VERTEX
  8
0
 10
105.18007649
 20
127.04524387
  0
VERTEX
  8
0
 10
105.22257691
 20
126.41369911
  0
VERTEX
  8
0
 10
105.23643495
 20
125.77600531
  0
VERTEX
  8
0
 10
105.22162372
 20
125.13259186
  0
VERTEX
  8
0
 10
105.17811637
 20
124.48388814
  0
VERTEX
  8
0
 10
103.37132970
 20
104.15849064
  0
SEQEND
  0
POLYLINE
  8
Pen Holder.cdr (1)
 66
   1
 39
0.000000
 70
    1
  0
VERTEX
  8
0
 10
339.81372082
 20
149.80349009
  0
VERTEX
  8
0
 10
340.06816323
 20
149.42297536
  0
VERTEX
  8
0
 10
340.29448913
 20
149.01614907
  0
VERTEX
  8
0
 10
340.49090801
 20
148.58514895
  0
VERTEX
  8
0
 10
340.65562939
 20
148.13211276
  0
VERTEX
  8
0
 10
340.78686279
 20
147.65917825
  0
VERTEX
  8
0
 10
340.88281773
 20
147.16848317
  0
VERTEX
  8
0
 10
340.94170371
 20
146.66216527
  0
VERTEX
  8
0
 10
340.96173026
 20
146.14236231
  0
VERTEX
  8
0
 10
340.94648365
 20
145.68872006
  0
VERTEX
  8
0
 10
340.90153755
 20
145.24513983
  0
VERTEX
  8
0
 10
340.82808260
 20
144.81302515
  0
VERTEX
  8
0
 10
340.72730943
 20
144.39377956
  0
VERTEX
  8
0
 10
340.60040865
 20
143.98880659
  0
VERTEX
  8
0
 10
340.44857089
 20
143.59950977
  0
VERTEX
  8
0
 10
340.27298677
 20
143.22729263
  0
VERTEX
  8
0
 10
340.07484693
 20
142.87355870
  0
VERTEX
  8
0
 10
337.49914582
 20
146.55197259
  0
VERTEX
  8
0
 10
335.04173109
 20
144.83126370
  0
VERTEX
  8
0
 10
337.81071915
 20
140.87666009
  0
VERTEX
  8
0
 10
337.45646908
 20
140.75202315
  0
VERTEX
  8
0
 10
337.09110981
 20
140.66111727
  0
VERTEX
  8
0
 10
336.71583528
 20
140.60546052
  0
VERTEX
  8
0
 10
336.33183943
 20
140.58657092
  0
VERTEX
  8
0
 10
335.85852628
 20
140.61525898
  0
VERTEX
  8
0
 10
335.39887043
 20
140.69946029
  0
VERTEX
  8
0
 10
334.95520090
 20
140.83638055
  0
VERTEX
  8
0
 10
334.52984668
 20
141.02322547
  0
VERTEX
  8
0
 10
334.12513678
 20
141.25720074
  0
VERTEX
  8
0
 10
333.74340021
 20
141.53551207
  0
VERTEX
  8
0
 10
333.38696597
 20
141.85536514
  0
VERTEX
  8
0
 10
333.05816307
 20
142.21396568
  0
VERTEX
  8
0
 10
332.75932051
 20
142.60851936
  0
VERTEX
  8
0
 10
332.49276730
 20
143.03623190
  0
VERTEX
  8
0
 10
332.26083244
 20
143.49430900
  0
VERTEX
  8
0
 10
332.06584493
 20
143.97995635
  0
VERTEX
  8
0
 10
331.91013379
 20
144.49037965
  0
VERTEX
  8
0
 10
331.79602802
 20
145.02278462
  0
VERTEX
  8
0
 10
331.72585662
 20
145.57437693
  0
VERTEX
  8
0
 10
331.70194859
 20
146.14236231
  0
VERTEX
  8
0
 10
331.71317770
 20
146.50915103
  0
VERTEX
  8
0
 10
331.74617225
 20
146.88937656
  0
VERTEX
  8
0
 10
331.79989308
 20
147.28030386
  0
VERTEX
  8
0
 10
331.87330103
 20
147.67919791
  0
VERTEX
  8
0
 10
331.96535693
 20
148.08332368
  0
VERTEX
  8
0
 10
332.07502164
 20
148.48994615
  0
VERTEX
  8
0
 10
332.20125597
 20
148.89633028
  0
VERTEX
  8
0
 10
332.34302078
 20
149.29974106
  0
VERTEX
  8
0
 10
332.49927690
 20
149.69744345
  0
VERTEX
  8
0
 10
332.66898517
 20
150.08670243
  0
VERTEX
  8
0
 10
332.85110643
 20
150.46478297
  0
VERTEX
  8
0
 10
333.04460152
 20
150.82895004
  0
VERTEX
  8
0
 10
333.24843128
 20
151.17646862
  0
VERTEX
  8
0
 10
333.46155654
 20
151.50460368
  0
VERTEX
  8
0
 10
333.68293814
 20
151.81062020
  0
VERTEX
  8
0
 10
333.91153693
 20
152.09178314
  0
VERTEX
  8
0
 10
342.23571665
 20
161.70758814
  0
VERTEX
  8
0
 10
334.62912220
 20
180.43698370
  0
VERTEX
  8
0
 10
334.49161714
 20
180.81254321
  0
VERTEX
  8
0
 10
334.37371109
 20
181.21245933
  0
VERTEX
  8
0
 10
334.27621103
 20
181.63259715
  0
VERTEX
  8
0
 10
334.19992394
 20
182.06882180
  0
VERTEX
  8
0
 10
334.14565680
 20
182.51699838
  0
VERTEX
  8
0
 10
334.11421658
 20
182.97299200
  0
VERTEX
  8
0
 10
334.10641027
 20
183.43266778
  0
VERTEX
  8
0
 10
334.12304484
 20
183.89189081
  0
VERTEX
  8
0
 10
334.16492728
 20
184.34652623
  0
VERTEX
  8
0
 10
334.23286457
 20
184.79243912
  0
VERTEX
  8
0
 10
334.32766367
 20
185.22549461
  0
VERTEX
  8
0
 10
334.45013158
 20
185.64155780
  0
VERTEX
  8
0
 10
334.60107527
 20
186.03649380
  0
VERTEX
  8
0
 10
334.78130172
 20
186.40616773
  0
VERTEX
  8
0
 10
334.99161791
 20
186.74644470
  0
VERTEX
  8
0
 10
335.23283082
 20
187.05318981
  0
VERTEX
  8
0
 10
337.60462637
 20
181.96698092
  0
VERTEX
  8
0
 10
340.32362582
 20
183.23475842
  0
VERTEX
  8
0
 10
338.01434248
 20
188.18708814
  0
VERTEX
  8
0
 10
338.49017104
 20
188.19738950
  0
VERTEX
  8
0
 10
338.96283267
 20
188.16334323
  0
VERTEX
  8
0
 10
339.43040892
 20
188.08416287
  0
VERTEX
  8
0
 10
339.89098135
 20
187.95906196
  0
VERTEX
  8
0
 10
340.34263155
 20
187.78725402
  0
VERTEX
  8
0
 10
340.78344106
 20
187.56795260
  0
VERTEX
  8
0
 10
341.21149145
 20
187.30037123
  0
VERTEX
  8
0
 10
341.62486429
 20
186.98372345
  0
VERTEX
  8
0
 10
342.02164114
 20
186.61722280
  0
VERTEX
  8
0
 10
342.39990356
 20
186.20008281
  0
VERTEX
  8
0
 10
342.75773312
 20
185.73151702
  0
VERTEX
  8
0
 10
343.09321139
 20
185.21073896
  0
VERTEX
  8
0
 10
343.40441992
 20
184.63696218
  0
VERTEX
  8
0
 10
343.68944028
 20
184.00940020
  0
VERTEX
  8
0
 10
343.94635404
 20
183.32726656
  0
VERTEX
  8
0
 10
344.17324276
 20
182.58977481
  0
VERTEX
  8
0
 10
349.12461998
 20
164.64979009
  0
VERTEX
  8
0
 10
349.20782195
 20
164.31010444
  0
VERTEX
  8
0
 10
349.27285459
 20
163.96064042
  0
VERTEX
  8
0
 10
349.31944018
 20
163.60345977
  0
VERTEX
  8
0
 10
349.34730103
 20
163.24062421
  0
VERTEX
  8
0
 10
349.35615942
 20
162.87419549
  0
VERTEX
  8
0
 10
349.34573765
 20
162.50623534
  0
VERTEX
  8
0
 10
349.31575800
 20
162.13880550
  0
VERTEX
  8
0
 10
349.26594276
 20
161.77396769
  0
VERTEX
  8
0
 10
349.19601423
 20
161.41378365
  0
VERTEX
  8
0
 10
349.10569469
 20
161.06031513
  0
VERTEX
  8
0
 10
348.99470645
 20
160.71562384
  0
VERTEX
  8
0
 10
348.86277178
 20
160.38177153
  0
VERTEX
  8
0
 10
348.70961298
 20
160.06081993
  0
VERTEX
  8
0
 10
348.53495234
 20
159.75483078
  0
VERTEX
  8
0
 10
348.33851215
 20
159.46586581
  0
VERTEX
  8
0
 10
348.12001470
 20
159.19598675
  0
VERTEX
  8
0
 10
339.81372082
 20
149.80349009
  0
SEQEND
  0
POLYLINE
  8
Pen Holder.cdr (1)
 66
   1
 39
0.000000
 70
    1
  0
VERTEX
  8
0
 10
385.17783859
 20
242.46558286
  0
VERTEX
  8
0
 10
385.09964887
 20
242.12726570
  0
VERTEX
  8
0
 10
384.99284048
 20
241.79458106
  0
VERTEX
  8
0
 10
384.85920944
 20
241.46857922
  0
VERTEX
  8
0
 10
384.70055176
 20
241.15031045
  0
VERTEX
  8
0
 10
384.51866345
 20
240.84082502
  0
VERTEX
  8
0
 10
384.31534054
 20
240.54117320
  0
VERTEX
  8
0
 10
384.09237903
 20
240.25240526
  0
VERTEX
  8
0
 10
383.85157495
 20
239.97557147
  0
VERTEX
  8
0
 10
383.59472429
 20
239.71172212
  0
VERTEX
  8
0
 10
383.32362309
 20
239.46190746
  0
VERTEX
  8
0
 10
383.04006735
 20
239.22717778
  0
VERTEX
  8
0
 10
382.74585309
 20
239.00858333
  0
VERTEX
  8
0
 10
382.44277631
 20
238.80717440
  0
VERTEX
  8
0
 10
382.13263305
 20
238.62400126
  0
VERTEX
  8
0
 10
381.81721930
 20
238.46011417
  0
VERTEX
  8
0
 10
381.49833109
 20
238.31656342
  0
VERTEX
  8
0
 10
364.31163276
 20
231.17616481
  0
VERTEX
  8
0
 10
363.59076092
 20
230.90104958
  0
VERTEX
  8
0
 10
362.89503809
 20
230.68366912
  0
VERTEX
  8
0
 10
362.22502439
 20
230.52202768
  0
VERTEX
  8
0
 10
361.58127993
 20
230.41412953
  0
VERTEX
  8
0
 10
360.96436485
 20
230.35797892
  0
VERTEX
  8
0
 10
360.37483926
 20
230.35158010
  0
VERTEX
  8
0
 10
359.81326328
 20
230.39293734
  0
VERTEX
  8
0
 10
359.28019703
 20
230.48005488
  0
VERTEX
  8
0
 10
358.77620064
 20
230.61093698
  0
VERTEX
  8
0
 10
358.30183422
 20
230.78358791
  0
VERTEX
  8
0
 10
357.85765789
 20
230.99601191
  0
VERTEX
  8
0
 10
357.44423178
 20
231.24621325
  0
VERTEX
  8
0
 10
357.06211601
 20
231.53219617
  0
VERTEX
  8
0
 10
356.71187070
 20
231.85196494
  0
VERTEX
  8
0
 10
356.39405596
 20
232.20352380
  0
VERTEX
  8
0
 10
356.10923193
 20
232.58487703
  0
VERTEX
  8
0
 10
361.43391859
 20
233.81317870
  0
VERTEX
  8
0
 10
360.75923109
 20
236.73618953
  0
VERTEX
  8
0
 10
355.29114026
 20
235.47469147
  0
VERTEX
  8
0
 10
355.38441420
 20
235.85364206
  0
VERTEX
  8
0
 10
355.52313058
 20
236.22887524
  0
VERTEX
  8
0
 10
355.70353424
 20
236.59848272
  0
VERTEX
  8
0
 10
355.92187000
 20
236.96055620
  0
VERTEX
  8
0
 10
356.17438269
 20
237.31318735
  0
VERTEX
  8
0
 10
356.45731714
 20
237.65446788
  0
VERTEX
  8
0
 10
356.76691818
 20
237.98248948
  0
VERTEX
  8
0
 10
357.09943064
 20
238.29534384
  0
VERTEX
  8
0
 10
357.45109935
 20
238.59112265
  0
VERTEX
  8
0
 10
357.81816913
 20
238.86791760
  0
VERTEX
  8
0
 10
358.19688482
 20
239.12382040
  0
VERTEX
  8
0
 10
358.58349124
 20
239.35692272
  0
VERTEX
  8
0
 10
358.97423322
 20
239.56531627
  0
VERTEX
  8
0
 10
359.36535559
 20
239.74709274
  0
VERTEX
  8
0
 10
359.75310318
 20
239.90034382
  0
VERTEX
  8
0
 10
360.13372082
 20
240.02316120
  0
VERTEX
  8
0
 10
379.57622137
 20
245.55697453
  0
VERTEX
  8
0
 10
382.03091970
 20
258.03638259
  0
VERTEX
  8
0
 10
382.11180235
 20
258.38955900
  0
VERTEX
  8
0
 10
382.21671618
 20
258.75235866
  0
VERTEX
  8
0
 10
382.34414524
 20
259.12227778
  0
VERTEX
  8
0
 10
382.49257352
 20
259.49681258
  0
VERTEX
  8
0
 10
382.66048507
 20
259.87345930
  0
VERTEX
  8
0
 10
382.84636388
 20
260.24971415
  0
VERTEX
  8
0
 10
383.04869400
 20
260.62307337
  0
VERTEX
  8
0
 10
383.26595943
 20
260.99103318
  0
VERTEX
  8
0
 10
383.49664419
 20
261.35108979
  0
VERTEX
  8
0
 10
383.73923231
 20
261.70073945
  0
VERTEX
  8
0
 10
383.99220781
 20
262.03747837
  0
VERTEX
  8
0
 10
384.25405470
 20
262.35880278
  0
VERTEX
  8
0
 10
384.52325702
 20
262.66220890
  0
VERTEX
  8
0
 10
384.79829876
 20
262.94519297
  0
VERTEX
  8
0
 10
385.07766397
 20
263.20525119
  0
VERTEX
  8
0
 10
385.35983665
 20
263.43987981
  0
VERTEX
  8
0
 10
385.82220160
 20
263.77062069
  0
VERTEX
  8
0
 10
386.30011944
 20
264.05481557
  0
VERTEX
  8
0
 10
386.78995502
 20
264.29257939
  0
VERTEX
  8
0
 10
387.28807313
 20
264.48402706
  0
VERTEX
  8
0
 10
387.79083861
 20
264.62927353
  0
VERTEX
  8
0
 10
388.29461627
 20
264.72843371
  0
VERTEX
  8
0
 10
388.79577095
 20
264.78162254
  0
VERTEX
  8
0
 10
389.29066745
 20
264.78895495
  0
VERTEX
  8
0
 10
389.77567060
 20
264.75054585
  0
VERTEX
  8
0
 10
390.24714522
 20
264.66651019
  0
VERTEX
  8
0
 10
390.70145614
 20
264.53696289
  0
VERTEX
  8
0
 10
391.13496817
 20
264.36201887
  0
VERTEX
  8
0
 10
391.54404614
 20
264.14179307
  0
VERTEX
  8
0
 10
391.92505486
 20
263.87640042
  0
VERTEX
  8
0
 10
392.27435917
 20
263.56595583
  0
VERTEX
  8
0
 10
392.58832387
 20
263.21057425
  0
VERTEX
  8
0
 10
392.80967043
 20
262.89644218
  0
VERTEX
  8
0
 10
392.99670384
 20
262.56650786
  0
VERTEX
  8
0
 10
393.14987719
 20
262.22260355
  0
VERTEX
  8
0
 10
393.26964359
 20
261.86656147
  0
VERTEX
  8
0
 10
388.44844137
 20
261.61467814
  0
VERTEX
  8
0
 10
388.60514526
 20
258.61888925
  0
VERTEX
  8
0
 10
393.08972693
 20
258.85288675
  0
VERTEX
  8
0
 10
392.93291955
 20
258.47902830
  0
VERTEX
  8
0
 10
392.74767029
 20
258.11153307
  0
VERTEX
  8
0
 10
392.53434377
 20
257.75221347
  0
VERTEX
  8
0
 10
392.29330464
 20
257.40288189
  0
VERTEX
  8
0
 10
392.02491750
 20
257.06535073
  0
VERTEX
  8
0
 10
391.72954700
 20
256.74143238
  0
VERTEX
  8
0
 10
391.40755777
 20
256.43293923
  0
VERTEX
  8
0
 10
391.05931443
 20
256.14168370
  0
VERTEX
  8
0
 10
390.63736561
 20
255.83767111
  0
VERTEX
  8
0
 10
390.20210742
 20
255.57253408
  0
VERTEX
  8
0
 10
389.75633039
 20
255.34618497
  0
VERTEX
  8
0
 10
389.30282505
 20
255.15853613
  0
VERTEX
  8
0
 10
388.84438192
 20
255.00949992
  0
VERTEX
  8
0
 10
388.38379154
 20
254.89898870
  0
VERTEX
  8
0
 10
387.92384442
 20
254.82691482
  0
VERTEX
  8
0
 10
387.46733109
 20
254.79319064
  0
VERTEX
  8
0
 10
385.17783859
 20
242.46558286
  0
SEQEND
  0
POLYLINE
  8
Pen Holder.cdr (1)
 66
   1
 39
0.000000
 70
    1
  0
VERTEX
  8
0
 10
348.58412915
 20
235.16078981
  0
VERTEX
  8
0
 10
348.93340120
 20
232.25674960
  0
VERTEX
  8
0
 10
349.12617606
 20
230.48858879
  0
VERTEX
  8
0
 10
349.18755189
 20
229.78905650
  0
VERTEX
  8
0
 10
349.21052137
 20
229.31296897
  0
VERTEX
  8
0
 10
349.19756025
 20
228.89620633
  0
VERTEX
  8
0
 10
349.15932862
 20
228.48490775
  0
VERTEX
  8
0
 10
349.09680410
 20
228.07958255
  0
VERTEX
  8
0
 10
349.01096428
 20
227.68074006
  0
VERTEX
  8
0
 10
348.90278679
 20
227.28888959
  0
VERTEX
  8
0
 10
348.77324922
 20
226.90454048
  0
VERTEX
  8
0
 10
348.62332919
 20
226.52820204
  0
VERTEX
  8
0
 10
348.45400431
 20
226.16038359
  0
VERTEX
  8
0
 10
348.26625218
 20
225.80159447
  0
VERTEX
  8
0
 10
348.06105041
 20
225.45234399
  0
VERTEX
  8
0
 10
347.83937660
 20
225.11314147
  0
VERTEX
  8
0
 10
347.60220838
 20
224.78449624
  0
VERTEX
  8
0
 10
347.35052334
 20
224.46691762
  0
VERTEX
  8
0
 10
347.08529909
 20
224.16091494
  0
VERTEX
  8
0
 10
346.80751325
 20
223.86699751
  0
VERTEX
  8
0
 10
346.51814342
 20
223.58567467
  0
VERTEX
  8
0
 10
346.21816721
 20
223.31745573
  0
VERTEX
  8
0
 10
345.90856222
 20
223.06285001
  0
VERTEX
  8
0
 10
345.59030607
 20
222.82236684
  0
VERTEX
  8
0
 10
345.26437637
 20
222.59651555
  0
VERTEX
  8
0
 10
344.93175071
 20
222.38580544
  0
VERTEX
  8
0
 10
344.59340672
 20
222.19074586
  0
VERTEX
  8
0
 10
344.25032199
 20
222.01184612
  0
VERTEX
  8
0
 10
343.90347414
 20
221.84961554
  0
VERTEX
  8
0
 10
343.55384078
 20
221.70456344
  0
VERTEX
  8
0
 10
343.20239951
 20
221.57719916
  0
VERTEX
  8
0
 10
342.85012795
 20
221.46803201
  0
VERTEX
  8
0
 10
342.49800369
 20
221.37757131
  0
VERTEX
  8
0
 10
342.14700435
 20
221.30632639
  0
VERTEX
  8
0
 10
341.79810754
 20
221.25480657
  0
VERTEX
  8
0
 10
341.45229086
 20
221.22352118
  0
VERTEX
  8
0
 10
341.11053193
 20
221.21297953
  0
VERTEX
  8
0
 10
340.45506071
 20
221.22910256
  0
VERTEX
  8
0
 10
339.84436914
 20
221.27682666
  0
VERTEX
  8
0
 10
339.27567470
 20
221.35518434
  0
VERTEX
  8
0
 10
338.74619487
 20
221.46320811
  0
VERTEX
  8
0
 10
338.25314712
 20
221.59993050
  0
VERTEX
  8
0
 10
337.79374895
 20
221.76438401
  0
VERTEX
  8
0
 10
337.36521784
 20
221.95560116
  0
VERTEX
  8
0
 10
336.96477127
 20
222.17261446
  0
VERTEX
  8
0
 10
336.58962671
 20
222.41445643
  0
VERTEX
  8
0
 10
336.23700167
 20
222.68015957
  0
VERTEX
  8
0
 10
335.90411361
 20
222.96875641
  0
VERTEX
  8
0
 10
335.58818001
 20
223.27927945
  0
VERTEX
  8
0
 10
335.28641837
 20
223.61076122
  0
VERTEX
  8
0
 10
334.99604616
 20
223.96223422
  0
VERTEX
  8
0
 10
334.71428087
 20
224.33273096
  0
VERTEX
  8
0
 10
334.43833998
 20
224.72128397
  0
VERTEX
  8
0
 10
341.28452193
 20
228.67387675
  0
VERTEX
  8
0
 10
339.78472248
 20
231.27197925
  0
VERTEX
  8
0
 10
333.21903415
 20
227.48127620
  0
VERTEX
  8
0
 10
333.12899479
 20
227.92720550
  0
VERTEX
  8
0
 10
333.06371050
 20
228.38160477
  0
VERTEX
  8
0
 10
333.02396513
 20
228.84376295
  0
VERTEX
  8
0
 10
333.01054248
 20
229.31296897
  0
VERTEX
  8
0
 10
333.03152074
 20
229.90021369
  0
VERTEX
  8
0
 10
333.09349680
 20
230.47613305
  0
VERTEX
  8
0
 10
333.19503262
 20
231.03929050
  0
VERTEX
  8
0
 10
333.33469014
 20
231.58824949
  0
VERTEX
  8
0
 10
333.51103131
 20
232.12157347
  0
VERTEX
  8
0
 10
333.72261809
 20
232.63782587
  0
VERTEX
  8
0
 10
333.96801241
 20
233.13557016
  0
VERTEX
  8
0
 10
334.24577623
 20
233.61336977
  0
VERTEX
  8
0
 10
334.55447150
 20
234.06978816
  0
VERTEX
  8
0
 10
334.89266016
 20
234.50338876
  0
VERTEX
  8
0
 10
335.25890416
 20
234.91273503
  0
VERTEX
  8
0
 10
335.65176545
 20
235.29639042
  0
VERTEX
  8
0
 10
336.06980598
 20
235.65291836
  0
VERTEX
  8
0
 10
336.51158770
 20
235.98088232
  0
VERTEX
  8
0
 10
336.97567255
 20
236.27884572
  0
VERTEX
  8
0
 10
337.46062248
 20
236.54537203
  0
VERTEX
  8
0
 10
336.54862137
 20
257.65217231
  0
VERTEX
  8
0
 10
336.54635317
 20
257.93468647
  0
VERTEX
  8
0
 10
336.56308810
 20
258.22512410
  0
VERTEX
  8
0
 10
336.59813895
 20
258.52220797
  0
VERTEX
  8
0
 10
336.65081848
 20
258.82466088
  0
VERTEX
  8
0
 10
336.72043945
 20
259.13120560
  0
VERTEX
  8
0
 10
336.80631463
 20
259.44056493
  0
VERTEX
  8
0
 10
337.02407872
 20
260.06261853
  0
VERTEX
  8
0
 10
337.29861289
 20
260.68060395
  0
VERTEX
  8
0
 10
337.62441927
 20
261.28430347
  0
VERTEX
  8
0
 10
337.99600002
 20
261.86349938
  0
VERTEX
  8
0
 10
338.40785727
 20
262.40797394
  0
VERTEX
  8
0
 10
338.85449318
 20
262.90750943
  0
VERTEX
  8
0
 10
339.08913505
 20
263.13723199
  0
VERTEX
  8
0
 10
339.33040989
 20
263.35188814
  0
VERTEX
  8
0
 10
339.57763046
 20
263.55020066
  0
VERTEX
  8
0
 10
339.83010953
 20
263.73089234
  0
VERTEX
  8
0
 10
340.08715988
 20
263.89268596
  0
VERTEX
  8
0
 10
340.34809426
 20
264.03430430
  0
VERTEX
  8
0
 10
340.61222545
 20
264.15447016
  0
VERTEX
  8
0
 10
340.87886622
 20
264.25190631
  0
VERTEX
  8
0
 10
341.14732933
 20
264.32533554
  0
VERTEX
  8
0
 10
341.41692756
 20
264.37348063
  0
VERTEX
  8
0
 10
341.68697366
 20
264.39506438
  0
VERTEX
  8
0
 10
341.95678041
 20
264.38880956
  0
VERTEX
  8
0
 10
342.22566058
 20
264.35343896
  0
VERTEX
  8
0
 10
342.49292693
 20
264.28767536
  0
VERTEX
  8
0
 10
364.19662720
 20
257.65217231
  0
VERTEX
  8
0
 10
364.40152729
 20
258.92929091
  0
VERTEX
  8
0
 10
364.52351438
 20
259.58492201
  0
VERTEX
  8
0
 10
364.66596607
 20
260.23897434
  0
VERTEX
  8
0
 10
364.83446226
 20
260.88172794
  0
VERTEX
  8
0
 10
365.03458288
 20
261.50346281
  0
VERTEX
  8
0
 10
365.27190784
 20
262.09445899
  0
VERTEX
  8
0
 10
365.40626568
 20
262.37539258
  0
VERTEX
  8
0
 10
365.55201707
 20
262.64499651
  0
VERTEX
  8
0
 10
365.70985950
 20
262.90205577
  0
VERTEX
  8
0
 10
365.88049047
 20
263.14535538
  0
VERTEX
  8
0
 10
366.06460746
 20
263.37368034
  0
VERTEX
  8
0
 10
366.26290797
 20
263.58581564
  0
VERTEX
  8
0
 10
366.47608948
 20
263.78054629
  0
VERTEX
  8
0
 10
366.70484949
 20
263.95665730
  0
VERTEX
  8
0
 10
366.94988548
 20
264.11293367
  0
VERTEX
  8
0
 10
367.21189494
 20
264.24816039
  0
VERTEX
  8
0
 10
367.49157536
 20
264.36112249
  0
VERTEX
  8
0
 10
367.78962424
 20
264.45060494
  0
VERTEX
  8
0
 10
368.10673906
 20
264.51539277
  0
VERTEX
  8
0
 10
368.44361731
 20
264.55427098
  0
VERTEX
  8
0
 10
368.80095648
 20
264.56602456
  0
VERTEX
  8
0
 10
369.17945407
 20
264.54943852
  0
VERTEX
  8
0
 10
369.57980755
 20
264.50329786
  0
VERTEX
  8
0
 10
370.00271443
 20
264.42638759
  0
VERTEX
  8
0
 10
370.00271443
 20
247.83708314
  0
VERTEX
  8
0
 10
346.64014720
 20
252.39906425
  0
VERTEX
  8
0
 10
348.58412915
 20
235.16078981
  0
SEQEND
  0
ENDSEC
  0
EOF
