  0
SECTION
  2
HEADER
  9
$ACADVER
  1
AC1009
  9
$LIMMIN
 10
0.000000
 20
0.000000
  9
$LIMMAX
 10
75.007025
 20
51.989468
  0
ENDSEC
  0
SECTION
  2
TABLES
  0
TABLE
  2
LTYPE
 70
     4
  0
LTYPE
  2
CONTINUOUS
 70
     0
  3
Solid line
 72
     65
 73
     0
 40
0.000000
  0
LTYPE
  2
HIDDEN
 70
     0
  3
 _ _ _ _ _ _ _ _ _ _ _
 72
     65
 73
     2
 40
0.375000
 49
0.250000
 49
-0.125000
  0
LTYPE
  2
DASHED
 70
     0
  3
 ___ ___ ___ ___ ___ ___ ___ 
 72
     65
 73
     2
 40
0.750000
 49
0.500000
 49
-0.250000
  0
LTYPE
  2
CENTER
 70
     0
  3
___ _ ___ _ ___ _ ___
 72
     65
 73
     4
 40
2.000000
 49
1.250000
 49
-0.250000
 49
0.250000
 49
-0.250000
  0
LTYPE
  2
BORDER
 70
     0
  3
___ ___ . ___ ___ . ___ ___
 72
     65
 73
     6
 40
1.750000
 49
0.500000
 49
-0.250000
 49
0.500000
 49
-0.250000
 49
0.000000
 49
-0.250000
  0
LTYPE
  2
DOT
 70
     0
  3
.................
 72
     65
 73
     2
 40
0.250000
 49
0.000000
 49
-0.250000
  0
LTYPE
  2
DASHDOT
 70
     0
  3
__ . __ . __ . __
 72
     65
 73
     4
 40
1.000000
 49
0.500000
 49
-0.250000
 49
0.000000
 49
-0.250000
  0
LTYPE
  2
DIVIDE
 70
     0
  3
___ .. ___ .. ___ .. ___
 72
     65
 73
     6
 40
1.250000
 49
0.500000
 49
-0.250000
 49
0.000000
 49
-0.250000
 49
0.000000
 49
-0.250000
  0
ENDTAB
  0
TABLE
  2
LAYER
 70
     8
  0
LAYER
  2
BLACK
 70
     0
 62
     1
  6
CONTINUOUS
  0
LAYER
  2
WHITE
 70
     0
 62
     7
  6
CONTINUOUS
  0
LAYER
  2
RED
 70
     0
 62
     1
  6
CONTINUOUS
  0
LAYER
  2
YELLOW
 70
     0
 62
     2
  6
CONTINUOUS
  0
LAYER
  2
GREEN
 70
     0
 62
     3
  6
CONTINUOUS
  0
LAYER
  2
CYAN
 70
     0
 62
     4
  6
CONTINUOUS
  0
LAYER
  2
BLUE
 70
     0
 62
     5
  6
CONTINUOUS
  0
LAYER
  2
MAGENTA
 70
     0
 62
     6
  6
CONTINUOUS
  0
ENDTAB
  0
ENDSEC
  0
SECTION
  2
BLOCKS
  0
ENDSEC
  0
SECTION
  2
ENTITIES
  0
ARC
  8
WHITE
 10
42.247479
 20
-7.328872
 30
0.000000
 40
55.705684
 50
100.304433
 51
138.108923
  6
CONTINUOUS
  0
ARC
  8
WHITE
 10
18.049278
 20
24.620374
 30
0.000000
 40
18.049278
 50
163.101987
 51
221.373903
  6
CONTINUOUS
  0
ARC
  8
WHITE
 10
29.574157
 20
31.490478
 30
0.000000
 40
31.335505
 50
-143.132765
 51
-122.117332
  6
CONTINUOUS
  0
ARC
  8
WHITE
 10
30.981860
 20
35.444507
 30
0.000000
 40
35.444507
 50
-120.646310
 51
-63.817474
  6
CONTINUOUS
  0
ARC
  8
WHITE
 10
24.614636
 20
37.873635
 30
0.000000
 40
40.699415
 50
-57.268181
 51
-39.118350
  6
CONTINUOUS
  0
ARC
  8
WHITE
 10
29.815046
 20
25.269050
 30
0.000000
 40
29.438312
 50
-26.366013
 51
15.155936
  6
CONTINUOUS
  0
ARC
  8
WHITE
 10
59.106901
 20
33.203286
 30
0.000000
 40
0.909091
 50
124.188661
 51
195.155936
  6
CONTINUOUS
  0
ARC
  8
WHITE
 10
79.512930
 20
6.805305
 30
0.000000
 40
34.272968
 50
120.765956
 51
127.611352
  6
CONTINUOUS
  0
ARC
  8
WHITE
 10
76.514037
 20
10.091903
 30
0.000000
 40
29.928286
 50
97.300691
 51
119.051056
  6
CONTINUOUS
  0
ARC
  8
WHITE
 10
72.520238
 20
41.265397
 30
0.000000
 40
1.500000
 50
-82.699309
 51
-21.838018
  6
CONTINUOUS
  0
ARC
  8
WHITE
 10
59.755991
 20
46.380563
 30
0.000000
 40
15.251034
 50
-21.838033
 51
10.129216
  6
CONTINUOUS
  0
ARC
  8
WHITE
 10
71.593285
 20
48.802819
 30
0.000000
 40
3.186649
 50
4.678611
 51
175.611738
  6
CONTINUOUS
  0
ARC
  8
WHITE
 10
60.358989
 20
48.062166
 30
0.000000
 40
8.116912
 50
-83.018471
 51
6.966405
  6
CONTINUOUS
  0
ARC
  8
WHITE
 10
49.459828
 20
130.723638
 30
0.000000
 40
91.493515
 50
-86.448998
 51
-82.535707
  6
CONTINUOUS
  0
ARC
  8
WHITE
 10
55.039410
 20
40.310679
 30
0.000000
 40
0.909091
 50
-135.883572
 51
-84.492352
  6
CONTINUOUS
  0
ARC
  8
WHITE
 10
35.493465
 20
21.358455
 30
0.000000
 40
26.316463
 50
44.116452
 51
97.007362
  6
CONTINUOUS
  0
LINE
  8
WHITE
 10
49.522769
 20
26.955921
 30
0.000000
 11
49.522769
 21
18.955921
 31
0.000000
  6
CONTINUOUS
  0
LINE
  8
WHITE
 10
49.522769
 20
18.955921
 30
0.000000
 11
21.062080
 21
18.955921
 31
0.000000
  6
CONTINUOUS
  0
LINE
  8
WHITE
 10
21.062080
 20
18.955921
 30
0.000000
 11
21.062080
 21
26.955921
 31
0.000000
  6
CONTINUOUS
  0
LINE
  8
WHITE
 10
21.062080
 20
26.955921
 30
0.000000
 11
49.522769
 21
26.955921
 31
0.000000
  6
CONTINUOUS
  0
ARC
  8
WHITE
 10
39.903182
 20
38.390310
 30
0.000000
 40
7.692008
 50
-138.615795
 51
-123.024216
  6
CONTINUOUS
  0
ARC
  8
WHITE
 10
40.336155
 20
39.056413
 30
0.000000
 40
8.486463
 50
-123.024218
 51
-93.830401
  6
CONTINUOUS
  0
ARC
  8
WHITE
 10
40.283082
 20
38.263733
 30
0.000000
 40
7.692008
 50
-93.830395
 51
-78.238822
  6
CONTINUOUS
  0
ARC
  8
WHITE
 10
40.534979
 20
37.053876
 30
0.000000
 40
6.456206
 50
-78.238823
 51
-60.695221
  6
CONTINUOUS
  0
ARC
  8
WHITE
 10
41.109608
 20
36.030100
 30
0.000000
 40
5.282190
 50
-60.695225
 51
-40.589784
  6
CONTINUOUS
  0
ARC
  8
WHITE
 10
41.639122
 20
35.576415
 30
0.000000
 40
4.584899
 50
-40.589781
 51
3.732348
  6
CONTINUOUS
  0
ARC
  8
WHITE
 10
40.943235
 20
35.530759
 30
0.000000
 40
5.282190
 50
3.735167
 51
23.840604
  6
CONTINUOUS
  0
ARC
  8
WHITE
 10
39.869393
 20
35.056229
 30
0.000000
 40
6.456207
 50
23.840603
 51
41.384205
  6
CONTINUOUS
  0
ARC
  8
WHITE
 10
38.942179
 20
34.239235
 30
0.000000
 40
7.692008
 50
41.384200
 51
56.975784
  6
CONTINUOUS
  0
ARC
  8
WHITE
 10
38.509207
 20
33.573132
 30
0.000000
 40
8.486463
 50
56.975788
 51
86.169599
  6
CONTINUOUS
  0
ARC
  8
WHITE
 10
38.562279
 20
34.365812
 30
0.000000
 40
7.692008
 50
86.169597
 51
101.761178
  6
CONTINUOUS
  0
ARC
  8
WHITE
 10
38.310382
 20
35.575669
 30
0.000000
 40
6.456206
 50
101.761177
 51
119.304779
  6
CONTINUOUS
  0
ARC
  8
WHITE
 10
37.735754
 20
36.599445
 30
0.000000
 40
5.282191
 50
119.304785
 51
139.410216
  6
CONTINUOUS
  0
ARC
  8
WHITE
 10
37.206158
 20
37.053176
 30
0.000000
 40
4.584807
 50
139.409989
 51
183.733001
  6
CONTINUOUS
  0
ARC
  8
WHITE
 10
37.902126
 20
37.098785
 30
0.000000
 40
5.282189
 50
-176.264832
 51
-156.159396
  6
CONTINUOUS
  0
ARC
  8
WHITE
 10
38.975968
 20
37.573315
 30
0.000000
 40
6.456207
 50
-156.159397
 51
-138.615795
  6
CONTINUOUS
  0
CIRCLE
  8
WHITE
 10
34.021200
 20
9.290786
 30
0.000000
 40
5.529207
  6
CONTINUOUS
  0
ARC
  8
WHITE
 10
21.547770
 20
6.592382
 30
0.000000
 40
9.157995
 50
102.100146
 51
155.423336
  6
CONTINUOUS
  0
ARC
  8
WHITE
 10
23.719256
 20
22.964107
 30
0.000000
 40
16.372862
 50
-129.888376
 51
-97.351703
  6
CONTINUOUS
  0
ARC
  8
WHITE
 10
19.242890
 20
10.866499
 30
0.000000
 40
4.776572
 50
-60.096705
 51
42.227731
  6
CONTINUOUS
  0
ARC
  8
WHITE
 10
20.376651
 20
13.038246
 30
0.000000
 40
2.617974
 50
23.370532
 51
106.615185
  6
CONTINUOUS
  0
ARC
  8
WHITE
 10
6.869825
 20
23.449724
 30
0.000000
 40
3.465606
 50
-80.416637
 51
-65.317268
  6
CONTINUOUS
  0
ARC
  8
WHITE
 10
6.695020
 20
23.830079
 30
0.000000
 40
3.884207
 50
-65.317267
 51
-37.338294
  6
CONTINUOUS
  0
ARC
  8
WHITE
 10
7.027836
 20
23.576189
 30
0.000000
 40
3.465605
 50
-37.338288
 51
-22.238925
  6
CONTINUOUS
  0
ARC
  8
WHITE
 10
7.626174
 20
23.331538
 30
0.000000
 40
2.819183
 50
-22.238935
 51
-4.890815
  6
CONTINUOUS
  0
ARC
  8
WHITE
 10
8.231559
 20
23.279735
 30
0.000000
 40
2.211586
 50
-4.890790
 51
15.565015
  6
CONTINUOUS
  0
ARC
  8
WHITE
 10
8.576296
 20
23.375761
 30
0.000000
 40
1.853725
 50
15.564998
 51
61.772452
  6
CONTINUOUS
  0
ARC
  8
WHITE
 10
8.407228
 20
23.060246
 30
0.000000
 40
2.211586
 50
61.779414
 51
82.235252
  6
CONTINUOUS
  0
ARC
  8
WHITE
 10
8.325138
 20
22.458220
 30
0.000000
 40
2.819183
 50
82.235252
 51
99.583363
  6
CONTINUOUS
  0
ARC
  8
WHITE
 10
8.432757
 20
21.820818
 30
0.000000
 40
3.465606
 50
99.583377
 51
114.682732
  6
CONTINUOUS
  0
ARC
  8
WHITE
 10
8.607561
 20
21.440463
 30
0.000000
 40
3.884206
 50
114.682720
 51
142.661706
  6
CONTINUOUS
  0
ARC
  8
WHITE
 10
8.274745
 20
21.694353
 30
0.000000
 40
3.465605
 50
142.661712
 51
157.761075
  6
CONTINUOUS
  0
ARC
  8
WHITE
 10
7.676407
 20
21.939004
 30
0.000000
 40
2.819183
 50
157.761065
 51
175.109185
  6
CONTINUOUS
  0
ARC
  8
WHITE
 10
7.071022
 20
21.990807
 30
0.000000
 40
2.211586
 50
175.109210
 51
195.565015
  6
CONTINUOUS
  0
ARC
  8
WHITE
 10
6.726198
 20
21.894736
 30
0.000000
 40
1.853629
 50
-164.435620
 51
-118.225824
  6
CONTINUOUS
  0
ARC
  8
WHITE
 10
6.895353
 20
22.210296
 30
0.000000
 40
2.211586
 50
-118.220575
 51
-97.764748
  6
CONTINUOUS
  0
ARC
  8
WHITE
 10
6.977443
 20
22.812322
 30
0.000000
 40
2.819183
 50
-97.764748
 51
-80.416635
  6
CONTINUOUS
  0
ARC
  8
WHITE
 10
16.415689
 20
34.270372
 30
0.000000
 40
1.495788
 50
111.119818
 51
137.062407
  6
CONTINUOUS
  0
ARC
  8
WHITE
 10
16.416410
 20
34.271147
 30
0.000000
 40
1.495788
 50
137.102963
 51
163.045574
  6
CONTINUOUS
  0
ARC
  8
WHITE
 10
16.892243
 20
34.125900
 30
0.000000
 40
1.993296
 50
163.040504
 51
184.291323
  6
CONTINUOUS
  0
ARC
  8
WHITE
 10
17.755789
 20
34.190699
 30
0.000000
 40
2.859269
 50
-175.708674
 51
-159.064874
  6
CONTINUOUS
  0
ARC
  8
WHITE
 10
18.642317
 20
34.529854
 30
0.000000
 40
3.808457
 50
-159.064874
 51
-145.328124
  6
CONTINUOUS
  0
ARC
  8
WHITE
 10
19.157380
 20
34.886126
 30
0.000000
 40
4.434732
 50
-145.328131
 51
-120.506442
  6
CONTINUOUS
  0
ARC
  8
WHITE
 10
18.839461
 20
34.346546
 30
0.000000
 40
3.808458
 50
-120.506437
 51
-106.769692
  6
CONTINUOUS
  0
ARC
  8
WHITE
 10
18.565596
 20
33.437725
 30
0.000000
 40
2.859270
 50
-106.769687
 51
-90.125889
  6
CONTINUOUS
  0
ARC
  8
WHITE
 10
18.563693
 20
32.571753
 30
0.000000
 40
1.993295
 50
-90.125880
 51
-68.875058
  6
CONTINUOUS
  0
ARC
  8
WHITE
 10
18.742787
 20
32.108222
 30
0.000000
 40
1.496369
 50
-68.875072
 51
-42.942718
  6
CONTINUOUS
  0
ARC
  8
WHITE
 10
18.741883
 20
32.107249
 30
0.000000
 40
1.496369
 50
-42.891859
 51
-16.959542
  6
CONTINUOUS
  0
ARC
  8
WHITE
 10
18.266567
 20
32.252200
 30
0.000000
 40
1.993295
 50
-16.959517
 51
4.291323
  6
CONTINUOUS
  0
ARC
  8
WHITE
 10
17.403021
 20
32.187401
 30
0.000000
 40
2.859269
 50
4.291326
 51
20.935126
  6
CONTINUOUS
  0
ARC
  8
WHITE
 10
16.516492
 20
31.848246
 30
0.000000
 40
3.808458
 50
20.935120
 51
34.671876
  6
CONTINUOUS
  0
ARC
  8
WHITE
 10
16.001430
 20
31.491974
 30
0.000000
 40
4.434732
 50
34.671877
 51
59.493558
  6
CONTINUOUS
  0
ARC
  8
WHITE
 10
16.319349
 20
32.031554
 30
0.000000
 40
3.808458
 50
59.493563
 51
73.230308
  6
CONTINUOUS
  0
ARC
  8
WHITE
 10
16.593214
 20
32.940376
 30
0.000000
 40
2.859269
 50
73.230307
 51
89.874111
  6
CONTINUOUS
  0
ARC
  8
WHITE
 10
16.595116
 20
33.806347
 30
0.000000
 40
1.993296
 50
89.874091
 51
111.124919
  6
CONTINUOUS
  0
CIRCLE
  8
WHITE
 10
49.780108
 20
13.596308
 30
0.000000
 40
1.861591
  6
CONTINUOUS
  0
ENDSEC
  0
EOF
