  0
SECTION
  2
HEADER
  9
$ACADVER
  1
AC1015
  9
$ACADMAINTVER
 70
    20
  9
$DWGCODEPAGE
  3
ANSI_1250
  9
$INSBASE
 10
0.0
 20
0.0
 30
0.0
  9
$EXTMIN
 10
-0.0472684546402888
 20
-0.093220230462066
 30
-0.0015258207003583
  9
$EXTMAX
 10
1549.058175667784
 20
3054.966811045826
 30
0.0000000349246037
  9
$LIMMIN
 10
0.0
 20
0.0
  9
$LIMMAX
 10
12.0
 20
9.0
  9
$ORTHOMODE
 70
     0
  9
$REGENMODE
 70
     1
  9
$FILLMODE
 70
     1
  9
$QTEXTMODE
 70
     0
  9
$MIRRTEXT
 70
     0
  9
$LTSCALE
 40
1.0
  9
$ATTMODE
 70
     1
  9
$TEXTSIZE
 40
0.2
  9
$TRACEWID
 40
0.05
  9
$TEXTSTYLE
  7
Standard
  9
$CLAYER
  8
0
  9
$CELTYPE
  6
Continuous
  9
$CECOLOR
 62
   256
  9
$CELTSCALE
 40
1.0
  9
$DISPSILH
 70
     0
  9
$DIMSCALE
 40
1.0
  9
$DIMASZ
 40
0.18
  9
$DIMEXO
 40
0.0625
  9
$DIMDLI
 40
0.38
  9
$DIMRND
 40
0.0
  9
$DIMDLE
 40
0.0
  9
$DIMEXE
 40
0.18
  9
$DIMTP
 40
0.0
  9
$DIMTM
 40
0.0
  9
$DIMTXT
 40
0.18
  9
$DIMCEN
 40
0.09
  9
$DIMTSZ
 40
0.0
  9
$DIMTOL
 70
     0
  9
$DIMLIM
 70
     0
  9
$DIMTIH
 70
     1
  9
$DIMTOH
 70
     1
  9
$DIMSE1
 70
     0
  9
$DIMSE2
 70
     0
  9
$DIMTAD
 70
     0
  9
$DIMZIN
 70
     0
  9
$DIMBLK
  1

  9
$DIMASO
 70
     1
  9
$DIMSHO
 70
     1
  9
$DIMPOST
  1

  9
$DIMAPOST
  1

  9
$DIMALT
 70
     0
  9
$DIMALTD
 70
     2
  9
$DIMALTF
 40
25.4
  9
$DIMLFAC
 40
1.0
  9
$DIMTOFL
 70
     0
  9
$DIMTVP
 40
0.0
  9
$DIMTIX
 70
     0
  9
$DIMSOXD
 70
     0
  9
$DIMSAH
 70
     0
  9
$DIMBLK1
  1

  9
$DIMBLK2
  1

  9
$DIMSTYLE
  2
Standard
  9
$DIMCLRD
 70
     0
  9
$DIMCLRE
 70
     0
  9
$DIMCLRT
 70
     0
  9
$DIMTFAC
 40
1.0
  9
$DIMGAP
 40
0.09
  9
$DIMJUST
 70
     0
  9
$DIMSD1
 70
     0
  9
$DIMSD2
 70
     0
  9
$DIMTOLJ
 70
     1
  9
$DIMTZIN
 70
     0
  9
$DIMALTZ
 70
     0
  9
$DIMALTTZ
 70
     0
  9
$DIMUPT
 70
     0
  9
$DIMDEC
 70
     4
  9
$DIMTDEC
 70
     4
  9
$DIMALTU
 70
     2
  9
$DIMALTTD
 70
     2
  9
$DIMTXSTY
  7
Standard
  9
$DIMAUNIT
 70
     0
  9
$DIMADEC
 70
     0
  9
$DIMALTRND
 40
0.0
  9
$DIMAZIN
 70
     0
  9
$DIMDSEP
 70
    46
  9
$DIMATFIT
 70
     3
  9
$DIMFRAC
 70
     0
  9
$DIMLDRBLK
  1

  9
$DIMLUNIT
 70
     2
  9
$DIMLWD
 70
    -2
  9
$DIMLWE
 70
    -2
  9
$DIMTMOVE
 70
     0
  9
$LUNITS
 70
     2
  9
$LUPREC
 70
     4
  9
$SKETCHINC
 40
0.1
  9
$FILLETRAD
 40
0.0
  9
$AUNITS
 70
     0
  9
$AUPREC
 70
     0
  9
$MENU
  1
.
  9
$ELEVATION
 40
0.0
  9
$PELEVATION
 40
0.0
  9
$THICKNESS
 40
0.0
  9
$LIMCHECK
 70
     0
  9
$CHAMFERA
 40
0.0
  9
$CHAMFERB
 40
0.0
  9
$CHAMFERC
 40
0.0
  9
$CHAMFERD
 40
0.0
  9
$SKPOLY
 70
     0
  9
$TDCREATE
 40
2456631.708352315
  9
$TDUCREATE
 40
2456631.666685648
  9
$TDUPDATE
 40
2456631.708973334
  9
$TDUUPDATE
 40
2456631.667306667
  9
$TDINDWG
 40
0.0006212037
  9
$TDUSRTIMER
 40
0.0006212037
  9
$USRTIMER
 70
     1
  9
$ANGBASE
 50
0.0
  9
$ANGDIR
 70
     0
  9
$PDMODE
 70
     0
  9
$PDSIZE
 40
0.0
  9
$PLINEWID
 40
0.0
  9
$SPLFRAME
 70
     0
  9
$SPLINETYPE
 70
     6
  9
$SPLINESEGS
 70
     8
  9
$HANDSEED
  5
947
  9
$SURFTAB1
 70
     6
  9
$SURFTAB2
 70
     6
  9
$SURFTYPE
 70
     6
  9
$SURFU
 70
     6
  9
$SURFV
 70
     6
  9
$UCSBASE
  2

  9
$UCSNAME
  2

  9
$UCSORG
 10
0.0
 20
0.0
 30
0.0
  9
$UCSXDIR
 10
1.0
 20
0.0
 30
0.0
  9
$UCSYDIR
 10
0.0
 20
1.0
 30
0.0
  9
$UCSORTHOREF
  2

  9
$UCSORTHOVIEW
 70
     0
  9
$UCSORGTOP
 10
0.0
 20
0.0
 30
0.0
  9
$UCSORGBOTTOM
 10
0.0
 20
0.0
 30
0.0
  9
$UCSORGLEFT
 10
0.0
 20
0.0
 30
0.0
  9
$UCSORGRIGHT
 10
0.0
 20
0.0
 30
0.0
  9
$UCSORGFRONT
 10
0.0
 20
0.0
 30
0.0
  9
$UCSORGBACK
 10
0.0
 20
0.0
 30
0.0
  9
$PUCSBASE
  2

  9
$PUCSNAME
  2

  9
$PUCSORG
 10
0.0
 20
0.0
 30
0.0
  9
$PUCSXDIR
 10
1.0
 20
0.0
 30
0.0
  9
$PUCSYDIR
 10
0.0
 20
1.0
 30
0.0
  9
$PUCSORTHOREF
  2

  9
$PUCSORTHOVIEW
 70
     0
  9
$PUCSORGTOP
 10
0.0
 20
0.0
 30
0.0
  9
$PUCSORGBOTTOM
 10
0.0
 20
0.0
 30
0.0
  9
$PUCSORGLEFT
 10
0.0
 20
0.0
 30
0.0
  9
$PUCSORGRIGHT
 10
0.0
 20
0.0
 30
0.0
  9
$PUCSORGFRONT
 10
0.0
 20
0.0
 30
0.0
  9
$PUCSORGBACK
 10
0.0
 20
0.0
 30
0.0
  9
$USERI1
 70
     0
  9
$USERI2
 70
     0
  9
$USERI3
 70
     0
  9
$USERI4
 70
     0
  9
$USERI5
 70
     0
  9
$USERR1
 40
0.0
  9
$USERR2
 40
0.0
  9
$USERR3
 40
0.0
  9
$USERR4
 40
0.0
  9
$USERR5
 40
0.0
  9
$WORLDVIEW
 70
     1
  9
$SHADEDGE
 70
     3
  9
$SHADEDIF
 70
    70
  9
$TILEMODE
 70
     1
  9
$MAXACTVP
 70
    64
  9
$PINSBASE
 10
0.0
 20
0.0
 30
0.0
  9
$PLIMCHECK
 70
     0
  9
$PEXTMIN
 10
1.000000000000000E+20
 20
1.000000000000000E+20
 30
1.000000000000000E+20
  9
$PEXTMAX
 10
-1.000000000000000E+20
 20
-1.000000000000000E+20
 30
-1.000000000000000E+20
  9
$PLIMMIN
 10
0.0
 20
0.0
  9
$PLIMMAX
 10
12.0
 20
9.0
  9
$UNITMODE
 70
     0
  9
$VISRETAIN
 70
     1
  9
$PLINEGEN
 70
     0
  9
$PSLTSCALE
 70
     1
  9
$TREEDEPTH
 70
  3020
  9
$CMLSTYLE
  2
Standard
  9
$CMLJUST
 70
     0
  9
$CMLSCALE
 40
1.0
  9
$PROXYGRAPHICS
 70
     1
  9
$MEASUREMENT
 70
     0
  9
$CELWEIGHT
370
    -1
  9
$ENDCAPS
280
     0
  9
$JOINSTYLE
280
     0
  9
$LWDISPLAY
290
     0
  9
$INSUNITS
 70
     0
  9
$HYPERLINKBASE
  1

  9
$STYLESHEET
  1

  9
$XEDIT
290
     1
  9
$CEPSNTYPE
380
     0
  9
$PSTYLEMODE
290
     1
  9
$FINGERPRINTGUID
  2
{33BB1326-1E0C-4388-AC97-73794C8E4DD6}
  9
$VERSIONGUID
  2
{8EB7379B-5B09-41F3-A1C8-9A9A4CA1B774}
  9
$EXTNAMES
290
     1
  9
$PSVPSCALE
 40
0.0
  9
$OLESTARTUP
290
     0
  0
ENDSEC
  0
SECTION
  2
CLASSES
  0
CLASS
  1
ACDBDICTIONARYWDFLT
  2
AcDbDictionaryWithDefault
  3
ObjectDBX Classes
 90
        0
280
     0
281
     0
  0
CLASS
  1
MATERIAL
  2
AcDbMaterial
  3
ObjectDBX Classes
 90
     1024
280
     0
281
     0
  0
CLASS
  1
VISUALSTYLE
  2
AcDbVisualStyle
  3
ObjectDBX Classes
 90
     4095
280
     0
281
     0
  0
CLASS
  1
TABLESTYLE
  2
AcDbTableStyle
  3
ObjectDBX Classes
 90
     4095
280
     0
281
     0
  0
CLASS
  1
DICTIONARYVAR
  2
AcDbDictionaryVar
  3
ObjectDBX Classes
 90
        0
280
     0
281
     0
  0
CLASS
  1
ACDBPLACEHOLDER
  2
AcDbPlaceHolder
  3
ObjectDBX Classes
 90
        0
280
     0
281
     0
  0
CLASS
  1
LAYOUT
  2
AcDbLayout
  3
ObjectDBX Classes
 90
        0
280
     0
281
     0
  0
ENDSEC
  0
SECTION
  2
TABLES
  0
TABLE
  2
VPORT
  5
8
330
0
100
AcDbSymbolTable
 70
     1
  0
VPORT
  5
3C
330
8
100
AcDbSymbolTableRecord
100
AcDbViewportTableRecord
  2
*Active
 70
     0
 10
0.0
 20
0.0
 11
1.0
 21
1.0
 12
1044.079904059658
 22
1606.548875631414
 13
0.0
 23
0.0
 14
1.0
 24
1.0
 15
0.0
 25
0.0
 16
0.0
 26
0.0
 36
1.0
 17
0.0
 27
0.0
 37
0.0
 40
3975.713336234656
 41
1.538754764930114
 42
50.0
 43
0.0
 44
0.0
 50
0.0
 51
0.0
 71
     0
 72
   100
 73
     1
 74
     1
 75
     0
 76
     0
 77
     0
 78
     0
281
     0
 65
     1
110
0.0
120
0.0
130
0.0
111
1.0
121
0.0
131
0.0
112
0.0
122
1.0
132
0.0
 79
     0
146
0.0
  0
ENDTAB
  0
TABLE
  2
LTYPE
  5
5
330
0
100
AcDbSymbolTable
 70
     1
  0
LTYPE
  5
28
330
5
100
AcDbSymbolTableRecord
100
AcDbLinetypeTableRecord
  2
ByBlock
 70
     0
  3

 72
    65
 73
     0
 40
0.0
  0
LTYPE
  5
29
330
5
100
AcDbSymbolTableRecord
100
AcDbLinetypeTableRecord
  2
ByLayer
 70
     0
  3

 72
    65
 73
     0
 40
0.0
  0
LTYPE
  5
2A
330
5
100
AcDbSymbolTableRecord
100
AcDbLinetypeTableRecord
  2
Continuous
 70
     0
  3
Solid line
 72
    65
 73
     0
 40
0.0
  0
ENDTAB
  0
TABLE
  2
LAYER
  5
2
330
0
100
AcDbSymbolTable
 70
     2
  0
LAYER
  5
25
330
2
100
AcDbSymbolTableRecord
100
AcDbLayerTableRecord
  2
0
 70
     0
 62
     7
  6
Continuous
370
    -3
390
F
  0
LAYER
  5
3A
330
2
100
AcDbSymbolTableRecord
100
AcDbLayerTableRecord
  2
WARSTWA_DOMYŚLNA
 70
     0
 62
     1
  6
Continuous
370
    -3
390
F
  0
ENDTAB
  0
TABLE
  2
STYLE
  5
3
330
0
100
AcDbSymbolTable
 70
     1
  0
STYLE
  5
26
330
3
100
AcDbSymbolTableRecord
100
AcDbTextStyleTableRecord
  2
Standard
 70
     0
 40
0.0
 41
1.0
 50
0.0
 71
     0
 42
0.2
  3
txt
  4

  0
ENDTAB
  0
TABLE
  2
VIEW
  5
6
330
0
100
AcDbSymbolTable
 70
     0
  0
ENDTAB
  0
TABLE
  2
UCS
  5
7
330
0
100
AcDbSymbolTable
 70
     0
  0
ENDTAB
  0
TABLE
  2
APPID
  5
9
330
0
100
AcDbSymbolTable
 70
     1
  0
APPID
  5
27
330
9
100
AcDbSymbolTableRecord
100
AcDbRegAppTableRecord
  2
ACAD
 70
     0
  0
ENDTAB
  0
TABLE
  2
DIMSTYLE
  5
A
330
0
100
AcDbSymbolTable
 70
     1
100
AcDbDimStyleTable
 71
     0
  0
DIMSTYLE
105
933
330
A
100
AcDbSymbolTableRecord
100
AcDbDimStyleTableRecord
  2
Standard
 70
     0
340
26
  0
ENDTAB
  0
TABLE
  2
BLOCK_RECORD
  5
1
330
0
100
AcDbSymbolTable
 70
     0
  0
BLOCK_RECORD
  5
36
330
1
100
AcDbSymbolTableRecord
100
AcDbBlockTableRecord
  2
*Model_Space
340
39
  0
BLOCK_RECORD
  5
32
330
1
100
AcDbSymbolTableRecord
100
AcDbBlockTableRecord
  2
*Paper_Space
340
35
  0
ENDTAB
  0
ENDSEC
  0
SECTION
  2
BLOCKS
  0
BLOCK
  5
37
330
36
100
AcDbEntity
  8
0
100
AcDbBlockBegin
  2
*Model_Space
 70
     0
 10
0.0
 20
0.0
 30
0.0
  3
*Model_Space
  1

  0
ENDBLK
  5
38
330
36
100
AcDbEntity
  8
0
100
AcDbBlockEnd
  0
BLOCK
  5
33
330
32
100
AcDbEntity
 67
     1
  8
0
100
AcDbBlockBegin
  2
*Paper_Space
 70
     0
 10
0.0
 20
0.0
 30
0.0
  3
*Paper_Space
  1

  0
ENDBLK
  5
34
330
32
100
AcDbEntity
 67
     1
  8
0
100
AcDbBlockEnd
  0
ENDSEC
  0
SECTION
  2
ENTITIES
  0
LWPOLYLINE
  5
3D
330
36
100
AcDbEntity
  8
WARSTWA_DOMYŚLNA
100
AcDbPolyline
 90
        9
 70
     1
 43
0.0
 10
146.8784
 20
1830.43087659
 42
-0.1731992
 10
165.00637539
 20
1825.9387096
 42
-0.08457427
 10
171.60005
 20
1819.89851409
 42
-0.03112126
 10
172.9208
 20
1817.91877659
 10
225.0329
 20
1727.89307659
 10
135.2886
 20
1779.86257659
 42
-0.11874067
 10
126.10428675
 20
1788.81426014
 42
-0.08978596
 10
122.68094311
 20
1797.60832878
 42
-0.44215654
 10
146.8784
 20
1830.43087659
  0
LWPOLYLINE
  5
48
330
36
100
AcDbEntity
  8
WARSTWA_DOMYŚLNA
100
AcDbPolyline
 90
       10
 70
     1
 43
0.0
 10
248.2731
 20
1673.59627659
 10
248.2731
 20
1683.96867659
 42
-0.41412153
 10
267.8532
 20
1703.54687659
 42
-0.4252348300000001
 10
288.2287
 20
1683.96867659
 10
288.2287
 20
1673.59627659
 10
288.2483
 20
1673.59627659
 10
288.2483
 20
1578.62247659
 10
248.2516
 20
1578.62247659
 10
248.2516
 20
1673.59627659
 10
248.2731
 20
1673.59627659
  0
LWPOLYLINE
  5
54
330
36
100
AcDbEntity
  8
WARSTWA_DOMYŚLNA
100
AcDbPolyline
 90
       10
 70
     1
 43
0.0
 10
298.2513
 20
1578.62247659
 10
298.2513
 20
1673.59627659
 10
298.2728
 20
1673.59627659
 10
298.2728
 20
1683.96867659
 42
-0.41410861
 10
317.853
 20
1703.54687659
 42
-0.4252436700000001
 10
338.2284
 20
1683.96867659
 10
338.2284
 20
1673.59627659
 10
338.248
 20
1673.59627659
 10
338.248
 20
1578.62247659
 10
298.2513
 20
1578.62247659
  0
LWPOLYLINE
  5
60
330
36
100
AcDbEntity
  8
WARSTWA_DOMYŚLNA
100
AcDbPolyline
 90
        6
 70
     1
 43
0.0
 10
28.2465
 20
1523.62247659
 10
458.2438
 20
1523.62247659
 10
458.2438
 20
1745.14977659
 10
243.2706
 20
1959.86507659
 10
28.2465
 20
1744.90357659
 10
28.2465
 20
1523.62247659
  0
LWPOLYLINE
  5
68
330
36
100
AcDbEntity
  8
WARSTWA_DOMYŚLNA
100
AcDbPolyline
 90
        8
 70
     1
 43
0.0
 10
236.2886
 20
1734.79887659
 10
184.5516
 20
1824.67997659
 42
-0.10835212
 10
181.11737115
 20
1836.0640922
 42
-0.12843114
 10
183.75809613
 20
1849.41708476
 42
-0.63114737
 10
233.5604834
 20
1849.2721191
 42
-0.07142067
 10
235.94709322
 20
1841.69961145
 42
-0.03655392
 10
236.1694
 20
1838.82187659
 10
236.2886
 20
1734.79887659
  0
LWPOLYLINE
  5
72
330
36
100
AcDbEntity
  8
WARSTWA_DOMYŚLNA
100
AcDbPolyline
 90
        8
 70
     1
 43
0.0
 10
249.2795
 20
1735.05097659
 10
249.4143
 20
1838.75737659
 42
-0.10931249
 10
252.16209399
 20
1850.39704648
 42
-0.11568135
 10
259.99458304
 20
1859.78799832
 42
-0.61656087
 10
304.23037104
 20
1838.12834324
 42
-0.10420378
 10
302.13648879
 20
1827.09186166
 42
-0.02822174
 10
301.1864
 20
1825.19587659
 10
249.2795
 20
1735.05097659
  0
LWPOLYLINE
  5
7C
330
36
100
AcDbEntity
  8
WARSTWA_DOMYŚLNA
100
AcDbPolyline
 90
        8
 70
     1
 43
0.0
 10
261.1155
 20
1728.91897659
 10
313.083
 20
1818.66527659
 42
-0.10895257
 10
321.26790544
 20
1827.35978624
 42
-0.10049219
 10
331.03900165
 20
1831.31394319
 42
-0.65513638
 10
359.58507344
 20
1789.61620472
 42
-0.09285059
 10
353.00887929
 20
1782.27027892
 42
-0.02895754
 10
351.1373
 20
1781.03307659
 10
261.1155
 20
1728.91897659
  0
LWPOLYLINE
  5
86
330
36
100
AcDbEntity
  8
WARSTWA_DOMYŚLNA
100
AcDbPolyline
 90
        8
 70
     1
 43
0.0
 10
267.8278
 20
1717.79227659
 10
357.705
 20
1769.53117659
 42
-0.11935867
 10
370.09090768
 20
1773.01038545
 42
-0.0999188
 10
380.50675885
 20
1771.16666816
 42
-0.6424165300000001
 10
383.45221094
 20
1721.12172972
 42
-0.09277991
 10
374.08515055
 20
1718.04771756
 42
-0.02896553
 10
371.8469
 20
1717.91147659
 10
267.8278
 20
1717.79227659
  0
LWPOLYLINE
  5
90
330
36
100
AcDbEntity
  8
WARSTWA_DOMYŚLNA
100
AcDbPolyline
 90
       11
 70
     1
 43
0.0
 10
404.0076
 20
1697.81347659
 42
-0.1987226
 10
417.8524
 20
1703.54687659
 42
-0.4253339300000001
 10
438.2278999999999
 20
1683.96867659
 10
438.2278999999999
 20
1673.59627659
 10
438.2494
 20
1673.59627659
 10
438.2494
 20
1578.62247659
 10
398.2527
 20
1578.62247659
 10
398.2527
 20
1673.59627659
 10
398.2742
 20
1673.59627659
 10
398.2742
 20
1683.96867659
 42
-0.19875828
 10
404.0076
 20
1697.81347659
  0
LWPOLYLINE
  5
9D
330
36
100
AcDbEntity
  8
WARSTWA_DOMYŚLNA
100
AcDbPolyline
 90
       11
 70
     1
 43
0.0
 10
360.3607
 20
1702.05777659
 42
-0.09812068
 10
367.8527
 20
1703.54687659
 42
-0.4252496800000001
 10
388.2282
 20
1683.96867659
 10
388.2282
 20
1673.59627659
 10
388.2477
 20
1673.59627659
 10
388.2477
 20
1578.62247659
 10
348.253
 20
1578.62247659
 10
348.253
 20
1673.59627659
 10
348.2726
 20
1673.59627659
 10
348.2726
 20
1683.96867659
 42
-0.30321725
 10
360.3607
 20
1702.05777659
  0
LWPOLYLINE
  5
AA
330
36
100
AcDbEntity
  8
WARSTWA_DOMYŚLNA
100
AcDbPolyline
 90
       11
 70
     1
 43
0.0
 10
226.1409
 20
1702.05777659
 42
-0.3031989
 10
238.229
 20
1683.96867659
 10
238.229
 20
1673.59627659
 10
238.2485
 20
1673.59627659
 10
238.2485
 20
1578.62247659
 10
198.2519
 20
1578.62247659
 10
198.2519
 20
1673.59627659
 10
198.2734
 20
1673.59627659
 10
198.2734
 20
1683.96867659
 42
-0.41412646
 10
217.8516
 20
1703.54687659
 42
-0.10601036
 10
226.1409
 20
1702.05777659
  0
LWPOLYLINE
  5
B7
330
36
100
AcDbEntity
  8
WARSTWA_DOMYŚLNA
100
AcDbPolyline
 90
        8
 70
     1
 43
0.0
 10
128.6114
 20
1768.423176589999
 10
218.7544
 20
1716.51627659
 10
115.0499
 20
1716.65107659
 42
-0.11934918
 10
102.59280999
 20
1719.8243799
 42
-0.09976295
 10
94.50204589
 20
1726.61305951
 42
-0.64275467
 10
116.9553
 20
1771.44731722
 42
-0.09282122
 10
126.60494612
 20
1769.42514649
 42
-0.02893936
 10
128.6114
 20
1768.423176589999
  0
LWPOLYLINE
  5
C1
330
36
100
AcDbEntity
  8
WARSTWA_DOMYŚLNA
100
AcDbPolyline
 90
       11
 70
     1
 43
0.0
 10
182.494
 20
1697.81347659
 42
-0.19863156
 10
188.2293
 20
1683.96867659
 10
188.2293
 20
1673.59627659
 10
188.2488
 20
1673.59627659
 10
188.2488
 20
1578.62247659
 10
148.2521
 20
1578.62247659
 10
148.2521
 20
1673.59627659
 10
148.2736
 20
1673.59627659
 10
148.2736
 20
1683.96867659
 42
-0.41416584
 10
167.8518
 20
1703.54687659
 42
-0.20788706
 10
182.494
 20
1697.81347659
  0
LWPOLYLINE
  5
CE
330
36
100
AcDbEntity
  8
WARSTWA_DOMYŚLNA
100
AcDbPolyline
 90
       11
 70
     1
 43
0.0
 10
136.7386
 20
1691.46067659
 42
-0.09811136
 10
138.2276
 20
1683.96867659
 10
138.2276
 20
1673.59627659
 10
138.2491
 20
1673.59627659
 10
138.2491
 20
1578.62247659
 10
98.2524
 20
1578.62247659
 10
98.2524
 20
1673.59627659
 10
98.27390000000001
 20
1673.59627659
 10
98.27390000000001
 20
1683.96867659
 42
-0.41417249
 10
117.8521
 20
1703.54687659
 42
-0.31336511
 10
136.7386
 20
1691.46067659
  0
LWPOLYLINE
  5
DB
330
36
100
AcDbEntity
  8
WARSTWA_DOMYŚLNA
100
AcDbPolyline
 90
       11
 70
     1
 43
0.0
 10
86.7369
 20
1691.46067659
 42
-0.09828809
 10
88.22790000000001
 20
1683.96867659
 10
88.22790000000001
 20
1673.59627659
 10
88.2474
 20
1673.59627659
 10
88.2474
 20
1578.62247659
 10
48.25269999999999
 20
1578.62247659
 10
48.25269999999999
 20
1673.59627659
 10
48.2722
 20
1673.59627659
 10
48.2722
 20
1683.96867659
 42
-0.41410325
 10
67.8524
 20
1703.54687659
 42
-0.31347357
 10
86.7369
 20
1691.46067659
  0
LWPOLYLINE
  5
E8
330
36
100
AcDbEntity
  8
WARSTWA_DOMYŚLNA
100
AcDbPolyline
 90
        4
 70
     1
 43
0.0
 10
239.7708
 20
1729.70447659
 42
-0.3808555
 10
261.6294
 20
1716.51627659
 10
224.9723
 20
1716.51627659
 42
-0.28136056
 10
239.7708
 20
1729.70447659
  0
LWPOLYLINE
  5
EE
330
36
100
AcDbEntity
  8
WARSTWA_DOMYŚLNA
100
AcDbPolyline
 90
        5
 70
     1
 43
0.0
 10
0.0
 20
2583.48357659
 10
0.0
 20
2973.48357659
 10
660.0
 20
2973.48357659
 10
660.0
 20
2583.48357659
 10
0.0
 20
2583.48357659
  0
LWPOLYLINE
  5
F5
330
36
100
AcDbEntity
  8
WARSTWA_DOMYŚLNA
100
AcDbPolyline
 90
        5
 70
     1
 43
0.0
 10
516.8576
 20
2043.79097659
 10
516.8576
 20
2263.77647659
 10
6.8512
 20
2263.77647659
 10
6.8512
 20
2043.79097659
 10
516.8576
 20
2043.79097659
  0
LWPOLYLINE
  5
FC
330
36
100
AcDbEntity
  8
WARSTWA_DOMYŚLNA
100
AcDbPolyline
 90
       11
 70
     1
 43
0.0
 10
278.949
 20
2222.22637659
 42
-0.09810762
 10
286.441
 20
2223.71737659
 42
-0.42524311
 10
306.8165
 20
2204.13717659
 10
306.8165
 20
2193.764776590001
 10
306.838
 20
2193.764776590001
 10
306.838
 20
2098.79097659
 10
266.8413
 20
2098.79097659
 10
266.8413
 20
2193.764776590001
 10
266.8609
 20
2193.764776590001
 10
266.8609
 20
2204.13717659
 42
-0.3032351
 10
278.949
 20
2222.22637659
  0
LWPOLYLINE
  5
109
330
36
100
AcDbEntity
  8
WARSTWA_DOMYŚLNA
100
AcDbPolyline
 90
       11
 70
     1
 43
0.0
 10
322.5959
 20
2217.98207659
 42
-0.19867259
 10
336.4408
 20
2223.71737659
 42
-0.4252664700000001
 10
356.8162
 20
2204.13717659
 10
356.8162
 20
2193.764776590001
 10
356.8377
 20
2193.764776590001
 10
356.8377
 20
2098.79097659
 10
316.8411
 20
2098.79097659
 10
316.8411
 20
2193.764776590001
 10
316.8606
 20
2193.764776590001
 10
316.8606
 20
2204.13717659
 42
-0.19866672
 10
322.5959
 20
2217.98207659
  0
LWPOLYLINE
  5
116
330
36
100
AcDbEntity
  8
WARSTWA_DOMYŚLNA
100
AcDbPolyline
 90
       11
 70
     1
 43
0.0
 10
368.3513
 20
2211.62917659
 42
-0.30321511
 10
386.4405
 20
2223.71737659
 42
-0.4252870500000001
 10
406.8159999999999
 20
2204.13717659
 10
406.8159999999999
 20
2193.764776590001
 10
406.8374999999999
 20
2193.764776590001
 10
406.8374999999999
 20
2098.79097659
 10
366.8408
 20
2098.79097659
 10
366.8408
 20
2193.764776590001
 10
366.8623
 20
2193.764776590001
 10
366.8623
 20
2204.13717659
 42
-0.09811136
 10
368.3513
 20
2211.62917659
  0
LWPOLYLINE
  5
123
330
36
100
AcDbEntity
  8
WARSTWA_DOMYŚLNA
100
AcDbPolyline
 90
       11
 70
     1
 43
0.0
 10
418.351
 20
2211.62917659
 42
-0.30321105
 10
436.4402
 20
2223.71737659
 42
-0.4253115000000001
 10
456.8157
 20
2204.13717659
 10
456.8157
 20
2193.764776590001
 10
456.8372
 20
2193.764776590001
 10
456.8372
 20
2098.79097659
 10
416.8404999999999
 20
2098.79097659
 10
416.8404999999999
 20
2193.764776590001
 10
416.862
 20
2193.764776590001
 10
416.862
 20
2204.13717659
 42
-0.09792135
 10
418.351
 20
2211.62917659
  0
LWPOLYLINE
  5
130
330
36
100
AcDbEntity
  8
WARSTWA_DOMYŚLNA
100
AcDbPolyline
 90
       10
 70
     1
 43
0.0
 10
466.8617
 20
2204.13717659
 42
-0.41405186
 10
486.4399
 20
2223.71737659
 42
-0.4252298500000001
 10
506.8173999999999
 20
2204.13717659
 10
506.8173999999999
 20
2193.764776590001
 10
506.8369
 20
2193.764776590001
 10
506.8369
 20
2098.79097659
 10
466.8403
 20
2098.79097659
 10
466.8403
 20
2193.764776590001
 10
466.8617
 20
2193.764776590001
 10
466.8617
 20
2204.13717659
  0
LWPOLYLINE
  5
13C
330
36
100
AcDbEntity
  8
WARSTWA_DOMYŚLNA
100
AcDbPolyline
 90
       11
 70
     1
 43
0.0
 10
172.5967
 20
2217.98207659
 42
-0.19872785
 10
186.4396
 20
2223.71737659
 42
-0.42525308
 10
206.817
 20
2204.13717659
 10
206.817
 20
2193.764776590001
 10
206.8366
 20
2193.764776590001
 10
206.8366
 20
2098.79097659
 10
166.8399
 20
2098.79097659
 10
166.8399
 20
2193.764776590001
 10
166.8614
 20
2193.764776590001
 10
166.8614
 20
2204.13717659
 42
-0.19872189
 10
172.5967
 20
2217.98207659
  0
LWPOLYLINE
  5
149
330
36
100
AcDbEntity
  8
WARSTWA_DOMYŚLNA
100
AcDbPolyline
 90
       11
 70
     1
 43
0.0
 10
218.3521
 20
2211.62917659
 42
-0.30326603
 10
236.4413
 20
2223.71737659
 42
-0.4252246700000001
 10
256.8168
 20
2204.13717659
 10
256.8168
 20
2193.764776590001
 10
256.8363
 20
2193.764776590001
 10
256.8363
 20
2098.79097659
 10
216.8397
 20
2098.79097659
 10
216.8397
 20
2193.764776590001
 10
216.8612
 20
2193.764776590001
 10
216.8612
 20
2204.13717659
 42
-0.09810781
 10
218.3521
 20
2211.62917659
  0
LWPOLYLINE
  5
156
330
36
100
AcDbEntity
  8
WARSTWA_DOMYŚLNA
100
AcDbPolyline
 90
       11
 70
     1
 43
0.0
 10
122.597
 20
2217.98207659
 42
-0.19875437
 10
136.4399
 20
2223.71737659
 42
-0.4252365400000001
 10
156.8172999999999
 20
2204.13717659
 10
156.8172999999999
 20
2193.764776590001
 10
156.8369
 20
2193.764776590001
 10
156.8369
 20
2098.79097659
 10
116.8402
 20
2098.79097659
 10
116.8402
 20
2193.764776590001
 10
116.8617
 20
2193.764776590001
 10
116.8617
 20
2204.13717659
 42
-0.19888091
 10
122.597
 20
2217.98207659
  0
LWPOLYLINE
  5
163
330
36
100
AcDbEntity
  8
WARSTWA_DOMYŚLNA
100
AcDbPolyline
 90
       10
 70
     1
 43
0.0
 10
86.44020000000001
 20
2223.71737659
 42
-0.42521935
 10
106.8176
 20
2204.13717659
 10
106.8176
 20
2193.764776590001
 10
106.8371
 20
2193.764776590001
 10
106.8371
 20
2098.79097659
 10
66.8405
 20
2098.79097659
 10
66.8405
 20
2193.764776590001
 10
66.86199999999999
 20
2193.764776590001
 10
66.86199999999999
 20
2204.13717659
 42
-0.4141022300000001
 10
86.44020000000001
 20
2223.71737659
  0
LWPOLYLINE
  5
16F
330
36
100
AcDbEntity
  8
WARSTWA_DOMYŚLNA
100
AcDbPolyline
 90
       11
 70
     1
 43
0.0
 10
55.3269
 20
2211.62917659
 42
-0.09792135
 10
56.81589999999999
 20
2204.13717659
 10
56.81589999999999
 20
2193.764776590001
 10
56.8374
 20
2193.764776590001
 10
56.8374
 20
2098.79097659
 10
16.8408
 20
2098.79097659
 10
16.8408
 20
2193.764776590001
 10
16.8622
 20
2193.764776590001
 10
16.8622
 20
2204.13717659
 42
-0.41410164
 10
36.4404
 20
2223.71737659
 42
-0.31331405
 10
55.3269
 20
2211.62917659
  0
LWPOLYLINE
  5
17C
330
36
100
AcDbEntity
  8
WARSTWA_DOMYŚLNA
100
AcDbPolyline
 90
        5
 70
     1
 43
0.0
 10
756.1203
 20
2596.40877659
 10
756.1203
 20
2976.40877659
 10
1416.1203
 20
2976.40877659
 10
1416.1203
 20
2596.40877659
 10
756.1203
 20
2596.40877659
  0
LWPOLYLINE
  5
183
330
36
100
AcDbEntity
  8
WARSTWA_DOMYŚLNA
100
AcDbPolyline
 90
        5
 70
     1
 43
0.0
 10
601.3741999999999
 20
2066.47817659
 10
1131.3742
 20
2066.47817659
 10
1131.3742
 20
2496.478176590001
 10
601.3741999999999
 20
2496.478176590001
 10
601.3741999999999
 20
2066.47817659
  0
LWPOLYLINE
  5
18A
330
36
100
AcDbEntity
  8
WARSTWA_DOMYŚLNA
100
AcDbPolyline
 90
        5
 70
     1
 43
0.0
 10
6.809199999999999
 20
1457.89737659
 10
504.8091999999999
 20
1457.89737659
 10
504.8091999999999
 20
1442.89737659
 10
6.809199999999999
 20
1442.89737659
 10
6.809199999999999
 20
1457.89737659
  0
LWPOLYLINE
  5
191
330
36
100
AcDbEntity
  8
WARSTWA_DOMYŚLNA
100
AcDbPolyline
 90
        5
 70
     1
 43
0.0
 10
6.809199999999999
 20
1478.89737659
 10
504.8091999999999
 20
1478.89737659
 10
504.8091999999999
 20
1463.89737659
 10
6.809199999999999
 20
1463.89737659
 10
6.809199999999999
 20
1478.89737659
  0
LWPOLYLINE
  5
198
330
36
100
AcDbEntity
  8
WARSTWA_DOMYŚLNA
100
AcDbPolyline
 90
        5
 70
     1
 43
0.0
 10
544.3062
 20
1459.14177659
 10
942.3061999999999
 20
1459.14177659
 10
942.3061999999999
 20
1444.14177659
 10
544.3062
 20
1444.14177659
 10
544.3062
 20
1459.14177659
  0
LWPOLYLINE
  5
19F
330
36
100
AcDbEntity
  8
WARSTWA_DOMYŚLNA
100
AcDbPolyline
 90
        5
 70
     1
 43
0.0
 10
544.3062
 20
1480.14177659
 10
942.3061999999999
 20
1480.14177659
 10
942.3061999999999
 20
1465.14177659
 10
544.3062
 20
1465.14177659
 10
544.3062
 20
1480.14177659
  0
LWPOLYLINE
  5
1A6
330
36
100
AcDbEntity
  8
WARSTWA_DOMYŚLNA
100
AcDbPolyline
 90
       16
 70
     1
 43
0.0
 10
1139.0136
 20
1548.24807659
 42
-0.03746881
 10
1179.91928044
 20
1606.94469718
 42
-0.02887247
 10
1211.50285622
 20
1641.291943649999
 42
-0.03284632
 10
1247.09580129
 20
1671.39957246
 42
-0.04018121
 10
1290.46574649
 20
1698.27304451
 42
-0.0479274
 10
1344.0122
 20
1719.46017659
 42
-0.07481117
 10
1425.84218294
 20
1681.83600075
 42
-0.03850084
 10
1466.73860154
 20
1650.36440386
 42
-0.02665533
 10
1494.98193034
 20
1622.17788826
 42
-0.02115666
 10
1517.75497932
 20
1594.69705574
 42
-0.02017002
 10
1539.73242835
 20
1563.26581028
 42
-0.00884984
 10
1549.0109
 20
1548.24807659
 10
1549.0109
 20
1584.97597659
 10
1344.0377
 20
1789.94927659
 10
1139.0136
 20
1584.92517659
 10
1139.0136
 20
1548.24807659
  0
LWPOLYLINE
  5
1B8
330
36
100
AcDbEntity
  8
WARSTWA_DOMYŚLNA
100
AcDbPolyline
 90
       16
 70
     1
 43
0.0
 10
1126.0213
 20
1685.80717659
 42
-0.03746881
 10
1166.92698044
 20
1744.50379718
 42
-0.02887247
 10
1198.51055622
 20
1778.85104365
 42
-0.03284632
 10
1234.10350129
 20
1808.95867246
 42
-0.04018121
 10
1277.47344649
 20
1835.83214451
 42
-0.0479274
 10
1331.0199
 20
1857.01927659
 42
-0.07481117
 10
1412.84988294
 20
1819.39510075
 42
-0.03850084
 10
1453.74630154
 20
1787.92350386
 42
-0.02665533
 10
1481.98963034
 20
1759.73698826
 42
-0.02115666
 10
1504.76267932
 20
1732.25615574
 42
-0.02017002
 10
1526.74012835
 20
1700.82491028
 42
-0.00884984
 10
1536.0186
 20
1685.80717659
 10
1536.0186
 20
1722.53507659
 10
1331.0454
 20
1927.50837659
 10
1126.0213
 20
1722.48427659
 10
1126.0213
 20
1685.80717659
  0
LWPOLYLINE
  5
1CA
330
36
100
AcDbEntity
  8
WARSTWA_DOMYŚLNA
100
AcDbPolyline
 90
       10
 70
     1
 43
0.0
 10
1242.2612
 20
2237.25987659
 10
1246.7715
 20
2239.41787659
 42
-0.41380395
 10
1260.1082
 20
2234.71327659
 10
1270.8981
 20
2212.16157659
 42
0.41371575
 10
1310.9081
 20
2198.04757659
 10
1333.4597
 20
2208.83757659
 42
-0.41380395
 10
1346.7964
 20
2204.13297659
 10
1348.9544
 20
2199.62257659
 10
1276.7891
 20
2165.09467659
 10
1242.2612
 20
2237.25987659
  0
LWPOLYLINE
  5
1D6
330
36
100
AcDbEntity
  8
WARSTWA_DOMYŚLNA
100
AcDbPolyline
 90
       10
 70
     1
 43
0.0
 10
1391.6671
 20
2177.28767659
 10
1387.1568
 20
2175.12967659
 42
-0.41380395
 10
1373.8201
 20
2179.83427659
 10
1363.0301
 20
2202.38597659
 42
0.4137225800000001
 10
1323.0202
 20
2216.49987659
 10
1300.4686
 20
2205.70997659
 42
-0.41380395
 10
1287.1319
 20
2210.41457659
 10
1284.9739
 20
2214.92487659
 10
1357.1391
 20
2249.45287659
 10
1391.6671
 20
2177.28767659
  0
LWPOLYLINE
  5
1E2
330
36
100
AcDbEntity
  8
WARSTWA_DOMYŚLNA
100
AcDbPolyline
 90
       10
 70
     1
 43
0.0
 10
1241.85
 20
2292.08757659
 10
1246.3604
 20
2294.24557659
 42
-0.4138047100000001
 10
1259.697
 20
2289.54087659
 10
1270.487
 20
2266.98927659
 42
0.4137238100000001
 10
1310.4969
 20
2252.87527659
 10
1333.0486
 20
2263.66527659
 42
-0.41380792
 10
1346.3852
 20
2258.96057659
 10
1348.5432
 20
2254.45027659
 10
1276.378
 20
2219.92237659
 10
1241.85
 20
2292.08757659
  0
LWPOLYLINE
  5
1EE
330
36
100
AcDbEntity
  8
WARSTWA_DOMYŚLNA
100
AcDbPolyline
 90
       10
 70
     1
 43
0.0
 10
1391.2559
 20
2232.11527659
 10
1386.7456
 20
2229.95727659
 42
-0.4138029600000001
 10
1373.409
 20
2234.66197659
 10
1362.619
 20
2257.21357659
 42
0.4137230900000001
 10
1322.609
 20
2271.32757659
 10
1300.0574
 20
2260.53757659
 42
-0.4137983300000001
 10
1286.7207
 20
2265.24227659
 10
1284.5627
 20
2269.75257659
 10
1356.728
 20
2304.28057659
 10
1391.2559
 20
2232.11527659
  0
LWPOLYLINE
  5
1FA
330
36
100
AcDbEntity
  8
WARSTWA_DOMYŚLNA
100
AcDbPolyline
 90
       10
 70
     1
 43
0.0
 10
1241.4389
 20
2346.91527659
 10
1245.9492
 20
2349.07327659
 42
-0.4138029600000001
 10
1259.2858
 20
2344.36857659
 10
1270.0758
 20
2321.81697659
 42
0.4137230900000001
 10
1310.0858
 20
2307.70297659
 10
1332.6374
 20
2318.49297659
 42
-0.4137983300000001
 10
1345.9741
 20
2313.78827659
 10
1348.1321
 20
2309.27797659
 10
1275.9668
 20
2274.74997659
 10
1241.4389
 20
2346.91527659
  0
LWPOLYLINE
  5
206
330
36
100
AcDbEntity
  8
WARSTWA_DOMYŚLNA
100
AcDbPolyline
 90
       10
 70
     1
 43
0.0
 10
1390.8448
 20
2286.94297659
 10
1386.3344
 20
2284.78497659
 42
-0.4138047100000001
 10
1372.9978
 20
2289.48967659
 10
1362.2078
 20
2312.04127659
 42
0.4137238100000001
 10
1322.1979
 20
2326.15527659
 10
1299.6462
 20
2315.36527659
 42
-0.41380792
 10
1286.3096
 20
2320.06997659
 10
1284.1516
 20
2324.58027659
 10
1356.3168
 20
2359.10817659
 10
1390.8448
 20
2286.94297659
  0
LWPOLYLINE
  5
212
330
36
100
AcDbEntity
  8
WARSTWA_DOMYŚLNA
100
AcDbPolyline
 90
       10
 70
     1
 43
0.0
 10
1241.0277
 20
2401.74287659
 10
1245.538
 20
2403.90087659
 42
-0.41380395
 10
1258.8747
 20
2399.19627659
 10
1269.6647
 20
2376.64457659
 42
0.4137225800000001
 10
1309.6746
 20
2362.53067659
 10
1332.2262
 20
2373.32057659
 42
-0.41380395
 10
1345.5629
 20
2368.61597659
 10
1347.7209
 20
2364.10567659
 10
1275.5557
 20
2329.57767659
 10
1241.0277
 20
2401.74287659
  0
LWPOLYLINE
  5
21E
330
36
100
AcDbEntity
  8
WARSTWA_DOMYŚLNA
100
AcDbPolyline
 90
       10
 70
     1
 43
0.0
 10
1390.4336
 20
2341.77067659
 10
1385.9233
 20
2339.61267659
 42
-0.41380395
 10
1372.5866
 20
2344.31727659
 10
1361.7967
 20
2366.86897659
 42
0.41371575
 10
1321.7867
 20
2380.98297659
 10
1299.2351
 20
2370.19297659
 42
-0.41380395
 10
1285.8984
 20
2374.89757659
 10
1283.7404
 20
2379.40797659
 10
1355.9057
 20
2413.93587659
 10
1390.4336
 20
2341.77067659
  0
LWPOLYLINE
  5
22A
330
36
100
AcDbEntity
  8
WARSTWA_DOMYŚLNA
100
AcDbPolyline
 90
       10
 70
     1
 43
0.0
 10
1240.6165
 20
2456.57057659
 10
1245.1269
 20
2458.72857659
 42
-0.41380792
 10
1258.4635
 20
2454.02387659
 10
1269.2535
 20
2431.47227659
 42
0.4137230900000001
 10
1309.2635
 20
2417.35827659
 10
1331.8151
 20
2428.14827659
 42
-0.41380858
 10
1345.1517
 20
2423.44367659
 10
1347.3097
 20
2418.93327659
 10
1275.1445
 20
2384.40537659
 10
1240.6165
 20
2456.57057659
  0
LWPOLYLINE
  5
236
330
36
100
AcDbEntity
  8
WARSTWA_DOMYŚLNA
100
AcDbPolyline
 90
       10
 70
     1
 43
0.0
 10
1390.0225
 20
2396.59837659
 10
1385.5121
 20
2394.44037659
 42
-0.41380858
 10
1372.1755
 20
2399.14497659
 10
1361.3855
 20
2421.69657659
 42
0.4137230900000001
 10
1321.3755
 20
2435.81057659
 10
1298.8239
 20
2425.020576590001
 42
-0.4138029600000001
 10
1285.4873
 20
2429.72527659
 10
1283.3293
 20
2434.23557659
 10
1355.4945
 20
2468.76357659
 10
1390.0225
 20
2396.59837659
  0
LWPOLYLINE
  5
242
330
36
100
AcDbEntity
  8
WARSTWA_DOMYŚLNA
100
AcDbPolyline
 90
       10
 70
     1
 43
0.0
 10
1240.2054
 20
2511.39827659
 10
1244.7157
 20
2513.55627659
 42
-0.4137983300000001
 10
1258.0524
 20
2508.851576590001
 10
1268.8423
 20
2486.29997659
 42
0.4137230900000001
 10
1308.8523
 20
2472.18597659
 10
1331.4039
 20
2482.97597659
 42
-0.41380329
 10
1344.7406
 20
2478.27127659
 10
1346.8986
 20
2473.76097659
 10
1274.7333
 20
2439.23307659
 10
1240.2054
 20
2511.39827659
  0
LWPOLYLINE
  5
24E
330
36
100
AcDbEntity
  8
WARSTWA_DOMYŚLNA
100
AcDbPolyline
 90
       10
 70
     1
 43
0.0
 10
1389.6113
 20
2451.42597659
 10
1385.101
 20
2449.267976590001
 42
-0.4137983300000001
 10
1371.7643
 20
2453.97267659
 10
1360.9743
 20
2476.52427659
 42
0.4137238100000001
 10
1320.9644
 20
2490.63827659
 10
1298.4128
 20
2479.84827659
 42
-0.41380329
 10
1285.0761
 20
2484.55297659
 10
1282.9181
 20
2489.06327659
 10
1355.0833
 20
2523.59127659
 10
1389.6113
 20
2451.42597659
  0
LWPOLYLINE
  5
25A
330
36
100
AcDbEntity
  8
WARSTWA_DOMYŚLNA
100
AcDbPolyline
 90
       73
 70
     1
 43
0.0
 10
105.0809172460334
 20
793.6095589424519
 42
0.0030905
 10
110.9210283560334
 20
799.458780522452
 42
0.25670012
 10
118.1721135260334
 20
826.812942882452
 42
0.00910485
 10
117.5536856260333
 20
829.2936316224521
 42
-0.12357764
 10
117.9952172460334
 20
872.821058942452
 42
0.25495113
 10
111.5734397760334
 20
900.1663304024519
 42
0.01569091
 10
110.1888172460334
 20
901.6385589424519
 10
105.0809172460334
 20
906.746558942452
 42
-0.4138117000000001
 10
105.0809172460334
 20
920.888758942452
 10
112.1519172460334
 20
927.959758942452
 10
130.5722172460334
 20
909.5395589424519
 42
0.4143053400000001
 10
134.0722672460334
 20
906.0384120524521
 42
0.4143053400000001
 10
137.5723172460334
 20
909.5395589424519
 10
144.7143172460334
 20
916.6815589424521
 42
0.4143053400000001
 10
148.2154641360334
 20
920.181608942452
 42
0.4143053400000001
 10
144.7143172460334
 20
923.681658942452
 10
126.2941172460334
 20
942.1019589424521
 10
133.3651172460333
 20
949.1729589424519
 42
-0.4138117000000001
 10
147.5073172460334
 20
949.1729589424519
 42
0.00308145
 10
153.3568391660334
 20
943.332635302452
 42
0.25670713
 10
180.7112777360334
 20
936.081747632452
 42
0.00910175
 10
183.1919886060334
 20
936.700196032452
 42
-0.12357921
 10
226.7194172460334
 20
936.258658942452
 42
0.2549465
 10
254.0643925760334
 20
942.6806532224521
 42
0.01569011
 10
255.5366172460334
 20
944.0652589424519
 10
260.6443172460334
 20
949.1729589424519
 42
-0.4138117000000001
 10
274.7865172460334
 20
949.1729589424519
 10
281.8575172460334
 20
942.1019589424521
 10
263.4373172460334
 20
923.681658942452
 42
0.4143053400000001
 10
259.9361703560334
 20
920.181608942452
 42
0.4143053400000001
 10
263.4373172460334
 20
916.6815589424521
 10
270.5793172460334
 20
909.5395589424519
 42
0.4143053400000001
 10
274.0793672460334
 20
906.0384120524521
 42
0.4143053400000001
 10
277.5794172460334
 20
909.5395589424519
 10
295.9997172460333
 20
927.959758942452
 10
303.0707172460334
 20
920.888758942452
 42
-0.4138117000000001
 10
303.0707172460334
 20
906.746558942452
 42
0.00309056
 10
297.2304115760334
 20
900.8971426824519
 42
0.256699
 10
289.9795252760334
 20
873.5430814324519
 42
0.00910836
 10
290.5979592560334
 20
871.0623846424519
 42
-0.12358034
 10
290.1564172460334
 20
827.534858942452
 42
0.25494803
 10
296.5782954760334
 20
800.189602972452
 42
0.01569048
 10
297.9629172460334
 20
798.7173589424519
 10
303.0707172460334
 20
793.6095589424519
 42
-0.4138117000000001
 10
303.0707172460334
 20
779.4673589424519
 10
295.9997172460333
 20
772.396358942452
 10
277.5794172460334
 20
790.8165589424521
 42
0.4143053400000001
 10
274.0793672460334
 20
794.317705832452
 42
0.4143053400000001
 10
270.5793172460334
 20
790.8165589424521
 10
263.4373172460334
 20
783.674558942452
 42
0.4143053400000001
 10
259.9361703660334
 20
780.174508942452
 42
0.4143053400000001
 10
263.4373172460334
 20
776.6744589424519
 10
281.8575172460334
 20
758.254158942452
 10
274.7865172460334
 20
751.1831589424519
 42
-0.4138117000000001
 10
260.6443172460334
 20
751.1831589424519
 42
0.00308902
 10
254.7949910860334
 20
757.023378922452
 42
0.25670488
 10
227.4405549360334
 20
764.2743699724519
 42
0.00910368
 10
224.9598443660334
 20
763.6559110324519
 42
-0.12358204
 10
181.4323172460334
 20
764.097458942452
 42
0.25494033
 10
154.0874258060333
 20
757.675644172452
 42
0.015691
 10
152.6152172460334
 20
756.2910589424521
 10
147.5073172460334
 20
751.1831589424519
 42
-0.4138117000000001
 10
133.3651172460333
 20
751.1831589424519
 10
126.2941172460334
 20
758.254158942452
 10
144.7143172460334
 20
776.6744589424519
 42
0.4143053400000001
 10
148.2154641360334
 20
780.174508942452
 42
0.4143053400000001
 10
144.7143172460334
 20
783.674558942452
 10
137.5723172460334
 20
790.8165589424521
 42
0.4143053400000001
 10
134.0722672460334
 20
794.317705832452
 42
0.4143053400000001
 10
130.5722172460334
 20
790.8165589424521
 10
112.1519172460334
 20
772.396358942452
 10
105.0809172460334
 20
779.4673589424519
 42
-0.4138117000000001
 10
105.0809172460334
 20
793.6095589424519
  0
LWPOLYLINE
  5
2A5
330
36
100
AcDbEntity
  8
WARSTWA_DOMYŚLNA
100
AcDbPolyline
 90
        6
 70
     1
 43
0.0
 10
169.4276172460334
 20
884.8262589424519
 42
-0.4124837900000001
 10
238.5236787860334
 20
885.037311572452
 42
-0.4124837900000001
 10
239.1430429160334
 20
815.943703682452
 42
-0.40786894
 10
170.6139053760334
 20
814.368560032452
 42
-0.40786894
 10
167.5514562360334
 20
882.8473536424519
 42
-0.01396551
 10
169.4276172460334
 20
884.8262589424519
  0
LWPOLYLINE
  5
2AD
330
36
100
AcDbEntity
  8
WARSTWA_DOMYŚLNA
100
AcDbPolyline
 90
       21
 70
     1
 43
0.0
 10
381.7664172460334
 20
1131.930358942452
 10
346.7233172460334
 20
1131.930358942452
 10
346.7233172460334
 20
955.9303589424519
 10
381.7664172460334
 20
955.9303589424519
 42
-0.41430614
 10
386.7169996060334
 20
955.931141302452
 42
-0.41430614
 10
386.7162172460334
 20
950.9805589424519
 10
386.7162172460334
 20
940.880158942452
 42
-0.41430614
 10
386.7169996060334
 20
935.9295765824519
 42
-0.41430614
 10
381.7664172460334
 20
935.930358942452
 10
346.7233172460334
 20
935.930358942452
 10
346.7233172460334
 20
911.6142589424519
 10
403.6654172460333
 20
911.614158942452
 42
0.38340686
 10
438.4464172460334
 20
942.720758942452
 42
-0.17264483
 10
519.6276517560334
 20
1109.045858632452
 42
-0.03532116
 10
549.5078172460333
 20
1134.473458942452
 42
0.2443718
 10
559.6903172460334
 20
1154.608558942452
 10
559.6903172460334
 20
1171.930358942452
 10
386.7162172460334
 20
1171.930358942452
 10
386.7162172460334
 20
1136.880158942452
 42
-0.41430614
 10
386.7169996060334
 20
1131.929576582452
 42
-0.41430614
 10
381.7664172460334
 20
1131.930358942452
  0
LWPOLYLINE
  5
2C4
330
36
100
AcDbEntity
  8
WARSTWA_DOMYŚLNA
100
AcDbPolyline
 90
       17
 70
     1
 43
0.0
 10
376.7233172460334
 20
985.930358942452
 10
389.6171172460335
 20
985.930358942452
 42
0.31687778
 10
422.3754784660334
 20
1008.600021542452
 42
-0.00195964
 10
425.0665224160334
 20
1016.256609382452
 42
-0.12607803
 10
510.9660172460333
 20
1141.930358942452
 42
0.02287087
 10
475.9167057560333
 20
1134.246998102452
 42
0.02504555
 10
454.0664803260333
 20
1127.087492512452
 42
0.02710834
 10
439.0947187560334
 20
1120.334030052452
 42
0.03076043
 10
426.5795251860334
 20
1112.808998152452
 42
0.0635037
 10
408.9258106760333
 20
1096.891015002452
 42
0.05656799
 10
397.2893527260334
 20
1079.640435002452
 42
0.03587151
 10
390.6142216360334
 20
1064.460125252452
 42
0.02809032
 10
385.2815923860334
 20
1046.582537542452
 42
0.01739694
 10
381.8825323860334
 20
1029.959619252452
 42
0.01280807
 10
379.3684476360334
 20
1012.737853412452
 42
0.00842395
 10
377.5152067160334
 20
995.302572782452
 42
0.00311826
 10
376.7233172460334
 20
985.930358942452
  0
LWPOLYLINE
  5
2D7
330
36
100
AcDbEntity
  8
WARSTWA_DOMYŚLNA
100
AcDbPolyline
 90
        9
 70
     1
 43
0.0
 10
701.8756172460333
 20
803.238458942452
 10
701.8756172460333
 20
1156.286458942452
 10
719.3516172460333
 20
1173.762458942452
 10
1072.399617246033
 20
1173.762458942452
 10
1089.875617246033
 20
1156.286458942452
 10
1089.875617246033
 20
803.2385589424521
 10
1072.399517246033
 20
785.762458942452
 10
719.3516172460333
 20
785.762458942452
 10
701.8756172460333
 20
803.238458942452
  0
LWPOLYLINE
  5
2E2
330
36
100
AcDbEntity
  8
WARSTWA_DOMYŚLNA
100
AcDbPolyline
 90
       21
 70
     1
 43
0.0
 10
633.8514172460333
 20
951.614158942452
 10
668.8945172460334
 20
951.614158942452
 10
668.8945172460334
 20
1127.614158942452
 10
633.8514172460333
 20
1127.614158942452
 42
-0.41430614
 10
628.9008348860334
 20
1127.613376582452
 42
-0.41430614
 10
628.9016172460334
 20
1132.563958942452
 10
628.9016172460334
 20
1142.664358942452
 42
-0.41430614
 10
628.9008348860334
 20
1147.614941302452
 42
-0.41430614
 10
633.8514172460333
 20
1147.614158942452
 10
668.8945172460334
 20
1147.614158942452
 10
668.8945172460334
 20
1171.930258942452
 10
611.9524172460334
 20
1171.930358942452
 42
0.38340686
 10
577.1714172460333
 20
1140.823758942452
 42
-0.17264483
 10
495.9901827360333
 20
974.498659242452
 42
-0.03532116
 10
466.1100172460334
 20
949.0710589424521
 42
0.2443718
 10
455.9275172460334
 20
928.935958942452
 10
455.9275172460334
 20
911.614158942452
 10
628.9016172460334
 20
911.614158942452
 10
628.9016172460334
 20
946.6643589424521
 42
-0.41430614
 10
628.9008348860334
 20
951.6149413024519
 42
-0.41430614
 10
633.8514172460333
 20
951.614158942452
  0
LWPOLYLINE
  5
2F9
330
36
100
AcDbEntity
  8
WARSTWA_DOMYŚLNA
100
AcDbPolyline
 90
       17
 70
     1
 43
0.0
 10
638.8945172460333
 20
1097.614158942452
 10
626.0007172460334
 20
1097.614158942452
 42
0.31687778
 10
593.2423560260333
 20
1074.944496352452
 42
-0.00195964
 10
590.5513120760333
 20
1067.287908502452
 42
-0.12607803
 10
504.6518172460333
 20
941.6141589424521
 42
0.02287087
 10
539.7011287360334
 20
949.297519782452
 42
0.02504555
 10
561.5513541660334
 20
956.457025372452
 42
0.02710834
 10
576.5231157360334
 20
963.210487822452
 42
0.03076043
 10
589.0383093060334
 20
970.735519732452
 42
0.0635037
 10
606.6920238160333
 20
986.653502872452
 42
0.05656799
 10
618.3284817660334
 20
1003.904082882452
 42
0.03587151
 10
625.0036128560334
 20
1019.084392632452
 42
0.02809032
 10
630.3362421060334
 20
1036.961980342452
 42
0.01739694
 10
633.7353021060334
 20
1053.584898632452
 42
0.01280807
 10
636.2493868560334
 20
1070.806664472452
 42
0.00842395
 10
638.1026277760334
 20
1088.241945102452
 42
0.00311826
 10
638.8945172460333
 20
1097.614158942452
  0
LWPOLYLINE
  5
30C
330
36
100
AcDbEntity
  8
WARSTWA_DOMYŚLNA
100
AcDbPolyline
 90
       21
 70
     1
 43
0.0
 10
381.7664172460334
 20
853.111258942452
 10
346.7233172460334
 20
853.111258942452
 10
346.7233172460334
 20
677.1112589424519
 10
381.7664172460334
 20
677.1112589424519
 42
-0.41430614
 10
386.7169996060334
 20
677.112041302452
 42
-0.41430614
 10
386.7162172460334
 20
672.1614589424519
 10
386.7162172460334
 20
662.061058942452
 42
-0.41430614
 10
386.7169996060334
 20
657.1104765824521
 42
-0.41430614
 10
381.7664172460334
 20
657.111258942452
 10
346.7233172460334
 20
657.111258942452
 10
346.7233172460334
 20
632.7951589424519
 10
403.6654172460333
 20
632.795058942452
 42
0.38340686
 10
438.4464172460334
 20
663.901658942452
 42
-0.17264483
 10
519.6276517560334
 20
830.226758632452
 42
-0.03532116
 10
549.5078172460333
 20
855.6543589424521
 42
0.2443718
 10
559.6903172460334
 20
875.789458942452
 10
559.6903172460334
 20
893.111258942452
 10
386.7162172460334
 20
893.111258942452
 10
386.7162172460334
 20
858.0610589424521
 42
-0.41430614
 10
386.7169996060334
 20
853.1104765824521
 42
-0.41430614
 10
381.7664172460334
 20
853.111258942452
  0
LWPOLYLINE
  5
323
330
36
100
AcDbEntity
  8
WARSTWA_DOMYŚLNA
100
AcDbPolyline
 90
       17
 70
     1
 43
0.0
 10
376.7233172460334
 20
707.111258942452
 10
389.6171172460335
 20
707.111258942452
 42
0.31687778
 10
422.3754784660334
 20
729.7809215424519
 42
-0.00195964
 10
425.0665224160334
 20
737.437509382452
 42
-0.12607803
 10
510.9660172460333
 20
863.1112589424519
 42
0.02287087
 10
475.9167057560333
 20
855.427898102452
 42
0.02504555
 10
454.0664803260333
 20
848.268392512452
 42
0.02710834
 10
439.0947187560334
 20
841.514930052452
 42
0.03076043
 10
426.5795251860334
 20
833.989898152452
 42
0.0635037
 10
408.9258106760333
 20
818.071915002452
 42
0.05656799
 10
397.2893527260334
 20
800.821335002452
 42
0.03587151
 10
390.6142216360334
 20
785.6410252524519
 42
0.02809032
 10
385.2815923860334
 20
767.763437542452
 42
0.01739694
 10
381.8825323860334
 20
751.140519252452
 42
0.01280807
 10
379.3684476360334
 20
733.918753412452
 42
0.00842395
 10
377.5152067160334
 20
716.483472782452
 42
0.00311826
 10
376.7233172460334
 20
707.111258942452
  0
LWPOLYLINE
  5
336
330
36
100
AcDbEntity
  8
WARSTWA_DOMYŚLNA
100
AcDbPolyline
 90
       21
 70
     1
 43
0.0
 10
633.8514172460333
 20
672.7950589424519
 10
668.8945172460334
 20
672.7950589424519
 10
668.8945172460334
 20
848.7950589424519
 10
633.8514172460333
 20
848.7950589424519
 42
-0.41430614
 10
628.9008348860334
 20
848.794276582452
 42
-0.41430614
 10
628.9016172460334
 20
853.7448589424521
 10
628.9016172460334
 20
863.845258942452
 42
-0.41430614
 10
628.9008348860334
 20
868.7958413024519
 42
-0.41430614
 10
633.8514172460333
 20
868.795058942452
 10
668.8945172460334
 20
868.795058942452
 10
668.8945172460334
 20
893.1111589424519
 10
611.9524172460334
 20
893.111258942452
 42
0.38340686
 10
577.1714172460333
 20
862.004658942452
 42
-0.17264483
 10
495.9901827360333
 20
695.6795592424519
 42
-0.03532116
 10
466.1100172460334
 20
670.251958942452
 42
0.2443718
 10
455.9275172460334
 20
650.116858942452
 10
455.9275172460334
 20
632.795058942452
 10
628.9016172460334
 20
632.795058942452
 10
628.9016172460334
 20
667.8452589424519
 42
-0.41430614
 10
628.9008348860334
 20
672.795841302452
 42
-0.41430614
 10
633.8514172460333
 20
672.7950589424519
  0
LWPOLYLINE
  5
34D
330
36
100
AcDbEntity
  8
WARSTWA_DOMYŚLNA
100
AcDbPolyline
 90
       17
 70
     1
 43
0.0
 10
638.8945172460333
 20
818.795058942452
 10
626.0007172460334
 20
818.795058942452
 42
0.31687778
 10
593.2423560260333
 20
796.125396352452
 42
-0.00195964
 10
590.5513120760333
 20
788.468808502452
 42
-0.12607803
 10
504.6518172460333
 20
662.795058942452
 42
0.02287087
 10
539.7011287360334
 20
670.4784197824519
 42
0.02504555
 10
561.5513541660334
 20
677.6379253724519
 42
0.02710834
 10
576.5231157360334
 20
684.3913878224519
 42
0.03076043
 10
589.0383093060334
 20
691.916419732452
 42
0.0635037
 10
606.6920238160333
 20
707.834402872452
 42
0.05656799
 10
618.3284817660334
 20
725.0849828824519
 42
0.03587151
 10
625.0036128560334
 20
740.2652926324519
 42
0.02809032
 10
630.3362421060334
 20
758.142880342452
 42
0.01739694
 10
633.7353021060334
 20
774.765798632452
 42
0.01280807
 10
636.2493868560334
 20
791.9875644724521
 42
0.00842395
 10
638.1026277760334
 20
809.422845102452
 42
0.00311826
 10
638.8945172460333
 20
818.795058942452
  0
LWPOLYLINE
  5
360
330
36
100
AcDbEntity
  8
WARSTWA_DOMYŚLNA
100
AcDbPolyline
 90
       73
 70
     1
 43
0.0
 10
98.01291724603339
 20
1011.492558942452
 42
0.0030905
 10
103.8530283560334
 20
1017.341780522452
 42
0.25670012
 10
111.1041135260334
 20
1044.695942882452
 42
0.00910485
 10
110.4856856260334
 20
1047.176631622452
 42
-0.12357764
 10
110.9272172460333
 20
1090.704058942452
 42
0.25495113
 10
104.5054397760333
 20
1118.049330402452
 42
0.01569091
 10
103.1208172460333
 20
1119.521558942452
 10
98.01291724603339
 20
1124.629558942452
 42
-0.4138117000000001
 10
98.01291724603339
 20
1138.771758942452
 10
105.0839172460333
 20
1145.842758942452
 10
123.5042172460334
 20
1127.422558942452
 42
0.4143053400000001
 10
127.0042672460334
 20
1123.921412052452
 42
0.4143053400000001
 10
130.5043172460334
 20
1127.422558942452
 10
137.6463172460334
 20
1134.564558942452
 42
0.4143053400000001
 10
141.1474641360334
 20
1138.064608942452
 42
0.4143053400000001
 10
137.6463172460334
 20
1141.564658942452
 10
119.2261172460334
 20
1159.984958942452
 10
126.2971172460334
 20
1167.055958942452
 42
-0.4138117000000001
 10
140.4393172460334
 20
1167.055958942452
 42
0.00308145
 10
146.2888391660333
 20
1161.215635302452
 42
0.25670713
 10
173.6432777360334
 20
1153.964747632452
 42
0.00910175
 10
176.1239886060334
 20
1154.583196032452
 42
-0.12357921
 10
219.6514172460334
 20
1154.141658942452
 42
0.2549465
 10
246.9963925760334
 20
1160.563653222452
 42
0.01569011
 10
248.4686172460334
 20
1161.948258942452
 10
253.5763172460334
 20
1167.055958942452
 42
-0.4138117000000001
 10
267.7185172460334
 20
1167.055958942452
 10
274.7895172460334
 20
1159.984958942452
 10
256.3693172460334
 20
1141.564658942452
 42
0.4143053400000001
 10
252.8681703560334
 20
1138.064608942452
 42
0.4143053400000001
 10
256.3693172460334
 20
1134.564558942452
 10
263.5113172460334
 20
1127.422558942452
 42
0.4143053400000001
 10
267.0113672460334
 20
1123.921412052452
 42
0.4143053400000001
 10
270.5114172460334
 20
1127.422558942452
 10
288.9317172460334
 20
1145.842758942452
 10
296.0027172460334
 20
1138.771758942452
 42
-0.4138117000000001
 10
296.0027172460334
 20
1124.629558942452
 42
0.00309056
 10
290.1624115760334
 20
1118.780142682452
 42
0.256699
 10
282.9115252760335
 20
1091.426081432452
 42
0.00910836
 10
283.5299592560334
 20
1088.945384642452
 42
-0.12358034
 10
283.0884172460334
 20
1045.417858942452
 42
0.25494803
 10
289.5102954760334
 20
1018.072602972452
 42
0.01569048
 10
290.8949172460334
 20
1016.600358942452
 10
296.0027172460334
 20
1011.492558942452
 42
-0.4138117000000001
 10
296.0027172460334
 20
997.350358942452
 10
288.9317172460334
 20
990.279358942452
 10
270.5114172460334
 20
1008.699558942452
 42
0.4143053400000001
 10
267.0113672460334
 20
1012.200705832452
 42
0.4143053400000001
 10
263.5113172460334
 20
1008.699558942452
 10
256.3693172460334
 20
1001.557558942452
 42
0.4143053400000001
 10
252.8681703560334
 20
998.0575089424519
 42
0.4143053400000001
 10
256.3693172460334
 20
994.557458942452
 10
274.7895172460334
 20
976.137158942452
 10
267.7185172460334
 20
969.066158942452
 42
-0.4138117000000001
 10
253.5763172460334
 20
969.066158942452
 42
0.00308902
 10
247.7269910860333
 20
974.9063789224519
 42
0.25670488
 10
220.3725549360334
 20
982.157369972452
 42
0.00910368
 10
217.8918443660334
 20
981.538911032452
 42
-0.12358204
 10
174.3643172460334
 20
981.9804589424521
 42
0.25494033
 10
147.0194258060334
 20
975.5586441724519
 42
0.015691
 10
145.5472172460333
 20
974.1740589424519
 10
140.4393172460334
 20
969.066158942452
 42
-0.4138117000000001
 10
126.2971172460334
 20
969.066158942452
 10
119.2261172460334
 20
976.137158942452
 10
137.6463172460334
 20
994.557458942452
 42
0.4143053400000001
 10
141.1474641360334
 20
998.0575089424519
 42
0.4143053400000001
 10
137.6463172460334
 20
1001.557558942452
 10
130.5043172460334
 20
1008.699558942452
 42
0.4143053400000001
 10
127.0042672460334
 20
1012.200705832452
 42
0.4143053400000001
 10
123.5042172460334
 20
1008.699558942452
 10
105.0839172460333
 20
990.279358942452
 10
98.01291724603339
 20
997.350358942452
 42
-0.4138117000000001
 10
98.01291724603339
 20
1011.492558942452
  0
LWPOLYLINE
  5
3AB
330
36
100
AcDbEntity
  8
WARSTWA_DOMYŚLNA
100
AcDbPolyline
 90
        6
 70
     1
 43
0.0
 10
162.3596172460334
 20
1102.709258942452
 42
-0.4124837900000001
 10
231.4556787860334
 20
1102.920311572452
 42
-0.4124837900000001
 10
232.0750429160334
 20
1033.826703682452
 42
-0.40786894
 10
163.5459053760333
 20
1032.251560032452
 42
-0.40786894
 10
160.4834562360334
 20
1100.730353642452
 42
-0.01396551
 10
162.3596172460334
 20
1102.709258942452
  0
LWPOLYLINE
  5
3B3
330
36
100
AcDbEntity
  8
WARSTWA_DOMYŚLNA
100
AcDbPolyline
 90
       73
 70
     1
 43
0.0
 10
112.4522172460334
 20
561.546758942452
 42
0.00309377
 10
117.6309237360333
 20
567.988899102452
 42
0.25669874
 10
121.9047194460333
 20
595.963288162452
 42
0.00910695
 10
121.0236458460334
 20
598.363289142452
 42
-0.1235791
 10
116.7915172460334
 20
641.6867589424519
 42
0.25494926
 10
107.4723315060334
 20
668.185002292452
 42
0.01569065
 10
105.9377172460334
 20
669.500158942452
 10
100.3111172460334
 20
674.0304589424519
 42
-0.4138006
 10
98.79341724603342
 20
688.090958942452
 10
105.0648172460334
 20
695.879958942452
 10
125.3555172460334
 20
679.542858942452
 42
0.41431311
 10
129.2110449260333
 20
676.4374760524519
 42
0.41431311
 10
132.3151172460333
 20
680.294058942452
 10
138.6495172460334
 20
688.161258942452
 42
0.41430329
 10
141.7548334360334
 20
692.016824022452
 42
0.41430329
 10
137.8983172460334
 20
695.120958942452
 10
117.6077172460334
 20
711.4580589424519
 10
123.8791172460334
 20
719.247158942452
 42
-0.41380107
 10
137.9396172460334
 20
720.7647589424519
 42
0.0030904
 10
144.3820604360334
 20
715.585847022452
 42
0.25670402
 10
172.3566338460334
 20
711.3123425824519
 42
0.00910245
 10
174.7566518160334
 20
712.193428792452
 42
-0.12357951
 10
218.0802172460334
 20
716.425458942452
 42
0.25494613
 10
244.5780809760334
 20
725.744959442452
 42
0.01568991
 10
245.8932172460334
 20
727.279558942452
 10
250.4233172460334
 20
732.905858942452
 42
-0.4138006
 10
264.4838172460334
 20
734.423558942452
 10
272.2728172460334
 20
728.152158942452
 10
255.9357172460334
 20
707.861458942452
 42
0.41431311
 10
252.8303343560334
 20
704.005931262452
 42
0.41431311
 10
256.6869172460334
 20
700.901858942452
 10
264.5541172460334
 20
694.567458942452
 42
0.41430329
 10
268.4096823260334
 20
691.462142742452
 42
0.41430329
 10
271.5138172460334
 20
695.3186589424519
 10
287.8509172460334
 20
715.6092589424519
 10
295.6400172460334
 20
709.337858942452
 42
-0.41380107
 10
297.1576172460334
 20
695.277358942452
 42
0.00309649
 10
291.9787167760333
 20
688.835024272452
 42
0.25670024
 10
287.7052163360334
 20
660.8608175424519
 42
0.00910637
 10
288.5862948660334
 20
658.460827142452
 42
-0.12358182
 10
292.8183172460334
 20
615.137258942452
 42
0.25494742
 10
302.1376034460334
 20
588.639014072452
 42
0.01569047
 10
303.6722172460334
 20
587.323858942452
 10
309.2987172460334
 20
582.793658942452
 42
-0.4138006
 10
310.8164172460334
 20
568.7331589424521
 10
304.5450172460334
 20
560.9441589424519
 10
284.2543172460334
 20
577.281258942452
 42
0.41431311
 10
280.3987895660334
 20
580.386641832452
 42
0.41431311
 10
277.2947172460334
 20
576.5300589424519
 10
270.9603172460334
 20
568.6628589424519
 42
0.41430329
 10
267.8550010560334
 20
564.8072938624521
 42
0.41430329
 10
271.7115172460334
 20
561.7031589424519
 10
292.0021172460334
 20
545.366058942452
 10
285.7307172460334
 20
537.576958942452
 42
-0.41380107
 10
271.6702172460334
 20
536.059358942452
 42
0.00308742
 10
265.2278768060334
 20
541.238173802452
 42
0.25670443
 10
237.2533011860334
 20
545.511776042452
 42
0.00910499
 10
234.8532873860334
 20
544.630674742452
 42
-0.12358262
 10
191.5297172460333
 20
540.398558942452
 42
0.25494463
 10
165.0319358860334
 20
531.079352682452
 42
0.01569107
 10
163.7168172460333
 20
529.544758942452
 10
159.1865172460334
 20
523.918258942452
 42
-0.4138006
 10
145.1260172460334
 20
522.4005589424519
 10
137.3370172460333
 20
528.6719589424519
 10
153.6741172460334
 20
548.962658942452
 42
0.41431311
 10
156.7795001360334
 20
552.818186622452
 42
0.41431311
 10
152.9229172460333
 20
555.9222589424519
 10
145.0557172460334
 20
562.2566589424519
 42
0.41430329
 10
141.2001521660334
 20
565.3619751324519
 42
0.41430329
 10
138.0960172460334
 20
561.505458942452
 10
121.7589172460334
 20
541.214858942452
 10
113.9698172460334
 20
547.4862589424519
 42
-0.41380107
 10
112.4522172460334
 20
561.546758942452
  0
LWPOLYLINE
  5
3FE
330
36
100
AcDbEntity
  8
WARSTWA_DOMYŚLNA
100
AcDbPolyline
 90
        6
 70
     1
 43
0.0
 10
166.6385172460334
 20
659.1419589424519
 42
-0.41248355
 10
235.3129519860334
 20
666.766745822452
 42
-0.41248355
 10
243.3434856060334
 20
598.138574552452
 42
-0.40786858
 10
175.3791013460334
 20
589.218432592452
 42
-0.40786858
 10
164.9855609660334
 20
656.9731429724519
 42
-0.01396548
 10
166.6385172460334
 20
659.1419589424519
  0
LWPOLYLINE
  5
406
330
36
100
AcDbEntity
  8
WARSTWA_DOMYŚLNA
100
AcDbPolyline
 90
        9
 70
     1
 43
0.0
 10
625.1083999999999
 20
1830.43087659
 42
-0.1731992
 10
643.23637539
 20
1825.9387096
 42
-0.08457427
 10
649.83005
 20
1819.89851409
 42
-0.03112126
 10
651.1508
 20
1817.91877659
 10
703.2629
 20
1727.89307659
 10
613.5186
 20
1779.86257659
 42
-0.11874067
 10
604.33428675
 20
1788.81426014
 42
-0.08978596
 10
600.9109431099999
 20
1797.60832878
 42
-0.44215654
 10
625.1083999999999
 20
1830.43087659
  0
LWPOLYLINE
  5
411
330
36
100
AcDbEntity
  8
WARSTWA_DOMYŚLNA
100
AcDbPolyline
 90
       10
 70
     1
 43
0.0
 10
726.5031
 20
1673.59627659
 10
726.5031
 20
1683.96867659
 42
-0.41412153
 10
746.0832
 20
1703.54687659
 42
-0.4252348300000001
 10
766.4587
 20
1683.96867659
 10
766.4587
 20
1673.59627659
 10
766.4782999999999
 20
1673.59627659
 10
766.4782999999999
 20
1578.62247659
 10
726.4815999999999
 20
1578.62247659
 10
726.4815999999999
 20
1673.59627659
 10
726.5031
 20
1673.59627659
  0
LWPOLYLINE
  5
41D
330
36
100
AcDbEntity
  8
WARSTWA_DOMYŚLNA
100
AcDbPolyline
 90
       10
 70
     1
 43
0.0
 10
776.4813
 20
1578.62247659
 10
776.4813
 20
1673.59627659
 10
776.5028
 20
1673.59627659
 10
776.5028
 20
1683.96867659
 42
-0.41410861
 10
796.0829999999999
 20
1703.54687659
 42
-0.4252436700000001
 10
816.4583999999999
 20
1683.96867659
 10
816.4583999999999
 20
1673.59627659
 10
816.478
 20
1673.59627659
 10
816.478
 20
1578.62247659
 10
776.4813
 20
1578.62247659
  0
LWPOLYLINE
  5
429
330
36
100
AcDbEntity
  8
WARSTWA_DOMYŚLNA
100
AcDbPolyline
 90
        6
 70
     1
 43
0.0
 10
506.4765
 20
1523.62247659
 10
936.4738
 20
1523.62247659
 10
936.4738
 20
1745.14977659
 10
721.5005999999999
 20
1959.86507659
 10
506.4765
 20
1744.90357659
 10
506.4765
 20
1523.62247659
  0
LWPOLYLINE
  5
431
330
36
100
AcDbEntity
  8
WARSTWA_DOMYŚLNA
100
AcDbPolyline
 90
        8
 70
     1
 43
0.0
 10
714.5185999999999
 20
1734.79887659
 10
662.7816
 20
1824.67997659
 42
-0.10835212
 10
659.3473711499999
 20
1836.0640922
 42
-0.12843114
 10
661.98809613
 20
1849.41708476
 42
-0.63114737
 10
711.7904833999999
 20
1849.2721191
 42
-0.07142067
 10
714.17709322
 20
1841.69961145
 42
-0.03655392
 10
714.3994
 20
1838.82187659
 10
714.5185999999999
 20
1734.79887659
  0
LWPOLYLINE
  5
43B
330
36
100
AcDbEntity
  8
WARSTWA_DOMYŚLNA
100
AcDbPolyline
 90
        8
 70
     1
 43
0.0
 10
727.5095
 20
1735.05097659
 10
727.6443
 20
1838.75737659
 42
-0.10931249
 10
730.39209399
 20
1850.39704648
 42
-0.11568135
 10
738.2245830399999
 20
1859.78799832
 42
-0.61656087
 10
782.46037104
 20
1838.12834324
 42
-0.10420378
 10
780.3664887899999
 20
1827.09186166
 42
-0.02822174
 10
779.4163999999999
 20
1825.19587659
 10
727.5095
 20
1735.05097659
  0
LWPOLYLINE
  5
445
330
36
100
AcDbEntity
  8
WARSTWA_DOMYŚLNA
100
AcDbPolyline
 90
        8
 70
     1
 43
0.0
 10
739.3455
 20
1728.91897659
 10
791.3129999999999
 20
1818.66527659
 42
-0.10895257
 10
799.4979054399999
 20
1827.35978624
 42
-0.10049219
 10
809.2690016499998
 20
1831.31394319
 42
-0.65513638
 10
837.81507344
 20
1789.61620472
 42
-0.09285059
 10
831.23887929
 20
1782.27027892
 42
-0.02895754
 10
829.3673
 20
1781.03307659
 10
739.3455
 20
1728.91897659
  0
LWPOLYLINE
  5
44F
330
36
100
AcDbEntity
  8
WARSTWA_DOMYŚLNA
100
AcDbPolyline
 90
        8
 70
     1
 43
0.0
 10
746.0578
 20
1717.79227659
 10
835.9349999999999
 20
1769.53117659
 42
-0.11935867
 10
848.3209076799999
 20
1773.01038545
 42
-0.0999188
 10
858.7367588499999
 20
1771.16666816
 42
-0.6424165300000001
 10
861.6822109400001
 20
1721.12172972
 42
-0.09277991
 10
852.3151505499999
 20
1718.04771756
 42
-0.02896553
 10
850.0769
 20
1717.91147659
 10
746.0578
 20
1717.79227659
  0
LWPOLYLINE
  5
459
330
36
100
AcDbEntity
  8
WARSTWA_DOMYŚLNA
100
AcDbPolyline
 90
       11
 70
     1
 43
0.0
 10
882.2376
 20
1697.81347659
 42
-0.1987226
 10
896.0824
 20
1703.54687659
 42
-0.4253339300000001
 10
916.4578999999999
 20
1683.96867659
 10
916.4578999999999
 20
1673.59627659
 10
916.4794
 20
1673.59627659
 10
916.4794
 20
1578.62247659
 10
876.4827
 20
1578.62247659
 10
876.4827
 20
1673.59627659
 10
876.5041999999999
 20
1673.59627659
 10
876.5041999999999
 20
1683.96867659
 42
-0.19875828
 10
882.2376
 20
1697.81347659
  0
LWPOLYLINE
  5
466
330
36
100
AcDbEntity
  8
WARSTWA_DOMYŚLNA
100
AcDbPolyline
 90
       11
 70
     1
 43
0.0
 10
838.5906999999999
 20
1702.05777659
 42
-0.09812068
 10
846.0827
 20
1703.54687659
 42
-0.4252496800000001
 10
866.4582000000001
 20
1683.96867659
 10
866.4582000000001
 20
1673.59627659
 10
866.4777
 20
1673.59627659
 10
866.4777
 20
1578.62247659
 10
826.4829999999999
 20
1578.62247659
 10
826.4829999999999
 20
1673.59627659
 10
826.5026
 20
1673.59627659
 10
826.5026
 20
1683.96867659
 42
-0.30321725
 10
838.5906999999999
 20
1702.05777659
  0
LWPOLYLINE
  5
473
330
36
100
AcDbEntity
  8
WARSTWA_DOMYŚLNA
100
AcDbPolyline
 90
       11
 70
     1
 43
0.0
 10
704.3708999999999
 20
1702.05777659
 42
-0.3031989
 10
716.4589999999999
 20
1683.96867659
 10
716.4589999999999
 20
1673.59627659
 10
716.4785000000001
 20
1673.59627659
 10
716.4785000000001
 20
1578.62247659
 10
676.4819
 20
1578.62247659
 10
676.4819
 20
1673.59627659
 10
676.5034
 20
1673.59627659
 10
676.5034
 20
1683.96867659
 42
-0.41412646
 10
696.0816
 20
1703.54687659
 42
-0.10601036
 10
704.3708999999999
 20
1702.05777659
  0
LWPOLYLINE
  5
480
330
36
100
AcDbEntity
  8
WARSTWA_DOMYŚLNA
100
AcDbPolyline
 90
        8
 70
     1
 43
0.0
 10
606.8414
 20
1768.423176589999
 10
696.9844000000001
 20
1716.51627659
 10
593.2799
 20
1716.65107659
 42
-0.11934918
 10
580.8228099899999
 20
1719.8243799
 42
-0.09976295
 10
572.73204589
 20
1726.61305951
 42
-0.64275467
 10
595.1852999999999
 20
1771.44731722
 42
-0.09282122
 10
604.83494612
 20
1769.42514649
 42
-0.02893936
 10
606.8414
 20
1768.423176589999
  0
LWPOLYLINE
  5
48A
330
36
100
AcDbEntity
  8
WARSTWA_DOMYŚLNA
100
AcDbPolyline
 90
       11
 70
     1
 43
0.0
 10
660.724
 20
1697.81347659
 42
-0.19863156
 10
666.4592999999999
 20
1683.96867659
 10
666.4592999999999
 20
1673.59627659
 10
666.4787999999999
 20
1673.59627659
 10
666.4787999999999
 20
1578.62247659
 10
626.4820999999999
 20
1578.62247659
 10
626.4820999999999
 20
1673.59627659
 10
626.5036
 20
1673.59627659
 10
626.5036
 20
1683.96867659
 42
-0.41416584
 10
646.0818
 20
1703.54687659
 42
-0.20788706
 10
660.724
 20
1697.81347659
  0
LWPOLYLINE
  5
497
330
36
100
AcDbEntity
  8
WARSTWA_DOMYŚLNA
100
AcDbPolyline
 90
       11
 70
     1
 43
0.0
 10
614.9686
 20
1691.46067659
 42
-0.09811136
 10
616.4575999999999
 20
1683.96867659
 10
616.4575999999999
 20
1673.59627659
 10
616.4791
 20
1673.59627659
 10
616.4791
 20
1578.62247659
 10
576.4823999999999
 20
1578.62247659
 10
576.4823999999999
 20
1673.59627659
 10
576.5039
 20
1673.59627659
 10
576.5039
 20
1683.96867659
 42
-0.41417249
 10
596.0821
 20
1703.54687659
 42
-0.31336511
 10
614.9686
 20
1691.46067659
  0
LWPOLYLINE
  5
4A4
330
36
100
AcDbEntity
  8
WARSTWA_DOMYŚLNA
100
AcDbPolyline
 90
       11
 70
     1
 43
0.0
 10
564.9669
 20
1691.46067659
 42
-0.09828809
 10
566.4578999999999
 20
1683.96867659
 10
566.4578999999999
 20
1673.59627659
 10
566.4774
 20
1673.59627659
 10
566.4774
 20
1578.62247659
 10
526.4827
 20
1578.62247659
 10
526.4827
 20
1673.59627659
 10
526.5022
 20
1673.59627659
 10
526.5022
 20
1683.96867659
 42
-0.41410325
 10
546.0824
 20
1703.54687659
 42
-0.31347357
 10
564.9669
 20
1691.46067659
  0
LWPOLYLINE
  5
4B1
330
36
100
AcDbEntity
  8
WARSTWA_DOMYŚLNA
100
AcDbPolyline
 90
        4
 70
     1
 43
0.0
 10
718.0008
 20
1729.70447659
 42
-0.3808555
 10
739.8594000000001
 20
1716.51627659
 10
703.2023
 20
1716.51627659
 42
-0.28136056
 10
718.0008
 20
1729.70447659
  0
LWPOLYLINE
  5
4B7
330
36
100
AcDbEntity
  8
WARSTWA_DOMYŚLNA
100
AcDbPolyline
 90
        5
 70
     1
 43
0.0
 10
516.8576
 20
2289.36857659
 10
516.8576
 20
2509.35407659
 10
6.8512
 20
2509.35407659
 10
6.8512
 20
2289.36857659
 10
516.8576
 20
2289.36857659
  0
LWPOLYLINE
  5
4BE
330
36
100
AcDbEntity
  8
WARSTWA_DOMYŚLNA
100
AcDbPolyline
 90
       11
 70
     1
 43
0.0
 10
278.949
 20
2467.80397659
 42
-0.09810762
 10
286.441
 20
2469.29497659
 42
-0.42524311
 10
306.8165
 20
2449.71477659
 10
306.8165
 20
2439.34237659
 10
306.838
 20
2439.34237659
 10
306.838
 20
2344.36857659
 10
266.8413
 20
2344.36857659
 10
266.8413
 20
2439.34237659
 10
266.8609
 20
2439.34237659
 10
266.8609
 20
2449.71477659
 42
-0.3032351
 10
278.949
 20
2467.80397659
  0
LWPOLYLINE
  5
4CB
330
36
100
AcDbEntity
  8
WARSTWA_DOMYŚLNA
100
AcDbPolyline
 90
       11
 70
     1
 43
0.0
 10
322.5959
 20
2463.55967659
 42
-0.19867259
 10
336.4408
 20
2469.29497659
 42
-0.4252664700000001
 10
356.8162
 20
2449.71477659
 10
356.8162
 20
2439.34237659
 10
356.8377
 20
2439.34237659
 10
356.8377
 20
2344.36857659
 10
316.8411
 20
2344.36857659
 10
316.8411
 20
2439.34237659
 10
316.8606
 20
2439.34237659
 10
316.8606
 20
2449.71477659
 42
-0.19866672
 10
322.5959
 20
2463.55967659
  0
LWPOLYLINE
  5
4D8
330
36
100
AcDbEntity
  8
WARSTWA_DOMYŚLNA
100
AcDbPolyline
 90
       11
 70
     1
 43
0.0
 10
368.3513
 20
2457.20677659
 42
-0.30321511
 10
386.4405
 20
2469.29497659
 42
-0.4252870500000001
 10
406.8159999999999
 20
2449.71477659
 10
406.8159999999999
 20
2439.34237659
 10
406.8374999999999
 20
2439.34237659
 10
406.8374999999999
 20
2344.36857659
 10
366.8408
 20
2344.36857659
 10
366.8408
 20
2439.34237659
 10
366.8623
 20
2439.34237659
 10
366.8623
 20
2449.71477659
 42
-0.09811136
 10
368.3513
 20
2457.20677659
  0
LWPOLYLINE
  5
4E5
330
36
100
AcDbEntity
  8
WARSTWA_DOMYŚLNA
100
AcDbPolyline
 90
       11
 70
     1
 43
0.0
 10
418.351
 20
2457.20677659
 42
-0.30321105
 10
436.4402
 20
2469.29497659
 42
-0.4253115000000001
 10
456.8157
 20
2449.71477659
 10
456.8157
 20
2439.34237659
 10
456.8372
 20
2439.34237659
 10
456.8372
 20
2344.36857659
 10
416.8404999999999
 20
2344.36857659
 10
416.8404999999999
 20
2439.34237659
 10
416.862
 20
2439.34237659
 10
416.862
 20
2449.71477659
 42
-0.09792135
 10
418.351
 20
2457.20677659
  0
LWPOLYLINE
  5
4F2
330
36
100
AcDbEntity
  8
WARSTWA_DOMYŚLNA
100
AcDbPolyline
 90
       10
 70
     1
 43
0.0
 10
466.8617
 20
2449.71477659
 42
-0.41405186
 10
486.4399
 20
2469.29497659
 42
-0.4252298500000001
 10
506.8173999999999
 20
2449.71477659
 10
506.8173999999999
 20
2439.34237659
 10
506.8369
 20
2439.34237659
 10
506.8369
 20
2344.36857659
 10
466.8403
 20
2344.36857659
 10
466.8403
 20
2439.34237659
 10
466.8617
 20
2439.34237659
 10
466.8617
 20
2449.71477659
  0
LWPOLYLINE
  5
4FE
330
36
100
AcDbEntity
  8
WARSTWA_DOMYŚLNA
100
AcDbPolyline
 90
       11
 70
     1
 43
0.0
 10
172.5967
 20
2463.55967659
 42
-0.19872785
 10
186.4396
 20
2469.29497659
 42
-0.42525308
 10
206.817
 20
2449.71477659
 10
206.817
 20
2439.34237659
 10
206.8366
 20
2439.34237659
 10
206.8366
 20
2344.36857659
 10
166.8399
 20
2344.36857659
 10
166.8399
 20
2439.34237659
 10
166.8614
 20
2439.34237659
 10
166.8614
 20
2449.71477659
 42
-0.19872189
 10
172.5967
 20
2463.55967659
  0
LWPOLYLINE
  5
50B
330
36
100
AcDbEntity
  8
WARSTWA_DOMYŚLNA
100
AcDbPolyline
 90
       11
 70
     1
 43
0.0
 10
218.3521
 20
2457.20677659
 42
-0.30326603
 10
236.4413
 20
2469.29497659
 42
-0.4252246700000001
 10
256.8168
 20
2449.71477659
 10
256.8168
 20
2439.34237659
 10
256.8363
 20
2439.34237659
 10
256.8363
 20
2344.36857659
 10
216.8397
 20
2344.36857659
 10
216.8397
 20
2439.34237659
 10
216.8612
 20
2439.34237659
 10
216.8612
 20
2449.71477659
 42
-0.09810781
 10
218.3521
 20
2457.20677659
  0
LWPOLYLINE
  5
518
330
36
100
AcDbEntity
  8
WARSTWA_DOMYŚLNA
100
AcDbPolyline
 90
       11
 70
     1
 43
0.0
 10
122.597
 20
2463.55967659
 42
-0.19875437
 10
136.4399
 20
2469.29497659
 42
-0.4252365400000001
 10
156.8172999999999
 20
2449.71477659
 10
156.8172999999999
 20
2439.34237659
 10
156.8369
 20
2439.34237659
 10
156.8369
 20
2344.36857659
 10
116.8402
 20
2344.36857659
 10
116.8402
 20
2439.34237659
 10
116.8617
 20
2439.34237659
 10
116.8617
 20
2449.71477659
 42
-0.19888091
 10
122.597
 20
2463.55967659
  0
LWPOLYLINE
  5
525
330
36
100
AcDbEntity
  8
WARSTWA_DOMYŚLNA
100
AcDbPolyline
 90
       10
 70
     1
 43
0.0
 10
86.44020000000001
 20
2469.29497659
 42
-0.42521935
 10
106.8176
 20
2449.71477659
 10
106.8176
 20
2439.34237659
 10
106.8371
 20
2439.34237659
 10
106.8371
 20
2344.36857659
 10
66.8405
 20
2344.36857659
 10
66.8405
 20
2439.34237659
 10
66.86199999999999
 20
2439.34237659
 10
66.86199999999999
 20
2449.71477659
 42
-0.4141022300000001
 10
86.44020000000001
 20
2469.29497659
  0
LWPOLYLINE
  5
531
330
36
100
AcDbEntity
  8
WARSTWA_DOMYŚLNA
100
AcDbPolyline
 90
       11
 70
     1
 43
0.0
 10
55.3269
 20
2457.20677659
 42
-0.09792135
 10
56.81589999999999
 20
2449.71477659
 10
56.81589999999999
 20
2439.34237659
 10
56.8374
 20
2439.34237659
 10
56.8374
 20
2344.36857659
 10
16.8408
 20
2344.36857659
 10
16.8408
 20
2439.34237659
 10
16.8622
 20
2439.34237659
 10
16.8622
 20
2449.71477659
 42
-0.41410164
 10
36.4404
 20
2469.29497659
 42
-0.31331405
 10
55.3269
 20
2457.20677659
  0
LWPOLYLINE
  5
53E
330
36
100
AcDbEntity
  8
WARSTWA_DOMYŚLNA
100
AcDbPolyline
 90
       23
 70
     1
 43
0.0
 10
445.9673172460334
 20
1235.178358942452
 10
437.8654172460334
 20
1235.178358942452
 10
437.8654172460334
 20
1233.373958942452
 10
443.8092172460334
 20
1233.373958942452
 10
443.8092172460334
 20
1224.139858942452
 42
-0.07416894
 10
441.8279422460334
 20
1223.494171442452
 42
-0.10145747
 10
435.4202650460333
 20
1223.571923132452
 42
-0.25428475
 10
428.4387747060334
 20
1229.767903862452
 42
-0.07392237
 10
427.5846324760334
 20
1233.767180012452
 42
-0.105127
 10
428.3516416960334
 20
1240.154342712452
 42
-0.26865541
 10
436.1217897060334
 20
1246.716306282452
 42
-0.12789867
 10
443.4185991760333
 20
1246.332661402452
 42
-0.02866239
 10
444.5875172460334
 20
1245.863058942452
 10
445.2244172460333
 20
1247.667458942452
 42
0.06172956
 10
442.6106922460333
 20
1248.490008942452
 42
0.1270952
 10
433.9860051560333
 20
1248.064732052452
 42
0.24914548
 10
425.9189247060334
 20
1239.602723322452
 42
0.07500917
 10
425.2702172460334
 20
1235.001458942452
 42
0.11671579
 10
426.8671153260334
 20
1227.724665092452
 42
0.23610499
 10
434.9855829160333
 20
1221.737738012452
 42
0.08425035
 10
441.3119275460334
 20
1221.616371312452
 42
0.06249405
 10
445.9673172460334
 20
1222.830858942452
 10
445.9673172460334
 20
1235.178358942452
  0
LWPOLYLINE
  5
557
330
36
100
AcDbEntity
  8
WARSTWA_DOMYŚLNA
100
AcDbPolyline
 90
        5
 70
     1
 43
0.0
 10
529.4636172460334
 20
1243.563358942452
 10
531.1265172460333
 20
1243.563358942452
 10
535.9381172460333
 20
1249.117958942452
 10
533.0016172460334
 20
1249.117958942452
 10
529.4636172460334
 20
1243.563358942452
  0
LWPOLYLINE
  5
55E
330
36
100
AcDbEntity
  8
WARSTWA_DOMYŚLNA
100
AcDbPolyline
 90
       21
 70
     1
 43
0.0
 10
535.7966172460334
 20
1240.025358942452
 42
0.25620115
 10
528.4269339360333
 20
1240.597010762452
 42
0.32810376
 10
525.6250632560334
 20
1235.361564662452
 42
0.1769065
 10
527.1380004160334
 20
1232.660769732452
 42
0.06374824
 10
528.7570546460333
 20
1231.518253422452
 42
0.02665453
 10
530.8641097460333
 20
1230.550001962452
 42
-0.07161764
 10
533.0333562460333
 20
1229.265443632452
 42
-0.5476063
 10
532.2116189660333
 20
1223.433657702452
 42
-0.16767232
 10
528.8513081460333
 20
1223.062470862452
 42
-0.09062881
 10
525.6780172460334
 20
1224.316758942452
 10
525.0058172460334
 20
1222.618558942452
 42
0.2304685
 10
533.2205283960333
 20
1221.932208962452
 42
0.32135948
 10
536.4016632560334
 20
1227.220649172452
 42
0.19204034
 10
534.7468250560333
 20
1230.664511572452
 42
0.09049542
 10
531.4069389860334
 20
1232.559316442452
 42
-0.03045929
 10
529.4668657860333
 20
1233.531745652452
 42
-0.06376961
 10
528.4470011360333
 20
1234.376846032452
 42
-0.51320965
 10
529.7312829260333
 20
1239.252677122452
 42
-0.15351965
 10
532.5317276460333
 20
1239.495153962452
 42
-0.10690346
 10
535.0536172460333
 20
1238.433258942452
 10
535.7966172460334
 20
1240.025358942452
  0
LWPOLYLINE
  5
575
330
36
100
AcDbEntity
  8
WARSTWA_DOMYŚLNA
100
AcDbPolyline
 90
        5
 70
     1
 43
0.0
 10
546.6582172460333
 20
1243.563358942452
 10
548.3211172460333
 20
1243.563358942452
 10
553.1327172460334
 20
1249.117958942452
 10
550.1608172460334
 20
1249.117958942452
 10
546.6582172460333
 20
1243.563358942452
  0
LWPOLYLINE
  5
57C
330
36
100
AcDbEntity
  8
WARSTWA_DOMYŚLNA
100
AcDbPolyline
 90
       13
 70
     1
 43
0.0
 10
554.2649172460333
 20
1240.025358942452
 42
0.27516966
 10
544.1031320660333
 20
1239.755961732452
 42
0.18366122
 10
540.2325165760333
 20
1234.580566422452
 42
0.18502742
 10
540.7953066760334
 20
1226.080810272452
 42
0.25731997
 10
547.4557859360333
 20
1221.396249992452
 42
0.14211422
 10
554.2295172460334
 20
1222.512358942452
 10
553.6988172460334
 20
1224.139858942452
 42
-0.1590158
 10
547.9418965560333
 20
1223.146563712452
 42
-0.27183407
 10
542.6059880560334
 20
1227.656115122452
 42
-0.2141995
 10
543.1144657760333
 20
1235.812730902452
 42
-0.28271517
 10
549.5674924560334
 20
1239.533807812452
 42
-0.13507256
 10
553.6281172460333
 20
1238.397958942452
 10
554.2649172460333
 20
1240.025358942452
  0
LWPOLYLINE
  5
58B
330
36
100
AcDbEntity
  8
WARSTWA_DOMYŚLNA
100
AcDbPolyline
 90
       33
 70
     1
 43
0.0
 10
593.1827172460333
 20
1233.090958942452
 42
0.1028251
 10
592.3483241160333
 20
1237.745787962452
 42
0.33955293
 10
586.0485411560333
 20
1241.248169652452
 42
0.23466659
 10
581.0761384160334
 20
1237.981471762452
 42
0.02323349
 10
580.6583172460334
 20
1237.230358942452
 10
580.5875172460333
 20
1237.230358942452
 42
0.21088501
 10
577.4377404560333
 20
1240.843298462452
 42
0.22140409
 10
572.1027680560333
 20
1240.569075852452
 42
0.12933732
 10
569.6548980360334
 20
1238.348439582452
 42
0.02184355
 10
569.1599172460334
 20
1237.548858942452
 10
569.0891172460334
 20
1237.548858942452
 10
568.9476172460333
 20
1240.839158942452
 10
566.9663172460334
 20
1240.839158942452
 42
-0.01379991
 10
567.1078172460333
 20
1236.168958942452
 10
567.1078172460333
 20
1221.698658942452
 10
569.2660172460334
 20
1221.698658942452
 10
569.2660172460334
 20
1233.480158942452
 42
-0.31110363
 10
573.1125864660334
 20
1239.218134212452
 42
-0.2854636
 10
577.5188225860333
 20
1238.293364792452
 42
-0.10789782
 10
578.5551143160334
 20
1236.647303572452
 42
-0.0698937
 10
579.0000429160333
 20
1234.821850402452
 42
-0.03287578
 10
579.0662172460334
 20
1233.657058942452
 10
579.0662172460334
 20
1221.698658942452
 10
581.2244172460333
 20
1221.698658942452
 10
581.2244172460333
 20
1233.904658942452
 42
-0.26920981
 10
584.1302288960333
 20
1238.900638832452
 42
-0.2581173
 10
588.5857477260334
 20
1238.877676952452
 42
-0.13559049
 10
590.0842895860334
 20
1237.289464502452
 42
-0.0882041
 10
590.8418117960334
 20
1235.050803982452
 42
-0.04712031
 10
591.0246172460333
 20
1232.843258942452
 10
591.0246172460333
 20
1221.698658942452
 10
593.1827172460333
 20
1221.698658942452
 10
593.1827172460333
 20
1233.090958942452
  0
LWPOLYLINE
  5
5AE
330
36
100
AcDbEntity
  8
WARSTWA_DOMYŚLNA
100
AcDbPolyline
 90
       21
 70
     1
 43
0.0
 10
611.1911172460334
 20
1233.727758942452
 42
0.10352798
 10
610.4277591060333
 20
1237.958923162452
 42
0.23710237
 10
606.6481485760333
 20
1241.068075642452
 42
0.19945467
 10
598.9497172460334
 20
1239.671558942452
 10
599.5865172460334
 20
1238.114858942452
 42
-0.20368228
 10
605.8526753460333
 20
1239.361663622452
 42
-0.26174337
 10
608.5914993660334
 20
1236.795671602452
 42
-0.07390446
 10
608.9664995460334
 20
1234.831079132452
 42
-0.0183896
 10
608.9975172460333
 20
1233.586258942452
 42
0.06247209
 10
603.4932644360334
 20
1233.030182772452
 42
0.08980051
 10
600.0739985560334
 20
1231.540029332452
 42
0.34871563
 10
597.9956802660334
 20
1224.442786902452
 42
0.27010377
 10
602.2287648060333
 20
1221.329607842452
 42
0.23140577
 10
608.2458794460334
 20
1223.308112022452
 42
0.05451541
 10
609.0683172460334
 20
1224.352158942452
 10
609.1744172460334
 20
1224.352158942452
 10
609.4221172460334
 20
1221.698658942452
 10
611.4387172460334
 20
1221.698658942452
 42
-0.02635543
 10
611.2353422460333
 20
1223.940871442452
 42
-0.01134144
 10
611.1911172460334
 20
1226.262658942452
 10
611.1911172460334
 20
1233.727758942452
  0
LWPOLYLINE
  5
5C5
330
36
100
AcDbEntity
  8
WARSTWA_DOMYŚLNA
100
AcDbPolyline
 90
       11
 70
     1
 43
0.0
 10
609.0329172460334
 20
1227.890158942452
 42
-0.31062806
 10
605.2561507160334
 20
1223.272919062452
 42
-0.06487018
 10
603.8906287660333
 20
1223.052947062452
 42
-0.32356405
 10
600.2330946560333
 20
1225.016248942452
 42
-0.0742205
 10
599.8834127260334
 20
1226.348329812452
 42
-0.21020235
 10
600.8706288160334
 20
1229.704933762452
 42
-0.11667547
 10
602.8422317360333
 20
1231.007247662452
 42
-0.04773039
 10
604.3995699560333
 20
1231.457613642452
 42
-0.04660126
 10
607.4787198060334
 20
1231.821380062452
 42
-0.01209397
 10
609.0329172460334
 20
1231.852658942452
 10
609.0329172460334
 20
1227.890158942452
  0
LWPOLYLINE
  5
5D2
330
36
100
AcDbEntity
  8
WARSTWA_DOMYŚLNA
100
AcDbPolyline
 90
       21
 70
     1
 43
0.0
 10
617.9132172460334
 20
1240.839158942452
 10
614.7998172460334
 20
1240.839158942452
 10
614.7998172460334
 20
1239.105558942452
 10
617.9132172460334
 20
1239.105558942452
 42
0.00061238
 10
617.9139843360334
 20
1226.697746842452
 42
0.07278753
 10
618.3910745960333
 20
1223.850460422452
 42
0.29645858
 10
621.6492545160333
 20
1221.363654492452
 42
0.08757522
 10
624.3773854160333
 20
1221.507863612452
 42
0.03313533
 10
625.0953172460333
 20
1221.734058942452
 10
624.8830172460334
 20
1223.432258942452
 42
-0.11673146
 10
622.1813476660334
 20
1223.163455932452
 42
-0.27796508
 10
620.4024535860334
 20
1224.762585582452
 42
-0.07383394
 10
620.1072084560333
 20
1226.171324962452
 42
-0.02193034
 10
620.0714172460334
 20
1227.040958942452
 10
620.0714172460334
 20
1239.105558942452
 10
625.3076172460334
 20
1239.105558942452
 10
625.3076172460334
 20
1240.839158942452
 10
620.0714172460334
 20
1240.839158942452
 10
620.0714172460334
 20
1245.120058942452
 10
617.9132172460334
 20
1244.341758942452
 10
617.9132172460334
 20
1240.839158942452
  0
LWPOLYLINE
  5
5E9
330
36
100
AcDbEntity
  8
WARSTWA_DOMYŚLNA
100
AcDbPolyline
 90
       16
 70
     1
 43
0.0
 10
642.1837172460334
 20
1224.139858942452
 42
-0.1005634
 10
638.1953543160334
 20
1223.113583752452
 42
-0.08042603
 10
635.0220225860333
 20
1223.318281492452
 42
-0.25067948
 10
630.6929838960334
 20
1227.328893032452
 42
-0.07585273
 10
630.0859868960334
 20
1230.249872522452
 42
-0.01799063
 10
630.0485172460334
 20
1231.321958942452
 10
643.7051172460334
 20
1231.321958942452
 42
0.15385111
 10
642.4018203360334
 20
1237.995256462452
 42
0.25599693
 10
636.9354205760333
 20
1241.290483032452
 42
0.30634695
 10
629.1944761260333
 20
1236.809316932452
 42
0.18198319
 10
628.3387800560334
 20
1227.555205812452
 42
0.07799659
 10
629.5419337360333
 20
1224.926254722452
 42
0.21913606
 10
635.4170888560333
 20
1221.399092502452
 42
0.11147333
 10
641.7772344160333
 20
1222.093580642452
 42
0.0317268
 10
642.7144172460333
 20
1222.512358942452
 10
642.1837172460334
 20
1224.139858942452
  0
LWPOLYLINE
  5
5FB
330
36
100
AcDbEntity
  8
WARSTWA_DOMYŚLNA
100
AcDbPolyline
 90
        6
 70
     1
 43
0.0
 10
630.1546172460334
 20
1233.020158942452
 42
-0.14350389
 10
631.9712916560334
 20
1237.580772242452
 42
-0.23872143
 10
636.5140311160334
 20
1239.529943662452
 42
-0.30595208
 10
640.9483253260333
 20
1236.369325822452
 42
-0.10150027
 10
641.5469172460334
 20
1233.020158942452
 10
630.1546172460334
 20
1233.020158942452
  0
LWPOLYLINE
  5
603
330
36
100
AcDbEntity
  8
WARSTWA_DOMYŚLNA
100
AcDbPolyline
 90
       14
 70
     1
 43
0.0
 10
656.5833172460334
 20
1241.192958942452
 42
0.21374383
 10
652.8260819260333
 20
1240.326589742452
 42
0.12653846
 10
650.8157204660334
 20
1237.907867892452
 42
0.03282036
 10
650.4626172460334
 20
1237.053458942452
 10
650.3211172460334
 20
1237.053458942452
 10
650.2503172460334
 20
1240.839158942452
 10
648.2690172460333
 20
1240.839158942452
 42
-0.0139672
 10
648.4105172460333
 20
1235.154758942452
 10
648.4105172460333
 20
1221.698658942452
 10
650.6041172460334
 20
1221.698658942452
 10
650.6041172460334
 20
1232.259558942452
 42
-0.14736852
 10
651.9769368160333
 20
1237.126562602452
 42
-0.30613166
 10
656.5833172460334
 20
1239.105558942452
 10
656.5833172460334
 20
1241.192958942452
  0
LWPOLYLINE
  5
613
330
36
100
AcDbEntity
  8
WARSTWA_DOMYŚLNA
100
AcDbPolyline
 90
        6
 70
     1
 43
0.0
 10
662.9517172460333
 20
1246.287658942452
 42
0.3783705
 10
661.6098168560333
 20
1247.988585242452
 42
0.3783705
 10
659.7560853360334
 20
1246.867190402452
 42
0.34621744
 10
660.4880816460333
 20
1244.736536752452
 42
0.5307195500000001
 10
662.9194467360333
 20
1245.906909332452
 42
0.04345342
 10
662.9517172460333
 20
1246.287658942452
  0
LWPOLYLINE
  5
61B
330
36
100
AcDbEntity
  8
WARSTWA_DOMYŚLNA
100
AcDbPolyline
 90
        5
 70
     1
 43
0.0
 10
662.3856172460333
 20
1240.839158942452
 10
660.1920172460333
 20
1240.839158942452
 10
660.1920172460333
 20
1221.698658942452
 10
662.3856172460333
 20
1221.698658942452
 10
662.3856172460333
 20
1240.839158942452
  0
LWPOLYLINE
  5
622
330
36
100
AcDbEntity
  8
WARSTWA_DOMYŚLNA
100
AcDbPolyline
 90
       21
 70
     1
 43
0.0
 10
680.6062172460333
 20
1233.727758942452
 42
0.10352798
 10
679.8428591060334
 20
1237.958923162452
 42
0.23710237
 10
676.0632485760334
 20
1241.068075642452
 42
0.19945467
 10
668.3648172460333
 20
1239.671558942452
 10
669.0016172460334
 20
1238.114858942452
 42
-0.20368228
 10
675.2677753460334
 20
1239.361663622452
 42
-0.26174337
 10
678.0065993660334
 20
1236.795671602452
 42
-0.07390446
 10
678.3815995460334
 20
1234.831079132452
 42
-0.0183896
 10
678.4126172460333
 20
1233.586258942452
 42
0.06247209
 10
672.9083644360334
 20
1233.030182772452
 42
0.08980051
 10
669.4890985560333
 20
1231.540029332452
 42
0.34871563
 10
667.4107802660333
 20
1224.442786902452
 42
0.27010377
 10
671.6438648060334
 20
1221.329607842452
 42
0.23140577
 10
677.6609794460333
 20
1223.308112022452
 42
0.05451541
 10
678.4834172460334
 20
1224.352158942452
 10
678.5895172460334
 20
1224.352158942452
 10
678.8372172460334
 20
1221.698658942452
 10
680.8538172460333
 20
1221.698658942452
 42
-0.02635543
 10
680.6504422460334
 20
1223.940871442452
 42
-0.01134144
 10
680.6062172460333
 20
1226.262658942452
 10
680.6062172460333
 20
1233.727758942452
  0
LWPOLYLINE
  5
639
330
36
100
AcDbEntity
  8
WARSTWA_DOMYŚLNA
100
AcDbPolyline
 90
       11
 70
     1
 43
0.0
 10
678.4480172460334
 20
1227.890158942452
 42
-0.31062806
 10
674.6712507160333
 20
1223.272919062452
 42
-0.06487018
 10
673.3057287660334
 20
1223.052947062452
 42
-0.32356405
 10
669.6481946560334
 20
1225.016248942452
 42
-0.0742205
 10
669.2985127260334
 20
1226.348329812452
 42
-0.21020235
 10
670.2857288160333
 20
1229.704933762452
 42
-0.11667547
 10
672.2573317360334
 20
1231.007247662452
 42
-0.04773039
 10
673.8146699560334
 20
1231.457613642452
 42
-0.04660126
 10
676.8938198060334
 20
1231.821380062452
 42
-0.01209397
 10
678.4480172460334
 20
1231.852658942452
 10
678.4480172460334
 20
1227.890158942452
  0
LWPOLYLINE
  5
646
330
36
100
AcDbEntity
  8
WARSTWA_DOMYŚLNA
100
AcDbPolyline
 90
       13
 70
     1
 43
0.0
 10
688.8850172460333
 20
1236.133658942452
 10
691.7154172460334
 20
1238.680958942452
 10
691.7154172460334
 20
1240.697658942452
 10
688.8850172460333
 20
1238.150258942452
 10
688.8850172460333
 20
1249.967158942452
 10
686.6915172460334
 20
1249.967158942452
 10
686.6915172460334
 20
1236.345858942452
 10
683.8965172460333
 20
1233.833958942452
 10
683.8965172460333
 20
1231.852658942452
 10
686.6915172460334
 20
1234.364658942452
 10
686.6915172460334
 20
1221.698658942452
 10
688.8850172460333
 20
1221.698658942452
 10
688.8850172460333
 20
1236.133658942452
  0
LWPOLYLINE
  5
655
330
36
100
AcDbEntity
  8
WARSTWA_DOMYŚLNA
100
AcDbPolyline
 90
       18
 70
     1
 43
0.0
 10
709.8299172460333
 20
1240.839158942452
 10
707.6363172460333
 20
1240.839158942452
 10
707.6363172460333
 20
1228.904358942452
 42
-0.49060444
 10
700.5966783660333
 20
1223.322140932452
 42
-0.22079976
 10
698.0622881760333
 20
1225.491549812452
 42
-0.07006127
 10
697.4785031860334
 20
1227.258785502452
 42
-0.04950159
 10
697.2347172460334
 20
1230.030558942452
 10
697.2347172460334
 20
1240.839158942452
 10
695.0411172460334
 20
1240.839158942452
 42
0.00083552
 10
695.0421502460334
 20
1228.970177752452
 42
0.08799135
 10
695.8427882760333
 20
1224.886543422452
 42
0.28279844
 10
700.7424784160333
 20
1221.296566252452
 42
0.29815646
 10
707.7425172460333
 20
1224.953558942452
 10
707.8486172460334
 20
1224.953558942452
 10
707.9901172460333
 20
1221.698658942452
 10
710.0068172460334
 20
1221.698658942452
 42
-0.01857525
 10
709.8299172460333
 20
1226.504458942452
 10
709.8299172460333
 20
1240.839158942452
  0
LWPOLYLINE
  5
669
330
36
100
AcDbEntity
  8
WARSTWA_DOMYŚLNA
100
AcDbPolyline
 90
       22
 70
     1
 43
0.0
 10
747.0849172460333
 20
1223.467658942452
 10
734.5958172460334
 20
1223.467658942452
 10
734.5958172460334
 20
1223.538358942452
 42
-0.00107948
 10
739.7850788160334
 20
1228.902500272452
 42
0.02808522
 10
743.4302881760333
 20
1233.262838632452
 42
0.07898241
 10
745.9098023560334
 20
1238.015188852452
 42
0.12302016
 10
746.1839077160334
 20
1243.066050712452
 42
0.14381601
 10
744.3147008660333
 20
1246.608844972452
 42
0.17089914
 10
740.4236104860333
 20
1248.464548082452
 42
0.22223051
 10
732.5438172460334
 20
1245.939758942452
 10
733.3575172460333
 20
1244.453758942452
 42
-0.08873181
 10
736.5561460460334
 20
1246.331352942452
 42
-0.17095608
 10
741.0712573660333
 20
1246.326473402452
 42
-0.22459593
 10
743.7028959360334
 20
1243.607044892452
 42
-0.10916517
 10
744.1177565060334
 20
1240.224887162452
 42
-0.10526228
 10
742.9193659160334
 20
1236.140136792452
 42
-0.05138253
 10
740.0891628260334
 20
1231.998213452452
 42
-0.0221898
 10
734.1359172460333
 20
1225.619958942452
 10
731.7301172460333
 20
1223.043058942452
 10
731.7301172460333
 20
1221.698658942452
 10
747.0849172460333
 20
1221.698658942452
 10
747.0849172460333
 20
1223.467658942452
  0
LWPOLYLINE
  5
681
330
36
100
AcDbEntity
  8
WARSTWA_DOMYŚLNA
100
AcDbPolyline
 90
       14
 70
     1
 43
0.0
 10
758.6541172460333
 20
1221.274058942452
 42
0.26726449
 10
764.6808859060334
 20
1224.647013472452
 42
0.08573426
 10
766.3319680960333
 20
1228.708894912452
 42
0.10213509
 10
766.4817765560334
 20
1240.833826322452
 42
0.08689517
 10
764.8226036860334
 20
1245.216185742452
 42
0.07211217
 10
763.4305312260334
 20
1246.897505882452
 42
0.3373415
 10
755.3522350860333
 20
1247.456656972452
 42
0.09758592
 10
753.3937772260334
 20
1245.580446392452
 42
0.07329241
 10
751.9246407760333
 20
1242.829543862452
 42
0.06266665
 10
750.8668838460334
 20
1238.129917342452
 42
0.07304053
 10
751.1769789660334
 20
1229.368878502452
 42
0.06518004
 10
752.5366886660333
 20
1225.394964162452
 42
0.09106652
 10
754.5665465260334
 20
1222.776907092452
 42
0.17770862
 10
758.6541172460333
 20
1221.274058942452
  0
LWPOLYLINE
  5
691
330
36
100
AcDbEntity
  8
WARSTWA_DOMYŚLNA
100
AcDbPolyline
 90
       14
 70
     1
 43
0.0
 10
758.7602172460334
 20
1223.078458942452
 42
-0.21552569
 10
755.7517028060333
 20
1224.473603362452
 42
-0.08098324
 10
754.5058547460333
 20
1226.351096442452
 42
-0.06673685
 10
753.3571375560334
 20
1230.123476132452
 42
-0.09836433
 10
753.5703436560334
 20
1240.689742402452
 42
-0.07275822
 10
754.8929608060334
 20
1244.048620762452
 42
-0.06172127
 10
756.1090559460334
 20
1245.596603442452
 42
-0.41406605
 10
762.1255374860334
 20
1245.381036462452
 42
-0.10622962
 10
763.7230614360333
 20
1242.635727232452
 42
-0.05553278
 10
764.5431532460333
 20
1238.984502582452
 42
-0.07713232
 10
764.2754114660333
 20
1229.422013892452
 42
-0.0627186
 10
763.1842346760334
 20
1226.139310182452
 42
-0.06965567
 10
762.0069177260334
 20
1224.443080232452
 42
-0.20394038
 10
758.7602172460334
 20
1223.078458942452
  0
LWPOLYLINE
  5
6A1
330
36
100
AcDbEntity
  8
WARSTWA_DOMYŚLNA
100
AcDbPolyline
 90
       33
 70
     1
 43
0.0
 10
806.1692172460334
 20
1233.090958942452
 42
0.1028251
 10
805.3348241160334
 20
1237.745787962452
 42
0.33955293
 10
799.0350411560334
 20
1241.248169652452
 42
0.23466659
 10
794.0626384160334
 20
1237.981471762452
 42
0.02323349
 10
793.6448172460334
 20
1237.230358942452
 10
793.5740172460334
 20
1237.230358942452
 42
0.21088501
 10
790.4242404560334
 20
1240.843298462452
 42
0.22140409
 10
785.0892680560333
 20
1240.569075852452
 42
0.12933732
 10
782.6413980360333
 20
1238.348439582452
 42
0.02184355
 10
782.1464172460333
 20
1237.548858942452
 10
782.0756172460334
 20
1237.548858942452
 10
781.9341172460333
 20
1240.839158942452
 10
779.9528172460334
 20
1240.839158942452
 42
-0.01379991
 10
780.0943172460334
 20
1236.168958942452
 10
780.0943172460334
 20
1221.698658942452
 10
782.2525172460334
 20
1221.698658942452
 10
782.2525172460334
 20
1233.480158942452
 42
-0.31110363
 10
786.0990864660334
 20
1239.218134212452
 42
-0.2854636
 10
790.5053225860333
 20
1238.293364792452
 42
-0.10789782
 10
791.5416143160334
 20
1236.647303572452
 42
-0.0698937
 10
791.9865429160333
 20
1234.821850402452
 42
-0.03287578
 10
792.0527172460333
 20
1233.657058942452
 10
792.0527172460333
 20
1221.698658942452
 10
794.2109172460334
 20
1221.698658942452
 10
794.2109172460334
 20
1233.904658942452
 42
-0.26920981
 10
797.1167288960335
 20
1238.900638832452
 42
-0.2581173
 10
801.5722477260332
 20
1238.877676952452
 42
-0.13559049
 10
803.0707895860334
 20
1237.289464502452
 42
-0.0882041
 10
803.8283117960334
 20
1235.050803982452
 42
-0.04712031
 10
804.0111172460333
 20
1232.843258942452
 10
804.0111172460333
 20
1221.698658942452
 10
806.1692172460334
 20
1221.698658942452
 10
806.1692172460334
 20
1233.090958942452
  0
LWPOLYLINE
  5
6C4
330
36
100
AcDbEntity
  8
WARSTWA_DOMYŚLNA
100
AcDbPolyline
 90
       33
 70
     1
 43
0.0
 10
838.2587172460334
 20
1233.090958942452
 42
0.1028251
 10
837.4243241160334
 20
1237.745787962452
 42
0.33955293
 10
831.1245411560335
 20
1241.248169652452
 42
0.23466659
 10
826.1521384160335
 20
1237.981471762452
 42
0.02323349
 10
825.7343172460334
 20
1237.230358942452
 10
825.6635172460333
 20
1237.230358942452
 42
0.21088501
 10
822.5137404560335
 20
1240.843298462452
 42
0.22140409
 10
817.1787680560335
 20
1240.569075852452
 42
0.12933732
 10
814.7308980360332
 20
1238.348439582452
 42
0.02184355
 10
814.2359172460333
 20
1237.548858942452
 10
814.1651172460333
 20
1237.548858942452
 10
814.0236172460333
 20
1240.839158942452
 10
812.0423172460334
 20
1240.839158942452
 42
-0.01379991
 10
812.1838172460334
 20
1236.168958942452
 10
812.1838172460334
 20
1221.698658942452
 10
814.3420172460334
 20
1221.698658942452
 10
814.3420172460334
 20
1233.480158942452
 42
-0.31110363
 10
818.1885864660335
 20
1239.218134212452
 42
-0.2854636
 10
822.5948225860333
 20
1238.293364792452
 42
-0.10789782
 10
823.6311143160332
 20
1236.647303572452
 42
-0.0698937
 10
824.0760429160333
 20
1234.821850402452
 42
-0.03287578
 10
824.1422172460334
 20
1233.657058942452
 10
824.1422172460334
 20
1221.698658942452
 10
826.3004172460334
 20
1221.698658942452
 10
826.3004172460334
 20
1233.904658942452
 42
-0.26920981
 10
829.2062288960332
 20
1238.900638832452
 42
-0.2581173
 10
833.6617477260332
 20
1238.877676952452
 42
-0.13559049
 10
835.1602895860333
 20
1237.289464502452
 42
-0.0882041
 10
835.9178117960334
 20
1235.050803982452
 42
-0.04712031
 10
836.1006172460333
 20
1232.843258942452
 10
836.1006172460333
 20
1221.698658942452
 10
838.2587172460334
 20
1221.698658942452
 10
838.2587172460334
 20
1233.090958942452
  0
LWPOLYLINE
  5
6E7
330
36
100
AcDbEntity
  8
WARSTWA_DOMYŚLNA
100
AcDbPolyline
 90
       14
 70
     1
 43
0.0
 10
459.4824172460334
 20
1241.192958942452
 42
0.21374383
 10
455.7251819260334
 20
1240.326589742452
 42
0.12653846
 10
453.7148204660334
 20
1237.907867892452
 42
0.03282036
 10
453.3617172460334
 20
1237.053458942452
 10
453.2202172460333
 20
1237.053458942452
 10
453.1494172460334
 20
1240.839158942452
 10
451.1681172460334
 20
1240.839158942452
 42
-0.0139672
 10
451.3096172460334
 20
1235.154758942452
 10
451.3096172460334
 20
1221.698658942452
 10
453.5032172460334
 20
1221.698658942452
 10
453.5032172460334
 20
1232.259558942452
 42
-0.14736852
 10
454.8760368160334
 20
1237.126562602452
 42
-0.30613166
 10
459.4824172460334
 20
1239.105558942452
 10
459.4824172460334
 20
1241.192958942452
  0
LWPOLYLINE
  5
6F7
330
36
100
AcDbEntity
  8
WARSTWA_DOMYŚLNA
100
AcDbPolyline
 90
       18
 70
     1
 43
0.0
 10
477.7384172460333
 20
1240.839158942452
 10
475.5448172460334
 20
1240.839158942452
 10
475.5448172460334
 20
1228.904358942452
 42
-0.49060444
 10
468.5051783660334
 20
1223.322140932452
 42
-0.22079976
 10
465.9707881760333
 20
1225.491549812452
 42
-0.07006127
 10
465.3870031860334
 20
1227.258785502452
 42
-0.04950159
 10
465.1432172460333
 20
1230.030558942452
 10
465.1432172460333
 20
1240.839158942452
 10
462.9496172460334
 20
1240.839158942452
 42
0.00083552
 10
462.9506502460334
 20
1228.970177752452
 42
0.08799135
 10
463.7512882760334
 20
1224.886543422452
 42
0.28279844
 10
468.6509784160334
 20
1221.296566252452
 42
0.29815646
 10
475.6510172460333
 20
1224.953558942452
 10
475.7571172460334
 20
1224.953558942452
 10
475.8986172460334
 20
1221.698658942452
 10
477.9153172460333
 20
1221.698658942452
 42
-0.01857525
 10
477.7384172460333
 20
1226.504458942452
 10
477.7384172460333
 20
1240.839158942452
  0
LWPOLYLINE
  5
70B
330
36
100
AcDbEntity
  8
WARSTWA_DOMYŚLNA
100
AcDbPolyline
 90
       17
 70
     1
 43
0.0
 10
486.1234172460333
 20
1237.442658942452
 10
486.1234172460333
 20
1249.967158942452
 10
483.9298172460334
 20
1249.967158942452
 10
483.9298172460334
 20
1226.227258942452
 42
-0.01307628
 10
483.7883172460334
 20
1221.698658942452
 10
485.6988172460334
 20
1221.698658942452
 10
485.8757172460334
 20
1225.024358942452
 10
485.9819172460333
 20
1225.024358942452
 42
0.25471771
 10
491.5719588860333
 20
1221.305055022452
 42
0.31227258
 10
499.6218480460334
 20
1225.709965932452
 42
0.09497229
 10
500.8162762060334
 20
1229.733287492452
 42
0.13131196
 10
499.9110125160333
 20
1236.627627592452
 42
0.18457088
 10
495.9083036960334
 20
1240.693163222452
 42
0.10540076
 10
492.9163172460333
 20
1241.299058942452
 42
0.23419126
 10
486.9959512460334
 20
1238.688774322452
 42
0.05435973
 10
486.1941172460334
 20
1237.442658942452
 10
486.1234172460333
 20
1237.442658942452
  0
LWPOLYLINE
  5
71E
330
36
100
AcDbEntity
  8
WARSTWA_DOMYŚLNA
100
AcDbPolyline
 90
       10
 70
     1
 43
0.0
 10
486.1234172460333
 20
1232.949458942452
 42
-0.29197953
 10
490.0696485960334
 20
1239.026459392452
 42
-0.2419617
 10
495.3601889960333
 20
1238.669516432452
 42
-0.14567343
 10
497.7615522060333
 20
1235.861680432452
 42
-0.10374363
 10
498.6827495960334
 20
1231.669056692452
 42
-0.12315068
 10
497.6177812860334
 20
1226.415791532452
 42
-0.2027075
 10
494.0826565660334
 20
1223.355489042452
 42
-0.4575523300000001
 10
486.2019489260334
 20
1228.162323482452
 42
-0.0386094
 10
486.1234172460333
 20
1229.093058942452
 10
486.1234172460333
 20
1232.949458942452
  0
LWPOLYLINE
  5
72A
330
36
100
AcDbEntity
  8
WARSTWA_DOMYŚLNA
100
AcDbPolyline
 90
        8
 70
     1
 43
0.0
 10
513.0474172460334
 20
1241.299058942452
 42
0.30995998
 10
504.9753507660334
 20
1235.838301542452
 42
0.09084702
 10
504.1085395260333
 20
1231.717873102452
 42
0.12272302
 10
505.1752928460333
 20
1226.004524502452
 42
0.30885588
 10
513.3545783860333
 20
1221.289693912452
 42
0.31341461
 10
521.1984657760333
 20
1227.490670642452
 42
0.17659494
 10
520.8289635060333
 20
1236.329961092452
 42
0.30282452
 10
513.0474172460334
 20
1241.299058942452
  0
LWPOLYLINE
  5
734
330
36
100
AcDbEntity
  8
WARSTWA_DOMYŚLNA
100
AcDbPolyline
 90
        9
 70
     1
 43
0.0
 10
519.5573172460333
 20
1231.357358942452
 42
-0.16504966
 10
517.7079269660334
 20
1225.489109472452
 42
-0.25379753
 10
512.4278662760333
 20
1223.070479782452
 42
-0.21057289
 10
508.2891429060333
 20
1225.306816482452
 42
-0.13100605
 10
506.4937178160334
 20
1229.321868772452
 42
-0.17400483
 10
507.6590775660333
 20
1236.500421192452
 42
-0.50849039
 10
517.4232340360333
 20
1237.559271312452
 42
-0.06837624
 10
518.4659233160333
 20
1235.987875392452
 42
-0.11985102
 10
519.5573172460333
 20
1231.357358942452
  0
LWPOLYLINE
  5
73F
330
36
100
AcDbEntity
  8
WARSTWA_DOMYŚLNA
100
AcDbPolyline
 90
       23
 70
     1
 43
0.0
 10
482.8313999999999
 20
3040.08477659
 10
474.7295
 20
3040.08477659
 10
474.7295
 20
3038.28037659
 10
480.6733
 20
3038.28037659
 10
480.6733
 20
3029.04627659
 42
-0.07416894
 10
478.692025
 20
3028.40058909
 42
-0.10145747
 10
472.2843477999999
 20
3028.47834078
 42
-0.25428475
 10
465.3028574599999
 20
3034.67432151
 42
-0.07392237
 10
464.4487152299999
 20
3038.67359766
 42
-0.105127
 10
465.2157244499999
 20
3045.06076036
 42
-0.26865541
 10
472.9858724599999
 20
3051.62272393
 42
-0.12789867
 10
480.28268193
 20
3051.23907905
 42
-0.02866239
 10
481.4516
 20
3050.76947659
 10
482.0885
 20
3052.57387659
 42
0.06172956
 10
479.4747749999999
 20
3053.39642659
 42
0.1270952
 10
470.8500879099999
 20
3052.9711497
 42
0.24914548
 10
462.78300746
 20
3044.50914097
 42
0.07500917
 10
462.1343
 20
3039.90787659
 42
0.11671579
 10
463.7311980799999
 20
3032.63108274
 42
0.23610499
 10
471.84966567
 20
3026.64415566
 42
0.08425035
 10
478.1760102999999
 20
3026.52278896
 42
0.06249405
 10
482.8313999999999
 20
3027.73727659
 10
482.8313999999999
 20
3040.08477659
  0
LWPOLYLINE
  5
758
330
36
100
AcDbEntity
  8
WARSTWA_DOMYŚLNA
100
AcDbPolyline
 90
        5
 70
     1
 43
0.0
 10
566.3277
 20
3048.46977659
 10
567.9905999999999
 20
3048.46977659
 10
572.8022
 20
3054.02437659
 10
569.8656999999999
 20
3054.02437659
 10
566.3277
 20
3048.46977659
  0
LWPOLYLINE
  5
75F
330
36
100
AcDbEntity
  8
WARSTWA_DOMYŚLNA
100
AcDbPolyline
 90
       21
 70
     1
 43
0.0
 10
572.6607
 20
3044.93177659
 42
0.25620115
 10
565.2910166899999
 20
3045.50342841
 42
0.32810376
 10
562.48914601
 20
3040.26798231
 42
0.1769065
 10
564.00208317
 20
3037.56718738
 42
0.06374824
 10
565.6211373999999
 20
3036.42467107
 42
0.02665453
 10
567.7281924999999
 20
3035.45641961
 42
-0.07161764
 10
569.897439
 20
3034.17186128
 42
-0.5476063
 10
569.07570172
 20
3028.34007535
 42
-0.16767232
 10
565.7153908999999
 20
3027.96888851
 42
-0.09062881
 10
562.5421
 20
3029.22317659
 10
561.8699
 20
3027.52497659
 42
0.2304685
 10
570.0846111499999
 20
3026.83862661
 42
0.32135948
 10
573.26574601
 20
3032.12706682
 42
0.19204034
 10
571.6109078099999
 20
3035.57092922
 42
0.09049542
 10
568.27102174
 20
3037.46573409
 42
-0.03045929
 10
566.33094854
 20
3038.4381633
 42
-0.06376961
 10
565.3110838899999
 20
3039.28326368
 42
-0.51320965
 10
566.59536568
 20
3044.15909477
 42
-0.15351965
 10
569.3958104
 20
3044.40157161
 42
-0.10690346
 10
571.9177
 20
3043.33967659
 10
572.6607
 20
3044.93177659
  0
LWPOLYLINE
  5
776
330
36
100
AcDbEntity
  8
WARSTWA_DOMYŚLNA
100
AcDbPolyline
 90
        5
 70
     1
 43
0.0
 10
583.5223
 20
3048.46977659
 10
585.1852
 20
3048.46977659
 10
589.9968
 20
3054.02437659
 10
587.0249
 20
3054.02437659
 10
583.5223
 20
3048.46977659
  0
LWPOLYLINE
  5
77D
330
36
100
AcDbEntity
  8
WARSTWA_DOMYŚLNA
100
AcDbPolyline
 90
       13
 70
     1
 43
0.0
 10
591.129
 20
3044.93177659
 42
0.27516966
 10
580.9672148199999
 20
3044.66237938
 42
0.18366122
 10
577.0965993299999
 20
3039.48698407
 42
0.18502742
 10
577.65938943
 20
3030.98722792
 42
0.25731997
 10
584.31986869
 20
3026.30266764
 42
0.14211422
 10
591.0936
 20
3027.41877659
 10
590.5629
 20
3029.04627659
 42
-0.1590158
 10
584.80597931
 20
3028.05298136
 42
-0.27183407
 10
579.47007081
 20
3032.56253277
 42
-0.2141995
 10
579.97854853
 20
3040.71914855
 42
-0.28271517
 10
586.43157521
 20
3044.44022546
 42
-0.13507256
 10
590.4922
 20
3043.30437659
 10
591.129
 20
3044.93177659
  0
LWPOLYLINE
  5
78C
330
36
100
AcDbEntity
  8
WARSTWA_DOMYŚLNA
100
AcDbPolyline
 90
       33
 70
     1
 43
0.0
 10
630.0467999999999
 20
3037.99737659
 42
0.1028251
 10
629.2124068699999
 20
3042.65220561
 42
0.33955293
 10
622.91262391
 20
3046.1545873
 42
0.23466659
 10
617.94022117
 20
3042.88788941
 42
0.02323349
 10
617.5224
 20
3042.13677659
 10
617.4515999999999
 20
3042.13677659
 42
0.21088501
 10
614.3018232099999
 20
3045.74971611
 42
0.22140409
 10
608.9668508099999
 20
3045.4754935
 42
0.12933732
 10
606.51898079
 20
3043.25485723
 42
0.02184355
 10
606.024
 20
3042.45527659
 10
605.9532
 20
3042.45527659
 10
605.8117
 20
3045.74557659
 10
603.8304000000001
 20
3045.74557659
 42
-0.01379991
 10
603.9718999999999
 20
3041.07537659
 10
603.9718999999999
 20
3026.60507659
 10
606.1301
 20
3026.60507659
 10
606.1301
 20
3038.38657659
 42
-0.31110363
 10
609.9766692199999
 20
3044.12455186
 42
-0.2854636
 10
614.38290534
 20
3043.19978244
 42
-0.10789782
 10
615.41919707
 20
3041.553721220001
 42
-0.0698937
 10
615.86412567
 20
3039.72826805
 42
-0.03287578
 10
615.9303
 20
3038.56347659
 10
615.9303
 20
3026.60507659
 10
618.0884999999999
 20
3026.60507659
 10
618.0884999999999
 20
3038.81107659
 42
-0.26920981
 10
620.9943116499999
 20
3043.80705648
 42
-0.2581173
 10
625.4498304799999
 20
3043.7840946
 42
-0.13559049
 10
626.94837234
 20
3042.195882150001
 42
-0.0882041
 10
627.70589455
 20
3039.95722163
 42
-0.04712031
 10
627.8887
 20
3037.74967659
 10
627.8887
 20
3026.60507659
 10
630.0467999999999
 20
3026.60507659
 10
630.0467999999999
 20
3037.99737659
  0
LWPOLYLINE
  5
7AF
330
36
100
AcDbEntity
  8
WARSTWA_DOMYŚLNA
100
AcDbPolyline
 90
       21
 70
     1
 43
0.0
 10
648.0552
 20
3038.63417659
 42
0.10352798
 10
647.2918418599999
 20
3042.86534081
 42
0.23710237
 10
643.5122313299999
 20
3045.97449329
 42
0.19945467
 10
635.8138
 20
3044.57797659
 10
636.4506
 20
3043.02127659
 42
-0.20368228
 10
642.7167580999999
 20
3044.26808127
 42
-0.26174337
 10
645.45558212
 20
3041.70208925
 42
-0.07390446
 10
645.8305822999999
 20
3039.73749678
 42
-0.0183896
 10
645.8615999999999
 20
3038.49267659
 42
0.06247209
 10
640.35734719
 20
3037.93660042
 42
0.08980051
 10
636.93808131
 20
3036.44644698
 42
0.34871563
 10
634.8597630199999
 20
3029.34920455
 42
0.27010377
 10
639.0928475599999
 20
3026.23602549
 42
0.23140577
 10
645.1099622
 20
3028.21452967
 42
0.05451541
 10
645.9324
 20
3029.25857659
 10
646.0385
 20
3029.25857659
 10
646.2862
 20
3026.60507659
 10
648.3028
 20
3026.60507659
 42
-0.02635543
 10
648.099425
 20
3028.84728909
 42
-0.01134144
 10
648.0552
 20
3031.16907659
 10
648.0552
 20
3038.63417659
  0
LWPOLYLINE
  5
7C6
330
36
100
AcDbEntity
  8
WARSTWA_DOMYŚLNA
100
AcDbPolyline
 90
       11
 70
     1
 43
0.0
 10
645.897
 20
3032.79657659
 42
-0.31062806
 10
642.12023347
 20
3028.17933671
 42
-0.06487018
 10
640.7547115199999
 20
3027.95936471
 42
-0.32356405
 10
637.09717741
 20
3029.92266659
 42
-0.0742205
 10
636.74749548
 20
3031.25474746
 42
-0.21020235
 10
637.7347115699999
 20
3034.611351410001
 42
-0.11667547
 10
639.7063144899999
 20
3035.91366531
 42
-0.04773039
 10
641.26365271
 20
3036.364031290001
 42
-0.04660126
 10
644.34280256
 20
3036.72779771
 42
-0.01209397
 10
645.897
 20
3036.75907659
 10
645.897
 20
3032.79657659
  0
LWPOLYLINE
  5
7D3
330
36
100
AcDbEntity
  8
WARSTWA_DOMYŚLNA
100
AcDbPolyline
 90
       21
 70
     1
 43
0.0
 10
654.7772999999999
 20
3045.74557659
 10
651.6639
 20
3045.74557659
 10
651.6639
 20
3044.01197659
 10
654.7772999999999
 20
3044.01197659
 42
0.00061238
 10
654.77806709
 20
3031.60416449
 42
0.07278753
 10
655.2551573499999
 20
3028.75687807
 42
0.29645858
 10
658.5133372699999
 20
3026.27007214
 42
0.08757522
 10
661.2414681699999
 20
3026.41428126
 42
0.03313533
 10
661.9593999999999
 20
3026.64047659
 10
661.7471
 20
3028.33867659
 42
-0.11673146
 10
659.04543042
 20
3028.06987358
 42
-0.27796508
 10
657.26653634
 20
3029.66900323
 42
-0.07383394
 10
656.9712912099999
 20
3031.07774261
 42
-0.02193034
 10
656.9355
 20
3031.947376590001
 10
656.9355
 20
3044.01197659
 10
662.1717
 20
3044.01197659
 10
662.1717
 20
3045.74557659
 10
656.9355
 20
3045.74557659
 10
656.9355
 20
3050.02647659
 10
654.7772999999999
 20
3049.24817659
 10
654.7772999999999
 20
3045.74557659
  0
LWPOLYLINE
  5
7EA
330
36
100
AcDbEntity
  8
WARSTWA_DOMYŚLNA
100
AcDbPolyline
 90
       16
 70
     1
 43
0.0
 10
679.0478
 20
3029.04627659
 42
-0.1005634
 10
675.05943707
 20
3028.0200014
 42
-0.08042603
 10
671.8861053399999
 20
3028.22469914
 42
-0.25067948
 10
667.55706665
 20
3032.23531068
 42
-0.07585273
 10
666.95006965
 20
3035.15629017
 42
-0.01799063
 10
666.9126
 20
3036.22837659
 10
680.5692
 20
3036.22837659
 42
0.15385111
 10
679.26590309
 20
3042.90167411
 42
0.25599693
 10
673.7995033299999
 20
3046.19690068
 42
0.30634695
 10
666.05855888
 20
3041.71573458
 42
0.18198319
 10
665.20286281
 20
3032.46162346
 42
0.07799659
 10
666.4060164899999
 20
3029.83267237
 42
0.21913606
 10
672.2811716099999
 20
3026.30551015
 42
0.11147333
 10
678.6413171699999
 20
3026.99999829
 42
0.0317268
 10
679.5784999999999
 20
3027.41877659
 10
679.0478
 20
3029.04627659
  0
LWPOLYLINE
  5
7FC
330
36
100
AcDbEntity
  8
WARSTWA_DOMYŚLNA
100
AcDbPolyline
 90
        6
 70
     1
 43
0.0
 10
667.0186999999999
 20
3037.92657659
 42
-0.14350389
 10
668.8353744099999
 20
3042.48718989
 42
-0.23872143
 10
673.37811387
 20
3044.43636131
 42
-0.30595208
 10
677.8124080799999
 20
3041.27574347
 42
-0.10150027
 10
678.4109999999999
 20
3037.92657659
 10
667.0186999999999
 20
3037.92657659
  0
LWPOLYLINE
  5
804
330
36
100
AcDbEntity
  8
WARSTWA_DOMYŚLNA
100
AcDbPolyline
 90
       14
 70
     1
 43
0.0
 10
693.4474
 20
3046.09937659
 42
0.21374383
 10
689.6901646799999
 20
3045.23300739
 42
0.12653846
 10
687.67980322
 20
3042.81428554
 42
0.03282036
 10
687.3266999999999
 20
3041.95987659
 10
687.1852
 20
3041.95987659
 10
687.1144000000001
 20
3045.74557659
 10
685.1331
 20
3045.74557659
 42
-0.0139672
 10
685.2745999999999
 20
3040.06117659
 10
685.2745999999999
 20
3026.60507659
 10
687.4681999999999
 20
3026.60507659
 10
687.4681999999999
 20
3037.16597659
 42
-0.14736852
 10
688.8410195699999
 20
3042.03298025
 42
-0.30613166
 10
693.4474
 20
3044.01197659
 10
693.4474
 20
3046.09937659
  0
LWPOLYLINE
  5
814
330
36
100
AcDbEntity
  8
WARSTWA_DOMYŚLNA
100
AcDbPolyline
 90
        6
 70
     1
 43
0.0
 10
699.8158
 20
3051.19407659
 42
0.3783705
 10
698.4738996099999
 20
3052.89500289
 42
0.3783705
 10
696.62016809
 20
3051.77360805
 42
0.34621744
 10
697.3521643999999
 20
3049.6429544
 42
0.5307195500000001
 10
699.7835294899999
 20
3050.81332698
 42
0.04345342
 10
699.8158
 20
3051.19407659
  0
LWPOLYLINE
  5
81C
330
36
100
AcDbEntity
  8
WARSTWA_DOMYŚLNA
100
AcDbPolyline
 90
        5
 70
     1
 43
0.0
 10
699.2497
 20
3045.74557659
 10
697.0561
 20
3045.74557659
 10
697.0561
 20
3026.60507659
 10
699.2497
 20
3026.60507659
 10
699.2497
 20
3045.74557659
  0
LWPOLYLINE
  5
823
330
36
100
AcDbEntity
  8
WARSTWA_DOMYŚLNA
100
AcDbPolyline
 90
       21
 70
     1
 43
0.0
 10
717.4703
 20
3038.63417659
 42
0.10352798
 10
716.70694186
 20
3042.86534081
 42
0.23710237
 10
712.92733133
 20
3045.97449329
 42
0.19945467
 10
705.2289
 20
3044.57797659
 10
705.8656999999999
 20
3043.02127659
 42
-0.20368228
 10
712.1318581
 20
3044.26808127
 42
-0.26174337
 10
714.87068212
 20
3041.70208925
 42
-0.07390446
 10
715.2456823
 20
3039.73749678
 42
-0.0183896
 10
715.2766999999999
 20
3038.49267659
 42
0.06247209
 10
709.77244719
 20
3037.93660042
 42
0.08980051
 10
706.35318131
 20
3036.44644698
 42
0.34871563
 10
704.27486302
 20
3029.34920455
 42
0.27010377
 10
708.50794756
 20
3026.23602549
 42
0.23140577
 10
714.5250621999999
 20
3028.21452967
 42
0.05451541
 10
715.3475
 20
3029.25857659
 10
715.4536
 20
3029.25857659
 10
715.7012999999999
 20
3026.60507659
 10
717.7178999999999
 20
3026.60507659
 42
-0.02635543
 10
717.514525
 20
3028.84728909
 42
-0.01134144
 10
717.4703
 20
3031.16907659
 10
717.4703
 20
3038.63417659
  0
LWPOLYLINE
  5
83A
330
36
100
AcDbEntity
  8
WARSTWA_DOMYŚLNA
100
AcDbPolyline
 90
       11
 70
     1
 43
0.0
 10
715.3120999999999
 20
3032.79657659
 42
-0.31062806
 10
711.5353334699999
 20
3028.17933671
 42
-0.06487018
 10
710.16981152
 20
3027.95936471
 42
-0.32356405
 10
706.51227741
 20
3029.92266659
 42
-0.0742205
 10
706.16259548
 20
3031.25474746
 42
-0.21020235
 10
707.1498115699999
 20
3034.611351410001
 42
-0.11667547
 10
709.12141449
 20
3035.91366531
 42
-0.04773039
 10
710.67875271
 20
3036.364031290001
 42
-0.04660126
 10
713.75790256
 20
3036.72779771
 42
-0.01209397
 10
715.3120999999999
 20
3036.75907659
 10
715.3120999999999
 20
3032.79657659
  0
LWPOLYLINE
  5
847
330
36
100
AcDbEntity
  8
WARSTWA_DOMYŚLNA
100
AcDbPolyline
 90
       13
 70
     1
 43
0.0
 10
725.7490999999999
 20
3041.04007659
 10
728.5795
 20
3043.587376590001
 10
728.5795
 20
3045.60407659
 10
725.7490999999999
 20
3043.05667659
 10
725.7490999999999
 20
3054.87357659
 10
723.5556
 20
3054.87357659
 10
723.5556
 20
3041.25227659
 10
720.7605999999999
 20
3038.74037659
 10
720.7605999999999
 20
3036.75907659
 10
723.5556
 20
3039.27107659
 10
723.5556
 20
3026.60507659
 10
725.7490999999999
 20
3026.60507659
 10
725.7490999999999
 20
3041.04007659
  0
LWPOLYLINE
  5
856
330
36
100
AcDbEntity
  8
WARSTWA_DOMYŚLNA
100
AcDbPolyline
 90
       18
 70
     1
 43
0.0
 10
746.694
 20
3045.74557659
 10
744.5003999999999
 20
3045.74557659
 10
744.5003999999999
 20
3033.81077659
 42
-0.49060444
 10
737.46076112
 20
3028.22855858
 42
-0.22079976
 10
734.9263709299999
 20
3030.39796746
 42
-0.07006127
 10
734.34258594
 20
3032.16520315
 42
-0.04950159
 10
734.0988
 20
3034.93697659
 10
734.0988
 20
3045.74557659
 10
731.9052
 20
3045.74557659
 42
0.00083552
 10
731.906233
 20
3033.8765954
 42
0.08799135
 10
732.7068710299999
 20
3029.79296107
 42
0.28279844
 10
737.6065611699999
 20
3026.202983900001
 42
0.29815646
 10
744.6066
 20
3029.85997659
 10
744.7127
 20
3029.85997659
 10
744.8541999999999
 20
3026.60507659
 10
746.8709
 20
3026.60507659
 42
-0.01857525
 10
746.694
 20
3031.41087659
 10
746.694
 20
3045.74557659
  0
LWPOLYLINE
  5
86A
330
36
100
AcDbEntity
  8
WARSTWA_DOMYŚLNA
100
AcDbPolyline
 90
        9
 70
     1
 43
0.0
 10
778.2174999999999
 20
3026.60507659
 10
778.2174999999999
 20
3053.03377659
 10
776.2716
 20
3053.03377659
 10
771.1769
 20
3050.02647659
 10
771.7430000000001
 20
3048.36367659
 10
775.9885
 20
3050.91097659
 10
776.0593
 20
3050.91097659
 10
776.0593
 20
3026.60507659
 10
778.2174999999999
 20
3026.60507659
  0
LWPOLYLINE
  5
875
330
36
100
AcDbEntity
  8
WARSTWA_DOMYŚLNA
100
AcDbPolyline
 90
       14
 70
     1
 43
0.0
 10
795.5181999999999
 20
3026.18047659
 42
0.26726449
 10
801.54496866
 20
3029.55343112
 42
0.08573426
 10
803.19605085
 20
3033.61531256
 42
0.10213509
 10
803.34585931
 20
3045.74024397
 42
0.08689517
 10
801.68668644
 20
3050.122603390001
 42
0.07211217
 10
800.29461398
 20
3051.80392353
 42
0.3373415
 10
792.2163178399999
 20
3052.363074620001
 42
0.09758592
 10
790.25785998
 20
3050.48686404
 42
0.07329241
 10
788.78872353
 20
3047.73596151
 42
0.06266665
 10
787.7309666
 20
3043.03633499
 42
0.07304053
 10
788.0410617199999
 20
3034.27529615
 42
0.06518004
 10
789.4007714199999
 20
3030.30138181
 42
0.09106652
 10
791.43062928
 20
3027.68332474
 42
0.17770862
 10
795.5181999999999
 20
3026.18047659
  0
LWPOLYLINE
  5
885
330
36
100
AcDbEntity
  8
WARSTWA_DOMYŚLNA
100
AcDbPolyline
 90
       14
 70
     1
 43
0.0
 10
795.6242999999999
 20
3027.984876590001
 42
-0.21552569
 10
792.6157855599999
 20
3029.38002101
 42
-0.08098324
 10
791.3699375
 20
3031.25751409
 42
-0.06673685
 10
790.22122031
 20
3035.02989378
 42
-0.09836433
 10
790.43442641
 20
3045.59616005
 42
-0.07275822
 10
791.75704356
 20
3048.95503841
 42
-0.06172127
 10
792.9731387
 20
3050.50302109
 42
-0.41406605
 10
798.98962024
 20
3050.28745411
 42
-0.10622962
 10
800.58714419
 20
3047.54214488
 42
-0.05553278
 10
801.407236
 20
3043.89092023
 42
-0.07713232
 10
801.1394942199999
 20
3034.32843154
 42
-0.0627186
 10
800.0483174299999
 20
3031.04572783
 42
-0.06965567
 10
798.87100048
 20
3029.34949788
 42
-0.20394038
 10
795.6242999999999
 20
3027.984876590001
  0
LWPOLYLINE
  5
895
330
36
100
AcDbEntity
  8
WARSTWA_DOMYŚLNA
100
AcDbPolyline
 90
       33
 70
     1
 43
0.0
 10
843.0333
 20
3037.99737659
 42
0.1028251
 10
842.19890687
 20
3042.65220561
 42
0.33955293
 10
835.8991239099999
 20
3046.1545873
 42
0.23466659
 10
830.9267211699999
 20
3042.88788941
 42
0.02323349
 10
830.5089
 20
3042.13677659
 10
830.4380999999999
 20
3042.13677659
 42
0.21088501
 10
827.2883232099999
 20
3045.74971611
 42
0.22140409
 10
821.9533508099999
 20
3045.4754935
 42
0.12933732
 10
819.50548079
 20
3043.25485723
 42
0.02184355
 10
819.0104999999999
 20
3042.45527659
 10
818.9396999999999
 20
3042.45527659
 10
818.7981999999999
 20
3045.74557659
 10
816.8169
 20
3045.74557659
 42
-0.01379991
 10
816.9584
 20
3041.07537659
 10
816.9584
 20
3026.60507659
 10
819.1165999999999
 20
3026.60507659
 10
819.1165999999999
 20
3038.38657659
 42
-0.31110363
 10
822.9631692199999
 20
3044.12455186
 42
-0.2854636
 10
827.3694053399999
 20
3043.19978244
 42
-0.10789782
 10
828.40569707
 20
3041.553721220001
 42
-0.0698937
 10
828.8506256699999
 20
3039.72826805
 42
-0.03287578
 10
828.9168
 20
3038.56347659
 10
828.9168
 20
3026.60507659
 10
831.075
 20
3026.60507659
 10
831.075
 20
3038.81107659
 42
-0.26920981
 10
833.98081165
 20
3043.80705648
 42
-0.2581173
 10
838.43633048
 20
3043.7840946
 42
-0.13559049
 10
839.9348723399999
 20
3042.195882150001
 42
-0.0882041
 10
840.69239455
 20
3039.95722163
 42
-0.04712031
 10
840.8751999999999
 20
3037.74967659
 10
840.8751999999999
 20
3026.60507659
 10
843.0333
 20
3026.60507659
 10
843.0333
 20
3037.99737659
  0
LWPOLYLINE
  5
8B8
330
36
100
AcDbEntity
  8
WARSTWA_DOMYŚLNA
100
AcDbPolyline
 90
       33
 70
     1
 43
0.0
 10
875.1227999999999
 20
3037.99737659
 42
0.1028251
 10
874.28840687
 20
3042.65220561
 42
0.33955293
 10
867.98862391
 20
3046.1545873
 42
0.23466659
 10
863.01622117
 20
3042.88788941
 42
0.02323349
 10
862.5984
 20
3042.13677659
 10
862.5275999999999
 20
3042.13677659
 42
0.21088501
 10
859.37782321
 20
3045.74971611
 42
0.22140409
 10
854.0428508099999
 20
3045.4754935
 42
0.12933732
 10
851.59498079
 20
3043.25485723
 42
0.02184355
 10
851.1000000000001
 20
3042.45527659
 10
851.0291999999999
 20
3042.45527659
 10
850.8877
 20
3045.74557659
 10
848.9063999999999
 20
3045.74557659
 42
-0.01379991
 10
849.0479
 20
3041.07537659
 10
849.0479
 20
3026.60507659
 10
851.2060999999999
 20
3026.60507659
 10
851.2060999999999
 20
3038.38657659
 42
-0.31110363
 10
855.05266922
 20
3044.12455186
 42
-0.2854636
 10
859.45890534
 20
3043.19978244
 42
-0.10789782
 10
860.49519707
 20
3041.553721220001
 42
-0.0698937
 10
860.94012567
 20
3039.72826805
 42
-0.03287578
 10
861.0063
 20
3038.56347659
 10
861.0063
 20
3026.60507659
 10
863.1645
 20
3026.60507659
 10
863.1645
 20
3038.81107659
 42
-0.26920981
 10
866.07031165
 20
3043.80705648
 42
-0.2581173
 10
870.5258304799999
 20
3043.7840946
 42
-0.13559049
 10
872.0243723400001
 20
3042.195882150001
 42
-0.0882041
 10
872.7818945499999
 20
3039.95722163
 42
-0.04712031
 10
872.9646999999999
 20
3037.74967659
 10
872.9646999999999
 20
3026.60507659
 10
875.1227999999999
 20
3026.60507659
 10
875.1227999999999
 20
3037.99737659
  0
LWPOLYLINE
  5
8DB
330
36
100
AcDbEntity
  8
WARSTWA_DOMYŚLNA
100
AcDbPolyline
 90
       14
 70
     1
 43
0.0
 10
496.3465
 20
3046.09937659
 42
0.21374383
 10
492.58926468
 20
3045.23300739
 42
0.12653846
 10
490.5789032199999
 20
3042.81428554
 42
0.03282036
 10
490.2257999999999
 20
3041.95987659
 10
490.0843
 20
3041.95987659
 10
490.0135
 20
3045.74557659
 10
488.0321999999999
 20
3045.74557659
 42
-0.0139672
 10
488.1737
 20
3040.06117659
 10
488.1737
 20
3026.60507659
 10
490.3673
 20
3026.60507659
 10
490.3673
 20
3037.16597659
 42
-0.14736852
 10
491.74011957
 20
3042.03298025
 42
-0.30613166
 10
496.3465
 20
3044.01197659
 10
496.3465
 20
3046.09937659
  0
LWPOLYLINE
  5
8EB
330
36
100
AcDbEntity
  8
WARSTWA_DOMYŚLNA
100
AcDbPolyline
 90
       18
 70
     1
 43
0.0
 10
514.6024999999999
 20
3045.74557659
 10
512.4089
 20
3045.74557659
 10
512.4089
 20
3033.81077659
 42
-0.49060444
 10
505.3692611199999
 20
3028.22855858
 42
-0.22079976
 10
502.83487093
 20
3030.39796746
 42
-0.07006127
 10
502.2510859399999
 20
3032.16520315
 42
-0.04950159
 10
502.0073
 20
3034.93697659
 10
502.0073
 20
3045.74557659
 10
499.8136999999999
 20
3045.74557659
 42
0.00083552
 10
499.814733
 20
3033.8765954
 42
0.08799135
 10
500.61537103
 20
3029.79296107
 42
0.28279844
 10
505.51506117
 20
3026.202983900001
 42
0.29815646
 10
512.5150999999999
 20
3029.85997659
 10
512.6212
 20
3029.85997659
 10
512.7627
 20
3026.60507659
 10
514.7794
 20
3026.60507659
 42
-0.01857525
 10
514.6024999999999
 20
3031.41087659
 10
514.6024999999999
 20
3045.74557659
  0
LWPOLYLINE
  5
8FF
330
36
100
AcDbEntity
  8
WARSTWA_DOMYŚLNA
100
AcDbPolyline
 90
       17
 70
     1
 43
0.0
 10
522.9874999999999
 20
3042.34907659
 10
522.9874999999999
 20
3054.87357659
 10
520.7939
 20
3054.87357659
 10
520.7939
 20
3031.13367659
 42
-0.01307628
 10
520.6523999999999
 20
3026.60507659
 10
522.5629
 20
3026.60507659
 10
522.7397999999999
 20
3029.93077659
 10
522.846
 20
3029.93077659
 42
0.25471771
 10
528.43604164
 20
3026.21147267
 42
0.31227258
 10
536.4859307999999
 20
3030.61638358
 42
0.09497229
 10
537.68035896
 20
3034.63970514
 42
0.13131196
 10
536.7750952699999
 20
3041.534045240001
 42
0.18457088
 10
532.77238645
 20
3045.59958087
 42
0.10540076
 10
529.7804
 20
3046.20547659
 42
0.23419126
 10
523.860034
 20
3043.595191970001
 42
0.05435973
 10
523.0582
 20
3042.34907659
 10
522.9874999999999
 20
3042.34907659
  0
LWPOLYLINE
  5
912
330
36
100
AcDbEntity
  8
WARSTWA_DOMYŚLNA
100
AcDbPolyline
 90
       10
 70
     1
 43
0.0
 10
522.9874999999999
 20
3037.855876590001
 42
-0.29197953
 10
526.93373135
 20
3043.93287704
 42
-0.2419617
 10
532.2242717499999
 20
3043.57593408
 42
-0.14567343
 10
534.6256349599999
 20
3040.76809808
 42
-0.10374363
 10
535.54683235
 20
3036.57547434
 42
-0.12315068
 10
534.4818640399999
 20
3031.32220918
 42
-0.2027075
 10
530.94673932
 20
3028.26190669
 42
-0.4575523300000001
 10
523.06603168
 20
3033.06874113
 42
-0.0386094
 10
522.9874999999999
 20
3033.99947659
 10
522.9874999999999
 20
3037.855876590001
  0
LWPOLYLINE
  5
91E
330
36
100
AcDbEntity
  8
WARSTWA_DOMYŚLNA
100
AcDbPolyline
 90
        8
 70
     1
 43
0.0
 10
549.9115
 20
3046.20547659
 42
0.30995998
 10
541.8394335199999
 20
3040.74471919
 42
0.09084702
 10
540.9726222799999
 20
3036.62429075
 42
0.12272302
 10
542.0393756
 20
3030.910942150001
 42
0.30885588
 10
550.2186611399999
 20
3026.19611156
 42
0.31341461
 10
558.0625485299999
 20
3032.39708829
 42
0.17659494
 10
557.69304626
 20
3041.23637874
 42
0.30282452
 10
549.9115
 20
3046.20547659
  0
LWPOLYLINE
  5
928
330
36
100
AcDbEntity
  8
WARSTWA_DOMYŚLNA
100
AcDbPolyline
 90
        9
 70
     1
 43
0.0
 10
556.4213999999999
 20
3036.26377659
 42
-0.16504966
 10
554.57200972
 20
3030.39552712
 42
-0.25379753
 10
549.2919490299999
 20
3027.97689743
 42
-0.21057289
 10
545.15322566
 20
3030.21323413
 42
-0.13100605
 10
543.35780057
 20
3034.22828642
 42
-0.17400483
 10
544.5231603199999
 20
3041.40683884
 42
-0.50849039
 10
554.2873167899999
 20
3042.46568896
 42
-0.06837624
 10
555.3300060699999
 20
3040.89429304
 42
-0.11985102
 10
556.4213999999999
 20
3036.26377659
  0
ENDSEC
  0
SECTION
  2
OBJECTS
  0
DICTIONARY
  5
C
330
0
100
AcDbDictionary
281
     1
  3
ACAD_COLOR
350
2F
  3
ACAD_GROUP
350
D
  3
ACAD_LAYOUT
350
2E
  3
ACAD_MATERIAL
350
10
  3
ACAD_MLINESTYLE
350
2B
  3
ACAD_PLOTSETTINGS
350
2D
  3
ACAD_PLOTSTYLENAME
350
E
  3
ACAD_TABLESTYLE
350
30
  3
ACAD_VISUALSTYLE
350
14
  3
AcDbVariableDictionary
350
935
  3
DWGPROPS
350
93A
  0
DICTIONARY
  5
2F
102
{ACAD_REACTORS
330
C
102
}
330
C
100
AcDbDictionary
281
     1
  0
DICTIONARY
  5
D
102
{ACAD_REACTORS
330
C
102
}
330
C
100
AcDbDictionary
281
     1
  0
DICTIONARY
  5
2E
102
{ACAD_REACTORS
330
C
102
}
330
C
100
AcDbDictionary
281
     1
  3
Arkusz1
350
35
  3
Model
350
39
  0
DICTIONARY
  5
10
102
{ACAD_REACTORS
330
C
102
}
330
C
100
AcDbDictionary
281
     1
  3
ByBlock
350
12
  3
ByLayer
350
11
  3
Global
350
13
  0
DICTIONARY
  5
2B
102
{ACAD_REACTORS
330
C
102
}
330
C
100
AcDbDictionary
281
     1
  3
Standard
350
2C
  0
DICTIONARY
  5
2D
102
{ACAD_REACTORS
330
C
102
}
330
C
100
AcDbDictionary
281
     1
  0
ACDBDICTIONARYWDFLT
  5
E
102
{ACAD_REACTORS
330
C
102
}
330
C
100
AcDbDictionary
281
     1
  3
Normal
350
F
100
AcDbDictionaryWithDefault
340
F
  0
DICTIONARY
  5
30
102
{ACAD_REACTORS
330
C
102
}
330
C
100
AcDbDictionary
281
     1
  3
Standard
350
31
  0
DICTIONARY
  5
14
102
{ACAD_REACTORS
330
C
102
}
330
C
100
AcDbDictionary
281
     1
  3
2dWireframe
350
1A
  3
3D Hidden
350
1C
  3
3dWireframe
350
1B
  3
Basic
350
19
  3
Brighten
350
20
  3
ColorChange
350
24
  3
Conceptual
350
1D
  3
Dim
350
1F
  3
Facepattern
350
23
  3
Flat
350
15
  3
FlatWithEdges
350
16
  3
Gouraud
350
17
  3
GouraudWithEdges
350
18
  3
Linepattern
350
22
  3
Realistic
350
1E
  3
Thicken
350
21
  0
DICTIONARY
  5
935
102
{ACAD_REACTORS
330
C
102
}
330
C
100
AcDbDictionary
281
     1
  3
CTABLESTYLE
350
936
  3
DIMASSOC
350
939
  3
INDEXCTL
350
938
  3
SORTENTS
350
937
  0
XRECORD
  5
93A
102
{ACAD_REACTORS
330
C
102
}
330
C
100
AcDbXrecord
280
     1
  1
DWGPROPS COOKIE
  2

  3

  4

  6

  7

  8
MSI-G43
  9

300
=
301
=
302
=
303
=
304
=
305
=
306
=
307
=
308
=
309
=
 40
0.0006212037037037
 41
2456631.708352315
 42
2456631.708973334
  1

 90
        0
  0
LAYOUT
  5
35
102
{ACAD_XDICTIONARY
360
943
102
}
102
{ACAD_REACTORS
330
2E
102
}
330
2E
100
AcDbPlotSettings
  1

  2
C:\Documents and Settings\MSI-G43\Dane aplikacji\Autodesk\AutoCAD 2007\R17.0\plk\plotters\Default Windows System Printer.pc3
  4

  6

 40
0.0
 41
0.0
 42
0.0
 43
0.0
 44
0.0
 45
0.0
 46
0.0
 47
0.0
 48
0.0
 49
0.0
140
0.0
141
0.0
142
1.0
143
1.0
 70
   688
 72
     0
 73
     0
 74
     5
  7

 75
    16
147
1.0
148
0.0
149
0.0
100
AcDbLayout
  1
Arkusz1
 70
     1
 71
     1
 10
0.0
 20
0.0
 11
12.0
 21
9.0
 12
0.0
 22
0.0
 32
0.0
 14
1.000000000000000E+20
 24
1.000000000000000E+20
 34
1.000000000000000E+20
 15
-1.000000000000000E+20
 25
-1.000000000000000E+20
 35
-1.000000000000000E+20
146
0.0
 13
0.0
 23
0.0
 33
0.0
 16
1.0
 26
0.0
 36
0.0
 17
0.0
 27
1.0
 37
0.0
 76
     0
330
32
  0
LAYOUT
  5
39
102
{ACAD_XDICTIONARY
360
945
102
}
102
{ACAD_REACTORS
330
2E
102
}
330
2E
100
AcDbPlotSettings
  1

  2
C:\Documents and Settings\MSI-G43\Dane aplikacji\Autodesk\AutoCAD 2007\R17.0\plk\plotters\Default Windows System Printer.pc3
  4

  6

 40
0.0
 41
0.0
 42
0.0
 43
0.0
 44
0.0
 45
0.0
 46
0.0
 47
0.0
 48
0.0
 49
0.0
140
0.0
141
0.0
142
1.0
143
1.0
 70
  1712
 72
     0
 73
     0
 74
     0
  7

 75
     0
147
1.0
148
0.0
149
0.0
100
AcDbLayout
  1
Model
 70
     1
 71
     0
 10
0.0
 20
0.0
 11
12.0
 21
9.0
 12
0.0
 22
0.0
 32
0.0
 14
0.0
 24
0.0
 34
0.0
 15
0.0
 25
0.0
 35
0.0
146
0.0
 13
0.0
 23
0.0
 33
0.0
 16
1.0
 26
0.0
 36
0.0
 17
0.0
 27
1.0
 37
0.0
 76
     0
330
36
331
3C
  0
MATERIAL
  5
12
102
{ACAD_XDICTIONARY
360
93D
102
}
102
{ACAD_REACTORS
330
10
102
}
330
10
100
AcDbMaterial
  1
ByBlock
  0
MATERIAL
  5
11
102
{ACAD_XDICTIONARY
360
93B
102
}
102
{ACAD_REACTORS
330
10
102
}
330
10
100
AcDbMaterial
  1
ByLayer
  0
MATERIAL
  5
13
102
{ACAD_XDICTIONARY
360
93F
102
}
102
{ACAD_REACTORS
330
10
102
}
330
10
100
AcDbMaterial
  1
Global
  0
MLINESTYLE
  5
2C
102
{ACAD_REACTORS
330
2B
102
}
330
2B
100
AcDbMlineStyle
  2
STANDARD
 70
     0
  3

 62
   256
 51
90.0
 52
90.0
 71
     2
 49
0.5
 62
   256
  6
BYLAYER
 49
-0.5
 62
   256
  6
BYLAYER
  0
ACDBPLACEHOLDER
  5
F
102
{ACAD_REACTORS
330
E
102
}
330
E
  0
TABLESTYLE
  5
31
102
{ACAD_XDICTIONARY
360
941
102
}
102
{ACAD_REACTORS
330
30
102
}
330
30
100
AcDbTableStyle
  3
Standard
 70
     0
 71
     0
 40
0.06
 41
0.06
280
     0
281
     0
  7
Standard
140
0.18
170
     2
 62
     0
 63
     7
283
     0
274
    -2
284
     1
 64
     0
275
    -2
285
     1
 65
     0
276
    -2
286
     1
 66
     0
277
    -2
287
     1
 67
     0
278
    -2
288
     1
 68
     0
279
    -2
289
     1
 69
     0
  7
Standard
140
0.25
170
     5
 62
     0
 63
     7
283
     0
274
    -2
284
     1
 64
     0
275
    -2
285
     1
 65
     0
276
    -2
286
     1
 66
     0
277
    -2
287
     1
 67
     0
278
    -2
288
     1
 68
     0
279
    -2
289
     1
 69
     0
  7
Standard
140
0.18
170
     5
 62
     0
 63
     7
283
     0
274
    -2
284
     1
 64
     0
275
    -2
285
     1
 65
     0
276
    -2
286
     1
 66
     0
277
    -2
287
     1
 67
     0
278
    -2
288
     1
 68
     0
279
    -2
289
     1
 69
     0
  0
VISUALSTYLE
  5
1A
102
{ACAD_REACTORS
330
14
102
}
330
14
100
AcDbVisualStyle
  2
2dWireframe
 70
     4
 71
     0
 72
     2
 73
     0
 90
        0
 40
-0.6
 41
-30.0
 62
     5
 63
     7
 74
     1
 91
        4
 64
     7
 65
   257
 75
     1
175
     1
 42
1.0
 92
        0
 66
   257
 43
1.0
 76
     1
 77
     6
 78
     2
 67
     7
 79
     5
170
     0
171
     0
290
     0
174
     0
 93
        1
 44
0.0
173
     0
291
     0
 45
0.0
1001
ACAD
1000
AcDbSavedByObjectVersion
1070
     0
  0
VISUALSTYLE
  5
1C
102
{ACAD_REACTORS
330
14
102
}
330
14
100
AcDbVisualStyle
  2
3D Hidden
 70
     6
 71
     1
 72
     2
 73
     2
 90
        0
 40
-0.6
 41
-30.0
 62
     5
 63
     7
 74
     2
 91
        2
 64
     7
 65
   257
 75
     2
175
     1
 42
40.0
 92
        0
 66
   257
 43
1.0
 76
     1
 77
     6
 78
     2
 67
     7
 79
     3
170
     0
171
     0
290
     0
174
     0
 93
        1
 44
0.0
173
     0
291
     0
 45
0.0
1001
ACAD
1000
AcDbSavedByObjectVersion
1070
     0
  0
VISUALSTYLE
  5
1B
102
{ACAD_REACTORS
330
14
102
}
330
14
100
AcDbVisualStyle
  2
3dWireframe
 70
     5
 71
     0
 72
     2
 73
     0
 90
        0
 40
-0.6
 41
-30.0
 62
     5
 63
     7
 74
     1
 91
        4
 64
     7
 65
   257
 75
     1
175
     1
 42
1.0
 92
        0
 66
   257
 43
1.0
 76
     1
 77
     6
 78
     2
 67
     7
 79
     5
170
     0
171
     0
290
     0
174
     0
 93
        1
 44
0.0
173
     0
291
     0
 45
0.0
1001
ACAD
1000
AcDbSavedByObjectVersion
1070
     0
  0
VISUALSTYLE
  5
19
102
{ACAD_REACTORS
330
14
102
}
330
14
100
AcDbVisualStyle
  2
Basic
 70
     7
 71
     1
 72
     0
 73
     1
 90
        0
 40
-0.6
 41
-30.0
 62
     5
 63
     7
 74
     0
 91
        4
 64
     7
 65
   257
 75
     1
175
     1
 42
1.0
 92
        8
 66
     7
 43
1.0
 76
     1
 77
     6
 78
     2
 67
     7
 79
     5
170
     0
171
     0
290
     0
174
     0
 93
        1
 44
0.0
173
     0
291
     1
 45
0.0
1001
ACAD
1000
AcDbSavedByObjectVersion
1070
     0
  0
VISUALSTYLE
  5
20
102
{ACAD_REACTORS
330
14
102
}
330
14
100
AcDbVisualStyle
  2
Brighten
 70
    12
 71
     2
 72
     2
 73
     0
 90
        0
 40
-0.6
 41
-30.0
 62
     5
 63
     7
 74
     1
 91
        4
 64
     7
 65
   257
 75
     1
175
     1
 42
1.0
 92
        8
 66
     7
 43
1.0
 76
     1
 77
     6
 78
     2
 67
     7
 79
     5
170
     0
171
     0
290
     0
174
     0
 93
        1
 44
50.0
173
     0
291
     1
 45
0.0
1001
ACAD
1000
AcDbSavedByObjectVersion
1070
     0
  0
VISUALSTYLE
  5
24
102
{ACAD_REACTORS
330
14
102
}
330
14
100
AcDbVisualStyle
  2
ColorChange
 70
    16
 71
     2
 72
     2
 73
     3
 90
        0
 40
-0.6
 41
-30.0
 62
     5
 63
     8
 74
     1
 91
        4
 64
     7
 65
   257
 75
     1
175
     1
 42
1.0
 92
        8
 66
     8
 43
1.0
 76
     1
 77
     6
 78
     2
 67
     7
 79
     5
170
     0
171
     0
290
     0
174
     0
 93
        1
 44
0.0
173
     0
291
     1
 45
0.0
1001
ACAD
1000
AcDbSavedByObjectVersion
1070
     0
  0
VISUALSTYLE
  5
1D
102
{ACAD_REACTORS
330
14
102
}
330
14
100
AcDbVisualStyle
  2
Conceptual
 70
     9
 71
     3
 72
     2
 73
     0
 90
        0
 40
-0.6
 41
-30.0
 62
     5
 63
     7
 74
     2
 91
        2
 64
     7
 65
   257
 75
     1
175
     1
 42
40.0
 92
        8
 66
     7
 43
1.0
 76
     1
 77
     6
 78
     2
 67
     7
 79
     3
170
     0
171
     0
290
     0
174
     0
 93
        1
 44
0.0
173
     0
291
     0
 45
0.0
1001
ACAD
1000
AcDbSavedByObjectVersion
1070
     0
  0
VISUALSTYLE
  5
1F
102
{ACAD_REACTORS
330
14
102
}
330
14
100
AcDbVisualStyle
  2
Dim
 70
    11
 71
     2
 72
     2
 73
     0
 90
        0
 40
-0.6
 41
-30.0
 62
     5
 63
     7
 74
     1
 91
        4
 64
     7
 65
   257
 75
     1
175
     1
 42
1.0
 92
        8
 66
     7
 43
1.0
 76
     1
 77
     6
 78
     2
 67
     7
 79
     5
170
     0
171
     0
290
     0
174
     0
 93
        1
 44
-50.0
173
     0
291
     1
 45
0.0
1001
ACAD
1000
AcDbSavedByObjectVersion
1070
     0
  0
VISUALSTYLE
  5
23
102
{ACAD_REACTORS
330
14
102
}
330
14
100
AcDbVisualStyle
  2
Facepattern
 70
    15
 71
     2
 72
     2
 73
     0
 90
        0
 40
-0.6
 41
-30.0
 62
     5
 63
     7
 74
     1
 91
        4
 64
     7
 65
   257
 75
     1
175
     1
 42
1.0
 92
        8
 66
     7
 43
1.0
 76
     1
 77
     6
 78
     2
 67
     7
 79
     5
170
     0
171
     0
290
     0
174
     0
 93
        1
 44
0.0
173
     0
291
     1
 45
0.0
1001
ACAD
1000
AcDbSavedByObjectVersion
1070
     0
  0
VISUALSTYLE
  5
15
102
{ACAD_REACTORS
330
14
102
}
330
14
100
AcDbVisualStyle
  2
Flat
 70
     0
 71
     2
 72
     1
 73
     1
 90
        2
 40
-0.6
 41
30.0
 62
     5
 63
     7
 74
     0
 91
        4
 64
     7
 65
   257
 75
     1
175
     1
 42
1.0
 92
        8
 66
     7
 43
1.0
 76
     1
 77
     6
 78
     2
 67
     7
 79
     5
170
     0
171
     0
290
     0
174
     0
 93
       13
 44
0.0
173
     0
291
     1
 45
0.0
1001
ACAD
1000
AcDbSavedByObjectVersion
1070
     0
  0
VISUALSTYLE
  5
16
102
{ACAD_REACTORS
330
14
102
}
330
14
100
AcDbVisualStyle
  2
FlatWithEdges
 70
     1
 71
     2
 72
     1
 73
     1
 90
        2
 40
-0.6
 41
30.0
 62
     5
 63
     7
 74
     1
 91
        4
 64
     7
 65
   257
 75
     1
175
     1
 42
1.0
 92
        0
 66
   257
 43
1.0
 76
     1
 77
     6
 78
     2
 67
     7
 79
     5
170
     0
171
     0
290
     0
174
     0
 93
       13
 44
0.0
173
     0
291
     1
 45
0.0
1001
ACAD
1000
AcDbSavedByObjectVersion
1070
     0
  0
VISUALSTYLE
  5
17
102
{ACAD_REACTORS
330
14
102
}
330
14
100
AcDbVisualStyle
  2
Gouraud
 70
     2
 71
     2
 72
     2
 73
     1
 90
        2
 40
-0.6
 41
30.0
 62
     5
 63
     7
 74
     0
 91
        4
 64
     7
 65
   257
 75
     1
175
     1
 42
1.0
 92
        0
 66
     7
 43
1.0
 76
     1
 77
     6
 78
     2
 67
     7
 79
     5
170
     0
171
     0
290
     0
174
     0
 93
       13
 44
0.0
173
     0
291
     1
 45
0.0
1001
ACAD
1000
AcDbSavedByObjectVersion
1070
     0
  0
VISUALSTYLE
  5
18
102
{ACAD_REACTORS
330
14
102
}
330
14
100
AcDbVisualStyle
  2
GouraudWithEdges
 70
     3
 71
     2
 72
     2
 73
     1
 90
        2
 40
-0.6
 41
30.0
 62
     5
 63
     7
 74
     1
 91
        4
 64
     7
 65
   257
 75
     1
175
     1
 42
1.0
 92
        0
 66
   257
 43
1.0
 76
     1
 77
     6
 78
     2
 67
     7
 79
     5
170
     0
171
     0
290
     0
174
     0
 93
       13
 44
0.0
173
     0
291
     1
 45
0.0
1001
ACAD
1000
AcDbSavedByObjectVersion
1070
     0
  0
VISUALSTYLE
  5
22
102
{ACAD_REACTORS
330
14
102
}
330
14
100
AcDbVisualStyle
  2
Linepattern
 70
    14
 71
     2
 72
     2
 73
     0
 90
        0
 40
-0.6
 41
-30.0
 62
     5
 63
     7
 74
     1
 91
        4
 64
     7
 65
   257
 75
     7
175
     7
 42
1.0
 92
        8
 66
     7
 43
1.0
 76
     1
 77
     6
 78
     2
 67
     7
 79
     5
170
     0
171
     0
290
     0
174
     0
 93
        1
 44
0.0
173
     0
291
     1
 45
0.0
1001
ACAD
1000
AcDbSavedByObjectVersion
1070
     0
  0
VISUALSTYLE
  5
1E
102
{ACAD_REACTORS
330
14
102
}
330
14
100
AcDbVisualStyle
  2
Realistic
 70
     8
 71
     2
 72
     2
 73
     0
 90
        0
 40
-0.6
 41
-30.0
 62
     5
 63
     7
 74
     1
 91
        0
 64
     7
 65
   257
 75
     1
175
     1
 42
1.0
 92
        8
 66
     8
 43
1.0
 76
     1
 77
     6
 78
     2
 67
     7
 79
     5
170
     0
171
     0
290
     0
174
     0
 93
       13
 44
0.0
173
     0
291
     0
 45
0.0
1001
ACAD
1000
AcDbSavedByObjectVersion
1070
     0
  0
VISUALSTYLE
  5
21
102
{ACAD_REACTORS
330
14
102
}
330
14
100
AcDbVisualStyle
  2
Thicken
 70
    13
 71
     2
 72
     2
 73
     0
 90
        0
 40
-0.6
 41
-30.0
 62
     5
 63
     7
 74
     1
 91
        4
 64
     7
 65
   257
 75
     1
175
     1
 42
1.0
 92
       12
 66
     7
 43
1.0
 76
     1
 77
     6
 78
     2
 67
     7
 79
     5
170
     0
171
     0
290
     0
174
     0
 93
        1
 44
0.0
173
     0
291
     1
 45
0.0
1001
ACAD
1000
AcDbSavedByObjectVersion
1070
     0
  0
DICTIONARYVAR
  5
936
102
{ACAD_REACTORS
330
935
102
}
330
935
100
DictionaryVariables
280
     0
  1
STANDARD
  0
DICTIONARYVAR
  5
939
102
{ACAD_REACTORS
330
935
102
}
330
935
100
DictionaryVariables
280
     0
  1
1
  0
DICTIONARYVAR
  5
938
102
{ACAD_REACTORS
330
935
102
}
330
935
100
DictionaryVariables
280
     0
  1
0
  0
DICTIONARYVAR
  5
937
102
{ACAD_REACTORS
330
935
102
}
330
935
100
DictionaryVariables
280
     0
  1
127
  0
DICTIONARY
  5
943
330
35
100
AcDbDictionary
280
     1
281
     1
  3
ACAD_XREC_ROUNDTRIP
360
944
  0
DICTIONARY
  5
945
330
39
100
AcDbDictionary
280
     1
281
     1
  3
ACAD_XREC_ROUNDTRIP
360
946
  0
DICTIONARY
  5
93D
330
12
100
AcDbDictionary
280
     1
281
     1
  3
ACAD_XREC_ROUNDTRIP
360
93E
  0
DICTIONARY
  5
93B
330
11
100
AcDbDictionary
280
     1
281
     1
  3
ACAD_XREC_ROUNDTRIP
360
93C
  0
DICTIONARY
  5
93F
330
13
100
AcDbDictionary
280
     1
281
     1
  3
ACAD_XREC_ROUNDTRIP
360
940
  0
DICTIONARY
  5
941
330
31
100
AcDbDictionary
280
     1
281
     1
  3
ACAD_XREC_ROUNDTRIP
360
942
  0
XRECORD
  5
944
102
{ACAD_REACTORS
330
943
102
}
330
943
100
AcDbXrecord
280
     1
102
SHADEPLOT
 70
     0
102
SHADEPLOTRESLEVEL
 70
     2
102
SHADEPLOTCUSTOMDPI
 70
   300
  0
XRECORD
  5
946
102
{ACAD_REACTORS
330
945
102
}
330
945
100
AcDbXrecord
280
     1
102
SHADEPLOT
 70
     0
102
SHADEPLOTRESLEVEL
 70
     2
102
SHADEPLOTCUSTOMDPI
 70
   300
  0
XRECORD
  5
93E
102
{ACAD_REACTORS
330
93D
102
}
330
93D
100
AcDbXrecord
280
     1
102
MATERIAL
148
0.0
149
0.0
149
0.0
 93
        0
 94
       63
282
     0
 72
     1
 77
     1
171
     1
175
     1
179
     1
273
     0
  0
XRECORD
  5
93C
102
{ACAD_REACTORS
330
93B
102
}
330
93B
100
AcDbXrecord
280
     1
102
MATERIAL
148
0.0
149
0.0
149
0.0
 93
        0
 94
       63
282
     0
 72
     1
 77
     1
171
     1
175
     1
179
     1
273
     0
  0
XRECORD
  5
940
102
{ACAD_REACTORS
330
93F
102
}
330
93F
100
AcDbXrecord
280
     1
102
MATERIAL
148
0.0
149
0.0
149
0.0
 93
        0
 94
       63
282
     0
 72
     1
 77
     1
171
     1
175
     1
179
     1
273
     0
  0
XRECORD
  5
942
102
{ACAD_REACTORS
330
941
102
}
330
941
100
AcDbXrecord
280
     1
102
ACAD_ROUNDTRIP_PRE2007_TABLESTYLE
 90
      512
 91
        0
  1

 92
      512
 93
        0
  2

 94
      512
 95
        0
  3

  0
ENDSEC
  0
EOF
